  0
SECTION
  2
HEADER
  9
$ACADVER
  1
AC1015
  9
$ACADMAINTVER
 70
     6
  9
$DWGCODEPAGE
  3
ANSI_1250
  9
$INSBASE
 10
0.0
 20
0.0
 30
0.0
  9
$EXTMIN
 10
0.0
 20
0.0
 30
0.0
  9
$EXTMAX
 10
20000.0
 20
10000.0
 30
0.0
  9
$LIMMIN
 10
0.0
 20
0.0
  9
$LIMMAX
 10
20000.0
 20
10000.0
  9
$ORTHOMODE
 70
     0
  9
$REGENMODE
 70
     1
  9
$FILLMODE
 70
     1
  9
$QTEXTMODE
 70
     0
  9
$MIRRTEXT
 70
     1
  9
$LTSCALE
 40
1.0
  9
$ATTMODE
 70
     1
  9
$TEXTSIZE
 40
2.0
  9
$TRACEWID
 40
1.0
  9
$TEXTSTYLE
  7
Standard
  9
$CLAYER
  8
0
  9
$CELTYPE
  6
ByLayer
  9
$CECOLOR
 62
   256
  9
$CELTSCALE
 40
1.0
  9
$DISPSILH
 70
     0
  9
$DIMSCALE
 40
1.0
  9
$DIMASZ
 40
2.0
  9
$DIMEXO
 40
1.0
  9
$DIMDLI
 40
3.75
  9
$DIMRND
 40
0.0
  9
$DIMDLE
 40
0.0
  9
$DIMEXE
 40
1.0
  9
$DIMTP
 40
0.0
  9
$DIMTM
 40
0.0
  9
$DIMTXT
 40
2.0
  9
$DIMCEN
 40
2.5
  9
$DIMTSZ
 40
0.0
  9
$DIMTOL
 70
     0
  9
$DIMLIM
 70
     0
  9
$DIMTIH
 70
     1
  9
$DIMTOH
 70
     1
  9
$DIMSE1
 70
     0
  9
$DIMSE2
 70
     0
  9
$DIMTAD
 70
     1
  9
$DIMZIN
 70
     0
  9
$DIMBLK
  1

  9
$DIMASO
 70
     1
  9
$DIMSHO
 70
     1
  9
$DIMPOST
  1

  9
$DIMAPOST
  1

  9
$DIMALT
 70
     0
  9
$DIMALTD
 70
     3
  9
$DIMALTF
 40
0.0393700787
  9
$DIMLFAC
 40
1.0
  9
$DIMTOFL
 70
     1
  9
$DIMTVP
 40
0.0
  9
$DIMTIX
 70
     0
  9
$DIMSOXD
 70
     0
  9
$DIMSAH
 70
     0
  9
$DIMBLK1
  1

  9
$DIMBLK2
  1

  9
$DIMSTYLE
  2
ISO-25
  9
$DIMCLRD
 70
     0
  9
$DIMCLRE
 70
     0
  9
$DIMCLRT
 70
     0
  9
$DIMTFAC
 40
1.0
  9
$DIMGAP
 40
1.524
  9
$DIMJUST
 70
     0
  9
$DIMSD1
 70
     0
  9
$DIMSD2
 70
     0
  9
$DIMTOLJ
 70
     0
  9
$DIMTZIN
 70
     0
  9
$DIMALTZ
 70
     0
  9
$DIMALTTZ
 70
     0
  9
$DIMUPT
 70
     0
  9
$DIMDEC
 70
     2
  9
$DIMTDEC
 70
     0
  9
$DIMALTU
 70
     2
  9
$DIMALTTD
 70
     3
  9
$DIMTXSTY
  7
Standard
  9
$DIMAUNIT
 70
     0
  9
$DIMADEC
 70
     2
  9
$DIMALTRND
 40
0.0
  9
$DIMAZIN
 70
     0
  9
$DIMDSEP
 70
    44
  9
$DIMATFIT
 70
     3
  9
$DIMFRAC
 70
     0
  9
$DIMLDRBLK
  1

  9
$DIMLUNIT
 70
     2
  9
$DIMLWD
 70
    -2
  9
$DIMLWE
 70
    -2
  9
$DIMTMOVE
 70
     0
  9
$LUNITS
 70
     2
  9
$LUPREC
 70
     3
  9
$SKETCHINC
 40
1.0
  9
$FILLETRAD
 40
10.0
  9
$AUNITS
 70
     0
  9
$AUPREC
 70
     2
  9
$MENU
  1
.
  9
$ELEVATION
 40
0.0
  9
$PELEVATION
 40
0.0
  9
$THICKNESS
 40
0.0
  9
$LIMCHECK
 70
     0
  9
$CHAMFERA
 40
0.0
  9
$CHAMFERB
 40
0.0
  9
$CHAMFERC
 40
0.0
  9
$CHAMFERD
 40
0.0
  9
$SKPOLY
 70
     0
  9
$TDCREATE
 40
2459811.282633345
  9
$TDUCREATE
 40
2459811.199300012
  9
$TDUPDATE
 40
2459811.282633704
  9
$TDUUPDATE
 40
2459811.19930037
  9
$TDINDWG
 40
0.0000000116
  9
$TDUSRTIMER
 40
0.0000000116
  9
$USRTIMER
 70
     1
  9
$ANGBASE
 50
0.0
  9
$ANGDIR
 70
     0
  9
$PDMODE
 70
     0
  9
$PDSIZE
 40
-1.0
  9
$PLINEWID
 40
0.0
  9
$SPLFRAME
 70
     0
  9
$SPLINETYPE
 70
     6
  9
$SPLINESEGS
 70
     8
  9
$HANDSEED
  5
4BE
  9
$SURFTAB1
 70
     6
  9
$SURFTAB2
 70
     6
  9
$SURFTYPE
 70
     6
  9
$SURFU
 70
     6
  9
$SURFV
 70
     6
  9
$UCSBASE
  2

  9
$UCSNAME
  2

  9
$UCSORG
 10
0.0
 20
0.0
 30
0.0
  9
$UCSXDIR
 10
1.0
 20
0.0
 30
0.0
  9
$UCSYDIR
 10
0.0
 20
1.0
 30
0.0
  9
$UCSORTHOREF
  2

  9
$UCSORTHOVIEW
 70
     0
  9
$UCSORGTOP
 10
0.0
 20
0.0
 30
0.0
  9
$UCSORGBOTTOM
 10
0.0
 20
0.0
 30
0.0
  9
$UCSORGLEFT
 10
0.0
 20
0.0
 30
0.0
  9
$UCSORGRIGHT
 10
0.0
 20
0.0
 30
0.0
  9
$UCSORGFRONT
 10
0.0
 20
0.0
 30
0.0
  9
$UCSORGBACK
 10
0.0
 20
0.0
 30
0.0
  9
$PUCSBASE
  2

  9
$PUCSNAME
  2

  9
$PUCSORG
 10
0.0
 20
0.0
 30
0.0
  9
$PUCSXDIR
 10
1.0
 20
0.0
 30
0.0
  9
$PUCSYDIR
 10
0.0
 20
1.0
 30
0.0
  9
$PUCSORTHOREF
  2

  9
$PUCSORTHOVIEW
 70
     0
  9
$PUCSORGTOP
 10
0.0
 20
0.0
 30
0.0
  9
$PUCSORGBOTTOM
 10
0.0
 20
0.0
 30
0.0
  9
$PUCSORGLEFT
 10
0.0
 20
0.0
 30
0.0
  9
$PUCSORGRIGHT
 10
0.0
 20
0.0
 30
0.0
  9
$PUCSORGFRONT
 10
0.0
 20
0.0
 30
0.0
  9
$PUCSORGBACK
 10
0.0
 20
0.0
 30
0.0
  9
$USERI1
 70
     0
  9
$USERI2
 70
     0
  9
$USERI3
 70
     0
  9
$USERI4
 70
     0
  9
$USERI5
 70
     0
  9
$USERR1
 40
0.0
  9
$USERR2
 40
0.0
  9
$USERR3
 40
0.0
  9
$USERR4
 40
0.0
  9
$USERR5
 40
0.0
  9
$WORLDVIEW
 70
     1
  9
$SHADEDGE
 70
     3
  9
$SHADEDIF
 70
    70
  9
$TILEMODE
 70
     1
  9
$MAXACTVP
 70
    64
  9
$PINSBASE
 10
0.0
 20
0.0
 30
0.0
  9
$PLIMCHECK
 70
     0
  9
$PEXTMIN
 10
1.0000000000E+20
 20
1.0000000000E+20
 30
1.0000000000E+20
  9
$PEXTMAX
 10
-1.0000000000E+20
 20
-1.0000000000E+20
 30
-1.0000000000E+20
  9
$PLIMMIN
 10
0.0
 20
0.0
  9
$PLIMMAX
 10
420.0
 20
297.0
  9
$UNITMODE
 70
     0
  9
$VISRETAIN
 70
     1
  9
$PLINEGEN
 70
     0
  9
$PSLTSCALE
 70
     1
  9
$TREEDEPTH
 70
  3020
  9
$CMLSTYLE
  2
Standard
  9
$CMLJUST
 70
     0
  9
$CMLSCALE
 40
20.0
  9
$PROXYGRAPHICS
 70
     1
  9
$MEASUREMENT
 70
     1
  9
$CELWEIGHT
370
    -1
  9
$ENDCAPS
280
     0
  9
$JOINSTYLE
280
     0
  9
$LWDISPLAY
290
     1
  9
$INSUNITS
 70
     4
  9
$HYPERLINKBASE
  1

  9
$STYLESHEET
  1

  9
$XEDIT
290
     1
  9
$CEPSNTYPE
380
     0
  9
$PSTYLEMODE
290
     1
  9
$FINGERPRINTGUID
  2
{a0e88c80-a672-4472-abc9-b39b18b5d946}
  9
$VERSIONGUID
  2
{FAEB1C32-E019-11D5-929B-00C0DF256EC4}
  9
$EXTNAMES
290
     1
  9
$PSVPSCALE
 40
0.0
  9
$OLESTARTUP
290
     0
  0
ENDSEC
  0
SECTION
  2
CLASSES
  0
CLASS
  1
ACDBDICTIONARYWDFLT
  2
AcDbDictionaryWithDefault
  3
ObjectDBX Classes
 90
        0
280
     0
281
     0
  0
CLASS
  1
VISUALSTYLE
  2
AcDbVisualStyle
  3
ObjectDBX Classes
 90
     4095
280
     0
281
     0
  0
CLASS
  1
MATERIAL
  2
AcDbMaterial
  3
ObjectDBX Classes
 90
     1153
280
     0
281
     0
  0
CLASS
  1
SCALE
  2
AcDbScale
  3
ObjectDBX Classes
 90
     1153
280
     0
281
     0
  0
CLASS
  1
TABLESTYLE
  2
AcDbTableStyle
  3
ObjectDBX Classes
 90
     4095
280
     0
281
     0
  0
CLASS
  1
MLEADERSTYLE
  2
AcDbMLeaderStyle
  3
ACDB_MLEADERSTYLE_CLASS
 90
     4095
280
     0
281
     0
  0
CLASS
  1
SUN
  2
AcDbSun
  3
SCENEOE
 90
     1153
280
     0
281
     0
  0
CLASS
  1
ACDBPLACEHOLDER
  2
AcDbPlaceHolder
  3
ObjectDBX Classes
 90
        0
280
     0
281
     0
  0
CLASS
  1
LAYOUT
  2
AcDbLayout
  3
ObjectDBX Classes
 90
        0
280
     0
281
     0
  0
ENDSEC
  0
SECTION
  2
TABLES
  0
TABLE
  2
VPORT
  5
8
330
0
100
AcDbSymbolTable
 70
     1
  0
VPORT
  5
29
330
8
100
AcDbSymbolTableRecord
100
AcDbViewportTableRecord
  2
*Active
 70
     0
 10
0.0
 20
0.0
 11
1.0
 21
1.0
 12
10000.0
 22
5000.0
 13
0.0
 23
0.0
 14
10.0
 24
10.0
 15
10.0
 25
10.0
 16
0.0
 26
0.0
 36
1.0
 17
0.0
 27
0.0
 37
0.0
 40
10000.0
 41
2.0
 42
50.0
 43
0.0
 44
0.0
 50
0.0
 51
0.0
 71
     0
 72
  2000
 73
     1
 74
     3
 75
     0
 76
     0
 77
     0
 78
     0
281
     0
 65
     1
110
0.0
120
0.0
130
0.0
111
1.0
121
0.0
131
0.0
112
0.0
122
1.0
132
0.0
 79
     0
146
0.0
  0
ENDTAB
  0
TABLE
  2
LTYPE
  5
5
330
0
100
AcDbSymbolTable
 70
     6
  0
LTYPE
  5
14
330
5
100
AcDbSymbolTableRecord
100
AcDbLinetypeTableRecord
  2
ByBlock
 70
     0
  3

 72
    65
 73
     0
 40
0.0
  0
LTYPE
  5
15
330
5
100
AcDbSymbolTableRecord
100
AcDbLinetypeTableRecord
  2
ByLayer
 70
     0
  3

 72
    65
 73
     0
 40
0.0
  0
LTYPE
  5
16
330
5
100
AcDbSymbolTableRecord
100
AcDbLinetypeTableRecord
  2
Continuous
 70
     0
  3
Solid line
 72
    65
 73
     0
 40
0.0
  0
LTYPE
  5
6E
330
5
100
AcDbSymbolTableRecord
100
AcDbLinetypeTableRecord
  2
HIDDEN
 70
     0
  3
Hidden __ __ __ __ __ __ __ __ __ __ __ __ __ __
 72
    65
 73
     2
 40
1.905
 49
1.27
 74
     0
 49
-0.635
 74
     0
  0
LTYPE
  5
6F
330
5
100
AcDbSymbolTableRecord
100
AcDbLinetypeTableRecord
  2
PHANTOM
 70
     0
  3
Phantom ______  __  __  ______  __  __  ______
 72
    65
 73
     6
 40
12.7
 49
6.35
 74
     0
 49
-1.27
 74
     0
 49
1.27
 74
     0
 49
-1.27
 74
     0
 49
1.27
 74
     0
 49
-1.27
 74
     0
  0
LTYPE
  5
70
330
5
100
AcDbSymbolTableRecord
100
AcDbLinetypeTableRecord
  2
CENTER
 70
     0
  3
Center ____ _ ____ _ ____ _ ____ _ ____ _ ____
 72
    65
 73
     4
 40
10.16
 49
6.35
 74
     0
 49
-1.27
 74
     0
 49
1.27
 74
     0
 49
-1.27
 74
     0
  0
LTYPE
  5
71
330
5
100
AcDbSymbolTableRecord
100
AcDbLinetypeTableRecord
  2
CENTERX2
 70
     0
  3
Center (2x) ________  __  ________  __  _____
 72
    65
 73
     4
 40
20.32
 49
12.7
 74
     0
 49
-2.54
 74
     0
 49
2.54
 74
     0
 49
-2.54
 74
     0
  0
LTYPE
  5
72
330
5
100
AcDbSymbolTableRecord
100
AcDbLinetypeTableRecord
  2
DOT2
 70
     0
  3
Dot (.5x) ........................................
 72
    65
 73
     2
 40
0.635
 49
0.0
 74
     0
 49
-0.635
 74
     0
  0
ENDTAB
  0
TABLE
  2
LAYER
  5
2
330
0
100
AcDbSymbolTable
 70
    13
  0
LAYER
  5
10
330
2
100
AcDbSymbolTableRecord
100
AcDbLayerTableRecord
  2
0
 70
     0
 62
     7
  6
Continuous
370
    -3
390
F
  0
LAYER
  5
73
330
2
100
AcDbSymbolTableRecord
100
AcDbLayerTableRecord
  2
FORMAT
 70
     0
 62
     7
  6
Continuous
370
    -3
390
F
  0
LAYER
  5
74
330
2
100
AcDbSymbolTableRecord
100
AcDbLayerTableRecord
  2
OSA
 70
     0
 62
     7
  6
CENTER
370
    -3
390
F
  0
LAYER
  5
75
330
2
100
AcDbSymbolTableRecord
100
AcDbLayerTableRecord
  2
0_35
 70
     0
 62
     7
  6
Continuous
370
    35
390
F
  0
LAYER
  5
76
330
2
100
AcDbSymbolTableRecord
100
AcDbLayerTableRecord
  2
0_5
 70
     0
 62
     7
  6
Continuous
370
    50
390
F
  0
LAYER
  5
77
330
2
100
AcDbSymbolTableRecord
100
AcDbLayerTableRecord
  2
0_25
 70
     0
 62
     7
  6
Continuous
370
    25
390
F
  0
LAYER
  5
78
330
2
100
AcDbSymbolTableRecord
100
AcDbLayerTableRecord
  2
0_18
 70
     0
 62
     7
  6
Continuous
370
    -3
390
F
  0
LAYER
  5
79
330
2
100
AcDbSymbolTableRecord
100
AcDbLayerTableRecord
  2
SLD-0
 70
     0
 62
   179
  6
Continuous
370
    -3
390
F
  0
LAYER
  5
7A
330
2
100
AcDbSymbolTableRecord
100
AcDbLayerTableRecord
  2
KOTY
 70
     0
 62
     7
  6
Continuous
370
    -3
390
F
  0
LAYER
  5
7B
330
2
100
AcDbSymbolTableRecord
100
AcDbLayerTableRecord
  2
SILNA
 70
     0
 62
   179
  6
Continuous
370
    -3
390
F
  0
LAYER
  5
7C
330
2
100
AcDbSymbolTableRecord
100
AcDbLayerTableRecord
  2
0_18_1
 70
     0
 62
   179
  6
Continuous
370
    -3
390
F
  0
LAYER
  5
7D
330
2
100
AcDbSymbolTableRecord
100
AcDbLayerTableRecord
  2
0_35_1
 70
     0
 62
   179
  6
Continuous
370
    35
390
F
  0
LAYER
  5
7E
330
2
100
AcDbSymbolTableRecord
100
AcDbLayerTableRecord
  2
0_5_1
 70
     0
 62
   179
  6
Continuous
370
    50
390
F
  0
ENDTAB
  0
TABLE
  2
STYLE
  5
3
330
0
100
AcDbSymbolTable
 70
     1
  0
STYLE
  5
11
330
3
100
AcDbSymbolTableRecord
100
AcDbTextStyleTableRecord
  2
Standard
 70
     0
 40
0.0
 41
1.0
 50
0.0
 71
     0
 42
2.0
  3
txt
  4

  0
ENDTAB
  0
TABLE
  2
VIEW
  5
6
330
0
100
AcDbSymbolTable
 70
     0
  0
ENDTAB
  0
TABLE
  2
UCS
  5
7
330
0
100
AcDbSymbolTable
 70
     0
  0
ENDTAB
  0
TABLE
  2
APPID
  5
9
330
0
100
AcDbSymbolTable
 70
     1
  0
APPID
  5
12
330
9
100
AcDbSymbolTableRecord
100
AcDbRegAppTableRecord
  2
ACAD
 70
     0
  0
ENDTAB
  0
TABLE
  2
DIMSTYLE
  5
A
330
0
100
AcDbSymbolTable
 70
     1
100
AcDbDimStyleTable
  0
DIMSTYLE
105
27
330
A
100
AcDbSymbolTableRecord
100
AcDbDimStyleTableRecord
  2
ISO-25
 70
     0
 41
2.5
 42
0.625
 43
3.75
 44
1.25
 73
     0
 74
     0
 77
     1
 78
     8
140
2.5
141
2.5
143
0.0393700787
147
0.625
171
     3
172
     1
178
     0
271
     2
272
     2
274
     3
278
    44
283
     0
284
     8
340
11
  0
ENDTAB
  0
TABLE
  2
BLOCK_RECORD
  5
1
330
0
100
AcDbSymbolTable
 70
     1
  0
BLOCK_RECORD
  5
1F
330
1
100
AcDbSymbolTableRecord
100
AcDbBlockTableRecord
  2
*Model_Space
340
22
  0
BLOCK_RECORD
  5
1B
330
1
100
AcDbSymbolTableRecord
100
AcDbBlockTableRecord
  2
*Paper_Space
340
1E
  0
BLOCK_RECORD
  5
23
330
1
100
AcDbSymbolTableRecord
100
AcDbBlockTableRecord
  2
*Paper_Space0
340
26
  0
ENDTAB
  0
ENDSEC
  0
SECTION
  2
BLOCKS
  0
BLOCK
  5
20
330
1F
100
AcDbEntity
  8
0
100
AcDbBlockBegin
  2
*Model_Space
 70
     0
 10
0.0
 20
0.0
 30
0.0
  3
*Model_Space
  1

  0
ENDBLK
  5
21
330
1F
100
AcDbEntity
  8
0
100
AcDbBlockEnd
  0
BLOCK
  5
1C
330
1B
100
AcDbEntity
 67
     1
  8
0
100
AcDbBlockBegin
  2
*Paper_Space
 70
     0
 10
0.0
 20
0.0
 30
0.0
  3
*Paper_Space
  1

  0
ENDBLK
  5
1D
330
1B
100
AcDbEntity
 67
     1
  8
0
100
AcDbBlockEnd
  0
BLOCK
  5
24
330
23
100
AcDbEntity
  8
0
100
AcDbBlockBegin
  2
*Paper_Space0
 70
     0
 10
0.0
 20
0.0
 30
0.0
  3
*Paper_Space0
  1

  0
ENDBLK
  5
25
330
23
100
AcDbEntity
  8
0
100
AcDbBlockEnd
  0
ENDSEC
  0
SECTION
  2
ENTITIES
  0
LWPOLYLINE
  5
7F
330
1F
100
AcDbEntity
  8
0
  6
Continuous
 62
     7
370
    25
100
AcDbPolyline
 90
       14
 70
   128
 43
0.0
 10
6205.436501078
 20
5806.8494545933
 10
6205.7685569896
 20
5806.8323050335
 10
6206.59749511
 20
5806.6424094259
 10
6207.4166355445
 20
5806.257094293
 10
6208.2612816688
 20
5805.6592190693
 10
6209.2016176409
 20
5804.7418114078
 10
6210.1045123289
 20
5803.5722605677
 10
6210.9430889395
 20
5802.1597999889
 10
6211.6871191774
 20
5800.5261125476
 10
6212.3095169274
 20
5798.7005751796
 10
6212.7874034971
 20
5796.7193228614
 10
6213.1028181835
 20
5794.6248651092
 10
6213.2436613994
 20
5792.4641258183
 10
6213.2508702902
 20
5791.8494545932
  0
LWPOLYLINE
  5
80
330
1F
100
AcDbEntity
  8
0
  6
Continuous
 62
     7
370
    25
100
AcDbPolyline
 90
       15
 70
   128
 43
0.0
 10
6223.2508702902
 20
5791.8494545931
 10
6223.2184942117
 20
5793.3800268173
 10
6222.9895098161
 20
5796.1827656145
 10
6222.5417314299
 20
5798.9374753555
 10
6221.8769899479
 20
5801.6118500722
 10
6220.9977161668
 20
5804.1749043059
 10
6219.9070869293
 20
5806.5953242706
 10
6218.6096953478
 20
5808.840538722
 10
6217.11446407
 20
5810.8742363017
 10
6215.4381003998
 20
5812.6573374879
 10
6213.6068308886
 20
5814.1527496041
 10
6211.6569120938
 20
5815.3303943388
 10
6209.6299913915
 20
5816.1729629458
 10
6207.5664465798
 20
5816.6770346713
 10
6205.4365010781
 20
5816.8494545933
  0
LINE
  5
81
330
1F
100
AcDbEntity
  8
0
  6
Continuous
 62
     7
370
    25
100
AcDbLine
 10
6223.2508702901
 20
5771.8494545931
 30
0.0
 11
6223.2508702902
 21
5791.8494545931
 31
0.0
  0
LINE
  5
82
330
1F
100
AcDbEntity
  8
0
  6
Continuous
 62
     7
370
    25
100
AcDbLine
 10
6213.2508702902
 20
5791.8494545932
 30
0.0
 11
6213.2508702901
 21
5771.8494545932
 31
0.0
  0
LINE
  5
83
330
1F
100
AcDbEntity
  8
0
  6
Continuous
 62
     7
370
    25
100
AcDbLine
 10
6205.4365010781
 20
5816.8494545933
 30
0.0
 11
6170.1969857439
 21
5816.8494545936
 31
0.0
  0
LINE
  5
84
330
1F
100
AcDbEntity
  8
0
  6
Continuous
 62
     7
370
    25
100
AcDbLine
 10
6170.1969857438
 20
5806.8494545936
 30
0.0
 11
6205.436501078
 21
5806.8494545933
 31
0.0
  0
LWPOLYLINE
  5
85
330
1F
100
AcDbEntity
  8
0
  6
Continuous
 62
     7
370
    25
100
AcDbPolyline
 90
       14
 70
   128
 43
0.0
 10
6162.3826165313
 20
5791.8494545937
 10
6162.4060377848
 20
5792.9569236256
 10
6162.5875941527
 20
5795.1102748268
 10
6162.9428851711
 20
5797.1899562641
 10
6163.4583801644
 20
5799.1461797609
 10
6164.1137150161
 20
5800.9343627646
 10
6164.8817679849
 20
5802.515660793
 10
6165.7292726989
 20
5803.8594717833
 10
6166.6184598136
 20
5804.9464078952
 10
6167.5087676304
 20
5805.7698689639
 10
6168.3646115763
 20
5806.3407445889
 10
6169.1709506691
 20
5806.6873228572
 10
6169.9576034332
 20
5806.8405361144
 10
6170.1969857438
 20
5806.8494545936
  0
LWPOLYLINE
  5
86
330
1F
100
AcDbEntity
  8
0
  6
Continuous
 62
     7
370
    25
100
AcDbPolyline
 90
       16
 70
   128
 43
0.0
 10
6170.1969857439
 20
5816.8494545936
 10
6168.8387999228
 20
5816.7795185838
 10
6166.8310490448
 20
5816.4161599802
 10
6164.8878218719
 20
5815.7541240248
 10
6163.0229336272
 20
5814.8029413066
 10
6161.2494005302
 20
5813.568761157
 10
6159.5829094167
 20
5812.0574410164
 10
6158.0432824694
 20
5810.2792917488
 10
6156.6532720537
 20
5808.2531942659
 10
6155.4351126802
 20
5806.0073593189
 10
6154.4071066085
 20
5803.5763840438
 10
6153.5826748698
 20
5800.9987465469
 10
6152.9695759523
 20
5798.3104049045
 10
6152.5723197836
 20
5795.5453589423
 10
6152.3934884122
 20
5792.73668903
 10
6152.3826165313
 20
5791.8494545938
  0
ARC
  5
87
330
1F
100
AcDbEntity
  8
0
  6
Continuous
 62
     7
370
    25
100
AcDbCircle
 10
6157.4368589533
 20
5553.8494545937
 30
0.0
 40
9.074242424242128
100
AcDbArc
 50
129.5189414699
 51
154.6188160361
  0
ARC
  5
88
330
1F
100
AcDbEntity
  8
0
  6
Continuous
 62
     7
370
    25
100
AcDbCircle
 10
6157.3283741049
 20
5553.8494545937
 30
0.0
 40
9.074242424242351
100
AcDbArc
 50
25.3926786041
 51
50.4810585291
  0
LINE
  5
89
330
1F
100
AcDbEntity
  8
0
  6
Continuous
 62
     7
370
    25
100
AcDbLine
 10
6152.3826165313
 20
5791.8494545938
 30
0.0
 11
6152.3826165292
 21
5560.8494545938
 31
0.0
  0
LINE
  5
8A
330
1F
100
AcDbEntity
  8
0
  6
Continuous
 62
     7
370
    25
100
AcDbLine
 10
6162.3826165292
 20
5560.8494545937
 30
0.0
 11
6162.3826165313
 21
5791.8494545937
 31
0.0
  0
LINE
  5
8B
330
1F
100
AcDbEntity
  8
0
  6
Continuous
 62
     7
370
    25
100
AcDbLine
 10
6165.932874221
 20
5548.8494545936
 30
0.0
 11
6165.932874221
 21
5555.0925289294
 31
0.0
  0
LINE
  5
8C
330
1F
100
AcDbEntity
  8
0
  6
Continuous
 62
     7
370
    25
100
AcDbLine
 10
6148.8323588372
 20
5555.0925289296
 30
0.0
 11
6148.8323588372
 21
5548.8494545938
 31
0.0
  0
LINE
  5
8D
330
1F
100
AcDbEntity
  8
0
  6
Continuous
 62
     7
370
    25
100
AcDbLine
 10
6134.4498769864
 20
5517.0494545926
 30
0.0
 11
6134.4498769863
 21
5516.0494545926
 31
0.0
  0
LINE
  5
8E
330
1F
100
AcDbEntity
  8
0
  6
Continuous
 62
     7
370
    25
100
AcDbLine
 10
6168.919275217
 20
5516.0494545936
 30
0.0
 11
6168.919275217
 21
5517.0494545936
 31
0.0
  0
LINE
  5
8F
330
1F
100
AcDbEntity
  8
0
  6
Continuous
 62
     7
370
    25
100
AcDbLine
 10
6123.6766974085
 20
5543.9578275004
 30
0.0
 11
6134.4498769864
 21
5517.0494545939
 31
0.0
  0
LINE
  5
90
330
1F
100
AcDbEntity
  8
0
  6
Continuous
 62
     7
370
    25
100
AcDbLine
 10
6168.919275217
 20
5517.0494545936
 30
0.0
 11
6168.5891676229
 21
5517.8739705296
 31
0.0
  0
LINE
  5
91
330
1F
100
AcDbEntity
  8
0
  6
Continuous
 62
     7
370
    25
100
AcDbLine
 10
6123.4525340744
 20
5545.1903405872
 30
0.0
 11
6123.4827390692
 21
5545.1148970046
 31
0.0
  0
LINE
  5
92
330
1F
100
AcDbEntity
  8
0
  6
Continuous
 62
     7
370
    25
100
AcDbLine
 10
6116.4014905559
 20
5561.4566321354
 30
0.0
 11
6119.7967811082
 21
5552.9761511738
 31
0.0
  0
LINE
  5
93
330
1F
100
AcDbEntity
  8
0
  6
Continuous
 62
     7
370
    25
100
AcDbLine
 10
6149.9684711691
 20
5565.0558497986
 30
0.0
 11
6146.5731806169
 21
5573.5363307602
 31
0.0
  0
LWPOLYLINE
  5
94
330
1F
100
AcDbEntity
  8
0
  6
Continuous
 62
     7
370
    25
100
AcDbPolyline
 90
        8
 70
   128
 43
0.0
 10
6146.5781566608
 20
5573.425815721
 10
6146.4763604973
 20
5573.7598541268
 10
6145.8460040027
 20
5574.7454577629
 10
6144.9982521628
 20
5575.5406913814
 10
6143.9381527926
 20
5576.1698950433
 10
6142.6335744863
 20
5576.6428920032
 10
6141.0669464587
 20
5576.9427876441
 10
6139.230216594
 20
5577.047830963
  0
LWPOLYLINE
  5
95
330
1F
100
AcDbEntity
  8
0
  6
Continuous
 62
     7
370
    25
100
AcDbPolyline
 90
       18
 70
   128
 43
0.0
 10
6139.230216594
 20
5577.047830963
 10
6138.2505316815
 20
5577.0221855807
 10
6136.2732129413
 20
5576.8322145667
 10
6134.2175981082
 20
5576.4683951301
 10
6132.1183818004
 20
5575.9436812656
 10
6130.0099881891
 20
5575.2708821695
 10
6127.9284854697
 20
5574.4637012726
 10
6125.910503965
 20
5573.5369800252
 10
6123.9931428503
 20
5572.5070473427
 10
6122.2105969946
 20
5571.3899540997
 10
6120.594049613
 20
5570.200307791
 10
6119.1716277822
 20
5568.9492178878
 10
6117.9696521281
 20
5567.6410762069
 10
6117.018184359
 20
5566.2704950769
 10
6116.4217100036
 20
5564.9945396197
 10
6116.1257322158
 20
5563.7780502973
 10
6116.1112539651
 20
5562.6250347356
 10
6116.3666802354
 20
5561.5498088801
  0
LINE
  5
96
330
1F
100
AcDbEntity
  8
0
  6
Continuous
 62
     7
370
    25
100
AcDbLine
 10
6149.380262596
 20
5559.1262520938
 30
0.0
 11
6147.4154820101
 21
5564.0337214534
 31
0.0
  0
LINE
  5
97
330
1F
100
AcDbEntity
  8
0
  6
Continuous
 62
     7
370
    25
100
AcDbLine
 10
6122.3497702672
 20
5553.998279519
 30
0.0
 11
6124.314550853
 21
5549.0908101594
 31
0.0
  0
LINE
  5
98
330
1F
100
AcDbEntity
  8
0
  6
Continuous
 62
     7
370
    25
100
AcDbLine
 10
6099.6628193692
 20
5499.5494545942
 30
0.0
 11
6095.9910304335
 21
5499.2282146875
 31
0.0
  0
LINE
  5
99
330
1F
100
AcDbEntity
  8
0
  6
Continuous
 62
     7
370
    25
100
AcDbLine
 10
6095.9910304334
 20
5489.870694501
 30
0.0
 11
6099.6628193691
 21
5489.5494545942
 31
0.0
  0
ARC
  5
9A
330
1F
100
AcDbEntity
  8
0
  6
Continuous
 62
     7
370
    25
100
AcDbCircle
 10
6096.0128193691
 20
5490.1197431755
 30
0.0
 40
0.2499999999999558
100
AcDbArc
 50
179.9999999994
 51
264.9999999997
  0
ARC
  5
9B
330
1F
100
AcDbEntity
  8
0
  6
Continuous
 62
     7
370
    25
100
AcDbCircle
 10
6096.0128193692
 20
5498.979166013
 30
0.0
 40
0.250000000000624
100
AcDbArc
 50
94.9999999996
 51
179.9999999994
  0
LINE
  5
9C
330
1F
100
AcDbEntity
  8
0
  6
Continuous
 62
     7
370
    25
100
AcDbLine
 10
6449.6628193691
 20
5491.049454591
 30
0.0
 11
6452.0802505177
 21
5491.2609524114
 31
0.0
  0
LINE
  5
9D
330
1F
100
AcDbEntity
  8
0
  6
Continuous
 62
     7
370
    25
100
AcDbLine
 10
6452.0802505177
 20
5497.8379567707
 30
0.0
 11
6449.6628193692
 21
5498.049454591
 31
0.0
  0
ARC
  5
9E
330
1F
100
AcDbEntity
  8
0
  6
Continuous
 62
     7
370
    25
100
AcDbCircle
 10
6452.0628193691
 20
5491.460191351
 30
0.0
 40
0.2000000000007276
100
AcDbArc
 50
274.9999999995
 51
359.9999999995
  0
ARC
  5
9F
330
1F
100
AcDbEntity
  8
0
  6
Continuous
 62
     7
370
    25
100
AcDbCircle
 10
6452.0628193692
 20
5497.638717831
 30
0.0
 40
0.2000000000007276
100
AcDbArc
 50
359.9999999995
 51
84.9999999997
  0
ARC
  5
A0
330
1F
100
AcDbEntity
  8
0
  6
Continuous
 62
     7
370
    25
100
AcDbCircle
 10
6413.9392186777
 20
4623.0887890641
 30
0.0
 40
12.5601953395253
100
AcDbArc
 50
273.3026742176
 51
320.2033747497
  0
ARC
  5
A1
330
1F
100
AcDbEntity
  8
0
  6
Continuous
 62
     7
370
    25
100
AcDbCircle
 10
6395.3864200449
 20
4623.0887890641
 30
0.0
 40
12.56019533952525
100
AcDbArc
 50
219.7966252483
 51
266.6973257824
  0
ARC
  5
A2
330
1F
100
AcDbEntity
  8
0
  6
Continuous
 62
     7
370
    25
100
AcDbCircle
 10
6153.9392186777
 20
4623.0887890665
 30
0.0
 40
12.5601953395253
100
AcDbArc
 50
273.3026742176
 51
320.2033747497
  0
ARC
  5
A3
330
1F
100
AcDbEntity
  8
0
  6
Continuous
 62
     7
370
    25
100
AcDbCircle
 10
6135.3864200449
 20
4623.0887890665
 30
0.0
 40
12.56019533952541
100
AcDbArc
 50
219.7966252483
 51
266.6973257824
  0
ARC
  5
A4
330
1F
100
AcDbEntity
  8
0
  6
Continuous
 62
     7
370
    25
100
AcDbCircle
 10
6283.9392186777
 20
4623.0887890653
 30
0.0
 40
12.56019533952488
100
AcDbArc
 50
273.3026742176
 51
320.2033747497
  0
ARC
  5
A5
330
1F
100
AcDbEntity
  8
0
  6
Continuous
 62
     7
370
    25
100
AcDbCircle
 10
6265.3864200449
 20
4623.0887890653
 30
0.0
 40
12.56019533952541
100
AcDbArc
 50
219.7966252483
 51
266.6973257824
  0
LINE
  5
A6
330
1F
100
AcDbEntity
  8
0
  6
Continuous
 62
     7
370
    25
100
AcDbLine
 10
6449.6628193694
 20
5548.0494545926
 30
0.0
 11
6421.0654752633
 21
5548.0494545926
 31
0.0
  0
LINE
  5
A7
330
1F
100
AcDbEntity
  8
0
  6
Continuous
 62
     7
370
    25
100
AcDbLine
 10
6379.4934452182
 20
5548.0494545926
 30
0.0
 11
6168.5891676232
 21
5548.0494545926
 31
0.0
  0
LINE
  5
A8
330
1F
100
AcDbEntity
  8
0
  6
Continuous
 62
     7
370
    25
100
AcDbLine
 10
6123.7162050854
 20
5548.0494545926
 30
0.0
 11
6101.6628193694
 21
5548.0494545926
 31
0.0
  0
ARC
  5
A9
330
1F
100
AcDbEntity
  8
0
  6
Continuous
 62
     7
370
    25
100
AcDbCircle
 10
6382.1532567082
 20
5546.636380669
 30
0.0
 40
3.055317190741802
100
AcDbArc
 50
125.3269081693
 51
172.9421084656
  0
LINE
  5
AA
330
1F
100
AcDbEntity
  8
0
  6
Continuous
 62
     7
370
    25
100
AcDbLine
 10
6379.0935341283
 20
5546.8979281597
 30
0.0
 11
6379.093534128
 21
5516.0494545917
 31
0.0
  0
LINE
  5
AB
330
1F
100
AcDbEntity
  8
0
  6
Continuous
 62
     7
370
    25
100
AcDbLine
 10
6393.4960964364
 20
5551.093591979
 30
0.0
 11
6393.215109027
 21
5552.0029327051
 31
0.0
  0
LINE
  5
AC
330
1F
100
AcDbEntity
  8
0
  6
Continuous
 62
     7
370
    25
100
AcDbLine
 10
6380.7945604997
 20
5548.1649678433
 30
0.0
 11
6381.0755479091
 21
5547.2556271172
 31
0.0
  0
ARC
  5
AD
330
1F
100
AcDbEntity
  8
0
  6
Continuous
 62
     7
370
    25
100
AcDbCircle
 10
6396.7675628824
 20
5578.2193011226
 30
0.0
 40
0.9999999999998461
100
AcDbArc
 50
17.1712137259
 51
89.9999999995
  0
LINE
  5
AE
330
1F
100
AcDbEntity
  8
0
  6
Continuous
 62
     7
370
    25
100
AcDbLine
 10
6404.4281205521
 20
5556.8151634523
 30
0.0
 11
6397.7229896922
 21
5578.5145291889
 31
0.0
  0
LWPOLYLINE
  5
AF
330
1F
100
AcDbEntity
  8
0
  6
Continuous
 62
     7
370
    25
100
AcDbPolyline
 90
        8
 70
   128
 43
0.0
 10
6413.3562764733
 20
5522.3263955981
 10
6413.6287370684
 20
5523.2585128582
 10
6415.8711688623
 20
5530.8443839118
 10
6418.056918689
 20
5538.1038983394
 10
6419.0288413174
 20
5541.2918306291
 10
6420.0097591263
 20
5544.5262995974
 10
6421.0586371638
 20
5548.0263205418
 10
6421.8752452593
 20
5550.7889964989
  0
LINE
  5
B0
330
1F
100
AcDbEntity
  8
0
  6
Continuous
 62
     7
370
    25
100
AcDbLine
 10
6396.7675628824
 20
5579.2193011226
 30
0.0
 11
6382.3866450987
 21
5579.2193011227
 31
0.0
  0
ARC
  5
B1
330
1F
100
AcDbEntity
  8
0
  6
Continuous
 62
     7
370
    25
100
AcDbCircle
 10
6406.2984892732
 20
5557.3230420707
 30
0.0
 40
1.938096964526688
100
AcDbArc
 50
195.1917461916
 51
225.6333088534
  0
ARC
  5
B2
330
1F
100
AcDbEntity
  8
0
  6
Continuous
 62
     7
370
    25
100
AcDbCircle
 10
6425.217749399
 20
5518.6737112837
 30
0.0
 40
12.43264319005771
100
AcDbArc
 50
162.4885443214
 51
181.6210473537
  0
ARC
  5
B3
330
1F
100
AcDbEntity
  8
0
  6
Continuous
 62
     7
370
    25
100
AcDbCircle
 10
6379.3336473478
 20
5576.7661493656
 30
0.0
 40
0.4895408174777706
100
AcDbArc
 50
118.6807632277
 51
203.1768930512
  0
LINE
  5
B4
330
1F
100
AcDbEntity
  8
0
  6
Continuous
 62
     7
370
    25
100
AcDbLine
 10
6378.8749745495
 20
5576.5824954707
 30
0.0
 11
6385.4373784268
 21
5555.3450275043
 31
0.0
  0
LINE
  5
B5
330
1F
100
AcDbEntity
  8
0
  6
Continuous
 62
     7
370
    25
100
AcDbLine
 10
6381.8257752051
 20
5579.0472050799
 30
0.0
 11
6379.0896559427
 21
5577.1936000738
 31
0.0
  0
ARC
  5
B6
330
1F
100
AcDbEntity
  8
0
  6
Continuous
 62
     7
370
    25
100
AcDbCircle
 10
6382.3866450987
 20
5578.2193011227
 30
0.0
 40
1.000000000000909
100
AcDbArc
 50
89.9999999995
 51
124.1159780541
  0
LINE
  5
B7
330
1F
100
AcDbEntity
  8
0
  6
Continuous
 62
     7
370
    25
100
AcDbLine
 10
6412.7899044242
 20
5516.0494545914
 30
0.0
 11
6412.7899044242
 21
5518.3016079806
 31
0.0
  0
ARC
  5
B8
330
1F
100
AcDbEntity
  8
0
  6
Continuous
 62
     7
370
    25
100
AcDbCircle
 10
6382.7582407737
 20
5554.4702674924
 30
0.0
 40
2.818329938643437
100
AcDbArc
 50
349.0753683268
 51
18.0822772257
  0
LINE
  5
B9
330
1F
100
AcDbEntity
  8
0
  6
Continuous
 62
     7
370
    25
100
AcDbLine
 10
6423.0320643129
 20
5557.8944896022
 30
0.0
 11
6423.5210380124
 21
5559.883699484
 31
0.0
  0
ARC
  5
BA
330
1F
100
AcDbEntity
  8
0
  6
Continuous
 62
     7
370
    25
100
AcDbCircle
 10
6420.4264259261
 20
5560.5968575991
 30
0.0
 40
3.166779488203293
100
AcDbArc
 50
347.0568791222
 51
58.2622801729
  0
LWPOLYLINE
  5
BB
330
1F
100
AcDbEntity
  8
0
  6
Continuous
 62
     7
370
    25
100
AcDbPolyline
 90
        3
 70
   128
 43
0.0
 10
6403.0748563306
 20
5568.6444289005
 10
6401.8916956274
 20
5568.5263117667
 10
6400.8899739671
 20
5568.265430178
  0
ARC
  5
BC
330
1F
100
AcDbEntity
  8
0
  6
Continuous
 62
     7
370
    25
100
AcDbCircle
 10
6405.7131481337
 20
5541.3961358823
 30
0.0
 40
27.37266789341551
100
AcDbArc
 50
55.5359461623
 51
96.5534466057
  0
LINE
  5
BD
330
1F
100
AcDbEntity
  8
0
  6
Continuous
 62
     7
370
    25
100
AcDbLine
 10
6213.2508702901
 20
5771.8494545932
 30
0.0
 11
6223.2508702901
 21
5771.8494545931
 31
0.0
  0
LINE
  5
BE
330
1F
100
AcDbEntity
  8
0
  6
Continuous
 62
     7
370
    25
100
AcDbLine
 10
6152.9909383007
 20
5560.8494545937
 30
0.0
 11
6151.6626165292
 21
5560.8494545938
 31
0.0
  0
LINE
  5
BF
330
1F
100
AcDbEntity
  8
0
  6
Continuous
 62
     7
370
    25
100
AcDbLine
 10
6163.1026165292
 20
5560.8494545937
 30
0.0
 11
6152.9909383007
 21
5560.8494545937
 31
0.0
  0
LINE
  5
C0
330
1F
100
AcDbEntity
  8
0
  6
Continuous
 62
     7
370
    25
100
AcDbLine
 10
6148.8536965551
 20
5555.6024803858
 30
0.0
 11
6148.8658441637
 21
5555.0925289296
 31
0.0
  0
ARC
  5
C1
330
1F
100
AcDbEntity
  8
0
  6
Continuous
 62
     7
370
    25
100
AcDbCircle
 10
6159.9728286943
 20
5555.563422765
 30
0.0
 40
5.938836244267239
100
AcDbArc
 50
0.3768167471
 51
21.3852611002
  0
LWPOLYLINE
  5
C2
330
1F
100
AcDbEntity
  8
0
  6
Continuous
 62
     7
370
    25
100
AcDbPolyline
 90
       11
 70
   128
 43
0.0
 10
6165.9115365031
 20
5555.6024803856
 10
6165.8801975807
 20
5554.2868857096
 10
6165.8700586651
 20
5554.2410946819
 10
6165.8561608093
 20
5554.2035328175
 10
6165.8484167644
 20
5554.1949410143
 10
6165.8397054689
 20
5554.1949888983
 10
6165.8304872183
 20
5554.2047588607
 10
6165.8163136566
 20
5554.2347593589
 10
6165.7726836585
 20
5554.3832429835
 10
6165.5997930713
 20
5555.0246619239
 10
6165.4123283105
 20
5555.6024803857
  0
ARC
  5
C3
330
1F
100
AcDbEntity
  8
0
  6
Continuous
 62
     7
370
    25
100
AcDbCircle
 10
6162.5083642141
 20
5554.9731818818
 30
0.0
 40
2.971367375492996
100
AcDbArc
 50
12.2271256162
 51
167.7728743831
  0
LWPOLYLINE
  5
C4
330
1F
100
AcDbEntity
  8
0
  6
Continuous
 62
     7
370
    25
100
AcDbPolyline
 90
       11
 70
   128
 43
0.0
 10
6159.6044001177
 20
5555.6024803857
 10
6159.0389103641
 20
5554.286870788
 10
6159.0036502682
 20
5554.2410855279
 10
6158.9592853791
 20
5554.2035297134
 10
6158.936148632
 20
5554.1949399856
 10
6158.9112447652
 20
5554.1949897242
 10
6158.8860143111
 20
5554.2047618759
 10
6158.8491497339
 20
5554.2347685776
 10
6158.7469032208
 20
5554.3832945214
 10
6158.4334590989
 20
5555.0248832039
 10
6158.1768854636
 20
5555.6024803857
  0
ARC
  5
C5
330
1F
100
AcDbEntity
  8
0
  6
Continuous
 62
     7
370
    25
100
AcDbCircle
 10
6154.6261828036
 20
5554.175463381
 30
0.0
 40
3.826730577328034
100
AcDbArc
 50
21.8950500895
 51
158.1049499099
  0
LWPOLYLINE
  5
C6
330
1F
100
AcDbEntity
  8
0
  6
Continuous
 62
     7
370
    25
100
AcDbPolyline
 90
       11
 70
   128
 43
0.0
 10
6151.0754801437
 20
5555.6024803858
 10
6150.541339545
 20
5554.28688572
 10
6150.5162163029
 20
5554.2410946884
 10
6150.4857467922
 20
5554.2035328198
 10
6150.4703537197
 20
5554.1949410151
 10
6150.4541600264
 20
5554.1949888979
 10
6150.438148894
 20
5554.2047588587
 10
6150.4154615083
 20
5554.2347593527
 10
6150.3568655486
 20
5554.3832429483
 10
6150.2163835899
 20
5555.024661772
 10
6150.1471736823
 20
5555.6024803858
  0
LWPOLYLINE
  5
C7
330
1F
100
AcDbEntity
  8
0
  6
Continuous
 62
     7
370
    25
100
AcDbPolyline
 90
        8
 70
   128
 43
0.0
 10
6150.1471736823
 20
5555.6024803858
 10
6150.0121220355
 20
5556.7576059107
 10
6149.8192879591
 20
5557.5871723722
 10
6149.5903670664
 20
5557.9958458836
 10
6149.3519285622
 20
5557.9374430521
 10
6149.1304736985
 20
5557.4213655588
 10
6148.950307664
 20
5556.5051075784
 10
6148.8536965551
 20
5555.6024803858
  0
LINE
  5
C8
330
1F
100
AcDbEntity
  8
0
  6
Continuous
 62
     7
370
    25
100
AcDbLine
 10
6151.0754801437
 20
5555.6024803858
 30
0.0
 11
6151.0754801436
 21
5548.8494545938
 31
0.0
  0
LINE
  5
C9
330
1F
100
AcDbEntity
  8
0
  6
Continuous
 62
     7
370
    25
100
AcDbLine
 10
6158.1768854636
 20
5555.6024803857
 30
0.0
 11
6158.1768854636
 21
5548.8494545937
 31
0.0
  0
LINE
  5
CA
330
1F
100
AcDbEntity
  8
0
  6
Continuous
 62
     7
370
    25
100
AcDbLine
 10
6159.6044001177
 20
5555.6024803857
 30
0.0
 11
6159.6044001176
 21
5548.8494545937
 31
0.0
  0
LINE
  5
CB
330
1F
100
AcDbEntity
  8
0
  6
Continuous
 62
     7
370
    25
100
AcDbLine
 10
6165.4123283105
 20
5555.6024803857
 30
0.0
 11
6165.4123283104
 21
5548.8494545936
 31
0.0
  0
LINE
  5
CC
330
1F
100
AcDbEntity
  8
0
  6
Continuous
 62
     7
370
    25
100
AcDbLine
 10
6150.1471736823
 20
5555.6024803858
 30
0.0
 11
6150.1471736822
 21
5548.8494545938
 31
0.0
  0
LINE
  5
CD
330
1F
100
AcDbEntity
  8
0
  6
Continuous
 62
     7
370
    25
100
AcDbLine
 10
6150.5989041774
 20
5548.8494545938
 30
0.0
 11
6150.3463624275
 21
5548.8494545938
 31
0.0
  0
LINE
  5
CE
330
1F
100
AcDbEntity
  8
0
  6
Continuous
 62
     7
370
    25
100
AcDbLine
 10
6148.8536965551
 20
5555.6024803858
 30
0.0
 11
6148.853696555
 21
5548.8494545938
 31
0.0
  0
LINE
  5
CF
330
1F
100
AcDbEntity
  8
0
  6
Continuous
 62
     7
370
    25
100
AcDbLine
 10
6168.919255567
 20
5517.0494545936
 30
0.0
 11
6134.4498799241
 21
5517.0494545939
 31
0.0
  0
LWPOLYLINE
  5
D0
330
1F
100
AcDbEntity
  8
0
  6
Continuous
 62
     7
370
    25
100
AcDbPolyline
 90
        3
 70
   128
 43
0.0
 10
6147.2242136467
 20
5558.3834642818
 10
6148.9580085123
 20
5558.2887641162
 10
6149.4822641211
 20
5558.2159516597
  0
LWPOLYLINE
  5
D1
330
1F
100
AcDbEntity
  8
0
  6
Continuous
 62
     7
370
    25
100
AcDbPolyline
 90
       17
 70
   128
 43
0.0
 10
6123.6766974085
 20
5543.9578275004
 10
6123.5056390127
 20
5544.6183679413
 10
6123.5449568139
 20
5545.6654019404
 10
6123.9190258262
 20
5546.807136105
 10
6124.6194899661
 20
5548.0180659807
 10
6125.6307020222
 20
5549.2711413949
 10
6126.9300731882
 20
5550.5383707136
 10
6128.4885776592
 20
5551.7914461278
 10
6130.2714010208
 20
5553.0023760034
 10
6132.2387179452
 20
5554.144110168
 10
6134.346581823
 20
5555.1911441671
 10
6136.5479064586
 20
5556.1200889912
 10
6138.7935178969
 20
5556.910193548
 10
6141.0332528893
 20
5557.5438082073
 10
6143.2170794572
 20
5558.0067790647
 10
6145.2962145235
 20
5558.2887641162
 10
6147.2242136467
 20
5558.3834642818
  0
LINE
  5
D2
330
1F
100
AcDbEntity
  8
0
  6
Continuous
 62
     7
370
    25
100
AcDbLine
 10
6154.7692011697
 20
5517.0494545937
 30
0.0
 11
6142.0375837
 21
5548.8494545938
 31
0.0
  0
LINE
  5
D3
330
1F
100
AcDbEntity
  8
0
  6
Continuous
 62
     7
370
    25
100
AcDbLine
 10
6168.5891676229
 20
5517.0494545936
 30
0.0
 11
6168.919275217
 21
5517.0494545936
 31
0.0
  0
LINE
  5
D4
330
1F
100
AcDbEntity
  8
0
  6
Continuous
 62
     7
370
    25
100
AcDbLine
 10
6134.4498769864
 20
5517.0494545939
 30
0.0
 11
6154.7692011697
 21
5517.0494545937
 31
0.0
  0
LINE
  5
D5
330
1F
100
AcDbEntity
  8
0
  6
Continuous
 62
     7
370
    25
100
AcDbLine
 10
6154.76920117
 20
5548.8494545937
 30
0.0
 11
6154.7692011697
 21
5517.0494545937
 31
0.0
  0
LINE
  5
D6
330
1F
100
AcDbEntity
  8
0
  6
Continuous
 62
     7
370
    25
100
AcDbLine
 10
6168.5891676232
 20
5548.8494545936
 30
0.0
 11
6168.5891676229
 21
5517.0494545936
 31
0.0
  0
LINE
  5
D7
330
1F
100
AcDbEntity
  8
0
  6
Continuous
 62
     7
370
    25
100
AcDbLine
 10
6168.5891676232
 20
5548.8494545936
 30
0.0
 11
6154.76920117
 21
5548.8494545937
 31
0.0
  0
LINE
  5
D8
330
1F
100
AcDbEntity
  8
0
  6
Continuous
 62
     7
370
    25
100
AcDbLine
 10
6168.5891676229
 20
5517.0494545936
 30
0.0
 11
6154.7692011697
 21
5517.0494545937
 31
0.0
  0
LINE
  5
D9
330
1F
100
AcDbEntity
  8
0
  6
Continuous
 62
     7
370
    25
100
AcDbLine
 10
6154.76920117
 20
5548.8494545937
 30
0.0
 11
6150.5989041774
 21
5548.8494545938
 31
0.0
  0
LINE
  5
DA
330
1F
100
AcDbEntity
  8
0
  6
Continuous
 62
     7
370
    25
100
AcDbLine
 10
6150.3463624275
 20
5548.8494545938
 30
0.0
 11
6142.0375837
 21
5548.8494545938
 31
0.0
  0
ARC
  5
DB
330
1F
100
AcDbEntity
  8
0
  6
Continuous
 62
     7
370
    25
100
AcDbCircle
 10
6146.921346684
 20
5548.0619932561
 30
0.0
 40
11.3322750069124
100
AcDbArc
 50
74.482646611
 51
91.4624818611
  0
LWPOLYLINE
  5
DC
330
1F
100
AcDbEntity
  8
0
  6
Continuous
 62
     7
370
    25
100
AcDbPolyline
 90
       17
 70
   128
 43
0.0
 10
6123.4525340744
 20
5545.1903405872
 10
6123.284148466
 20
5545.8405600838
 10
6123.3228519265
 20
5546.8712341766
 10
6123.6910761106
 20
5547.9951287449
 10
6124.3805954983
 20
5549.1871378412
 10
6125.376007366
 20
5550.4206339521
 10
6126.6550758575
 20
5551.6680628127
 10
6128.1892286962
 20
5552.9015589236
 10
6129.9441954428
 20
5554.0935680199
 10
6131.8807730402
 20
5555.2174625882
 10
6133.955701545
 20
5556.248136681
 10
6136.122630483
 20
5557.1625667422
 10
6138.3331542427
 20
5557.9403259153
 10
6140.5378933758
 20
5558.5640403456
 10
6142.6875976535
 20
5559.0197772833
 10
6144.7342462345
 20
5559.2973563184
 10
6146.6321203714
 20
5559.3905767939
  0
LWPOLYLINE
  5
DD
330
1F
100
AcDbEntity
  8
0
  6
Continuous
 62
     7
370
    25
100
AcDbPolyline
 90
       11
 70
   128
 43
0.0
 10
6143.7122272876
 20
5567.6271885299
 10
6145.4731126979
 20
5567.5310086742
 10
6146.9974241388
 20
5567.2446176062
 10
6148.2511110114
 20
5566.7744128292
 10
6149.2061680227
 20
5566.1308979408
 10
6149.8412607772
 20
5565.3284480002
 10
6150.1422023524
 20
5564.3849884132
 10
6150.1022702106
 20
5563.3215945079
 10
6149.7223563699
 20
5562.162020747
 10
6149.0109474778
 20
5560.932170092
 10
6148.7832951193
 20
5560.6173089688
  0
LWPOLYLINE
  5
DE
330
1F
100
AcDbEntity
  8
0
  6
Continuous
 62
     7
370
    25
100
AcDbPolyline
 90
       21
 70
   128
 43
0.0
 10
6123.7175833764
 20
5550.5818670344
 10
6122.7678281385
 20
5550.7873833661
 10
6121.5141412659
 20
5551.2575881432
 10
6120.5590842546
 20
5551.9011030316
 10
6119.9239915001
 20
5552.7035529721
 10
6119.623049925
 20
5553.6470125591
 10
6119.6629820668
 20
5554.7104064644
 10
6120.0428959074
 20
5555.8699802254
 10
6120.7543047995
 20
5557.0998308803
 10
6121.781317044
 20
5558.3724855979
 10
6123.1009908844
 20
5559.6595153747
 10
6124.6838469878
 20
5560.9321700923
 10
6126.4945269644
 20
5562.1620207472
 10
6128.4925832157
 20
5563.3215945081
 10
6130.6333824667
 20
5564.3849884134
 10
6132.8691027996
 20
5565.3284480004
 10
6135.1498019167
 20
5566.1308979409
 10
6137.4245327684
 20
5566.7744128293
 10
6139.6424816264
 20
5567.2446176063
 10
6141.7541031781
 20
5567.5310086742
 10
6143.7122272876
 20
5567.6271885299
  0
ARC
  5
DF
330
1F
100
AcDbEntity
  8
0
  6
Continuous
 62
     7
370
    25
100
AcDbCircle
 10
6124.8187874919
 20
5554.9211866004
 30
0.0
 40
2.635868649368416
100
AcDbArc
 50
164.224631476
 51
200.4955078371
  0
ARC
  5
E0
330
1F
100
AcDbEntity
  8
0
  6
Continuous
 62
     7
370
    25
100
AcDbCircle
 10
6144.9928445647
 20
5563.0067401601
 30
0.0
 40
2.631323387344195
100
AcDbArc
 50
22.9725946406
 51
61.6302167677
  0
LINE
  5
E1
330
1F
100
AcDbEntity
  8
0
  6
Continuous
 62
     7
370
    25
100
AcDbLine
 10
6136.4540771641
 20
5565.3220397305
 30
0.0
 11
6146.243144796
 21
5565.3220397305
 31
0.0
  0
ARC
  5
E2
330
1F
100
AcDbEntity
  8
0
  6
Continuous
 62
     7
370
    25
100
AcDbCircle
 10
6144.9173697115
 20
5533.9563597296
 30
0.0
 40
32.48743145682423
100
AcDbArc
 50
105.1003108657
 51
118.9136589207
  0
LINE
  5
E3
330
1F
100
AcDbEntity
  8
0
  6
Continuous
 62
     7
370
    25
100
AcDbLine
 10
6122.2821989459
 20
5555.6377911533
 30
0.0
 11
6129.2099865766
 21
5562.3942098192
 31
0.0
  0
LINE
  5
E4
330
1F
100
AcDbEntity
  8
0
  6
Continuous
 62
     7
370
    25
100
AcDbLine
 10
6139.293197645
 20
5558.2307151986
 30
0.0
 11
6136.4540771641
 21
5565.3220397305
 31
0.0
  0
LINE
  5
E5
330
1F
100
AcDbEntity
  8
0
  6
Continuous
 62
     7
370
    25
100
AcDbLine
 10
6129.2099865766
 20
5562.3942098192
 30
0.0
 11
6132.0476520519
 21
5555.3065194821
 31
0.0
  0
LINE
  5
E6
330
1F
100
AcDbEntity
  8
0
  6
Continuous
 62
     7
370
    25
100
AcDbLine
 10
6146.243144796
 20
5565.3220397305
 30
0.0
 11
6148.6726911093
 21
5559.2537162872
 31
0.0
  0
LINE
  5
E7
330
1F
100
AcDbEntity
  8
0
  6
Continuous
 62
     7
370
    25
100
AcDbLine
 10
6124.6939453894
 20
5549.6139267792
 30
0.0
 11
6122.2821989459
 21
5555.6377911533
 31
0.0
  0
LINE
  5
E8
330
1F
100
AcDbEntity
  8
0
  6
Continuous
 62
     7
370
    25
100
AcDbLine
 10
6097.3628193692
 20
5496.3508304866
 30
0.0
 11
6097.3628193692
 21
5494.7884637447
 31
0.0
  0
LWPOLYLINE
  5
E9
330
1F
100
AcDbEntity
  8
0
  6
Continuous
 62
     7
370
    25
100
AcDbPolyline
 90
        3
 70
   128
 43
0.0
 10
6097.3628193692
 20
5496.3508304866
 10
6096.5952282646
 20
5496.3361424995
 10
6095.9910304335
 20
5496.3245767676
  0
LWPOLYLINE
  5
EA
330
1F
100
AcDbEntity
  8
0
  6
Continuous
 62
     7
370
    25
100
AcDbPolyline
 90
        3
 70
   128
 43
0.0
 10
6095.9910304335
 20
5494.7622100257
 10
6096.5952282646
 20
5494.7737757576
 10
6097.3628193692
 20
5494.7884637447
  0
LINE
  5
EB
330
1F
100
AcDbEntity
  8
0
  6
Continuous
 62
     7
370
    25
100
AcDbLine
 10
6095.7628193691
 20
5490.1197431755
 30
0.0
 11
6095.7628193692
 21
5494.7076634352
 31
0.0
  0
ARC
  5
EC
330
1F
100
AcDbEntity
  8
0
  6
Continuous
 62
     7
370
    25
100
AcDbCircle
 10
6095.9434794551
 20
5494.4564869608
 30
0.0
 40
0.3093989139248107
100
AcDbArc
 50
81.1592728755
 51
125.7257879337
  0
LINE
  5
ED
330
1F
100
AcDbEntity
  8
0
  6
Continuous
 62
     7
370
    25
100
AcDbLine
 10
6095.7628193692
 20
5496.2700301771
 30
0.0
 11
6095.7628193692
 21
5494.7076634352
 31
0.0
  0
ARC
  5
EE
330
1F
100
AcDbEntity
  8
0
  6
Continuous
 62
     7
370
    25
100
AcDbCircle
 10
6095.9459509342
 20
5496.008513572
 30
0.0
 40
0.3192618124018047
100
AcDbArc
 50
81.8827576763
 51
125.0023031329
  0
LINE
  5
EF
330
1F
100
AcDbEntity
  8
0
  6
Continuous
 62
     7
370
    25
100
AcDbLine
 10
6095.7628193692
 20
5496.2700301771
 30
0.0
 11
6095.7628193692
 21
5498.979166013
 31
0.0
  0
LWPOLYLINE
  5
F0
330
1F
100
AcDbEntity
  8
0
  6
Continuous
 62
     7
370
    25
100
AcDbPolyline
 90
        3
 70
   128
 43
0.0
 10
6452.0802505177
 20
5497.766862087
 10
6451.6793096054
 20
5497.7998293234
 10
6451.1628193692
 20
5497.8422803444
  0
LINE
  5
F1
330
1F
100
AcDbEntity
  8
0
  6
Continuous
 62
     7
370
    25
100
AcDbLine
 10
6451.1628193692
 20
5497.8422803444
 30
0.0
 11
6451.1628193692
 21
5497.384061162
 31
0.0
  0
LWPOLYLINE
  5
F2
330
1F
100
AcDbEntity
  8
0
  6
Continuous
 62
     7
370
    25
100
AcDbPolyline
 90
        3
 70
   128
 43
0.0
 10
6451.1628193692
 20
5497.384061162
 10
6451.6793096054
 20
5497.341610141
 10
6452.0802505177
 20
5497.3086429046
  0
LINE
  5
F3
330
1F
100
AcDbEntity
  8
0
  6
Continuous
 62
     7
370
    25
100
AcDbLine
 10
6452.2628193692
 20
5497.1211492426
 30
0.0
 11
6452.2628193691
 21
5491.460191351
 31
0.0
  0
ARC
  5
F4
330
1F
100
AcDbEntity
  8
0
  6
Continuous
 62
     7
370
    25
100
AcDbCircle
 10
6452.0691113773
 20
5497.1151628205
 30
0.0
 40
0.1938004730961219
100
AcDbArc
 50
1.7701261675
 51
86.7049736241
  0
ARC
  5
F5
330
1F
100
AcDbEntity
  8
0
  6
Continuous
 62
     7
370
    25
100
AcDbCircle
 10
6452.0693532386
 20
5497.5736175114
 30
0.0
 40
0.1935515866472652
100
AcDbArc
 50
1.7026550259
 51
86.7724447673
  0
LINE
  5
F6
330
1F
100
AcDbEntity
  8
0
  6
Continuous
 62
     7
370
    25
100
AcDbLine
 10
6452.2628193692
 20
5497.1211492426
 30
0.0
 11
6452.2628193692
 21
5497.579368425
 31
0.0
  0
LINE
  5
F7
330
1F
100
AcDbEntity
  8
0
  6
Continuous
 62
     7
370
    25
100
AcDbLine
 10
6452.2628193692
 20
5497.638717831
 30
0.0
 11
6452.2628193692
 21
5497.579368425
 31
0.0
  0
LINE
  5
F8
330
1F
100
AcDbEntity
  8
0
  6
Continuous
 62
     7
370
    25
100
AcDbLine
 10
6414.6628193613
 20
4610.5494545914
 30
0.0
 11
6394.6628193613
 21
4610.5494545914
 31
0.0
  0
LINE
  5
F9
330
1F
100
AcDbEntity
  8
0
  6
Continuous
 62
     7
370
    25
100
AcDbLine
 10
6154.6628193613
 20
4610.5494545938
 30
0.0
 11
6134.6628193613
 21
4610.5494545938
 31
0.0
  0
LINE
  5
FA
330
1F
100
AcDbEntity
  8
0
  6
Continuous
 62
     7
370
    25
100
AcDbLine
 10
6284.6628193613
 20
4610.5494545926
 30
0.0
 11
6264.6628193613
 21
4610.5494545926
 31
0.0
  0
LINE
  5
FB
330
1F
100
AcDbEntity
  8
0
  6
Continuous
 62
     7
370
    25
100
AcDbLine
 10
6100.6628193691
 20
5484.0494545926
 30
0.0
 11
6100.6628193612
 21
4615.0494545942
 31
0.0
  0
LINE
  5
FC
330
1F
100
AcDbEntity
  8
0
  6
Continuous
 62
     7
370
    25
100
AcDbLine
 10
6448.6628193691
 20
5484.0494545926
 30
0.0
 11
6448.6628193612
 21
4615.049454591
 31
0.0
  0
LINE
  5
FD
330
1F
100
AcDbEntity
  8
0
  6
Continuous
 62
     7
370
    25
100
AcDbLine
 10
6100.6628193612
 20
4615.0494545942
 30
0.0
 11
6448.6628193612
 21
4615.049454591
 31
0.0
  0
LINE
  5
FE
330
1F
100
AcDbEntity
  8
0
  6
Continuous
 62
     7
370
    25
100
AcDbLine
 10
6449.6628193694
 20
5515.5494545926
 30
0.0
 11
6099.6628193694
 21
5515.5494545926
 31
0.0
  0
ARC
  5
FF
330
1F
100
AcDbEntity
  8
0
  6
Continuous
 62
     7
370
    25
100
AcDbCircle
 10
6100.1628193694
 20
5515.5494545926
 30
0.0
 40
0.5000000000009095
100
AcDbArc
 50
90.0
 51
180.0
  0
LINE
  5
100
330
1F
100
AcDbEntity
  8
0
  6
Continuous
 62
     7
370
    25
100
AcDbLine
 10
6100.1628193694
 20
5516.0494545926
 30
0.0
 11
6449.1628193694
 21
5516.0494545926
 31
0.0
  0
ARC
  5
101
330
1F
100
AcDbEntity
  8
0
  6
Continuous
 62
     7
370
    25
100
AcDbCircle
 10
6449.1628193694
 20
5515.5494545926
 30
0.0
 40
0.5000000000009095
100
AcDbArc
 50
0.0
 51
90.0
  0
LINE
  5
102
330
1F
100
AcDbEntity
  8
0
  6
Continuous
 62
     7
370
    25
100
AcDbLine
 10
6099.6628193694
 20
5484.0494545926
 30
0.0
 11
6099.6628193694
 21
5515.5494545926
 31
0.0
  0
LINE
  5
103
330
1F
100
AcDbEntity
  8
0
  6
Continuous
 62
     7
370
    25
100
AcDbLine
 10
6449.6628193694
 20
5484.0494545926
 30
0.0
 11
6449.6628193694
 21
5515.5494545926
 31
0.0
  0
LINE
  5
104
330
1F
100
AcDbEntity
  8
0
  6
Continuous
 62
     7
370
    25
100
AcDbLine
 10
6099.6628193694
 20
5484.0494545926
 30
0.0
 11
6449.6628193694
 21
5484.0494545926
 31
0.0
  0
LINE
  5
105
330
1F
100
AcDbEntity
  8
0
  6
Continuous
 62
     7
370
    25
100
AcDbLine
 10
6101.6628193694
 20
5517.0494545926
 30
0.0
 11
6101.6628193694
 21
5516.0494545926
 31
0.0
  0
LINE
  5
106
330
1F
100
AcDbEntity
  8
0
  6
Continuous
 62
     7
370
    25
100
AcDbLine
 10
6447.6628193694
 20
5516.0494545926
 30
0.0
 11
6447.6628193694
 21
5517.0494545926
 31
0.0
  0
LINE
  5
107
330
1F
100
AcDbEntity
  8
0
  6
Continuous
 62
     7
370
    25
100
AcDbLine
 10
6449.6628193694
 20
5517.0494545926
 30
0.0
 11
6447.6628193694
 21
5517.0494545926
 31
0.0
  0
LINE
  5
108
330
1F
100
AcDbEntity
  8
0
  6
Continuous
 62
     7
370
    25
100
AcDbLine
 10
6449.6628193694
 20
5546.9994545926
 30
0.0
 11
6449.6628193694
 21
5517.0494545926
 31
0.0
  0
LINE
  5
109
330
1F
100
AcDbEntity
  8
0
  6
Continuous
 62
     7
370
    25
100
AcDbLine
 10
6101.6628193694
 20
5517.0494545926
 30
0.0
 11
6101.6628193694
 21
5546.9994545926
 31
0.0
  0
LINE
  5
10A
330
1F
100
AcDbEntity
  8
0
  6
Continuous
 62
     7
370
    25
100
AcDbLine
 10
6101.6628193694
 20
5546.9994545926
 30
0.0
 11
6101.6628193694
 21
5548.0494545926
 31
0.0
  0
LINE
  5
10B
330
1F
100
AcDbEntity
  8
0
  6
Continuous
 62
     7
370
    25
100
AcDbLine
 10
6449.6628193694
 20
5548.0494545926
 30
0.0
 11
6449.6628193694
 21
5546.9994545926
 31
0.0
  0
LINE
  5
10C
330
1F
100
AcDbEntity
  8
0
  6
Continuous
 62
     7
370
    25
100
AcDbLine
 10
6382.1302945988
 20
5550.4584936525
 30
0.0
 11
6380.5090260575
 21
5549.1441452227
 31
0.0
  0
LWPOLYLINE
  5
10D
330
1F
100
AcDbEntity
  8
0
  6
Continuous
 62
     7
370
    25
100
AcDbPolyline
 90
        3
 70
   128
 43
0.0
 10
6393.9726810821
 20
5549.1441452226
 10
6394.2575008616
 20
5549.3069555737
 10
6399.8556507089
 20
5552.5734174796
  0
ELLIPSE
  5
10E
330
1F
100
AcDbEntity
  8
0
  6
Continuous
 62
     7
370
    25
100
AcDbEllipse
 10
6388.9096999439
 20
5550.2747180145
 30
0.0
 11
9.404914668413767
 21
3.239476637194457
 31
0.0
210
0.0
220
0.0
230
1.0
 40
0.3049633783
 41
3.391110799470891
 42
5.172696611056584
  0
LWPOLYLINE
  5
10F
330
1F
100
AcDbEntity
  8
0
  6
Continuous
 62
     7
370
    25
100
AcDbPolyline
 90
       12
 70
   128
 43
0.0
 10
6383.2939279691
 20
5546.4702701645
 10
6384.5070192862
 20
5546.5431659825
 10
6385.8699165863
 20
5546.7579236044
 10
6387.309145723
 20
5547.1029653909
 10
6388.747117481
 20
5547.5596900502
 10
6390.1063104308
 20
5548.1034754377
 10
6391.3134501285
 20
5548.7050059423
 10
6392.3034593606
 20
5549.3318528988
 10
6393.0229664731
 20
5549.9502228256
 10
6393.4331826514
 20
5550.5267792399
 10
6393.5119930352
 20
5551.030439836
 10
6393.4960964364
 20
5551.093591979
  0
LWPOLYLINE
  5
110
330
1F
100
AcDbEntity
  8
0
  6
Continuous
 62
     7
370
    25
100
AcDbPolyline
 90
        5
 70
   128
 43
0.0
 10
6381.0755479091
 20
5547.2556271172
 10
6381.1465618781
 20
5547.102965391
 10
6381.567153845
 20
5546.7579236044
 10
6382.2960407017
 20
5546.5431659826
 10
6383.2939279691
 20
5546.4702701645
  0
ARC
  5
111
330
1F
100
AcDbEntity
  8
0
  6
Continuous
 62
     7
370
    25
100
AcDbCircle
 10
6393.7969806113
 20
5548.5507830433
 30
0.0
 40
0.6188290000170458
100
AcDbArc
 50
13.763434565
 51
73.5054520134
  0
ELLIPSE
  5
112
330
1F
100
AcDbEntity
  8
0
  6
Continuous
 62
     7
370
    25
100
AcDbEllipse
 10
6389.0501936486
 20
5549.8200476515
 30
0.0
 11
9.912236276961268
 21
3.210167095741781
 31
0.0
210
0.0
220
0.0
230
1.0
 40
0.2926606675
 41
3.022411204735435
 42
3.047094155397121
  0
LWPOLYLINE
  5
113
330
1F
100
AcDbEntity
  8
0
  6
Continuous
 62
     7
370
    25
100
AcDbPolyline
 90
        3
 70
   128
 43
0.0
 10
6394.4013370201
 20
5548.6788236805
 10
6394.3992490621
 20
5548.6943743457
 10
6394.3980407479
 20
5548.6980109054
  0
LINE
  5
114
330
1F
100
AcDbEntity
  8
0
  6
Continuous
 62
     7
370
    25
100
AcDbLine
 10
6394.4013370201
 20
5548.6788236805
 30
0.0
 11
6394.4013370198
 21
5516.0494545915
 31
0.0
  0
LWPOLYLINE
  5
115
330
1F
100
AcDbEntity
  8
0
  6
Continuous
 62
     7
370
    25
100
AcDbPolyline
 90
       23
 70
   128
 43
0.0
 10
6382.2400207606
 20
5550.1033942268
 10
6381.9871975756
 20
5549.9267069235
 10
6381.267690463
 20
5549.3083369967
 10
6380.8574742847
 20
5548.7317805824
 10
6380.778663901
 20
5548.2281199863
 10
6381.0355080001
 20
5547.8245076813
 10
6381.61416005
 20
5547.5427025113
 10
6382.4834247691
 20
5547.397896666
 10
6383.5964398713
 20
5547.397896666
 10
6384.8932024244
 20
5547.5427025113
 10
6386.3038036234
 20
5547.8245076812
 10
6387.7521975927
 20
5548.2281199862
 10
6389.1603010383
 20
5548.7317805824
 10
6390.4522027392
 20
5549.3083369966
 10
6391.5582559402
 20
5549.9267069234
 10
6392.4188330269
 20
5550.5535538799
 10
6392.9875400659
 20
5551.1550843845
 10
6393.2337179134
 20
5551.698869772
 10
6393.144095058
 20
5552.1555944313
 10
6392.7235030911
 20
5552.5006362179
 10
6391.9946162344
 20
5552.7153938397
 10
6390.996728967
 20
5552.7882896578
 10
6390.996728967
 20
5552.7882896578
  0
LINE
  5
116
330
1F
100
AcDbEntity
  8
0
  6
Continuous
 62
     7
370
    25
100
AcDbLine
 10
6382.5871605758
 20
5548.9799689024
 30
0.0
 11
6384.4800019555
 21
5548.1697885457
 31
0.0
  0
LINE
  5
117
330
1F
100
AcDbEntity
  8
0
  6
Continuous
 62
     7
370
    25
100
AcDbLine
 10
6384.4800019555
 20
5548.1697885457
 30
0.0
 11
6388.897676143
 21
5549.2737699175
 31
0.0
  0
LINE
  5
118
330
1F
100
AcDbEntity
  8
0
  6
Continuous
 62
     7
370
    25
100
AcDbLine
 10
6388.897676143
 20
5549.2737699175
 30
0.0
 11
6391.4225089509
 21
5551.187931646
 31
0.0
  0
ELLIPSE
  5
119
330
1F
100
AcDbEntity
  8
0
  6
Continuous
 62
     7
370
    25
100
AcDbEllipse
 10
6394.3110126033
 20
5576.555092271
 30
0.0
 11
1.055153535008685
 21
-0.02763722929739743
 31
0.0
210
0.0
220
0.0
230
1.0
 40
0.0255631457
 41
0.7975598491846821
 42
2.368356175982959
  0
ARC
  5
11A
330
1F
100
AcDbEntity
  8
0
  6
Continuous
 62
     7
370
    25
100
AcDbCircle
 10
6394.132395232
 20
5576.8012071836
 30
0.0
 40
0.6122474362206348
100
AcDbArc
 50
131.9704546909
 51
199.8104776864
  0
ELLIPSE
  5
11B
330
1F
100
AcDbEntity
  8
0
  6
Continuous
 62
     7
370
    25
100
AcDbEllipse
 10
6394.3110126033
 20
5576.555092271
 30
0.0
 11
0.9076543735272933
 21
-0.5699220798824171
 31
0.0
210
0.0
220
0.0
230
1.0
 40
0.4502752336
 41
0.948682143181675
 42
2.519478469975941
  0
LINE
  5
11C
330
1F
100
AcDbEntity
  8
0
  6
Continuous
 62
     7
370
    25
100
AcDbLine
 10
6395.0484955665
 20
5576.555092271
 30
0.0
 11
6401.5112059836
 21
5555.6402555704
 31
0.0
  0
ARC
  5
11D
330
1F
100
AcDbEntity
  8
0
  6
Continuous
 62
     7
370
    25
100
AcDbCircle
 10
6400.0522669479
 20
5557.9763642905
 30
0.0
 40
2.754252541418941
100
AcDbArc
 50
272.2330756377
 51
301.985468458
  0
LINE
  5
11E
330
1F
100
AcDbEntity
  8
0
  6
Continuous
 62
     7
370
    25
100
AcDbLine
 10
6400.1595854506
 20
5555.2242033576
 30
0.0
 11
6393.5563813287
 21
5576.5937104212
 31
0.0
  0
ARC
  5
11F
330
1F
100
AcDbEntity
  8
0
  6
Continuous
 62
     7
370
    25
100
AcDbCircle
 10
6206.4249632584
 20
5878.9805383674
 30
0.0
 40
380.0451812846598
100
AcDbArc
 50
299.6444228297
 51
300.6766404521
  0
LWPOLYLINE
  5
120
330
1F
100
AcDbEntity
  8
0
  6
Continuous
 62
     7
370
    25
100
AcDbPolyline
 90
        3
 70
   128
 43
0.0
 10
6400.9560513605
 20
5552.7316535088
 10
6400.8528843382
 20
5552.5912164299
 10
6400.3210932815
 20
5552.1187471165
  0
ARC
  5
121
330
1F
100
AcDbEntity
  8
0
  6
Continuous
 62
     7
370
    25
100
AcDbCircle
 10
6394.8355028373
 20
5567.9277251748
 30
0.0
 40
16.38235966832823
100
AcDbArc
 50
291.9381837798
 51
303.5121681546
  0
LINE
  5
122
330
1F
100
AcDbEntity
  8
0
  6
Continuous
 62
     7
370
    25
100
AcDbLine
 10
6404.9862759212
 20
5554.9494545915
 30
0.0
 11
6403.8804340908
 21
5554.2686283188
 31
0.0
  0
LINE
  5
123
330
1F
100
AcDbEntity
  8
0
  6
Continuous
 62
     7
370
    25
100
AcDbLine
 10
6410.3102603014
 20
5554.9494545914
 30
0.0
 11
6404.9862759212
 21
5554.9494545915
 31
0.0
  0
ARC
  5
124
330
1F
100
AcDbEntity
  8
0
  6
Continuous
 62
     7
370
    25
100
AcDbCircle
 10
6019.5049258408
 20
5679.522062385
 30
0.0
 40
410.1794047187021
100
AcDbArc
 50
336.51310599
 51
342.3198655365
  0
LINE
  5
125
330
1F
100
AcDbEntity
  8
0
  6
Continuous
 62
     7
370
    25
100
AcDbLine
 10
6397.5050458457
 20
5578.2193011225
 30
0.0
 11
6395.0484955665
 21
5576.555092271
 31
0.0
  0
LINE
  5
126
330
1F
100
AcDbEntity
  8
0
  6
Continuous
 62
     7
370
    25
100
AcDbLine
 10
6393.7229564089
 20
5577.2564068907
 30
0.0
 11
6396.486575473
 21
5579.1286418487
 31
0.0
  0
ARC
  5
127
330
1F
100
AcDbEntity
  8
0
  6
Continuous
 62
     7
370
    25
100
AcDbCircle
 10
6396.3157582276
 20
5577.9123062113
 30
0.0
 40
1.228271514751522
100
AcDbArc
 50
14.4739968369
 51
82.0058933877
  0
LWPOLYLINE
  5
128
330
1F
100
AcDbEntity
  8
0
  6
Continuous
 62
     7
370
    25
100
AcDbPolyline
 90
        5
 70
   128
 43
0.0
 10
6408.7081831603
 20
5535.2773034292
 10
6407.4820139787
 20
5531.7454898569
 10
6403.1947880274
 20
5519.6733136225
 10
6401.8726279157
 20
5516.0495082281
 10
6401.8726082267
 20
5516.0494545915
  0
LINE
  5
129
330
1F
100
AcDbEntity
  8
0
  6
Continuous
 62
     7
370
    25
100
AcDbLine
 10
6410.6333050915
 20
5554.9626093875
 30
0.0
 11
6410.3102603014
 21
5554.9494545914
 31
0.0
  0
LINE
  5
12A
330
1F
100
AcDbEntity
  8
0
  6
Continuous
 62
     7
370
    25
100
AcDbLine
 10
6411.1358666376
 20
5555.0134424615
 30
0.0
 11
6410.6333050915
 21
5554.9626093875
 31
0.0
  0
ARC
  5
12B
330
1F
100
AcDbEntity
  8
0
  6
Continuous
 62
     7
370
    25
100
AcDbCircle
 10
6220.7373091924
 20
5568.4164194121
 30
0.0
 40
190.8697211932167
100
AcDbArc
 50
350.0015433504
 51
355.9733449804
  0
LINE
  5
12C
330
1F
100
AcDbEntity
  8
0
  6
Continuous
 62
     7
370
    25
100
AcDbLine
 10
6379.175463545
 20
5576.5937104213
 30
0.0
 11
6393.5563813287
 21
5576.5937104212
 31
0.0
  0
ARC
  5
12D
330
1F
100
AcDbEntity
  8
0
  6
Continuous
 62
     7
370
    25
100
AcDbCircle
 10
6379.7514774483
 20
5576.8012071837
 30
0.0
 40
0.6122474362197047
100
AcDbArc
 50
131.9704546908
 51
199.8104776865
  0
LINE
  5
12E
330
1F
100
AcDbEntity
  8
0
  6
Continuous
 62
     7
370
    25
100
AcDbLine
 10
6379.3420386252
 20
5577.2564068908
 30
0.0
 11
6393.7229564089
 21
5577.2564068907
 31
0.0
  0
LINE
  5
12F
330
1F
100
AcDbEntity
  8
0
  6
Continuous
 62
     7
370
    25
100
AcDbLine
 10
6385.7786676668
 20
5555.2242033577
 30
0.0
 11
6400.1595854506
 21
5555.2242033576
 31
0.0
  0
LINE
  5
130
330
1F
100
AcDbEntity
  8
0
  6
Continuous
 62
     7
370
    25
100
AcDbLine
 10
6379.175463545
 20
5576.5937104213
 30
0.0
 11
6385.7786676668
 21
5555.2242033577
 31
0.0
  0
LINE
  5
131
330
1F
100
AcDbEntity
  8
0
  6
Continuous
 62
     7
370
    25
100
AcDbLine
 10
6404.2101767056
 20
5556.5199353859
 30
0.0
 11
6397.5050458457
 21
5578.2193011225
 31
0.0
  0
ARC
  5
132
330
1F
100
AcDbEntity
  8
0
  6
Continuous
 62
     7
370
    25
100
AcDbCircle
 10
6407.3258241264
 20
5557.4517981805
 30
0.0
 40
3.252018929631552
100
AcDbArc
 50
196.6514624396
 51
215.1630588917
  0
LINE
  5
133
330
1F
100
AcDbEntity
  8
0
  6
Continuous
 62
     7
370
    25
100
AcDbLine
 10
6403.4042227128
 20
5554.7232986819
 30
0.0
 11
6404.6672453842
 21
5555.5789430899
 31
0.0
  0
LINE
  5
134
330
1F
100
AcDbEntity
  8
0
  6
Continuous
 62
     7
370
    25
100
AcDbLine
 10
6401.6040214467
 20
5553.5037385097
 30
0.0
 11
6403.4042227128
 21
5554.7232986819
 31
0.0
  0
ARC
  5
135
330
1F
100
AcDbEntity
  8
0
  6
Continuous
 62
     7
370
    25
100
AcDbCircle
 10
6397.3603502625
 20
5554.3896577748
 30
0.0
 40
4.335158366606086
100
AcDbArc
 50
348.2081483221
 51
16.7668577531
  0
LINE
  5
136
330
1F
100
AcDbEntity
  8
0
  6
Continuous
 62
     7
370
    25
100
AcDbLine
 10
6382.1056576893
 20
5579.1286418488
 30
0.0
 11
6379.3420386252
 21
5577.2564068908
 31
0.0
  0
LINE
  5
137
330
1F
100
AcDbEntity
  8
0
  6
Continuous
 62
     7
370
    25
100
AcDbLine
 10
6382.1056576893
 20
5579.1286418488
 30
0.0
 11
6396.486575473
 21
5579.1286418487
 31
0.0
  0
ARC
  5
138
330
1F
100
AcDbEntity
  8
0
  6
Continuous
 62
     7
370
    25
100
AcDbCircle
 10
6399.7004324489
 20
5551.948951552
 30
0.0
 40
0.6434674839700647
100
AcDbArc
 50
15.3001695777
 51
76.0413482456
  0
LINE
  5
139
330
1F
100
AcDbEntity
  8
0
  6
Continuous
 62
     7
370
    25
100
AcDbLine
 10
6383.6370397272
 20
5550.897810724
 30
0.0
 11
6384.4800019555
 21
5548.1697885457
 31
0.0
  0
LINE
  5
13A
330
1F
100
AcDbEntity
  8
0
  6
Continuous
 62
     7
370
    25
100
AcDbLine
 10
6383.6370397272
 20
5550.897810724
 30
0.0
 11
6388.0547139148
 21
5552.0017920958
 31
0.0
  0
LINE
  5
13B
330
1F
100
AcDbEntity
  8
0
  6
Continuous
 62
     7
370
    25
100
AcDbLine
 10
6388.0547139148
 20
5552.0017920958
 30
0.0
 11
6388.897676143
 21
5549.2737699175
 31
0.0
  0
LINE
  5
13C
330
1F
100
AcDbEntity
  8
0
  6
Continuous
 62
     7
370
    25
100
AcDbLine
 10
6388.686705343
 20
5554.7261341811
 30
0.0
 11
6384.2690311554
 21
5553.6221528093
 31
0.0
  0
LINE
  5
13D
330
1F
100
AcDbEntity
  8
0
  6
Continuous
 62
     7
370
    25
100
AcDbLine
 10
6390.5795467227
 20
5553.9159538243
 30
0.0
 11
6388.686705343
 21
5554.7261341811
 31
0.0
  0
LINE
  5
13E
330
1F
100
AcDbEntity
  8
0
  6
Continuous
 62
     7
370
    25
100
AcDbLine
 10
6388.0547139148
 20
5552.0017920958
 30
0.0
 11
6390.5795467227
 21
5553.9159538243
 31
0.0
  0
LINE
  5
13F
330
1F
100
AcDbEntity
  8
0
  6
Continuous
 62
     7
370
    25
100
AcDbLine
 10
6381.7441983475
 20
5551.7079910808
 30
0.0
 11
6383.6370397272
 21
5550.897810724
 31
0.0
  0
LINE
  5
140
330
1F
100
AcDbEntity
  8
0
  6
Continuous
 62
     7
370
    25
100
AcDbLine
 10
6384.2690311554
 20
5553.6221528093
 30
0.0
 11
6381.7441983475
 21
5551.7079910808
 31
0.0
  0
LWPOLYLINE
  5
141
330
1F
100
AcDbEntity
  8
0
  6
Continuous
 62
     7
370
    25
100
AcDbPolyline
 90
       17
 70
   128
 43
0.0
 10
6387.4242676366
 20
5553.6671917085
 10
6386.7480489244
 20
5553.6020920189
 10
6385.9825901706
 20
5553.4167037879
 10
6385.2444255315
 20
5553.1392506929
 10
6384.6459338821
 20
5552.8119724526
 10
6384.2782301506
 20
5552.4846942123
 10
6384.1972938969
 20
5552.2072411173
 10
6384.4154469319
 20
5552.0218528862
 10
6384.8994774336
 20
5551.9567531966
 10
6385.5756961458
 20
5552.0218528862
 10
6386.3411548996
 20
5552.2072411172
 10
6387.0793195386
 20
5552.4846942122
 10
6387.677811188
 20
5552.8119724525
 10
6388.0455149196
 20
5553.1392506928
 10
6388.1264511733
 20
5553.4167037878
 10
6387.9082981383
 20
5553.6020920189
 10
6387.4242676366
 20
5553.6671917085
  0
LINE
  5
142
330
1F
100
AcDbEntity
  8
0
  6
Continuous
 62
     7
370
    25
100
AcDbLine
 10
6390.5795467227
 20
5553.9159538243
 30
0.0
 11
6391.4225089509
 21
5551.187931646
 31
0.0
  0
LWPOLYLINE
  5
143
330
1F
100
AcDbEntity
  8
0
  6
Continuous
 62
     7
370
    25
100
AcDbPolyline
 90
        9
 70
   128
 43
0.0
 10
6412.1460688442
 20
5556.3919989321
 10
6412.5412389422
 20
5556.2804180558
 10
6414.6270571466
 20
5555.6296923455
 10
6416.6253070002
 20
5554.8909603877
 10
6418.2044111064
 20
5554.1977369812
 10
6419.583102906
 20
5553.4690546708
 10
6421.3459027305
 20
5552.1402455681
 10
6421.9074230727
 20
5550.9737185435
 10
6421.840624024
 20
5550.7994507979
  0
ARC
  5
144
330
1F
100
AcDbEntity
  8
0
  6
Continuous
 62
     7
370
    25
100
AcDbCircle
 10
6174.6968865055
 20
5584.2161478743
 30
0.0
 40
239.0738326493632
100
AcDbArc
 50
348.187956595
 51
353.3165945997
  0
LINE
  5
145
330
1F
100
AcDbEntity
  8
0
  6
Continuous
 62
     7
370
    25
100
AcDbLine
 10
6381.7441983475
 20
5551.7079910808
 30
0.0
 11
6382.5871605758
 21
5548.9799689024
 31
0.0
  0
LINE
  5
146
330
1F
100
AcDbEntity
  8
0
  6
Continuous
 62
     7
370
    25
100
AcDbLine
 10
6399.8556507089
 20
5552.5734174796
 30
0.0
 11
6400.2046035471
 21
5552.851689946
 31
0.0
  0
ARC
  5
147
330
1F
100
AcDbEntity
  8
0
  6
Continuous
 62
     7
370
    25
100
AcDbCircle
 10
6400.7980240063
 20
5551.281413114
 30
0.0
 40
1.678665294335363
100
AcDbArc
 50
89.8808249145
 51
110.7019888029
  0
ARC
  5
148
330
1F
100
AcDbEntity
  8
0
  6
Continuous
 62
     7
370
    25
100
AcDbCircle
 10
6400.1475095487
 20
5552.3511293114
 30
0.0
 40
0.8936098288727108
100
AcDbArc
 50
25.2030922503
 51
42.9566214786
  0
ARC
  5
149
330
1F
100
AcDbEntity
  8
0
  6
Continuous
 62
     7
370
    25
100
AcDbCircle
 10
6397.3923483032
 20
5554.3904714938
 30
0.0
 40
2.890105577724036
100
AcDbArc
 50
348.208148322
 51
16.7668577532
  0
ARC
  5
14A
330
1F
100
AcDbEntity
  8
0
  6
Continuous
 62
     7
370
    25
100
AcDbCircle
 10
6403.4549242047
 20
5553.2681319706
 30
0.0
 40
3.276890040349933
100
AcDbArc
 50
170.6615730367
 51
187.3011506335
  0
ARC
  5
14B
330
1F
100
AcDbEntity
  8
0
  6
Continuous
 62
     7
370
    25
100
AcDbCircle
 10
6400.124594065
 20
5549.972005147
 30
0.0
 40
3.829078991464637
100
AcDbArc
 50
67.2714070825
 51
88.5503719195
  0
LINE
  5
14C
330
1F
100
AcDbEntity
  8
0
  6
Continuous
 62
     7
370
    25
100
AcDbLine
 10
6400.8015156236
 20
5552.9600747771
 30
0.0
 11
6401.6040214467
 21
5553.5037385097
 31
0.0
  0
ARC
  5
14D
330
1F
100
AcDbEntity
  8
0
  6
Continuous
 62
     7
370
    25
100
AcDbCircle
 10
6403.2668195259
 20
5554.1026640601
 30
0.0
 40
0.6356626223597408
100
AcDbArc
 50
15.1346651061
 51
77.5165610706
  0
LINE
  5
14E
330
1F
100
AcDbEntity
  8
0
  6
Continuous
 62
     7
370
    25
100
AcDbLine
 10
6403.4042227128
 20
5554.7232986819
 30
0.0
 11
6404.50665823
 21
5555.4041249545
 31
0.0
  0
ARC
  5
14F
330
1F
100
AcDbEntity
  8
0
  6
Continuous
 62
     7
370
    25
100
AcDbCircle
 10
6404.3747879138
 20
5554.7847169309
 30
0.0
 40
0.6332898862210973
100
AcDbArc
 50
15.0777725028
 51
77.9813205467
  0
LWPOLYLINE
  5
150
330
1F
100
AcDbEntity
  8
0
  6
Continuous
 62
     7
370
    25
100
AcDbPolyline
 90
        4
 70
   128
 43
0.0
 10
6404.920940299
 20
5555.9497293902
 10
6404.9304264891
 20
5555.868954756
 10
6404.8473064978
 20
5555.7289317113
 10
6404.6672453842
 20
5555.5789430899
  0
LINE
  5
151
330
1F
100
AcDbEntity
  8
0
  6
Continuous
 62
     7
370
    25
100
AcDbLine
 10
6405.1235251351
 20
5555.9497293902
 30
0.0
 11
6404.920940299
 21
5555.9497293902
 31
0.0
  0
ARC
  5
152
330
1F
100
AcDbEntity
  8
0
  6
Continuous
 62
     7
370
    25
100
AcDbCircle
 10
6404.2308756112
 20
5556.337448855
 30
0.0
 40
0.973216089079808
100
AcDbArc
 50
286.4615860944
 51
336.5224378464
  0
LWPOLYLINE
  5
153
330
1F
100
AcDbEntity
  8
0
  6
Continuous
 62
     7
370
    25
100
AcDbPolyline
 90
        9
 70
   128
 43
0.0
 10
6405.4062521909
 20
5555.9497293902
 10
6405.3327342681
 20
5556.0263623213
 10
6405.2977823852
 20
5556.043590538
 10
6405.2802095176
 20
5556.0479357783
 10
6405.2797615288
 20
5556.0480094612
 10
6405.2710407439
 20
5556.0490784375
 10
6405.2665912946
 20
5556.0493565677
 10
6405.2638407405
 20
5556.0494383253
 10
6405.2619499124
 20
5556.0494545914
  0
LINE
  5
154
330
1F
100
AcDbEntity
  8
0
  6
Continuous
 62
     7
370
    25
100
AcDbLine
 10
6405.2619499124
 20
5556.0494545914
 30
0.0
 11
6409.5248447832
 21
5556.0494545914
 31
0.0
  0
ARC
  5
155
330
1F
100
AcDbEntity
  8
0
  6
Continuous
 62
     7
370
    25
100
AcDbCircle
 10
6409.336052211
 20
5555.0842551514
 30
0.0
 40
0.9834900072671093
100
AcDbArc
 50
352.1220422596
 51
78.9327016381
  0
ARC
  5
156
330
1F
100
AcDbEntity
  8
0
  6
Continuous
 62
     7
370
    25
100
AcDbCircle
 10
6404.3548312511
 20
5555.8028767192
 30
0.0
 40
1.061626911687767
100
AcDbArc
 50
306.4976362238
 51
7.9511032706
  0
ARC
  5
157
330
1F
100
AcDbEntity
  8
0
  6
Continuous
 62
     7
370
    25
100
AcDbCircle
 10
6405.264888663
 20
5555.4429436604
 30
0.0
 40
0.5261325146157183
100
AcDbArc
 50
74.4140120605
 51
105.5859879386
  0
LWPOLYLINE
  5
158
330
1F
100
AcDbEntity
  8
0
  6
Continuous
 62
     7
370
    25
100
AcDbPolyline
 90
        9
 70
   128
 43
0.0
 10
6405.1235251351
 20
5555.9497293902
 10
6405.1945604966
 20
5556.026632227
 10
6405.2279094473
 20
5556.0436739119
 10
6405.244618396
 20
5556.0479586568
 10
6405.2449150792
 20
5556.0480094612
 10
6405.2532588964
 20
5556.0490785718
 10
6405.2575134667
 20
5556.0493566176
 10
6405.2601422231
 20
5556.0494383252
 10
6405.2619499124
 20
5556.0494545914
  0
ARC
  5
159
330
1F
100
AcDbEntity
  8
0
  6
Continuous
 62
     7
370
    25
100
AcDbCircle
 10
6405.2367422724
 20
5555.4997896196
 30
0.0
 40
0.5497059973491063
100
AcDbArc
 50
90.7000067129
 51
125.0640994959
  0
LINE
  5
15A
330
1F
100
AcDbEntity
  8
0
  6
Continuous
 62
     7
370
    25
100
AcDbLine
 10
6405.2300264494
 20
5556.0494545915
 30
0.0
 11
6405.2619499124
 21
5556.0494545914
 31
0.0
  0
LINE
  5
15B
330
1F
100
AcDbEntity
  8
0
  6
Continuous
 62
     7
370
    25
100
AcDbLine
 10
6404.6242877262
 20
5556.0494545915
 30
0.0
 11
6405.2300264494
 21
5556.0494545915
 31
0.0
  0
ARC
  5
15C
330
1F
100
AcDbEntity
  8
0
  6
Continuous
 62
     7
370
    25
100
AcDbCircle
 10
6413.0069990656
 20
5554.6011262011
 30
0.0
 40
1.916022249711512
100
AcDbArc
 50
123.1141700406
 51
167.5730979894
  0
LINE
  5
15D
330
1F
100
AcDbEntity
  8
0
  6
Continuous
 62
     7
370
    25
100
AcDbLine
 10
6412.1460688442
 20
5556.3919989321
 30
0.0
 11
6411.9602586292
 21
5556.2059550768
 31
0.0
  0
ARC
  5
15E
330
1F
100
AcDbEntity
  8
0
  6
Continuous
 62
     7
370
    25
100
AcDbCircle
 10
6405.5759002761
 20
5557.1291875963
 30
0.0
 40
2.388063864244027
100
AcDbArc
 50
333.1190992801
 51
5.8946716979
  0
LINE
  5
15F
330
1F
100
AcDbEntity
  8
0
  6
Continuous
 62
     7
370
    25
100
AcDbLine
 10
6409.8668022843
 20
5556.0494545914
 30
0.0
 11
6411.9602586292
 21
5556.2059550768
 31
0.0
  0
LWPOLYLINE
  5
160
330
1F
100
AcDbEntity
  8
0
  6
Continuous
 62
     7
370
    25
100
AcDbPolyline
 90
        3
 70
   128
 43
0.0
 10
6407.9513369473
 20
5557.3744418329
 10
6410.0250428793
 20
5556.9335624832
 10
6412.1460688442
 20
5556.3919989321
  0
ARC
  5
161
330
1F
100
AcDbEntity
  8
0
  6
Continuous
 62
     7
370
    25
100
AcDbCircle
 10
6409.6670766216
 20
5555.0948846096
 30
0.0
 40
0.9752405807981374
100
AcDbArc
 50
352.2047505134
 51
78.182425087
  0
LINE
  5
162
330
1F
100
AcDbEntity
  8
0
  6
Continuous
 62
     7
370
    25
100
AcDbLine
 10
6409.5248447832
 20
5556.0494545914
 30
0.0
 11
6409.8668022843
 21
5556.0494545914
 31
0.0
  0
ARC
  5
163
330
1F
100
AcDbEntity
  8
0
  6
Continuous
 62
     7
370
    25
100
AcDbCircle
 10
6400.0548225193
 20
5517.2736438441
 30
0.0
 40
40.87088131483174
100
AcDbArc
 50
78.8600365389
 51
84.3498781935
  0
LINE
  5
164
330
1F
100
AcDbEntity
  8
0
  6
Continuous
 62
     7
370
    25
100
AcDbLine
 10
6407.1895366787
 20
5564.2703256603
 30
0.0
 11
6405.5901532496
 21
5557.7638216808
 31
0.0
  0
LINE
  5
165
330
1F
100
AcDbEntity
  8
0
  6
Continuous
 62
     7
370
    25
100
AcDbLine
 10
6407.1895366787
 20
5564.2703256603
 30
0.0
 11
6417.6242954767
 21
5561.2802070827
 31
0.0
  0
LINE
  5
166
330
1F
100
AcDbEntity
  8
0
  6
Continuous
 62
     7
370
    25
100
AcDbLine
 10
6417.6242954767
 20
5561.2802070827
 30
0.0
 11
6416.1013497626
 21
5555.0846618686
 31
0.0
  0
LINE
  5
167
330
1F
100
AcDbEntity
  8
0
  6
Continuous
 62
     7
370
    25
100
AcDbLine
 10
6402.2246445558
 20
5563.9461251792
 30
0.0
 11
6407.1895366787
 21
5564.2703256603
 31
0.0
  0
LINE
  5
168
330
1F
100
AcDbEntity
  8
0
  6
Continuous
 62
     7
370
    25
100
AcDbLine
 10
6420.8996403518
 20
5557.8225888333
 30
0.0
 11
6419.7909684344
 21
5553.3123643862
 31
0.0
  0
LINE
  5
169
330
1F
100
AcDbEntity
  8
0
  6
Continuous
 62
     7
370
    25
100
AcDbLine
 10
6417.6242954767
 20
5561.2802070827
 30
0.0
 11
6420.8996403518
 21
5557.8225888333
 31
0.0
  0
LWPOLYLINE
  5
16A
330
1F
100
AcDbEntity
  8
0
  6
Continuous
 62
     7
370
    25
100
AcDbPolyline
 90
       18
 70
   128
 43
0.0
 10
6401.9266167102
 20
5564.910612727
 10
6403.1229982432
 20
5564.9550034007
 10
6404.7268758405
 20
5564.8944835322
 10
6406.5066159685
 20
5564.7147627921
 10
6408.4081421241
 20
5564.4213019042
 10
6410.3736773971
 20
5564.0230175291
 10
6412.3434999929
 20
5563.532011336
 10
6414.2577578488
 20
5562.9632022996
 10
6416.0582872085
 20
5562.3338733947
 10
6417.6903798984
 20
5561.6631464615
 10
6419.104445608
 20
5560.9714011986
 10
6420.2575186664
 20
5560.2796559356
 10
6421.1145635322
 20
5559.6089290025
 10
6421.6495393307
 20
5558.9796000975
 10
6421.846191093
 20
5558.4107910612
 10
6421.6985436549
 20
5557.9197848681
 10
6421.211083209
 20
5557.521500493
 10
6420.780712683
 20
5557.3387752988
  0
LWPOLYLINE
  5
16B
330
1F
100
AcDbEntity
  8
0
  6
Continuous
 62
     7
370
    25
100
AcDbPolyline
 90
       20
 70
   128
 43
0.0
 10
6401.7839792924
 20
5565.3722206451
 10
6402.3343757723
 20
5565.3800103114
 10
6404.0105967355
 20
5565.3198826292
 10
6405.8642348554
 20
5565.1411397093
 10
6407.8447277163
 20
5564.8486571926
 10
6409.8980526358
 20
5564.4504132395
 10
6411.9682002625
 20
5563.9572709071
 10
6413.9987023657
 20
5563.3826818327
 10
6415.9341721413
 20
5562.7423193082
 10
6417.721815019
 20
5562.0536507542
 10
6419.3128687612
 20
5561.3354612535
 10
6420.6639335694
 20
5560.6073411436
 10
6421.7381559176
 20
5559.8891516429
 10
6422.5062338205
 20
5559.2004830889
 10
6422.947216115
 20
5558.5601205645
 10
6423.0490739537
 20
5557.98553149
 10
6422.8090289204
 20
5557.4923891577
 10
6422.2336288177
 20
5557.0941452046
 10
6421.3385690605
 20
5556.8016626879
 10
6420.6175314085
 20
5556.6749322249
  0
LWPOLYLINE
  5
16C
330
1F
100
AcDbEntity
  8
0
  6
Continuous
 62
     7
370
    25
100
AcDbPolyline
 90
       12
 70
   128
 43
0.0
 10
6403.9775487981
 20
5568.677908816
 10
6405.593035026
 20
5568.6169509135
 10
6407.3856566517
 20
5568.4359293811
 10
6409.3009457744
 20
5568.1403444664
 10
6411.2807073031
 20
5567.7391773675
 10
6413.2647871857
 20
5567.2446173437
 10
6415.1929001589
 20
5566.671691351
 10
6417.0064614857
 20
5566.0378074559
 10
6418.6503670229
 20
5565.3622258996
 10
6420.0746675325
 20
5564.665473886
 10
6421.2360863644
 20
5563.9687218724
 10
6421.9723402121
 20
5563.4078103823
  0
LWPOLYLINE
  5
16D
330
1F
100
AcDbEntity
  8
0
  6
Continuous
 62
     7
370
    25
100
AcDbPolyline
 90
        3
 70
   128
 43
0.0
 10
6402.4641086169
 20
5568.6042558893
 10
6402.5882836997
 20
5568.6169509136
 10
6403.9775487981
 20
5568.677908816
  0
ARC
  5
16E
330
1F
100
AcDbEntity
  8
0
  6
Continuous
 62
     7
370
    25
100
AcDbCircle
 10
6419.1043938575
 20
5567.1651112192
 30
0.0
 40
7.890119489167883
100
AcDbArc
 50
272.9738709
 51
285.2139575624
  0
LWPOLYLINE
  5
16F
330
1F
100
AcDbEntity
  8
0
  6
Continuous
 62
     8
370
    25
100
AcDbPolyline
 90
       14
 70
   128
 43
0.0
 10
6205.4347879591
 20
5806.8494550911
 10
6205.1745266715
 20
5806.8611107473
 10
6204.1509385763
 20
5807.1381499827
 10
6203.2226947708
 20
5807.7646051282
 10
6202.4586388516
 20
5808.6940148717
 10
6201.915437351
 20
5809.8574491441
 10
6201.6333770392
 20
5811.1686213478
 10
6201.6333770392
 20
5812.5302878388
 10
6201.915437351
 20
5813.8414600425
 10
6202.4586388517
 20
5815.0048943149
 10
6203.2226947709
 20
5815.9343040583
 10
6204.1509385764
 20
5816.5607592039
 10
6205.1745266716
 20
5816.8377984392
 10
6205.4396306887
 20
5816.8494529317
  0
LINE
  5
170
330
1F
100
AcDbEntity
  8
0
  6
Continuous
 62
     8
370
    25
100
AcDbLine
 10
6213.2508723288
 20
5791.8494545932
 30
0.0
 11
6223.2508701381
 21
5791.8494545931
 31
0.0
  0
LWPOLYLINE
  5
171
330
1F
100
AcDbEntity
  8
0
  6
Continuous
 62
     8
370
    25
100
AcDbPolyline
 90
       14
 70
   128
 43
0.0
 10
6170.1969857438
 20
5806.8494545936
 10
6169.9350113373
 20
5806.8611107476
 10
6168.9114232421
 20
5807.138149983
 10
6167.9831794366
 20
5807.7646051286
 10
6167.2191235175
 20
5808.694014872
 10
6166.6759220168
 20
5809.8574491444
 10
6166.393861705
 20
5811.1686213481
 10
6166.393861705
 20
5812.5302878391
 10
6166.6759220169
 20
5813.8414600429
 10
6167.2191235175
 20
5815.0048943152
 10
6167.9831794367
 20
5815.9343040587
 10
6168.9114232422
 20
5816.5607592042
 10
6169.9350113374
 20
5816.8377984395
 10
6170.1969857439
 20
5816.8494545936
  0
LINE
  5
172
330
1F
100
AcDbEntity
  8
0
  6
Continuous
 62
     8
370
    25
100
AcDbLine
 10
6162.3826120441
 20
5791.8494545937
 30
0.0
 11
6152.3826166295
 21
5791.8494545938
 31
0.0
  0
LWPOLYLINE
  5
173
330
1F
100
AcDbEntity
  8
0
  6
Continuous
 62
     8
370
    25
100
AcDbPolyline
 90
        7
 70
   128
 43
0.0
 10
6140.3169367354
 20
5576.1076694915
 10
6142.0778221457
 20
5576.0114896358
 10
6143.6021335865
 20
5575.7250985678
 10
6144.8558204591
 20
5575.2548937908
 10
6145.8108774704
 20
5574.6113789024
 10
6146.445970225
 20
5573.8089289618
 10
6146.5731806169
 20
5573.5363307602
  0
LWPOLYLINE
  5
174
330
1F
100
AcDbEntity
  8
0
  6
Continuous
 62
     8
370
    25
100
AcDbPolyline
 90
       17
 70
   128
 43
0.0
 10
6116.4014905559
 20
5561.4566321354
 10
6116.2277593727
 20
5562.1274935207
 10
6116.2676915145
 20
5563.190887426
 10
6116.6476053552
 20
5564.350461187
 10
6117.3590142473
 20
5565.5803118419
 10
6118.3860264917
 20
5566.8529665595
 10
6119.7057003321
 20
5568.1399963363
 10
6121.2885564355
 20
5569.4126510538
 10
6123.0992364122
 20
5570.6425017088
 10
6125.0972926635
 20
5571.8020754697
 10
6127.2380919144
 20
5572.865469375
 10
6129.4738122474
 20
5573.808928962
 10
6131.7545113645
 20
5574.6113789025
 10
6134.0292422161
 20
5575.2548937909
 10
6136.2471910741
 20
5575.7250985679
 10
6138.3588126259
 20
5576.0114896358
 10
6140.3169367354
 20
5576.1076694915
  0
LINE
  5
175
330
1F
100
AcDbEntity
  8
0
  6
Continuous
 62
     8
370
    25
100
AcDbLine
 10
6095.9910304335
 20
5499.2282146875
 30
0.0
 11
6095.9910304335
 21
5496.3245767676
 31
0.0
  0
LINE
  5
176
330
1F
100
AcDbEntity
  8
0
  6
Continuous
 62
     8
370
    25
100
AcDbLine
 10
6095.9910304335
 20
5494.7622100257
 30
0.0
 11
6095.9910304334
 21
5489.870694501
 31
0.0
  0
LINE
  5
177
330
1F
100
AcDbEntity
  8
0
  6
Continuous
 62
     8
370
    25
100
AcDbLine
 10
6452.0802505177
 20
5497.766862087
 30
0.0
 11
6452.0802505177
 21
5497.8379567707
 31
0.0
  0
LINE
  5
178
330
1F
100
AcDbEntity
  8
0
  6
Continuous
 62
     8
370
    25
100
AcDbLine
 10
6452.0802505177
 20
5491.2609524114
 30
0.0
 11
6452.0802505177
 21
5497.3086429046
 31
0.0
  0
LINE
  5
179
330
1F
100
AcDbEntity
  8
0
  6
Continuous
 62
     8
370
    25
100
AcDbLine
 10
6447.6628193694
 20
5517.0494545926
 30
0.0
 11
6412.7899044242
 21
5517.0494545926
 31
0.0
  0
LINE
  5
17A
330
1F
100
AcDbEntity
  8
0
  6
Continuous
 62
     8
370
    25
100
AcDbLine
 10
6379.093534128
 20
5517.0494545926
 30
0.0
 11
6168.919275217
 21
5517.0494545931
 31
0.0
  0
LINE
  5
17B
330
1F
100
AcDbEntity
  8
0
  6
Continuous
 62
     8
370
    25
100
AcDbLine
 10
6134.4498769864
 20
5517.0494545933
 30
0.0
 11
6101.6628193694
 21
5517.0494545926
 31
0.0
  0
LINE
  5
17C
330
1F
100
AcDbEntity
  8
0
  6
Continuous
 62
     8
370
    25
100
AcDbLine
 10
6449.6628193694
 20
5546.9994545926
 30
0.0
 11
6420.7509083934
 21
5546.9994545926
 31
0.0
  0
LINE
  5
17D
330
1F
100
AcDbEntity
  8
0
  6
Continuous
 62
     8
370
    25
100
AcDbLine
 10
6379.1153698742
 20
5546.9994545926
 30
0.0
 11
6168.5891676231
 21
5546.9994545926
 31
0.0
  0
LINE
  5
17E
330
1F
100
AcDbEntity
  8
0
  6
Continuous
 62
     8
370
    25
100
AcDbLine
 10
6123.3492435101
 20
5546.9994545926
 30
0.0
 11
6101.6628193694
 21
5546.9994545926
 31
0.0
  0
LINE
  5
17F
330
1F
100
AcDbEntity
  8
0
  6
Continuous
 62
     8
370
    25
100
AcDbLine
 10
6399.8556507089
 20
5552.5734174796
 30
0.0
 11
6392.5521206558
 21
5552.5734174796
 31
0.0
  0
ELLIPSE
  5
180
330
1F
100
AcDbEntity
  8
0
  6
Continuous
 62
     8
370
    25
100
AcDbEllipse
 10
6388.9096999439
 20
5550.2747180145
 30
0.0
 11
9.404914668413767
 21
3.239476637194457
 31
0.0
210
0.0
220
0.0
230
1.0
 40
0.3049633783
 41
2.559841670017295
 42
3.391110799470891
  0
ELLIPSE
  5
181
330
1F
100
AcDbEntity
  8
0
  6
Continuous
 62
     8
370
    25
100
AcDbEllipse
 10
6389.0501936486
 20
5549.8200476515
 30
0.0
 11
9.912236276961268
 21
3.210167095741781
 31
0.0
210
0.0
220
0.0
230
1.0
 40
0.2926606675
 41
3.047094155397121
 42
5.18490074922175
  0
ARC
  5
182
330
1F
100
AcDbEntity
  8
0
  6
Continuous
 62
     8
370
    25
100
AcDbCircle
 10
6396.7711570372
 20
5578.7273886636
 30
0.0
 40
0.4919255890940806
100
AcDbArc
 50
90.4186237448
 51
125.3454824656
  0
LWPOLYLINE
  5
183
330
1F
100
AcDbEntity
  8
0
  6
Continuous
 62
     8
370
    25
100
AcDbPolyline
 90
        6
 70
   128
 43
0.0
 10
6397.5050458457
 20
5578.2193011225
 10
6397.6106876136
 20
5578.3004688827
 10
6397.6839285709
 20
5578.3785174114
 10
6397.7219541087
 20
5578.4504473474
 10
6397.7233029269
 20
5578.5134944636
 10
6397.7229896922
 20
5578.5145291889
  0
LWPOLYLINE
  5
184
330
1F
100
AcDbEntity
  8
0
  6
Continuous
 62
     8
370
    25
100
AcDbPolyline
 90
        6
 70
   128
 43
0.0
 10
6404.2101767056
 20
5556.5199353859
 10
6404.3158184735
 20
5556.6011031461
 10
6404.3890594308
 20
5556.6791516748
 10
6404.4270849686
 20
5556.7510816108
 10
6404.4284337868
 20
5556.814128727
 10
6404.4281205521
 20
5556.8151634523
  0
ARC
  5
185
330
1F
100
AcDbEntity
  8
0
  6
Continuous
 62
     8
370
    25
100
AcDbCircle
 10
6679.7437065835
 20
5412.1920423513
 30
0.0
 40
288.2719309034685
100
AcDbArc
 50
157.538364221
 51
158.8828626955
  0
ARC
  5
186
330
1F
100
AcDbEntity
  8
0
  6
Continuous
 62
     8
370
    25
100
AcDbCircle
 10
6382.3902392535
 20
5578.7273886637
 30
0.0
 40
0.4919255891338726
100
AcDbArc
 50
90.4186237463
 51
125.3454824642
  0
ARC
  5
187
330
1F
100
AcDbEntity
  8
0
  6
Continuous
 62
     8
370
    25
100
AcDbCircle
 10
6383.0092565556
 20
5554.3906692893
 30
0.0
 40
2.892130174474862
100
AcDbArc
 50
352.721457156
 51
16.7506815948
  0
ARC
  5
188
330
1F
100
AcDbEntity
  8
0
  6
Continuous
 62
     8
370
    25
100
AcDbCircle
 10
6395.3400502483
 20
5521.5488664111
 30
0.0
 40
17.72306850016459
100
AcDbArc
 50
341.9228807734
 51
349.5100509322
  0
ELLIPSE
  5
189
330
1F
100
AcDbEntity
  8
0
  6
Continuous
 62
     8
370
    25
100
AcDbEllipse
 10
6379.9300948196
 20
5576.5550922711
 30
0.0
 11
1.055153535008685
 21
-0.02763722929830692
 31
0.0
210
0.0
220
0.0
230
1.0
 40
0.0255631457
 41
2.368356176007468
 42
3.153320967819149
  0
ELLIPSE
  5
18A
330
1F
100
AcDbEntity
  8
0
  6
Continuous
 62
     8
370
    25
100
AcDbEllipse
 10
6379.9300948196
 20
5576.5550922711
 30
0.0
 11
0.9076543735272936
 21
-0.5699220798833268
 31
0.0
210
0.0
220
0.0
230
1.0
 40
0.4502752336
 41
2.519478469976891
 42
2.937088511871107
  0
LWPOLYLINE
  5
18B
330
1F
100
AcDbEntity
  8
0
  6
Continuous
 62
     8
370
    25
100
AcDbPolyline
 90
        5
 70
   128
 43
0.0
 10
6385.7786676668
 20
5555.2242033577
 10
6385.6465923593
 20
5555.2321976843
 10
6385.5431935941
 20
5555.2558734466
 10
6385.4724449278
 20
5555.2943207984
 10
6385.4373784268
 20
5555.3450275043
  0
ARC
  5
18C
330
1F
100
AcDbEntity
  8
0
  6
Continuous
 62
     8
370
    25
100
AcDbCircle
 10
6382.0950633993
 20
5578.6433829112
 30
0.0
 40
0.485374572313359
100
AcDbArc
 50
88.7493034292
 51
123.6972782788
  0
LINE
  5
18D
330
1F
100
AcDbEntity
  8
0
  6
Continuous
 62
     8
370
    25
100
AcDbLine
 10
6404.2826426062
 20
5557.2859639809
 30
0.0
 11
6407.9513369473
 21
5557.3744418329
 31
0.0
  0
LWPOLYLINE
  5
18E
330
1F
100
AcDbEntity
  8
0
  6
Continuous
 62
     8
370
    25
100
AcDbPolyline
 90
        3
 70
   128
 43
0.0
 10
6402.8233494719
 20
5567.3692201932
 10
6401.3702686039
 20
5567.3090925111
 10
6401.1909053689
 20
5567.291546046
  0
LWPOLYLINE
  5
18F
330
1F
100
AcDbEntity
  8
0
  6
Continuous
 62
     8
370
    25
100
AcDbPolyline
 90
       16
 70
   128
 43
0.0
 10
6423.5210380124
 20
5559.883699484
 10
6423.5380476533
 20
5559.9747413719
 10
6423.4361898145
 20
5560.5493304463
 10
6422.99520752
 20
5561.1896929707
 10
6422.2271296172
 20
5561.8783615247
 10
6421.152907269
 20
5562.5965510254
 10
6419.8018424607
 20
5563.3246711353
 10
6418.2107887185
 20
5564.042860636
 10
6416.4231458408
 20
5564.73152919
 10
6414.4876760653
 20
5565.3718917145
 10
6412.457173962
 20
5565.9464807889
 10
6410.3870263353
 20
5566.4396231213
 10
6408.3337014159
 20
5566.8378670744
 10
6406.353208555
 20
5567.1303495911
 10
6404.499570435
 20
5567.309092511
 10
6402.8233494719
 20
5567.3692201932
  0
ARC
  5
190
330
1F
100
AcDbEntity
  8
0
  6
Continuous
 62
     7
370
    25
100
AcDbCircle
 10
6743.9168547898
 20
5553.8494545938
 30
0.0
 40
9.07424242424369
100
AcDbArc
 50
129.5189414704
 51
157.5742940009
  0
ARC
  5
191
330
1F
100
AcDbEntity
  8
0
  6
Continuous
 62
     7
370
    25
100
AcDbCircle
 10
6743.8083699413
 20
5553.8494545938
 30
0.0
 40
9.07424242424369
100
AcDbArc
 50
19.1038226157
 51
50.4810585296
  0
LINE
  5
192
330
1F
100
AcDbEntity
  8
0
  6
Continuous
 62
     7
370
    25
100
AcDbLine
 10
6738.8626123656
 20
5791.8494545938
 30
0.0
 11
6738.8626123656
 21
5560.8494545938
 31
0.0
  0
LINE
  5
193
330
1F
100
AcDbEntity
  8
0
  6
Continuous
 62
     7
370
    25
100
AcDbLine
 10
6748.8626123656
 20
5560.8494545938
 30
0.0
 11
6748.8626123656
 21
5791.8494545938
 31
0.0
  0
LWPOLYLINE
  5
194
330
1F
100
AcDbEntity
  8
0
  6
Continuous
 62
     7
370
    25
100
AcDbPolyline
 90
       13
 70
   128
 43
0.0
 10
6748.8626123656
 20
5791.8494545938
 10
6748.889617959
 20
5792.9150708177
 10
6749.1070288898
 20
5795.0397919878
 10
6749.5359432929
 20
5797.0935001492
 10
6750.1623625454
 20
5799.0297490338
 10
6750.9661924724
 20
5800.8077098423
 10
6751.9220754621
 20
5802.3923173969
 10
6753.0002830104
 20
5803.755167972
 10
6754.1703687463
 20
5804.8776708105
 10
6755.4053132752
 20
5805.7507817011
 10
6756.6875848197
 20
5806.3728400099
 10
6758.0155857519
 20
5806.7427160266
 10
6759.2181306469
 20
5806.8494545937
  0
LWPOLYLINE
  5
195
330
1F
100
AcDbEntity
  8
0
  6
Continuous
 62
     7
370
    25
100
AcDbPolyline
 90
       16
 70
   128
 43
0.0
 10
6759.2181306469
 20
5816.8494545937
 10
6757.7765733761
 20
5816.7874870582
 10
6755.5001729703
 20
5816.434143174
 10
6753.2804876356
 20
5815.7751432421
 10
6751.1410321684
 20
5814.8197809536
 10
6749.1039433225
 20
5813.5782409156
 10
6747.1916514325
 20
5812.0626199287
 10
6745.4271458861
 20
5810.2882886293
 10
6743.8334249495
 20
5808.2750432036
 10
6742.4323424774
 20
5806.0475020437
 10
6741.243343383
 20
5803.6345867147
 10
6740.282563389
 20
5801.0683850493
 10
6739.5624860096
 20
5798.3828950887
 10
6739.0920544751
 20
5795.613048989
 10
6738.8769894777
 20
5792.7941609676
 10
6738.8626123656
 20
5791.8494545938
  0
LINE
  5
196
330
1F
100
AcDbEntity
  8
0
  6
Continuous
 62
     7
370
    25
100
AcDbLine
 10
6752.7646719162
 20
5548.8494545938
 30
0.0
 11
6752.7646719162
 21
5554.5275079028
 31
0.0
  0
LINE
  5
197
330
1F
100
AcDbEntity
  8
0
  6
Continuous
 62
     7
370
    25
100
AcDbLine
 10
6801.4458059205
 20
5816.8494545934
 30
0.0
 11
6759.2181306469
 21
5816.8494545937
 31
0.0
  0
LINE
  5
198
330
1F
100
AcDbEntity
  8
0
  6
Continuous
 62
     7
370
    25
100
AcDbLine
 10
6759.2181306469
 20
5806.8494545937
 30
0.0
 11
6801.4458059205
 21
5806.8494545934
 31
0.0
  0
LWPOLYLINE
  5
199
330
1F
100
AcDbEntity
  8
0
  6
Continuous
 62
     7
370
    25
100
AcDbPolyline
 90
       13
 70
   128
 43
0.0
 10
6801.4458059205
 20
5806.8494545934
 10
6802.0296731864
 20
5806.8243365594
 10
6803.4986049955
 20
5806.5369962314
 10
6804.7819619357
 20
5806.0138814386
 10
6806.1378419338
 20
5805.159185138
 10
6807.3928629019
 20
5804.0441287933
 10
6808.5303133062
 20
5802.6898080632
 10
6809.5313016019
 20
5801.1168056128
 10
6810.3738172536
 20
5799.3515274252
 10
6811.0363954677
 20
5797.4270764389
 10
6811.5007157519
 20
5795.3831132547
 10
6811.7537676427
 20
5793.2629077921
 10
6811.8013242018
 20
5791.8494545933
  0
LWPOLYLINE
  5
19A
330
1F
100
AcDbEntity
  8
0
  6
Continuous
 62
     7
370
    25
100
AcDbPolyline
 90
       16
 70
   128
 43
0.0
 10
6821.8013242018
 20
5791.8494545933
 10
6821.7614675925
 20
5793.4218796256
 10
6821.4887681307
 20
5796.2374575184
 10
6820.9592529081
 20
5799.0027253781
 10
6820.1771986177
 20
5801.6823583695
 10
6819.1493513147
 20
5804.2422546577
 10
6817.8855905597
 20
5806.6480720019
 10
6816.3993729389
 20
5808.8660254614
 10
6814.7085354236
 20
5810.8632857414
 10
6812.8359133082
 20
5812.6091413916
 10
6810.8093719855
 20
5814.0767193779
 10
6808.6608672288
 20
5815.2448512054
 10
6806.424570442
 20
5816.099356775
 10
6804.1346371359
 20
5816.633157255
 10
6801.9600141667
 20
5816.8415790541
 10
6801.4458059205
 20
5816.8494545934
  0
LINE
  5
19B
330
1F
100
AcDbEntity
  8
0
  6
Continuous
 62
     7
370
    25
100
AcDbLine
 10
6821.8013242018
 20
5771.8494545933
 30
0.0
 11
6821.8013242018
 21
5791.8494545933
 31
0.0
  0
LINE
  5
19C
330
1F
100
AcDbEntity
  8
0
  6
Continuous
 62
     7
370
    25
100
AcDbLine
 10
6811.8013242018
 20
5791.8494545933
 30
0.0
 11
6811.8013242018
 21
5771.8494545933
 31
0.0
  0
LINE
  5
19D
330
1F
100
AcDbEntity
  8
0
  6
Continuous
 62
     7
370
    25
100
AcDbLine
 10
6754.7807036584
 20
5516.0494545927
 30
0.0
 11
6754.7807036584
 21
5517.1744545939
 31
0.0
  0
LINE
  5
19E
330
1F
100
AcDbEntity
  8
0
  6
Continuous
 62
     7
370
    25
100
AcDbLine
 10
6719.2885443336
 20
5517.0494545939
 30
0.0
 11
6719.2885443336
 21
5516.0494545939
 31
0.0
  0
ARC
  5
19F
330
1F
100
AcDbEntity
  8
0
  6
Continuous
 62
     7
370
    25
100
AcDbCircle
 10
6722.7904609149
 20
5571.5753487025
 30
0.0
 40
5.514562484370274
100
AcDbArc
 50
32.1514491295
 51
97.0826808409
  0
LWPOLYLINE
  5
1A0
330
1F
100
AcDbEntity
  8
0
  6
Continuous
 62
     7
370
    25
100
AcDbPolyline
 90
       10
 70
   128
 43
0.0
 10
6702.5073490807
 20
5569.0955584699
 10
6702.3659291645
 20
5568.9875956634
 10
6700.9724950332
 20
5567.7528246236
 10
6699.7863848974
 20
5566.4924234048
 10
6698.8303764876
 20
5565.1952753547
 10
6698.1434941796
 20
5563.8272424424
 10
6697.8551866557
 20
5562.7005943359
 10
6697.8418077288
 20
5561.6475888622
 10
6698.0948804367
 20
5560.6613627121
 10
6698.2402459078
 20
5560.4177803533
  0
ARC
  5
1A1
330
1F
100
AcDbEntity
  8
0
  6
Continuous
 62
     7
370
    25
100
AcDbCircle
 10
6722.7378400865
 20
5554.1484119253
 30
0.0
 40
22.90801036865363
100
AcDbArc
 50
91.5692341054
 51
109.5555487836
  0
LINE
  5
1A2
330
1F
100
AcDbEntity
  8
0
  6
Continuous
 62
     7
370
    25
100
AcDbLine
 10
6698.1810534319
 20
5560.4674638728
 30
0.0
 11
6702.2496459066
 21
5551.9869829112
 31
0.0
  0
LINE
  5
1A3
330
1F
100
AcDbEntity
  8
0
  6
Continuous
 62
     7
370
    25
100
AcDbLine
 10
6731.5518923686
 20
5566.0450180614
 30
0.0
 11
6727.4832998938
 21
5574.525499023
 31
0.0
  0
LINE
  5
1A4
330
1F
100
AcDbEntity
  8
0
  6
Continuous
 62
     7
370
    25
100
AcDbLine
 10
6706.5249266247
 20
5544.2316082711
 30
0.0
 11
6707.1352154959
 21
5542.9595361269
 31
0.0
  0
LINE
  5
1A5
330
1F
100
AcDbEntity
  8
0
  6
Continuous
 62
     7
370
    25
100
AcDbLine
 10
6735.5358543743
 20
5556.5850163494
 30
0.0
 11
6734.9255655031
 21
5557.8570884937
 31
0.0
  0
LINE
  5
1A6
330
1F
100
AcDbEntity
  8
0
  6
Continuous
 62
     7
370
    25
100
AcDbLine
 10
6706.8462551314
 20
5542.983877211
 30
0.0
 11
6719.2885443336
 21
5517.0494545939
 31
0.0
  0
LINE
  5
1A7
330
1F
100
AcDbEntity
  8
0
  6
Continuous
 62
     7
370
    25
100
AcDbLine
 10
6754.7807036584
 20
5517.0494545939
 30
0.0
 11
6735.6976978016
 21
5556.8256348974
 31
0.0
  0
LINE
  5
1A8
330
1F
100
AcDbEntity
  8
0
  6
Continuous
 62
     7
370
    25
100
AcDbLine
 10
6732.8969484404
 20
5556.8838399064
 30
0.0
 11
6730.4008689873
 21
5562.0866107446
 31
0.0
  0
LINE
  5
1A9
330
1F
100
AcDbEntity
  8
0
  6
Continuous
 62
     7
370
    25
100
AcDbLine
 10
6706.0574642343
 20
5550.4076276967
 30
0.0
 11
6708.5535436874
 21
5545.2048568585
 31
0.0
  0
ARC
  5
1AA
330
1F
100
AcDbEntity
  8
0
  6
Continuous
 62
     7
370
    25
100
AcDbCircle
 10
6734.578102774
 20
4623.0887890666
 30
0.0
 40
12.56019533952499
100
AcDbArc
 50
273.3026742176
 51
320.2033747531
  0
ARC
  5
1AB
330
1F
100
AcDbEntity
  8
0
  6
Continuous
 62
     7
370
    25
100
AcDbCircle
 10
6716.0253041413
 20
4623.0887890666
 30
0.0
 40
12.56019533952499
100
AcDbArc
 50
219.7966252469
 51
266.6973257824
  0
ARC
  5
1AC
330
1F
100
AcDbEntity
  8
0
  6
Continuous
 62
     7
370
    25
100
AcDbCircle
 10
7014.5781027741
 20
4623.0887890654
 30
0.0
 40
12.56019533952535
100
AcDbArc
 50
273.3026742176
 51
320.2033747507
  0
ARC
  5
1AD
330
1F
100
AcDbEntity
  8
0
  6
Continuous
 62
     7
370
    25
100
AcDbCircle
 10
6996.0253041413
 20
4623.0887890654
 30
0.0
 40
12.5601953395253
100
AcDbArc
 50
219.7966252493
 51
266.6973257824
  0
LINE
  5
1AE
330
1F
100
AcDbEntity
  8
0
  6
Continuous
 62
     7
370
    25
100
AcDbLine
 10
7039.3017034577
 20
4615.0494545927
 30
0.0
 11
7039.3017034577
 21
5484.0494545927
 31
0.0
  0
ARC
  5
1AF
330
1F
100
AcDbEntity
  8
0
  6
Continuous
 62
     7
370
    25
100
AcDbCircle
 10
7039.8017034577
 20
5515.5494545927
 30
0.0
 40
0.5000000000009095
100
AcDbArc
 50
0.0
 51
90.0
  0
LINE
  5
1B0
330
1F
100
AcDbEntity
  8
0
  6
Continuous
 62
     7
370
    25
100
AcDbLine
 10
7040.3017034577
 20
5484.0494545927
 30
0.0
 11
7040.3017034577
 21
5515.5494545927
 31
0.0
  0
LWPOLYLINE
  5
1B1
330
1F
100
AcDbEntity
  8
0
  6
Continuous
 62
     7
370
    25
100
AcDbPolyline
 90
        3
 70
   128
 43
0.0
 10
6753.620359151
 20
5548.8494545939
 10
6753.4916225023
 20
5548.9746620813
 10
6753.2761744464
 20
5549.1529983048
  0
LINE
  5
1B2
330
1F
100
AcDbEntity
  8
0
  6
Continuous
 62
     7
370
    25
100
AcDbLine
 10
6755.0229393796
 20
5516.0494545917
 30
0.0
 11
6755.0229393796
 21
5546.6291642186
 31
0.0
  0
ARC
  5
1B3
330
1F
100
AcDbEntity
  8
0
  6
Continuous
 62
     7
370
    25
100
AcDbCircle
 10
6737.906090641
 20
5578.2193011228
 30
0.0
 40
0.9999999999996769
100
AcDbArc
 50
89.9999999994
 51
161.3544817637
  0
LINE
  5
1B4
330
1F
100
AcDbEntity
  8
0
  6
Continuous
 62
     7
370
    25
100
AcDbLine
 10
6736.9585759251
 20
5578.5390132794
 30
0.0
 11
6730.9916624843
 21
5560.8551743119
 31
0.0
  0
LINE
  5
1B5
330
1F
100
AcDbEntity
  8
0
  6
Continuous
 62
     7
370
    25
100
AcDbLine
 10
6751.0757225151
 20
5579.2193011227
 30
0.0
 11
6748.8626123656
 21
5579.2193011227
 31
0.0
  0
LINE
  5
1B6
330
1F
100
AcDbEntity
  8
0
  6
Continuous
 62
     7
370
    25
100
AcDbLine
 10
6738.8626123656
 20
5579.2193011228
 30
0.0
 11
6737.906090641
 21
5579.2193011228
 31
0.0
  0
ARC
  5
1B7
330
1F
100
AcDbEntity
  8
0
  6
Continuous
 62
     7
370
    25
100
AcDbCircle
 10
6754.3571285547
 20
5576.7723205806
 30
0.0
 40
0.4990208522084331
100
AcDbArc
 50
337.0382517006
 51
62.8792596958
  0
LINE
  5
1B8
330
1F
100
AcDbEntity
  8
0
  6
Continuous
 62
     7
370
    25
100
AcDbLine
 10
6749.5141831414
 20
5560.8494545938
 30
0.0
 11
6754.8236215386
 21
5576.5847680947
 31
0.0
  0
LINE
  5
1B9
330
1F
100
AcDbEntity
  8
0
  6
Continuous
 62
     7
370
    25
100
AcDbLine
 10
6754.5987373417
 20
5577.2104499067
 30
0.0
 11
6751.6029054161
 21
5579.0690529623
 31
0.0
  0
ARC
  5
1BA
330
1F
100
AcDbEntity
  8
0
  6
Continuous
 62
     7
370
    25
100
AcDbCircle
 10
6751.0757225151
 20
5578.2193011227
 30
0.0
 40
1.000000000000909
100
AcDbArc
 50
58.1846883416
 51
89.9999999994
  0
ARC
  5
1BB
330
1F
100
AcDbEntity
  8
0
  6
Continuous
 62
     7
370
    25
100
AcDbCircle
 10
6730.3245249237
 20
5565.0637663922
 30
0.0
 40
3.488555789093541
100
AcDbArc
 50
36.8201780756
 51
89.5975214799
  0
LINE
  5
1BC
330
1F
100
AcDbEntity
  8
0
  6
Continuous
 62
     7
370
    25
100
AcDbLine
 10
6747.5275219603
 20
5560.8494545939
 30
0.0
 11
6738.1426123656
 21
5560.8494545938
 31
0.0
  0
LINE
  5
1BD
330
1F
100
AcDbEntity
  8
0
  6
Continuous
 62
     7
370
    25
100
AcDbLine
 10
6749.5826123656
 20
5560.8494545938
 30
0.0
 11
6747.5275219603
 21
5560.8494545939
 31
0.0
  0
LWPOLYLINE
  5
1BE
330
1F
100
AcDbEntity
  8
0
  6
Continuous
 62
     7
370
    25
100
AcDbPolyline
 90
       11
 70
   128
 43
0.0
 10
6741.5039328285
 20
5555.6024803859
 10
6740.8690668505
 20
5554.2868857099
 10
6740.8342033251
 20
5554.2410946822
 10
6740.7909962353
 20
5554.2035328178
 10
6740.7687508201
 20
5554.1949410146
 10
6740.7450224855
 20
5554.1949888986
 10
6740.7212122624
 20
5554.204758861
 10
6740.6868320146
 20
5554.2347593592
 10
6740.5939814289
 20
5554.3832429838
 10
6740.3319483928
 20
5555.0246619242
 10
6740.1437988734
 20
5555.6024803859
  0
LWPOLYLINE
  5
1BF
330
1F
100
AcDbEntity
  8
0
  6
Continuous
 62
     7
370
    25
100
AcDbPolyline
 90
        8
 70
   128
 43
0.0
 10
6740.1437988734
 20
5555.6024803859
 10
6739.7870595393
 20
5556.4950443068
 10
6739.1090501019
 20
5557.4191145604
 10
6738.2752975873
 20
5557.9379684847
 10
6737.720405053
 20
5558.0292936512
 10
6736.8384031484
 20
5557.7944919818
 10
6736.0559984756
 20
5557.1172217223
 10
6735.9203558919
 20
5556.8796053861
  0
LWPOLYLINE
  5
1C0
330
1F
100
AcDbEntity
  8
0
  6
Continuous
 62
     7
370
    25
100
AcDbPolyline
 90
        3
 70
   128
 43
0.0
 10
6752.7587305679
 20
5554.5275079028
 10
6752.7442108307
 20
5555.024883204
 10
6752.6759534994
 20
5555.6024803859
  0
LWPOLYLINE
  5
1C1
330
1F
100
AcDbEntity
  8
0
  6
Continuous
 62
     7
370
    25
100
AcDbPolyline
 90
        8
 70
   128
 43
0.0
 10
6752.6759534994
 20
5555.6024803859
 10
6752.4038178402
 20
5556.7576059107
 10
6752.0152477652
 20
5557.5871723723
 10
6751.5539609941
 20
5557.9958458837
 10
6751.0734957714
 20
5557.9374430522
 10
6750.6272534132
 20
5557.4213655588
 10
6750.2642100609
 20
5556.5051075786
 10
6750.0695339614
 20
5555.6024803859
  0
LWPOLYLINE
  5
1C2
330
1F
100
AcDbEntity
  8
0
  6
Continuous
 62
     7
370
    25
100
AcDbPolyline
 90
       11
 70
   128
 43
0.0
 10
6750.0695339614
 20
5555.6024803859
 10
6749.7249606746
 20
5554.2868857201
 10
6749.6987483525
 20
5554.2410946885
 10
6749.6651089102
 20
5554.2035328199
 10
6749.6472796628
 20
5554.1949410153
 10
6749.6278712917
 20
5554.194988898
 10
6749.6079829416
 20
5554.2047588589
 10
6749.5785181552
 20
5554.2347593528
 10
6749.4943081877
 20
5554.3832429484
 10
6749.2135640781
 20
5555.0246617721
 10
6748.9571400072
 20
5555.6024803859
  0
ARC
  5
1C3
330
1F
100
AcDbEntity
  8
0
  6
Continuous
 62
     7
370
    25
100
AcDbCircle
 10
6745.2305364179
 20
5553.9422001521
 30
0.0
 40
4.07971871172579
100
AcDbArc
 50
24.0139770899
 51
155.9860229102
  0
LINE
  5
1C4
330
1F
100
AcDbEntity
  8
0
  6
Continuous
 62
     7
370
    25
100
AcDbLine
 10
6741.5039328285
 20
5555.6024803859
 30
0.0
 11
6741.5039328285
 21
5548.8494545939
 31
0.0
  0
LINE
  5
1C5
330
1F
100
AcDbEntity
  8
0
  6
Continuous
 62
     7
370
    25
100
AcDbLine
 10
6748.9571400072
 20
5555.6024803859
 30
0.0
 11
6748.9571400072
 21
5548.8494545939
 31
0.0
  0
LINE
  5
1C6
330
1F
100
AcDbEntity
  8
0
  6
Continuous
 62
     7
370
    25
100
AcDbLine
 10
6740.1437988734
 20
5555.6024803859
 30
0.0
 11
6740.1437988734
 21
5548.8494545939
 31
0.0
  0
LINE
  5
1C7
330
1F
100
AcDbEntity
  8
0
  6
Continuous
 62
     7
370
    25
100
AcDbLine
 10
6750.0695339614
 20
5555.6024803859
 30
0.0
 11
6750.0695339614
 21
5548.8494545939
 31
0.0
  0
LINE
  5
1C8
330
1F
100
AcDbEntity
  8
0
  6
Continuous
 62
     7
370
    25
100
AcDbLine
 10
6749.7803894885
 20
5548.8494545939
 30
0.0
 11
6749.4777675339
 21
5548.8494545939
 31
0.0
  0
LINE
  5
1C9
330
1F
100
AcDbEntity
  8
0
  6
Continuous
 62
     7
370
    25
100
AcDbLine
 10
6752.6759534994
 20
5555.6024803859
 30
0.0
 11
6752.6759534994
 21
5548.8494545938
 31
0.0
  0
LINE
  5
1CA
330
1F
100
AcDbEntity
  8
0
  6
Continuous
 62
     7
370
    25
100
AcDbLine
 10
6811.8013242018
 20
5771.8494545933
 30
0.0
 11
6821.8013242018
 21
5771.8494545933
 31
0.0
  0
LINE
  5
1CB
330
1F
100
AcDbEntity
  8
0
  6
Continuous
 62
     7
370
    25
100
AcDbLine
 10
6722.5491075722
 20
5517.049454594
 30
0.0
 11
6719.2885602159
 21
5517.0494545939
 31
0.0
  0
LINE
  5
1CC
330
1F
100
AcDbEntity
  8
0
  6
Continuous
 62
     7
370
    25
100
AcDbLine
 10
6754.7806976531
 20
5517.0494545939
 30
0.0
 11
6722.5491075722
 21
5517.049454594
 31
0.0
  0
ARC
  5
1CD
330
1F
100
AcDbEntity
  8
0
  6
Continuous
 62
     7
370
    25
100
AcDbCircle
 10
6727.0758697114
 20
5537.8903595902
 30
0.0
 40
39.69263616483002
100
AcDbArc
 50
107.777718465
 51
127.5681290897
  0
LWPOLYLINE
  5
1CE
330
1F
100
AcDbEntity
  8
0
  6
Continuous
 62
     7
370
    25
100
AcDbPolyline
 90
       23
 70
   128
 43
0.0
 10
6702.2496459066
 20
5551.9869829112
 10
6702.2936013316
 20
5551.9011030316
 10
6702.8505645626
 20
5551.2575881432
 10
6703.7213861465
 20
5550.7873833662
 10
6704.8866133681
 20
5550.5009922982
 10
6706.3202169769
 20
5550.4048124426
 10
6707.9901726371
 20
5550.5009922983
 10
6709.8591762987
 20
5550.7873833663
 10
6711.8854775086
 20
5551.2575881433
 10
6714.0238120459
 20
5551.9011030317
 10
6716.2264130506
 20
5552.7035529723
 10
6718.4440780559
 20
5553.6470125593
 10
6720.6272680903
 20
5554.7104064646
 10
6722.7272142959
 20
5555.8699802255
 10
6724.6970073446
 20
5557.0998308805
 10
6726.4926453146
 20
5558.372485598
 10
6728.0740166209
 20
5559.6595153748
 10
6729.4057960417
 20
5560.9321700924
 10
6730.4582338254
 20
5562.1620207473
 10
6731.207820251
 20
5563.3215945083
 10
6731.6378107964
 20
5564.3849884135
 10
6731.7386001834
 20
5565.3284480005
 10
6731.5518923686
 20
5566.0450180614
  0
LWPOLYLINE
  5
1CF
330
1F
100
AcDbEntity
  8
0
  6
Continuous
 62
     7
370
    25
100
AcDbPolyline
 90
        6
 70
   128
 43
0.0
 10
6707.1352154959
 20
5542.9595361269
 10
6707.1778184462
 20
5542.8762987051
 10
6707.717644347
 20
5542.2525842749
 10
6708.5616714206
 20
5541.7968473371
 10
6709.691045497
 20
5541.519268302
 10
6711.0805382255
 20
5541.4260478266
  0
ARC
  5
1D0
330
1F
100
AcDbEntity
  8
0
  6
Continuous
 62
     7
370
    25
100
AcDbCircle
 10
6731.3196549009
 20
5555.6952379208
 30
0.0
 40
4.309065287445514
100
AcDbArc
 50
313.0832460897
 51
11.9167298655
  0
LWPOLYLINE
  5
1D1
330
1F
100
AcDbEntity
  8
0
  6
Continuous
 62
     7
370
    25
100
AcDbPolyline
 90
       30
 70
   128
 43
0.0
 10
6707.3621030656
 20
5547.6882684001
 10
6706.8584119078
 20
5546.8712341765
 10
6706.4416518407
 20
5545.8405600837
 10
6706.3439636657
 20
5544.9261300225
 10
6706.567529575
 20
5544.1483708494
 10
6707.1073554758
 20
5543.5246564191
 10
6707.9513825494
 20
5543.0689194814
 10
6709.0807566258
 20
5542.7913404463
 10
6710.4702493543
 20
5542.6981199708
 10
6712.0888217634
 20
5542.7913404463
 10
6713.9003176201
 20
5543.0689194814
 10
6715.8642711004
 20
5543.5246564192
 10
6717.9368107288
 20
5544.1483708495
 10
6720.0716393949
 20
5544.9261300226
 10
6722.221068554
 20
5545.8405600839
 10
6724.3370835103
 20
5546.8712341767
 10
6726.3724159865
 20
5547.995128745
 10
6728.2816000183
 20
5549.1871378414
 10
6730.0219875893
 20
5550.4206339522
 10
6731.5547013169
 20
5551.6680628128
 10
6732.8455029094
 20
5552.9015589237
 10
6733.8655579921
 20
5554.09356802
 10
6734.5920802199
 20
5555.2174625883
 10
6735.008840287
 20
5556.2481366811
 10
6735.1065284621
 20
5557.1625667423
 10
6734.8829625528
 20
5557.9403259154
 10
6734.343136652
 20
5558.5640403457
 10
6733.4991095784
 20
5559.0197772834
 10
6732.369735502
 20
5559.2973563185
 10
6731.7055078186
 20
5559.367251448
  0
LWPOLYLINE
  5
1D2
330
1F
100
AcDbEntity
  8
0
  6
Continuous
 62
     7
370
    25
100
AcDbPolyline
 90
        3
 70
   128
 43
0.0
 10
6708.5535436874
 20
5545.2048568585
 10
6708.6695988526
 20
5545.0030190869
 10
6708.8924775492
 20
5544.738309138
  0
LINE
  5
1D3
330
1F
100
AcDbEntity
  8
0
  6
Continuous
 62
     7
370
    25
100
AcDbLine
 10
6717.0615751063
 20
5544.7383091381
 30
0.0
 11
6708.8924775492
 21
5544.738309138
 31
0.0
  0
ARC
  5
1D4
330
1F
100
AcDbEntity
  8
0
  6
Continuous
 62
     7
370
    25
100
AcDbCircle
 10
6706.5067157037
 20
5580.6324538513
 30
0.0
 40
37.41383008589604
100
AcDbArc
 50
286.38624646
 51
298.2214551988
  0
LINE
  5
1D5
330
1F
100
AcDbEntity
  8
0
  6
Continuous
 62
     7
370
    25
100
AcDbLine
 10
6724.1989956611
 20
5547.6661390496
 30
0.0
 11
6732.5005958295
 21
5554.4225577154
 31
0.0
  0
ARC
  5
1D6
330
1F
100
AcDbEntity
  8
0
  6
Continuous
 62
     7
370
    25
100
AcDbCircle
 10
6730.5125632317
 20
5556.0052549912
 30
0.0
 40
2.541102964547005
100
AcDbArc
 50
321.4762707304
 51
20.2275507931
  0
LWPOLYLINE
  5
1D7
330
1F
100
AcDbEntity
  8
0
  6
Continuous
 62
     7
370
    25
100
AcDbPolyline
 90
       26
 70
   128
 43
0.0
 10
6706.6578859996
 20
5543.9544707955
 10
6706.6624197445
 20
5543.6894231172
 10
6706.8895343191
 20
5542.8993185604
 10
6707.437928885
 20
5542.265703901
 10
6708.2953532137
 20
5541.8027330437
 10
6709.4426538627
 20
5541.5207479921
 10
6710.8542020314
 20
5541.4260478266
 10
6712.498466066
 20
5541.5207479922
 10
6714.3387158252
 20
5541.8027330437
 10
6716.3338431703
 20
5542.2657039011
 10
6718.4392802531
 20
5542.8993185605
 10
6720.6079950885
 20
5543.6894231173
 10
6722.7915421707
 20
5544.6183679414
 10
6724.9411446661
 20
5545.6654019405
 10
6727.008784007
 20
5546.8071361051
 10
6728.9482725472
 20
5548.0180659808
 10
6730.7162853177
 20
5549.271141395
 10
6732.2733278347
 20
5550.5383707137
 10
6733.5846183413
 20
5551.7914461279
 10
6734.6208647745
 20
5553.0023760035
 10
6735.3589191013
 20
5554.1441101681
 10
6735.7822944075
 20
5555.1911441672
 10
6735.8815331885
 20
5556.1200889913
 10
6735.654418614
 20
5556.9101935481
 10
6735.1060240481
 20
5557.5438082074
 10
6735.0090519672
 20
5557.6157720205
  0
LINE
  5
1D8
330
1F
100
AcDbEntity
  8
0
  6
Continuous
 62
     7
370
    25
100
AcDbLine
 10
6719.2885443336
 20
5517.0494545939
 30
0.0
 11
6754.7807036584
 21
5517.0494545939
 31
0.0
  0
LINE
  5
1D9
330
1F
100
AcDbEntity
  8
0
  6
Continuous
 62
     7
370
    25
100
AcDbLine
 10
6713.6793700494
 20
5551.7880998879
 30
0.0
 11
6717.0615751063
 21
5544.7383091381
 31
0.0
  0
LINE
  5
1DA
330
1F
100
AcDbEntity
  8
0
  6
Continuous
 62
     7
370
    25
100
AcDbLine
 10
6724.1989956611
 20
5547.6661390496
 30
0.0
 11
6720.7809918514
 21
5554.7905478997
 31
0.0
  0
LINE
  5
1DB
330
1F
100
AcDbEntity
  8
0
  6
Continuous
 62
     7
370
    25
100
AcDbLine
 10
6729.3869978229
 20
5560.912470082
 30
0.0
 11
6732.5005958295
 21
5554.4225577154
 31
0.0
  0
LINE
  5
1DC
330
1F
100
AcDbEntity
  8
0
  6
Continuous
 62
     7
370
    25
100
AcDbLine
 10
6708.8924775492
 20
5544.738309138
 30
0.0
 11
6706.1735018021
 21
5550.4056799059
 31
0.0
  0
LINE
  5
1DD
330
1F
100
AcDbEntity
  8
0
  6
Continuous
 62
     7
370
    25
100
AcDbLine
 10
6754.7776757884
 20
5548.8494545939
 30
0.0
 11
6749.7803894885
 21
5548.8494545939
 31
0.0
  0
LINE
  5
1DE
330
1F
100
AcDbEntity
  8
0
  6
Continuous
 62
     7
370
    25
100
AcDbLine
 10
6749.4777675339
 20
5548.8494545939
 30
0.0
 11
6739.5243471753
 21
5548.849454594
 31
0.0
  0
LINE
  5
1DF
330
1F
100
AcDbEntity
  8
0
  6
Continuous
 62
     7
370
    25
100
AcDbLine
 10
6754.7776757884
 20
5548.8494545939
 30
0.0
 11
6754.7776757884
 21
5517.0557658168
 31
0.0
  0
ARC
  5
1E0
330
1F
100
AcDbEntity
  8
0
  6
Continuous
 62
     7
370
    25
100
AcDbCircle
 10
6793.3017034577
 20
5494.5494545944
 30
0.0
 40
4.678760093299474
100
AcDbArc
 50
202.2965300939
 51
2.6062873399
  0
LINE
  5
1E1
330
1F
100
AcDbEntity
  8
0
  6
Continuous
 62
     7
370
    25
100
AcDbLine
 10
6788.9727616377
 20
5492.774332421
 30
0.0
 11
6789.219796683
 21
5492.8288790115
 31
0.0
  0
ARC
  5
1E2
330
1F
100
AcDbEntity
  8
0
  6
Continuous
 62
     7
370
    25
100
AcDbCircle
 10
6793.3017034577
 20
5494.5494545944
 30
0.0
 40
4.429711418744721
100
AcDbArc
 50
202.8560414118
 51
2.0467760221
  0
LINE
  5
1E3
330
1F
100
AcDbEntity
  8
0
  6
Continuous
 62
     7
370
    25
100
AcDbLine
 10
6797.7285887302
 20
5494.7076634354
 30
0.0
 11
6797.9756237754
 21
5494.7622100258
 31
0.0
  0
ARC
  5
1E4
330
1F
100
AcDbEntity
  8
0
  6
Continuous
 62
     7
370
    25
100
AcDbCircle
 10
6793.3017034577
 20
5494.5494545944
 30
0.0
 40
4.429711418745083
100
AcDbArc
 50
22.8560414118
 51
182.0467760221
  0
ARC
  5
1E5
330
1F
100
AcDbEntity
  8
0
  6
Continuous
 62
     7
370
    25
100
AcDbCircle
 10
6793.3017034577
 20
5494.5494545944
 30
0.0
 40
4.678760093269633
100
AcDbArc
 50
22.296530094
 51
182.6062873399
  0
LINE
  5
1E6
330
1F
100
AcDbEntity
  8
0
  6
Continuous
 62
     7
370
    25
100
AcDbLine
 10
6788.8748181851
 20
5494.3912457533
 30
0.0
 11
6788.6277831399
 21
5494.3366991629
 31
0.0
  0
LINE
  5
1E7
330
1F
100
AcDbEntity
  8
0
  6
Continuous
 62
     7
370
    25
100
AcDbLine
 10
6797.6306452776
 20
5496.3245767677
 30
0.0
 11
6797.3836102323
 21
5496.2700301772
 31
0.0
  0
LINE
  5
1E8
330
1F
100
AcDbEntity
  8
0
  6
Continuous
 62
     7
370
    25
100
AcDbLine
 10
6789.219796683
 20
5492.8288790115
 30
0.0
 11
6797.7285887302
 21
5494.7076634354
 31
0.0
  0
LINE
  5
1E9
330
1F
100
AcDbEntity
  8
0
  6
Continuous
 62
     7
370
    25
100
AcDbLine
 10
6797.3836102323
 20
5496.2700301772
 30
0.0
 11
6788.8748181851
 21
5494.3912457533
 31
0.0
  0
CIRCLE
  5
1EA
330
1F
100
AcDbEntity
  8
0
  6
Continuous
 62
     7
370
    25
100
AcDbCircle
 10
6793.3017034577
 20
5494.5494545943
 30
0.0
 40
4.999999999999458
  0
ARC
  5
1EB
330
1F
100
AcDbEntity
  8
0
  6
Continuous
 62
     7
370
    25
100
AcDbCircle
 10
6793.3017034577
 20
5494.5494545943
 30
0.0
 40
4.798776073891283
100
AcDbArc
 50
2.854870388
 51
22.0479470459
  0
ARC
  5
1EC
330
1F
100
AcDbEntity
  8
0
  6
Continuous
 62
     7
370
    25
100
AcDbCircle
 10
6793.3017034577
 20
5494.5494545943
 30
0.0
 40
4.798776073889528
100
AcDbArc
 50
182.854870388
 51
202.0479470459
  0
LINE
  5
1ED
330
1F
100
AcDbEntity
  8
0
  6
Continuous
 62
     7
370
    25
100
AcDbLine
 10
6788.6277831399
 20
5494.3366991629
 30
0.0
 11
6788.5088831571
 21
5494.3104454438
 31
0.0
  0
LINE
  5
1EE
330
1F
100
AcDbEntity
  8
0
  6
Continuous
 62
     7
370
    25
100
AcDbLine
 10
6797.7495452603
 20
5496.3508304867
 30
0.0
 11
6797.6306452776
 21
5496.3245767677
 31
0.0
  0
LINE
  5
1EF
330
1F
100
AcDbEntity
  8
0
  6
Continuous
 62
     7
370
    25
100
AcDbLine
 10
6788.853861655
 20
5492.748078702
 30
0.0
 11
6788.9727616377
 21
5492.774332421
 31
0.0
  0
LINE
  5
1F0
330
1F
100
AcDbEntity
  8
0
  6
Continuous
 62
     7
370
    25
100
AcDbLine
 10
6797.9756237754
 20
5494.7622100258
 30
0.0
 11
6798.0945237582
 21
5494.7884637449
 31
0.0
  0
LINE
  5
1F1
330
1F
100
AcDbEntity
  8
0
  6
Continuous
 62
     7
370
    25
100
AcDbLine
 10
6679.6095789796
 20
5233.1494545913
 30
0.0
 11
6679.6585113712
 21
5233.4264749773
 31
0.0
  0
LINE
  5
1F2
330
1F
100
AcDbEntity
  8
0
  6
Continuous
 62
     7
370
    25
100
AcDbLine
 10
6679.6585113712
 20
5231.6724342052
 30
0.0
 11
6679.6095789796
 21
5231.9494545913
 31
0.0
  0
LINE
  5
1F3
330
1F
100
AcDbEntity
  8
0
  6
Continuous
 62
     7
370
    25
100
AcDbLine
 10
6679.6474875525
 20
5231.9494545913
 30
0.0
 11
6679.573959668
 21
5231.9494545913
 31
0.0
  0
LINE
  5
1F4
330
1F
100
AcDbEntity
  8
0
  6
Continuous
 62
     7
370
    25
100
AcDbLine
 10
6679.6474875525
 20
5233.1494545913
 30
0.0
 11
6679.573959668
 21
5233.1494545913
 31
0.0
  0
LINE
  5
1F5
330
1F
100
AcDbEntity
  8
0
  6
Continuous
 62
     7
370
    25
100
AcDbLine
 10
6679.6474875525
 20
5231.9494545913
 30
0.0
 11
6679.6585113712
 21
5231.9494545913
 31
0.0
  0
LINE
  5
1F6
330
1F
100
AcDbEntity
  8
0
  6
Continuous
 62
     7
370
    25
100
AcDbLine
 10
6679.6585113712
 20
5233.1494545913
 30
0.0
 11
6679.6474875525
 21
5233.1494545913
 31
0.0
  0
LINE
  5
1F7
330
1F
100
AcDbEntity
  8
0
  6
Continuous
 62
     7
370
    25
100
AcDbLine
 10
6679.6095789796
 20
5368.1494545913
 30
0.0
 11
6679.6585113712
 21
5368.4264749773
 31
0.0
  0
LINE
  5
1F8
330
1F
100
AcDbEntity
  8
0
  6
Continuous
 62
     7
370
    25
100
AcDbLine
 10
6679.6585113712
 20
5366.6724342052
 30
0.0
 11
6679.6095789796
 21
5366.9494545913
 31
0.0
  0
LINE
  5
1F9
330
1F
100
AcDbEntity
  8
0
  6
Continuous
 62
     7
370
    25
100
AcDbLine
 10
6679.6474875525
 20
5366.9494545913
 30
0.0
 11
6679.573959668
 21
5366.9494545913
 31
0.0
  0
LINE
  5
1FA
330
1F
100
AcDbEntity
  8
0
  6
Continuous
 62
     7
370
    25
100
AcDbLine
 10
6679.6474875525
 20
5368.1494545913
 30
0.0
 11
6679.573959668
 21
5368.1494545913
 31
0.0
  0
LINE
  5
1FB
330
1F
100
AcDbEntity
  8
0
  6
Continuous
 62
     7
370
    25
100
AcDbLine
 10
6679.6474875525
 20
5366.9494545913
 30
0.0
 11
6679.6585113712
 21
5366.9494545913
 31
0.0
  0
LINE
  5
1FC
330
1F
100
AcDbEntity
  8
0
  6
Continuous
 62
     7
370
    25
100
AcDbLine
 10
6679.6585113712
 20
5368.1494545913
 30
0.0
 11
6679.6474875525
 21
5368.1494545913
 31
0.0
  0
LINE
  5
1FD
330
1F
100
AcDbEntity
  8
0
  6
Continuous
 62
     7
370
    25
100
AcDbLine
 10
6679.8065983794
 20
5497.6502827677
 30
0.0
 11
6680.3017034577
 21
5496.7282150749
 31
0.0
  0
LWPOLYLINE
  5
1FE
330
1F
100
AcDbEntity
  8
0
  6
Continuous
 62
     7
370
    25
100
AcDbPolyline
 90
        3
 70
   128
 43
0.0
 10
6679.8065983794
 20
5497.6502827677
 10
6680.0380577241
 20
5497.6412504902
 10
6680.3017034577
 20
5497.6309668458
  0
ARC
  5
1FF
330
1F
100
AcDbEntity
  8
0
  6
Continuous
 62
     7
370
    25
100
AcDbCircle
 10
6684.3234568056
 20
5499.0313605371
 30
0.0
 40
4.226755094592463
100
AcDbArc
 50
183.2666000617
 51
197.9177716439
  0
LWPOLYLINE
  5
200
330
1F
100
AcDbEntity
  8
0
  6
Continuous
 62
     7
370
    25
100
AcDbPolyline
 90
        3
 70
   128
 43
0.0
 10
6680.1035693287
 20
5498.7905113884
 10
6679.8053906649
 20
5498.8021420084
 10
6679.5739313202
 20
5498.8111742859
  0
ARC
  5
201
330
1F
100
AcDbEntity
  8
0
  6
Continuous
 62
     7
370
    25
100
AcDbCircle
 10
6683.4125543136
 20
5499.1029298515
 30
0.0
 40
3.849694506781145
100
AcDbArc
 50
143.9085044075
 51
184.3464244004
  0
LWPOLYLINE
  5
202
330
1F
100
AcDbEntity
  8
0
  6
Continuous
 62
     7
370
    25
100
AcDbPolyline
 90
        6
 70
   128
 43
0.0
 10
6679.8394445087
 20
5497.7016517922
 10
6679.7999988283
 20
5497.6861322674
 10
6679.7743282122
 20
5497.6704153189
 10
6679.7698097626
 20
5497.6621478024
 10
6679.7812470253
 20
5497.6534798312
 10
6679.8065983794
 20
5497.6502827677
  0
LINE
  5
203
330
1F
100
AcDbEntity
  8
0
  6
Continuous
 62
     7
370
    25
100
AcDbLine
 10
6680.2657465687
 20
5497.8473780731
 30
0.0
 11
6679.8394445087
 21
5497.7016517922
 31
0.0
  0
LWPOLYLINE
  5
204
330
1F
100
AcDbEntity
  8
0
  6
Continuous
 62
     7
370
    25
100
AcDbPolyline
 90
        3
 70
   128
 43
0.0
 10
6679.7949480825
 20
5497.6831127892
 10
6679.6100412971
 20
5498.4462099939
 10
6679.5739269217
 20
5498.8112533647
  0
LINE
  5
205
330
1F
100
AcDbEntity
  8
0
  6
Continuous
 62
     7
370
    25
100
AcDbLine
 10
6679.6585113712
 20
5279.9264749803
 30
0.0
 11
6679.6095789796
 21
5279.6494545942
 31
0.0
  0
LINE
  5
206
330
1F
100
AcDbEntity
  8
0
  6
Continuous
 62
     7
370
    25
100
AcDbLine
 10
6679.6095789796
 20
5278.4494545942
 30
0.0
 11
6679.6585113712
 21
5278.1724342081
 31
0.0
  0
LINE
  5
207
330
1F
100
AcDbEntity
  8
0
  6
Continuous
 62
     7
370
    25
100
AcDbLine
 10
6679.6095789796
 20
5278.4494545942
 30
0.0
 11
6679.6585113712
 21
5278.4494545942
 31
0.0
  0
LINE
  5
208
330
1F
100
AcDbEntity
  8
0
  6
Continuous
 62
     7
370
    25
100
AcDbLine
 10
6679.6585113712
 20
5279.6494545942
 30
0.0
 11
6679.6095789796
 21
5279.6494545942
 31
0.0
  0
LINE
  5
209
330
1F
100
AcDbEntity
  8
0
  6
Continuous
 62
     7
370
    25
100
AcDbLine
 10
6680.3017034577
 20
5061.3706941135
 30
0.0
 11
6680.1319276075
 21
5061.1245497544
 31
0.0
  0
ARC
  5
20A
330
1F
100
AcDbEntity
  8
0
  6
Continuous
 62
     7
370
    25
100
AcDbCircle
 10
6683.5015909031
 20
5059.0389822787
 30
0.0
 40
3.947014660919382
100
AcDbArc
 50
164.8414054966
 51
215.8345624655
  0
LWPOLYLINE
  5
20B
330
1F
100
AcDbEntity
  8
0
  6
Continuous
 62
     7
370
    25
100
AcDbPolyline
 90
        3
 70
   128
 43
0.0
 10
6679.6919097885
 20
5060.0710939678
 10
6679.9258144432
 20
5060.0881757285
 10
6680.2271418668
 20
5060.110171451
  0
LWPOLYLINE
  5
20C
330
1F
100
AcDbEntity
  8
0
  6
Continuous
 62
     7
370
    25
100
AcDbPolyline
 90
        3
 70
   128
 43
0.0
 10
6680.2271418668
 20
5060.110171451
 10
6680.2659408038
 20
5060.252195001
 10
6680.3017034577
 20
5060.3679173061
  0
LINE
  5
20D
330
1F
100
AcDbEntity
  8
0
  6
Continuous
 62
     7
370
    25
100
AcDbLine
 10
6680.3017034577
 20
5061.1369482697
 30
0.0
 11
6680.1319276075
 21
5061.1245497544
 31
0.0
  0
LINE
  5
20E
330
1F
100
AcDbEntity
  8
0
  6
Continuous
 62
     7
370
    25
100
AcDbLine
 10
6680.1508665921
 20
5061.0274011239
 30
0.0
 11
6680.3017034577
 21
5060.9199431525
 31
0.0
  0
LWPOLYLINE
  5
20F
330
1F
100
AcDbEntity
  8
0
  6
Continuous
 62
     7
370
    25
100
AcDbPolyline
 90
        6
 70
   128
 43
0.0
 10
6680.1319276075
 20
5061.1245497544
 10
6680.1078486689
 20
5061.1194718303
 10
6680.0923524638
 20
5061.1040467361
 10
6680.0972153533
 20
5061.0802002136
 10
6680.1223766323
 20
5061.0502423134
 10
6680.1508665921
 20
5061.0274011239
  0
LINE
  5
210
330
1F
100
AcDbEntity
  8
0
  6
Continuous
 62
     7
370
    25
100
AcDbLine
 10
6735.3017034577
 20
4610.5494545939
 30
0.0
 11
6715.3017034577
 21
4610.5494545939
 31
0.0
  0
LINE
  5
211
330
1F
100
AcDbEntity
  8
0
  6
Continuous
 62
     7
370
    25
100
AcDbLine
 10
7015.3017034577
 20
4610.5494545927
 30
0.0
 11
6995.3017034577
 21
4610.5494545927
 31
0.0
  0
LINE
  5
212
330
1F
100
AcDbEntity
  8
0
  6
Continuous
 62
     7
370
    25
100
AcDbLine
 10
6679.6585113712
 20
5375.0494545942
 30
0.0
 11
6679.6585113712
 21
5225.0494545942
 31
0.0
  0
LINE
  5
213
330
1F
100
AcDbEntity
  8
0
  6
Continuous
 62
     7
370
    25
100
AcDbLine
 10
6680.3017034577
 20
5375.0494545942
 30
0.0
 11
6679.6585113712
 21
5375.0494545942
 31
0.0
  0
LINE
  5
214
330
1F
100
AcDbEntity
  8
0
  6
Continuous
 62
     7
370
    25
100
AcDbLine
 10
6680.3017034577
 20
5225.0494545942
 30
0.0
 11
6679.6585113712
 21
5225.0494545942
 31
0.0
  0
LINE
  5
215
330
1F
100
AcDbEntity
  8
0
  6
Continuous
 62
     7
370
    25
100
AcDbLine
 10
6679.8289873156
 20
4925.0494545942
 30
0.0
 11
6679.8289873156
 21
4775.0494545942
 31
0.0
  0
LINE
  5
216
330
1F
100
AcDbEntity
  8
0
  6
Continuous
 62
     7
370
    25
100
AcDbLine
 10
6680.3017034577
 20
4925.0494545942
 30
0.0
 11
6679.8289873156
 21
4925.0494545942
 31
0.0
  0
LINE
  5
217
330
1F
100
AcDbEntity
  8
0
  6
Continuous
 62
     7
370
    25
100
AcDbLine
 10
6680.3017034577
 20
4775.0494545942
 30
0.0
 11
6679.8289873156
 21
4775.0494545942
 31
0.0
  0
LINE
  5
218
330
1F
100
AcDbEntity
  8
0
  6
Continuous
 62
     7
370
    25
100
AcDbLine
 10
6679.6556842026
 20
4925.0494545913
 30
0.0
 11
6679.6556842026
 21
4775.0494545913
 31
0.0
  0
LINE
  5
219
330
1F
100
AcDbEntity
  8
0
  6
Continuous
 62
     7
370
    25
100
AcDbLine
 10
6679.8289873156
 20
4925.0494545913
 30
0.0
 11
6679.6556842026
 21
4925.0494545913
 31
0.0
  0
LINE
  5
21A
330
1F
100
AcDbEntity
  8
0
  6
Continuous
 62
     7
370
    25
100
AcDbLine
 10
6679.8289873156
 20
4775.0494545913
 30
0.0
 11
6679.6556842026
 21
4775.0494545913
 31
0.0
  0
LINE
  5
21B
330
1F
100
AcDbEntity
  8
0
  6
Continuous
 62
     7
370
    25
100
AcDbLine
 10
6865.3017034577
 20
4615.0494545943
 30
0.0
 11
7039.3017034577
 21
4615.0494545927
 31
0.0
  0
LINE
  5
21C
330
1F
100
AcDbEntity
  8
0
  6
Continuous
 62
     7
370
    25
100
AcDbLine
 10
6736.8017034577
 20
4681.7994545943
 30
0.0
 11
6736.8017034577
 21
4668.2994545943
 31
0.0
  0
ARC
  5
21D
330
1F
100
AcDbEntity
  8
0
  6
Continuous
 62
     7
370
    25
100
AcDbCircle
 10
6734.5517034577
 20
4681.7994545943
 30
0.0
 40
2.25
100
AcDbArc
 50
0.0
 51
180.0
  0
LINE
  5
21E
330
1F
100
AcDbEntity
  8
0
  6
Continuous
 62
     7
370
    25
100
AcDbLine
 10
6732.3017034577
 20
4668.2994545943
 30
0.0
 11
6732.3017034577
 21
4681.7994545943
 31
0.0
  0
ARC
  5
21F
330
1F
100
AcDbEntity
  8
0
  6
Continuous
 62
     7
370
    25
100
AcDbCircle
 10
6734.5517034577
 20
4668.2994545943
 30
0.0
 40
2.25
100
AcDbArc
 50
180.0
 51
0.0
  0
LINE
  5
220
330
1F
100
AcDbEntity
  8
0
  6
Continuous
 62
     7
370
    25
100
AcDbLine
 10
6756.8017034577
 20
4681.7994545943
 30
0.0
 11
6756.8017034577
 21
4668.2994545943
 31
0.0
  0
ARC
  5
221
330
1F
100
AcDbEntity
  8
0
  6
Continuous
 62
     7
370
    25
100
AcDbCircle
 10
6754.5517034577
 20
4681.7994545943
 30
0.0
 40
2.25
100
AcDbArc
 50
0.0
 51
180.0
  0
LINE
  5
222
330
1F
100
AcDbEntity
  8
0
  6
Continuous
 62
     7
370
    25
100
AcDbLine
 10
6752.3017034577
 20
4668.2994545943
 30
0.0
 11
6752.3017034577
 21
4681.7994545943
 31
0.0
  0
ARC
  5
223
330
1F
100
AcDbEntity
  8
0
  6
Continuous
 62
     7
370
    25
100
AcDbCircle
 10
6754.5517034577
 20
4668.2994545943
 30
0.0
 40
2.25
100
AcDbArc
 50
180.0
 51
0.0
  0
LINE
  5
224
330
1F
100
AcDbEntity
  8
0
  6
Continuous
 62
     7
370
    25
100
AcDbLine
 10
6776.8017034577
 20
4681.7994545943
 30
0.0
 11
6776.8017034577
 21
4668.2994545943
 31
0.0
  0
ARC
  5
225
330
1F
100
AcDbEntity
  8
0
  6
Continuous
 62
     7
370
    25
100
AcDbCircle
 10
6774.5517034577
 20
4681.7994545943
 30
0.0
 40
2.25
100
AcDbArc
 50
0.0
 51
180.0
  0
LINE
  5
226
330
1F
100
AcDbEntity
  8
0
  6
Continuous
 62
     7
370
    25
100
AcDbLine
 10
6772.3017034577
 20
4668.2994545943
 30
0.0
 11
6772.3017034577
 21
4681.7994545943
 31
0.0
  0
ARC
  5
227
330
1F
100
AcDbEntity
  8
0
  6
Continuous
 62
     7
370
    25
100
AcDbCircle
 10
6774.5517034577
 20
4668.2994545943
 30
0.0
 40
2.25
100
AcDbArc
 50
180.0
 51
0.0
  0
LINE
  5
228
330
1F
100
AcDbEntity
  8
0
  6
Continuous
 62
     7
370
    25
100
AcDbLine
 10
6746.8017034577
 20
4701.7994545943
 30
0.0
 11
6746.8017034577
 21
4688.2994545943
 31
0.0
  0
ARC
  5
229
330
1F
100
AcDbEntity
  8
0
  6
Continuous
 62
     7
370
    25
100
AcDbCircle
 10
6744.5517034577
 20
4701.7994545943
 30
0.0
 40
2.25
100
AcDbArc
 50
0.0
 51
180.0
  0
LINE
  5
22A
330
1F
100
AcDbEntity
  8
0
  6
Continuous
 62
     7
370
    25
100
AcDbLine
 10
6742.3017034577
 20
4688.2994545943
 30
0.0
 11
6742.3017034577
 21
4701.7994545943
 31
0.0
  0
ARC
  5
22B
330
1F
100
AcDbEntity
  8
0
  6
Continuous
 62
     7
370
    25
100
AcDbCircle
 10
6744.5517034577
 20
4688.2994545943
 30
0.0
 40
2.25
100
AcDbArc
 50
180.0
 51
0.0
  0
LINE
  5
22C
330
1F
100
AcDbEntity
  8
0
  6
Continuous
 62
     7
370
    25
100
AcDbLine
 10
6766.8017034577
 20
4701.7994545943
 30
0.0
 11
6766.8017034577
 21
4688.2994545943
 31
0.0
  0
ARC
  5
22D
330
1F
100
AcDbEntity
  8
0
  6
Continuous
 62
     7
370
    25
100
AcDbCircle
 10
6764.5517034577
 20
4701.7994545943
 30
0.0
 40
2.25
100
AcDbArc
 50
0.0
 51
180.0
  0
LINE
  5
22E
330
1F
100
AcDbEntity
  8
0
  6
Continuous
 62
     7
370
    25
100
AcDbLine
 10
6762.3017034577
 20
4688.2994545943
 30
0.0
 11
6762.3017034577
 21
4701.7994545943
 31
0.0
  0
ARC
  5
22F
330
1F
100
AcDbEntity
  8
0
  6
Continuous
 62
     7
370
    25
100
AcDbCircle
 10
6764.5517034577
 20
4688.2994545943
 30
0.0
 40
2.25
100
AcDbArc
 50
180.0
 51
0.0
  0
LINE
  5
230
330
1F
100
AcDbEntity
  8
0
  6
Continuous
 62
     7
370
    25
100
AcDbLine
 10
6786.8017034577
 20
4701.7994545943
 30
0.0
 11
6786.8017034577
 21
4688.2994545943
 31
0.0
  0
ARC
  5
231
330
1F
100
AcDbEntity
  8
0
  6
Continuous
 62
     7
370
    25
100
AcDbCircle
 10
6784.5517034577
 20
4701.7994545943
 30
0.0
 40
2.25
100
AcDbArc
 50
0.0
 51
180.0
  0
LINE
  5
232
330
1F
100
AcDbEntity
  8
0
  6
Continuous
 62
     7
370
    25
100
AcDbLine
 10
6782.3017034577
 20
4688.2994545943
 30
0.0
 11
6782.3017034577
 21
4701.7994545943
 31
0.0
  0
ARC
  5
233
330
1F
100
AcDbEntity
  8
0
  6
Continuous
 62
     7
370
    25
100
AcDbCircle
 10
6784.5517034577
 20
4688.2994545943
 30
0.0
 40
2.25
100
AcDbArc
 50
180.0
 51
0.0
  0
LINE
  5
234
330
1F
100
AcDbEntity
  8
0
  6
Continuous
 62
     7
370
    25
100
AcDbLine
 10
6756.8017034577
 20
4721.7994545943
 30
0.0
 11
6756.8017034577
 21
4708.2994545943
 31
0.0
  0
ARC
  5
235
330
1F
100
AcDbEntity
  8
0
  6
Continuous
 62
     7
370
    25
100
AcDbCircle
 10
6754.5517034577
 20
4721.7994545943
 30
0.0
 40
2.25
100
AcDbArc
 50
0.0
 51
180.0
  0
LINE
  5
236
330
1F
100
AcDbEntity
  8
0
  6
Continuous
 62
     7
370
    25
100
AcDbLine
 10
6752.3017034577
 20
4708.2994545943
 30
0.0
 11
6752.3017034577
 21
4721.7994545943
 31
0.0
  0
ARC
  5
237
330
1F
100
AcDbEntity
  8
0
  6
Continuous
 62
     7
370
    25
100
AcDbCircle
 10
6754.5517034577
 20
4708.2994545943
 30
0.0
 40
2.25
100
AcDbArc
 50
180.0
 51
0.0
  0
LINE
  5
238
330
1F
100
AcDbEntity
  8
0
  6
Continuous
 62
     7
370
    25
100
AcDbLine
 10
6776.8017034577
 20
4721.7994545943
 30
0.0
 11
6776.8017034577
 21
4708.2994545943
 31
0.0
  0
ARC
  5
239
330
1F
100
AcDbEntity
  8
0
  6
Continuous
 62
     7
370
    25
100
AcDbCircle
 10
6774.5517034577
 20
4721.7994545943
 30
0.0
 40
2.25
100
AcDbArc
 50
0.0
 51
180.0
  0
LINE
  5
23A
330
1F
100
AcDbEntity
  8
0
  6
Continuous
 62
     7
370
    25
100
AcDbLine
 10
6772.3017034577
 20
4708.2994545943
 30
0.0
 11
6772.3017034577
 21
4721.7994545943
 31
0.0
  0
ARC
  5
23B
330
1F
100
AcDbEntity
  8
0
  6
Continuous
 62
     7
370
    25
100
AcDbCircle
 10
6774.5517034577
 20
4708.2994545943
 30
0.0
 40
2.25
100
AcDbArc
 50
180.0
 51
0.0
  0
LINE
  5
23C
330
1F
100
AcDbEntity
  8
0
  6
Continuous
 62
     7
370
    25
100
AcDbLine
 10
6746.8017034577
 20
4741.7994545943
 30
0.0
 11
6746.8017034577
 21
4728.2994545943
 31
0.0
  0
ARC
  5
23D
330
1F
100
AcDbEntity
  8
0
  6
Continuous
 62
     7
370
    25
100
AcDbCircle
 10
6744.5517034577
 20
4741.7994545943
 30
0.0
 40
2.25
100
AcDbArc
 50
0.0
 51
180.0
  0
LINE
  5
23E
330
1F
100
AcDbEntity
  8
0
  6
Continuous
 62
     7
370
    25
100
AcDbLine
 10
6742.3017034577
 20
4728.2994545943
 30
0.0
 11
6742.3017034577
 21
4741.7994545943
 31
0.0
  0
ARC
  5
23F
330
1F
100
AcDbEntity
  8
0
  6
Continuous
 62
     7
370
    25
100
AcDbCircle
 10
6744.5517034577
 20
4728.2994545943
 30
0.0
 40
2.25
100
AcDbArc
 50
180.0
 51
0.0
  0
LINE
  5
240
330
1F
100
AcDbEntity
  8
0
  6
Continuous
 62
     7
370
    25
100
AcDbLine
 10
6766.8017034577
 20
4741.7994545943
 30
0.0
 11
6766.8017034577
 21
4728.2994545943
 31
0.0
  0
ARC
  5
241
330
1F
100
AcDbEntity
  8
0
  6
Continuous
 62
     7
370
    25
100
AcDbCircle
 10
6764.5517034577
 20
4741.7994545943
 30
0.0
 40
2.25
100
AcDbArc
 50
0.0
 51
180.0
  0
LINE
  5
242
330
1F
100
AcDbEntity
  8
0
  6
Continuous
 62
     7
370
    25
100
AcDbLine
 10
6762.3017034577
 20
4728.2994545943
 30
0.0
 11
6762.3017034577
 21
4741.7994545943
 31
0.0
  0
ARC
  5
243
330
1F
100
AcDbEntity
  8
0
  6
Continuous
 62
     7
370
    25
100
AcDbCircle
 10
6764.5517034577
 20
4728.2994545943
 30
0.0
 40
2.25
100
AcDbArc
 50
180.0
 51
0.0
  0
LINE
  5
244
330
1F
100
AcDbEntity
  8
0
  6
Continuous
 62
     7
370
    25
100
AcDbLine
 10
6786.8017034577
 20
4741.7994545943
 30
0.0
 11
6786.8017034577
 21
4728.2994545943
 31
0.0
  0
ARC
  5
245
330
1F
100
AcDbEntity
  8
0
  6
Continuous
 62
     7
370
    25
100
AcDbCircle
 10
6784.5517034577
 20
4741.7994545943
 30
0.0
 40
2.25
100
AcDbArc
 50
0.0
 51
180.0
  0
LINE
  5
246
330
1F
100
AcDbEntity
  8
0
  6
Continuous
 62
     7
370
    25
100
AcDbLine
 10
6782.3017034577
 20
4728.2994545943
 30
0.0
 11
6782.3017034577
 21
4741.7994545943
 31
0.0
  0
ARC
  5
247
330
1F
100
AcDbEntity
  8
0
  6
Continuous
 62
     7
370
    25
100
AcDbCircle
 10
6784.5517034577
 20
4728.2994545943
 30
0.0
 40
2.25
100
AcDbArc
 50
180.0
 51
0.0
  0
LINE
  5
248
330
1F
100
AcDbEntity
  8
0
  6
Continuous
 62
     7
370
    25
100
AcDbLine
 10
6756.8017034577
 20
4761.7994545943
 30
0.0
 11
6756.8017034577
 21
4748.2994545943
 31
0.0
  0
ARC
  5
249
330
1F
100
AcDbEntity
  8
0
  6
Continuous
 62
     7
370
    25
100
AcDbCircle
 10
6754.5517034577
 20
4761.7994545943
 30
0.0
 40
2.25
100
AcDbArc
 50
0.0
 51
180.0
  0
LINE
  5
24A
330
1F
100
AcDbEntity
  8
0
  6
Continuous
 62
     7
370
    25
100
AcDbLine
 10
6752.3017034577
 20
4748.2994545943
 30
0.0
 11
6752.3017034577
 21
4761.7994545943
 31
0.0
  0
ARC
  5
24B
330
1F
100
AcDbEntity
  8
0
  6
Continuous
 62
     7
370
    25
100
AcDbCircle
 10
6754.5517034577
 20
4748.2994545943
 30
0.0
 40
2.25
100
AcDbArc
 50
180.0
 51
0.0
  0
LINE
  5
24C
330
1F
100
AcDbEntity
  8
0
  6
Continuous
 62
     7
370
    25
100
AcDbLine
 10
6776.8017034577
 20
4761.7994545943
 30
0.0
 11
6776.8017034577
 21
4748.2994545943
 31
0.0
  0
ARC
  5
24D
330
1F
100
AcDbEntity
  8
0
  6
Continuous
 62
     7
370
    25
100
AcDbCircle
 10
6774.5517034577
 20
4761.7994545943
 30
0.0
 40
2.25
100
AcDbArc
 50
0.0
 51
180.0
  0
LINE
  5
24E
330
1F
100
AcDbEntity
  8
0
  6
Continuous
 62
     7
370
    25
100
AcDbLine
 10
6772.3017034577
 20
4748.2994545943
 30
0.0
 11
6772.3017034577
 21
4761.7994545943
 31
0.0
  0
ARC
  5
24F
330
1F
100
AcDbEntity
  8
0
  6
Continuous
 62
     7
370
    25
100
AcDbCircle
 10
6774.5517034577
 20
4748.2994545943
 30
0.0
 40
2.25
100
AcDbArc
 50
180.0
 51
0.0
  0
LINE
  5
250
330
1F
100
AcDbEntity
  8
0
  6
Continuous
 62
     7
370
    25
100
AcDbLine
 10
6746.8017034577
 20
4781.7994545943
 30
0.0
 11
6746.8017034577
 21
4768.2994545943
 31
0.0
  0
ARC
  5
251
330
1F
100
AcDbEntity
  8
0
  6
Continuous
 62
     7
370
    25
100
AcDbCircle
 10
6744.5517034577
 20
4781.7994545943
 30
0.0
 40
2.25
100
AcDbArc
 50
0.0
 51
180.0
  0
LINE
  5
252
330
1F
100
AcDbEntity
  8
0
  6
Continuous
 62
     7
370
    25
100
AcDbLine
 10
6742.3017034577
 20
4768.2994545943
 30
0.0
 11
6742.3017034577
 21
4781.7994545943
 31
0.0
  0
ARC
  5
253
330
1F
100
AcDbEntity
  8
0
  6
Continuous
 62
     7
370
    25
100
AcDbCircle
 10
6744.5517034577
 20
4768.2994545943
 30
0.0
 40
2.25
100
AcDbArc
 50
180.0
 51
0.0
  0
LINE
  5
254
330
1F
100
AcDbEntity
  8
0
  6
Continuous
 62
     7
370
    25
100
AcDbLine
 10
6766.8017034577
 20
4781.7994545943
 30
0.0
 11
6766.8017034577
 21
4768.2994545943
 31
0.0
  0
ARC
  5
255
330
1F
100
AcDbEntity
  8
0
  6
Continuous
 62
     7
370
    25
100
AcDbCircle
 10
6764.5517034577
 20
4781.7994545943
 30
0.0
 40
2.25
100
AcDbArc
 50
0.0
 51
180.0
  0
LINE
  5
256
330
1F
100
AcDbEntity
  8
0
  6
Continuous
 62
     7
370
    25
100
AcDbLine
 10
6762.3017034577
 20
4768.2994545943
 30
0.0
 11
6762.3017034577
 21
4781.7994545943
 31
0.0
  0
ARC
  5
257
330
1F
100
AcDbEntity
  8
0
  6
Continuous
 62
     7
370
    25
100
AcDbCircle
 10
6764.5517034577
 20
4768.2994545943
 30
0.0
 40
2.25
100
AcDbArc
 50
180.0
 51
0.0
  0
LINE
  5
258
330
1F
100
AcDbEntity
  8
0
  6
Continuous
 62
     7
370
    25
100
AcDbLine
 10
6786.8017034577
 20
4781.7994545943
 30
0.0
 11
6786.8017034577
 21
4768.2994545943
 31
0.0
  0
ARC
  5
259
330
1F
100
AcDbEntity
  8
0
  6
Continuous
 62
     7
370
    25
100
AcDbCircle
 10
6784.5517034577
 20
4781.7994545943
 30
0.0
 40
2.25
100
AcDbArc
 50
0.0
 51
180.0
  0
LINE
  5
25A
330
1F
100
AcDbEntity
  8
0
  6
Continuous
 62
     7
370
    25
100
AcDbLine
 10
6782.3017034577
 20
4768.2994545943
 30
0.0
 11
6782.3017034577
 21
4781.7994545943
 31
0.0
  0
ARC
  5
25B
330
1F
100
AcDbEntity
  8
0
  6
Continuous
 62
     7
370
    25
100
AcDbCircle
 10
6784.5517034577
 20
4768.2994545943
 30
0.0
 40
2.25
100
AcDbArc
 50
180.0
 51
0.0
  0
LINE
  5
25C
330
1F
100
AcDbEntity
  8
0
  6
Continuous
 62
     7
370
    25
100
AcDbLine
 10
6756.8017034577
 20
4801.7994545943
 30
0.0
 11
6756.8017034577
 21
4788.2994545943
 31
0.0
  0
ARC
  5
25D
330
1F
100
AcDbEntity
  8
0
  6
Continuous
 62
     7
370
    25
100
AcDbCircle
 10
6754.5517034577
 20
4801.7994545943
 30
0.0
 40
2.25
100
AcDbArc
 50
0.0
 51
180.0
  0
LINE
  5
25E
330
1F
100
AcDbEntity
  8
0
  6
Continuous
 62
     7
370
    25
100
AcDbLine
 10
6752.3017034577
 20
4788.2994545943
 30
0.0
 11
6752.3017034577
 21
4801.7994545943
 31
0.0
  0
ARC
  5
25F
330
1F
100
AcDbEntity
  8
0
  6
Continuous
 62
     7
370
    25
100
AcDbCircle
 10
6754.5517034577
 20
4788.2994545943
 30
0.0
 40
2.25
100
AcDbArc
 50
180.0
 51
0.0
  0
LINE
  5
260
330
1F
100
AcDbEntity
  8
0
  6
Continuous
 62
     7
370
    25
100
AcDbLine
 10
6776.8017034577
 20
4801.7994545943
 30
0.0
 11
6776.8017034577
 21
4788.2994545943
 31
0.0
  0
ARC
  5
261
330
1F
100
AcDbEntity
  8
0
  6
Continuous
 62
     7
370
    25
100
AcDbCircle
 10
6774.5517034577
 20
4801.7994545943
 30
0.0
 40
2.25
100
AcDbArc
 50
0.0
 51
180.0
  0
LINE
  5
262
330
1F
100
AcDbEntity
  8
0
  6
Continuous
 62
     7
370
    25
100
AcDbLine
 10
6772.3017034577
 20
4788.2994545943
 30
0.0
 11
6772.3017034577
 21
4801.7994545943
 31
0.0
  0
ARC
  5
263
330
1F
100
AcDbEntity
  8
0
  6
Continuous
 62
     7
370
    25
100
AcDbCircle
 10
6774.5517034577
 20
4788.2994545943
 30
0.0
 40
2.25
100
AcDbArc
 50
180.0
 51
0.0
  0
LINE
  5
264
330
1F
100
AcDbEntity
  8
0
  6
Continuous
 62
     7
370
    25
100
AcDbLine
 10
6736.8017034577
 20
4701.7994545943
 30
0.0
 11
6736.8017034577
 21
4688.2994545943
 31
0.0
  0
ARC
  5
265
330
1F
100
AcDbEntity
  8
0
  6
Continuous
 62
     7
370
    25
100
AcDbCircle
 10
6734.5517034577
 20
4701.7994545943
 30
0.0
 40
2.25
100
AcDbArc
 50
0.0
 51
180.0
  0
LINE
  5
266
330
1F
100
AcDbEntity
  8
0
  6
Continuous
 62
     7
370
    25
100
AcDbLine
 10
6732.3017034577
 20
4688.2994545943
 30
0.0
 11
6732.3017034577
 21
4701.7994545943
 31
0.0
  0
ARC
  5
267
330
1F
100
AcDbEntity
  8
0
  6
Continuous
 62
     7
370
    25
100
AcDbCircle
 10
6734.5517034577
 20
4688.2994545943
 30
0.0
 40
2.25
100
AcDbArc
 50
180.0
 51
0.0
  0
LINE
  5
268
330
1F
100
AcDbEntity
  8
0
  6
Continuous
 62
     7
370
    25
100
AcDbLine
 10
6736.8017034577
 20
4741.7994545943
 30
0.0
 11
6736.8017034577
 21
4728.2994545943
 31
0.0
  0
ARC
  5
269
330
1F
100
AcDbEntity
  8
0
  6
Continuous
 62
     7
370
    25
100
AcDbCircle
 10
6734.5517034577
 20
4741.7994545943
 30
0.0
 40
2.25
100
AcDbArc
 50
0.0
 51
180.0
  0
LINE
  5
26A
330
1F
100
AcDbEntity
  8
0
  6
Continuous
 62
     7
370
    25
100
AcDbLine
 10
6732.3017034577
 20
4728.2994545943
 30
0.0
 11
6732.3017034577
 21
4741.7994545943
 31
0.0
  0
ARC
  5
26B
330
1F
100
AcDbEntity
  8
0
  6
Continuous
 62
     7
370
    25
100
AcDbCircle
 10
6734.5517034577
 20
4728.2994545943
 30
0.0
 40
2.25
100
AcDbArc
 50
180.0
 51
0.0
  0
LINE
  5
26C
330
1F
100
AcDbEntity
  8
0
  6
Continuous
 62
     7
370
    25
100
AcDbLine
 10
6736.8017034577
 20
4781.7994545943
 30
0.0
 11
6736.8017034577
 21
4768.2994545943
 31
0.0
  0
ARC
  5
26D
330
1F
100
AcDbEntity
  8
0
  6
Continuous
 62
     7
370
    25
100
AcDbCircle
 10
6734.5517034577
 20
4781.7994545943
 30
0.0
 40
2.25
100
AcDbArc
 50
0.0
 51
180.0
  0
LINE
  5
26E
330
1F
100
AcDbEntity
  8
0
  6
Continuous
 62
     7
370
    25
100
AcDbLine
 10
6732.3017034577
 20
4768.2994545943
 30
0.0
 11
6732.3017034577
 21
4781.7994545943
 31
0.0
  0
ARC
  5
26F
330
1F
100
AcDbEntity
  8
0
  6
Continuous
 62
     7
370
    25
100
AcDbCircle
 10
6734.5517034577
 20
4768.2994545943
 30
0.0
 40
2.25
100
AcDbArc
 50
180.0
 51
0.0
  0
LINE
  5
270
330
1F
100
AcDbEntity
  8
0
  6
Continuous
 62
     7
370
    25
100
AcDbLine
 10
6732.3017034577
 20
5328.2994545943
 30
0.0
 11
6732.3017034577
 21
5341.7994545943
 31
0.0
  0
ARC
  5
271
330
1F
100
AcDbEntity
  8
0
  6
Continuous
 62
     7
370
    25
100
AcDbCircle
 10
6734.5517034577
 20
5328.2994545943
 30
0.0
 40
2.250000000000909
100
AcDbArc
 50
180.0
 51
0.0
  0
LINE
  5
272
330
1F
100
AcDbEntity
  8
0
  6
Continuous
 62
     7
370
    25
100
AcDbLine
 10
6736.8017034577
 20
5341.7994545943
 30
0.0
 11
6736.8017034577
 21
5328.2994545943
 31
0.0
  0
ARC
  5
273
330
1F
100
AcDbEntity
  8
0
  6
Continuous
 62
     7
370
    25
100
AcDbCircle
 10
6734.5517034577
 20
5341.7994545943
 30
0.0
 40
2.250000000002728
100
AcDbArc
 50
0.0
 51
180.0
  0
LINE
  5
274
330
1F
100
AcDbEntity
  8
0
  6
Continuous
 62
     7
370
    25
100
AcDbLine
 10
6732.3017034577
 20
5368.2994545943
 30
0.0
 11
6732.3017034577
 21
5381.7994545943
 31
0.0
  0
ARC
  5
275
330
1F
100
AcDbEntity
  8
0
  6
Continuous
 62
     7
370
    25
100
AcDbCircle
 10
6734.5517034577
 20
5368.2994545943
 30
0.0
 40
2.25
100
AcDbArc
 50
180.0
 51
0.0
  0
LINE
  5
276
330
1F
100
AcDbEntity
  8
0
  6
Continuous
 62
     7
370
    25
100
AcDbLine
 10
6736.8017034577
 20
5381.7994545943
 30
0.0
 11
6736.8017034577
 21
5368.2994545943
 31
0.0
  0
ARC
  5
277
330
1F
100
AcDbEntity
  8
0
  6
Continuous
 62
     7
370
    25
100
AcDbCircle
 10
6734.5517034577
 20
5381.7994545943
 30
0.0
 40
2.250000000000909
100
AcDbArc
 50
0.0
 51
180.0
  0
LINE
  5
278
330
1F
100
AcDbEntity
  8
0
  6
Continuous
 62
     7
370
    25
100
AcDbLine
 10
6732.3017034577
 20
5408.2994545943
 30
0.0
 11
6732.3017034577
 21
5421.7994545943
 31
0.0
  0
ARC
  5
279
330
1F
100
AcDbEntity
  8
0
  6
Continuous
 62
     7
370
    25
100
AcDbCircle
 10
6734.5517034577
 20
5408.2994545943
 30
0.0
 40
2.25
100
AcDbArc
 50
180.0
 51
0.0
  0
LINE
  5
27A
330
1F
100
AcDbEntity
  8
0
  6
Continuous
 62
     7
370
    25
100
AcDbLine
 10
6736.8017034577
 20
5421.7994545943
 30
0.0
 11
6736.8017034577
 21
5408.2994545943
 31
0.0
  0
ARC
  5
27B
330
1F
100
AcDbEntity
  8
0
  6
Continuous
 62
     7
370
    25
100
AcDbCircle
 10
6734.5517034577
 20
5421.7994545943
 30
0.0
 40
2.250000000000909
100
AcDbArc
 50
0.0
 51
180.0
  0
LINE
  5
27C
330
1F
100
AcDbEntity
  8
0
  6
Continuous
 62
     7
370
    25
100
AcDbLine
 10
6782.3017034577
 20
5328.2994545943
 30
0.0
 11
6782.3017034577
 21
5341.7994545943
 31
0.0
  0
ARC
  5
27D
330
1F
100
AcDbEntity
  8
0
  6
Continuous
 62
     7
370
    25
100
AcDbCircle
 10
6784.5517034577
 20
5328.2994545943
 30
0.0
 40
2.250000000001819
100
AcDbArc
 50
180.0
 51
0.0
  0
LINE
  5
27E
330
1F
100
AcDbEntity
  8
0
  6
Continuous
 62
     7
370
    25
100
AcDbLine
 10
6786.8017034577
 20
5341.7994545943
 30
0.0
 11
6786.8017034577
 21
5328.2994545943
 31
0.0
  0
ARC
  5
27F
330
1F
100
AcDbEntity
  8
0
  6
Continuous
 62
     7
370
    25
100
AcDbCircle
 10
6784.5517034577
 20
5341.7994545943
 30
0.0
 40
2.250000000002728
100
AcDbArc
 50
0.0
 51
180.0
  0
LINE
  5
280
330
1F
100
AcDbEntity
  8
0
  6
Continuous
 62
     7
370
    25
100
AcDbLine
 10
6762.3017034577
 20
5328.2994545943
 30
0.0
 11
6762.3017034577
 21
5341.7994545943
 31
0.0
  0
ARC
  5
281
330
1F
100
AcDbEntity
  8
0
  6
Continuous
 62
     7
370
    25
100
AcDbCircle
 10
6764.5517034577
 20
5328.2994545943
 30
0.0
 40
2.250000000000909
100
AcDbArc
 50
180.0
 51
0.0
  0
LINE
  5
282
330
1F
100
AcDbEntity
  8
0
  6
Continuous
 62
     7
370
    25
100
AcDbLine
 10
6766.8017034577
 20
5341.7994545943
 30
0.0
 11
6766.8017034577
 21
5328.2994545943
 31
0.0
  0
ARC
  5
283
330
1F
100
AcDbEntity
  8
0
  6
Continuous
 62
     7
370
    25
100
AcDbCircle
 10
6764.5517034577
 20
5341.7994545943
 30
0.0
 40
2.250000000001819
100
AcDbArc
 50
0.0
 51
180.0
  0
LINE
  5
284
330
1F
100
AcDbEntity
  8
0
  6
Continuous
 62
     7
370
    25
100
AcDbLine
 10
6742.3017034577
 20
5328.2994545943
 30
0.0
 11
6742.3017034577
 21
5341.7994545943
 31
0.0
  0
ARC
  5
285
330
1F
100
AcDbEntity
  8
0
  6
Continuous
 62
     7
370
    25
100
AcDbCircle
 10
6744.5517034577
 20
5328.2994545943
 30
0.0
 40
2.250000000001819
100
AcDbArc
 50
180.0
 51
0.0
  0
LINE
  5
286
330
1F
100
AcDbEntity
  8
0
  6
Continuous
 62
     7
370
    25
100
AcDbLine
 10
6746.8017034577
 20
5341.7994545943
 30
0.0
 11
6746.8017034577
 21
5328.2994545943
 31
0.0
  0
ARC
  5
287
330
1F
100
AcDbEntity
  8
0
  6
Continuous
 62
     7
370
    25
100
AcDbCircle
 10
6744.5517034577
 20
5341.7994545943
 30
0.0
 40
2.250000000002728
100
AcDbArc
 50
0.0
 51
180.0
  0
LINE
  5
288
330
1F
100
AcDbEntity
  8
0
  6
Continuous
 62
     7
370
    25
100
AcDbLine
 10
6772.3017034577
 20
5348.2994545943
 30
0.0
 11
6772.3017034577
 21
5361.7994545943
 31
0.0
  0
ARC
  5
289
330
1F
100
AcDbEntity
  8
0
  6
Continuous
 62
     7
370
    25
100
AcDbCircle
 10
6774.5517034577
 20
5348.2994545943
 30
0.0
 40
2.250000000000909
100
AcDbArc
 50
180.0
 51
0.0
  0
LINE
  5
28A
330
1F
100
AcDbEntity
  8
0
  6
Continuous
 62
     7
370
    25
100
AcDbLine
 10
6776.8017034577
 20
5361.7994545943
 30
0.0
 11
6776.8017034577
 21
5348.2994545943
 31
0.0
  0
ARC
  5
28B
330
1F
100
AcDbEntity
  8
0
  6
Continuous
 62
     7
370
    25
100
AcDbCircle
 10
6774.5517034577
 20
5361.7994545943
 30
0.0
 40
2.250000000001819
100
AcDbArc
 50
0.0
 51
180.0
  0
LINE
  5
28C
330
1F
100
AcDbEntity
  8
0
  6
Continuous
 62
     7
370
    25
100
AcDbLine
 10
6752.3017034577
 20
5348.2994545943
 30
0.0
 11
6752.3017034577
 21
5361.7994545943
 31
0.0
  0
ARC
  5
28D
330
1F
100
AcDbEntity
  8
0
  6
Continuous
 62
     7
370
    25
100
AcDbCircle
 10
6754.5517034577
 20
5348.2994545943
 30
0.0
 40
2.250000000000909
100
AcDbArc
 50
180.0
 51
0.0
  0
LINE
  5
28E
330
1F
100
AcDbEntity
  8
0
  6
Continuous
 62
     7
370
    25
100
AcDbLine
 10
6756.8017034577
 20
5361.7994545943
 30
0.0
 11
6756.8017034577
 21
5348.2994545943
 31
0.0
  0
ARC
  5
28F
330
1F
100
AcDbEntity
  8
0
  6
Continuous
 62
     7
370
    25
100
AcDbCircle
 10
6754.5517034577
 20
5361.7994545943
 30
0.0
 40
2.250000000001819
100
AcDbArc
 50
0.0
 51
180.0
  0
LINE
  5
290
330
1F
100
AcDbEntity
  8
0
  6
Continuous
 62
     7
370
    25
100
AcDbLine
 10
6782.3017034577
 20
5368.2994545943
 30
0.0
 11
6782.3017034577
 21
5381.7994545943
 31
0.0
  0
ARC
  5
291
330
1F
100
AcDbEntity
  8
0
  6
Continuous
 62
     7
370
    25
100
AcDbCircle
 10
6784.5517034577
 20
5368.2994545943
 30
0.0
 40
2.250000000000909
100
AcDbArc
 50
180.0
 51
0.0
  0
LINE
  5
292
330
1F
100
AcDbEntity
  8
0
  6
Continuous
 62
     7
370
    25
100
AcDbLine
 10
6786.8017034577
 20
5381.7994545943
 30
0.0
 11
6786.8017034577
 21
5368.2994545943
 31
0.0
  0
ARC
  5
293
330
1F
100
AcDbEntity
  8
0
  6
Continuous
 62
     7
370
    25
100
AcDbCircle
 10
6784.5517034577
 20
5381.7994545943
 30
0.0
 40
2.250000000000909
100
AcDbArc
 50
0.0
 51
180.0
  0
LINE
  5
294
330
1F
100
AcDbEntity
  8
0
  6
Continuous
 62
     7
370
    25
100
AcDbLine
 10
6762.3017034577
 20
5368.2994545943
 30
0.0
 11
6762.3017034577
 21
5381.7994545943
 31
0.0
  0
ARC
  5
295
330
1F
100
AcDbEntity
  8
0
  6
Continuous
 62
     7
370
    25
100
AcDbCircle
 10
6764.5517034577
 20
5368.2994545943
 30
0.0
 40
2.250000000000909
100
AcDbArc
 50
180.0
 51
0.0
  0
LINE
  5
296
330
1F
100
AcDbEntity
  8
0
  6
Continuous
 62
     7
370
    25
100
AcDbLine
 10
6766.8017034577
 20
5381.7994545943
 30
0.0
 11
6766.8017034577
 21
5368.2994545943
 31
0.0
  0
ARC
  5
297
330
1F
100
AcDbEntity
  8
0
  6
Continuous
 62
     7
370
    25
100
AcDbCircle
 10
6764.5517034577
 20
5381.7994545943
 30
0.0
 40
2.250000000001819
100
AcDbArc
 50
0.0
 51
180.0
  0
LINE
  5
298
330
1F
100
AcDbEntity
  8
0
  6
Continuous
 62
     7
370
    25
100
AcDbLine
 10
6742.3017034577
 20
5368.2994545943
 30
0.0
 11
6742.3017034577
 21
5381.7994545943
 31
0.0
  0
ARC
  5
299
330
1F
100
AcDbEntity
  8
0
  6
Continuous
 62
     7
370
    25
100
AcDbCircle
 10
6744.5517034577
 20
5368.2994545943
 30
0.0
 40
2.250000000000909
100
AcDbArc
 50
180.0
 51
0.0
  0
LINE
  5
29A
330
1F
100
AcDbEntity
  8
0
  6
Continuous
 62
     7
370
    25
100
AcDbLine
 10
6746.8017034577
 20
5381.7994545943
 30
0.0
 11
6746.8017034577
 21
5368.2994545943
 31
0.0
  0
ARC
  5
29B
330
1F
100
AcDbEntity
  8
0
  6
Continuous
 62
     7
370
    25
100
AcDbCircle
 10
6744.5517034577
 20
5381.7994545943
 30
0.0
 40
2.250000000000909
100
AcDbArc
 50
0.0
 51
180.0
  0
LINE
  5
29C
330
1F
100
AcDbEntity
  8
0
  6
Continuous
 62
     7
370
    25
100
AcDbLine
 10
6772.3017034577
 20
5388.2994545943
 30
0.0
 11
6772.3017034577
 21
5401.7994545943
 31
0.0
  0
ARC
  5
29D
330
1F
100
AcDbEntity
  8
0
  6
Continuous
 62
     7
370
    25
100
AcDbCircle
 10
6774.5517034577
 20
5388.2994545943
 30
0.0
 40
2.25
100
AcDbArc
 50
180.0
 51
0.0
  0
LINE
  5
29E
330
1F
100
AcDbEntity
  8
0
  6
Continuous
 62
     7
370
    25
100
AcDbLine
 10
6776.8017034577
 20
5401.7994545943
 30
0.0
 11
6776.8017034577
 21
5388.2994545943
 31
0.0
  0
ARC
  5
29F
330
1F
100
AcDbEntity
  8
0
  6
Continuous
 62
     7
370
    25
100
AcDbCircle
 10
6774.5517034577
 20
5401.7994545943
 30
0.0
 40
2.250000000000909
100
AcDbArc
 50
0.0
 51
180.0
  0
LINE
  5
2A0
330
1F
100
AcDbEntity
  8
0
  6
Continuous
 62
     7
370
    25
100
AcDbLine
 10
6752.3017034577
 20
5388.2994545943
 30
0.0
 11
6752.3017034577
 21
5401.7994545943
 31
0.0
  0
ARC
  5
2A1
330
1F
100
AcDbEntity
  8
0
  6
Continuous
 62
     7
370
    25
100
AcDbCircle
 10
6754.5517034577
 20
5388.2994545943
 30
0.0
 40
2.250000000000909
100
AcDbArc
 50
180.0
 51
0.0
  0
LINE
  5
2A2
330
1F
100
AcDbEntity
  8
0
  6
Continuous
 62
     7
370
    25
100
AcDbLine
 10
6756.8017034577
 20
5401.7994545943
 30
0.0
 11
6756.8017034577
 21
5388.2994545943
 31
0.0
  0
ARC
  5
2A3
330
1F
100
AcDbEntity
  8
0
  6
Continuous
 62
     7
370
    25
100
AcDbCircle
 10
6754.5517034577
 20
5401.7994545943
 30
0.0
 40
2.250000000000909
100
AcDbArc
 50
0.0
 51
180.0
  0
LINE
  5
2A4
330
1F
100
AcDbEntity
  8
0
  6
Continuous
 62
     7
370
    25
100
AcDbLine
 10
6782.3017034577
 20
5408.2994545943
 30
0.0
 11
6782.3017034577
 21
5421.7994545943
 31
0.0
  0
ARC
  5
2A5
330
1F
100
AcDbEntity
  8
0
  6
Continuous
 62
     7
370
    25
100
AcDbCircle
 10
6784.5517034577
 20
5408.2994545943
 30
0.0
 40
2.250000000000909
100
AcDbArc
 50
180.0
 51
0.0
  0
LINE
  5
2A6
330
1F
100
AcDbEntity
  8
0
  6
Continuous
 62
     7
370
    25
100
AcDbLine
 10
6786.8017034577
 20
5421.7994545943
 30
0.0
 11
6786.8017034577
 21
5408.2994545943
 31
0.0
  0
ARC
  5
2A7
330
1F
100
AcDbEntity
  8
0
  6
Continuous
 62
     7
370
    25
100
AcDbCircle
 10
6784.5517034577
 20
5421.7994545943
 30
0.0
 40
2.250000000000909
100
AcDbArc
 50
0.0
 51
180.0
  0
LINE
  5
2A8
330
1F
100
AcDbEntity
  8
0
  6
Continuous
 62
     7
370
    25
100
AcDbLine
 10
6762.3017034577
 20
5408.2994545943
 30
0.0
 11
6762.3017034577
 21
5421.7994545943
 31
0.0
  0
ARC
  5
2A9
330
1F
100
AcDbEntity
  8
0
  6
Continuous
 62
     7
370
    25
100
AcDbCircle
 10
6764.5517034577
 20
5408.2994545943
 30
0.0
 40
2.25
100
AcDbArc
 50
180.0
 51
0.0
  0
LINE
  5
2AA
330
1F
100
AcDbEntity
  8
0
  6
Continuous
 62
     7
370
    25
100
AcDbLine
 10
6766.8017034577
 20
5421.7994545943
 30
0.0
 11
6766.8017034577
 21
5408.2994545943
 31
0.0
  0
ARC
  5
2AB
330
1F
100
AcDbEntity
  8
0
  6
Continuous
 62
     7
370
    25
100
AcDbCircle
 10
6764.5517034577
 20
5421.7994545943
 30
0.0
 40
2.250000000000909
100
AcDbArc
 50
0.0
 51
180.0
  0
LINE
  5
2AC
330
1F
100
AcDbEntity
  8
0
  6
Continuous
 62
     7
370
    25
100
AcDbLine
 10
6742.3017034577
 20
5408.2994545943
 30
0.0
 11
6742.3017034577
 21
5421.7994545943
 31
0.0
  0
ARC
  5
2AD
330
1F
100
AcDbEntity
  8
0
  6
Continuous
 62
     7
370
    25
100
AcDbCircle
 10
6744.5517034577
 20
5408.2994545943
 30
0.0
 40
2.250000000000909
100
AcDbArc
 50
180.0
 51
0.0
  0
LINE
  5
2AE
330
1F
100
AcDbEntity
  8
0
  6
Continuous
 62
     7
370
    25
100
AcDbLine
 10
6746.8017034577
 20
5421.7994545943
 30
0.0
 11
6746.8017034577
 21
5408.2994545943
 31
0.0
  0
ARC
  5
2AF
330
1F
100
AcDbEntity
  8
0
  6
Continuous
 62
     7
370
    25
100
AcDbCircle
 10
6744.5517034577
 20
5421.7994545943
 30
0.0
 40
2.250000000000909
100
AcDbArc
 50
0.0
 51
180.0
  0
LINE
  5
2B0
330
1F
100
AcDbEntity
  8
0
  6
Continuous
 62
     7
370
    25
100
AcDbLine
 10
6772.3017034577
 20
5428.2994545943
 30
0.0
 11
6772.3017034577
 21
5441.7994545943
 31
0.0
  0
ARC
  5
2B1
330
1F
100
AcDbEntity
  8
0
  6
Continuous
 62
     7
370
    25
100
AcDbCircle
 10
6774.5517034577
 20
5428.2994545943
 30
0.0
 40
2.25
100
AcDbArc
 50
180.0
 51
0.0
  0
LINE
  5
2B2
330
1F
100
AcDbEntity
  8
0
  6
Continuous
 62
     7
370
    25
100
AcDbLine
 10
6776.8017034577
 20
5441.7994545943
 30
0.0
 11
6776.8017034577
 21
5428.2994545943
 31
0.0
  0
ARC
  5
2B3
330
1F
100
AcDbEntity
  8
0
  6
Continuous
 62
     7
370
    25
100
AcDbCircle
 10
6774.5517034577
 20
5441.7994545943
 30
0.0
 40
2.25
100
AcDbArc
 50
0.0
 51
180.0
  0
LINE
  5
2B4
330
1F
100
AcDbEntity
  8
0
  6
Continuous
 62
     7
370
    25
100
AcDbLine
 10
6752.3017034577
 20
5428.2994545943
 30
0.0
 11
6752.3017034577
 21
5441.7994545943
 31
0.0
  0
ARC
  5
2B5
330
1F
100
AcDbEntity
  8
0
  6
Continuous
 62
     7
370
    25
100
AcDbCircle
 10
6754.5517034577
 20
5428.2994545943
 30
0.0
 40
2.25
100
AcDbArc
 50
180.0
 51
0.0
  0
LINE
  5
2B6
330
1F
100
AcDbEntity
  8
0
  6
Continuous
 62
     7
370
    25
100
AcDbLine
 10
6756.8017034577
 20
5441.7994545943
 30
0.0
 11
6756.8017034577
 21
5428.2994545943
 31
0.0
  0
ARC
  5
2B7
330
1F
100
AcDbEntity
  8
0
  6
Continuous
 62
     7
370
    25
100
AcDbCircle
 10
6754.5517034577
 20
5441.7994545943
 30
0.0
 40
2.25
100
AcDbArc
 50
0.0
 51
180.0
  0
LINE
  5
2B8
330
1F
100
AcDbEntity
  8
0
  6
Continuous
 62
     7
370
    25
100
AcDbLine
 10
6782.3017034577
 20
5448.2994545943
 30
0.0
 11
6782.3017034577
 21
5461.7994545943
 31
0.0
  0
ARC
  5
2B9
330
1F
100
AcDbEntity
  8
0
  6
Continuous
 62
     7
370
    25
100
AcDbCircle
 10
6784.5517034577
 20
5448.2994545943
 30
0.0
 40
2.25
100
AcDbArc
 50
180.0
 51
0.0
  0
LINE
  5
2BA
330
1F
100
AcDbEntity
  8
0
  6
Continuous
 62
     7
370
    25
100
AcDbLine
 10
6786.8017034577
 20
5461.7994545943
 30
0.0
 11
6786.8017034577
 21
5448.2994545943
 31
0.0
  0
ARC
  5
2BB
330
1F
100
AcDbEntity
  8
0
  6
Continuous
 62
     7
370
    25
100
AcDbCircle
 10
6784.5517034577
 20
5461.7994545943
 30
0.0
 40
2.25
100
AcDbArc
 50
0.0
 51
180.0
  0
LINE
  5
2BC
330
1F
100
AcDbEntity
  8
0
  6
Continuous
 62
     7
370
    25
100
AcDbLine
 10
6762.3017034577
 20
5448.2994545943
 30
0.0
 11
6762.3017034577
 21
5461.7994545943
 31
0.0
  0
ARC
  5
2BD
330
1F
100
AcDbEntity
  8
0
  6
Continuous
 62
     7
370
    25
100
AcDbCircle
 10
6764.5517034577
 20
5448.2994545943
 30
0.0
 40
2.25
100
AcDbArc
 50
180.0
 51
0.0
  0
LINE
  5
2BE
330
1F
100
AcDbEntity
  8
0
  6
Continuous
 62
     7
370
    25
100
AcDbLine
 10
6766.8017034577
 20
5461.7994545943
 30
0.0
 11
6766.8017034577
 21
5448.2994545943
 31
0.0
  0
ARC
  5
2BF
330
1F
100
AcDbEntity
  8
0
  6
Continuous
 62
     7
370
    25
100
AcDbCircle
 10
6764.5517034577
 20
5461.7994545943
 30
0.0
 40
2.25
100
AcDbArc
 50
0.0
 51
180.0
  0
LINE
  5
2C0
330
1F
100
AcDbEntity
  8
0
  6
Continuous
 62
     7
370
    25
100
AcDbLine
 10
6742.3017034577
 20
5448.2994545943
 30
0.0
 11
6742.3017034577
 21
5461.7994545943
 31
0.0
  0
ARC
  5
2C1
330
1F
100
AcDbEntity
  8
0
  6
Continuous
 62
     7
370
    25
100
AcDbCircle
 10
6744.5517034577
 20
5448.2994545943
 30
0.0
 40
2.25
100
AcDbArc
 50
180.0
 51
0.0
  0
LINE
  5
2C2
330
1F
100
AcDbEntity
  8
0
  6
Continuous
 62
     7
370
    25
100
AcDbLine
 10
6746.8017034577
 20
5461.7994545943
 30
0.0
 11
6746.8017034577
 21
5448.2994545943
 31
0.0
  0
ARC
  5
2C3
330
1F
100
AcDbEntity
  8
0
  6
Continuous
 62
     7
370
    25
100
AcDbCircle
 10
6744.5517034577
 20
5461.7994545943
 30
0.0
 40
2.25
100
AcDbArc
 50
0.0
 51
180.0
  0
LINE
  5
2C4
330
1F
100
AcDbEntity
  8
0
  6
Continuous
 62
     7
370
    25
100
AcDbLine
 10
6682.3017034577
 20
4615.0494545943
 30
0.0
 11
6865.3017034577
 21
4615.0494545943
 31
0.0
  0
LINE
  5
2C5
330
1F
100
AcDbEntity
  8
0
  6
Continuous
 62
     7
370
    25
100
AcDbLine
 10
6732.3017034577
 20
5448.2994545943
 30
0.0
 11
6732.3017034577
 21
5461.7994545943
 31
0.0
  0
ARC
  5
2C6
330
1F
100
AcDbEntity
  8
0
  6
Continuous
 62
     7
370
    25
100
AcDbCircle
 10
6734.5517034577
 20
5448.2994545943
 30
0.0
 40
2.25
100
AcDbArc
 50
180.0
 51
0.0
  0
LINE
  5
2C7
330
1F
100
AcDbEntity
  8
0
  6
Continuous
 62
     7
370
    25
100
AcDbLine
 10
6736.8017034577
 20
5461.7994545943
 30
0.0
 11
6736.8017034577
 21
5448.2994545943
 31
0.0
  0
ARC
  5
2C8
330
1F
100
AcDbEntity
  8
0
  6
Continuous
 62
     7
370
    25
100
AcDbCircle
 10
6734.5517034577
 20
5461.7994545943
 30
0.0
 40
2.25
100
AcDbArc
 50
0.0
 51
180.0
  0
LINE
  5
2C9
330
1F
100
AcDbEntity
  8
0
  6
Continuous
 62
     7
370
    25
100
AcDbLine
 10
6752.3017034577
 20
5448.2994545943
 30
0.0
 11
6752.3017034577
 21
5461.7994545943
 31
0.0
  0
ARC
  5
2CA
330
1F
100
AcDbEntity
  8
0
  6
Continuous
 62
     7
370
    25
100
AcDbCircle
 10
6754.5517034577
 20
5448.2994545943
 30
0.0
 40
2.25
100
AcDbArc
 50
180.0
 51
0.0
  0
LINE
  5
2CB
330
1F
100
AcDbEntity
  8
0
  6
Continuous
 62
     7
370
    25
100
AcDbLine
 10
6756.8017034577
 20
5461.7994545943
 30
0.0
 11
6756.8017034577
 21
5448.2994545943
 31
0.0
  0
ARC
  5
2CC
330
1F
100
AcDbEntity
  8
0
  6
Continuous
 62
     7
370
    25
100
AcDbCircle
 10
6754.5517034577
 20
5461.7994545943
 30
0.0
 40
2.25
100
AcDbArc
 50
0.0
 51
180.0
  0
LINE
  5
2CD
330
1F
100
AcDbEntity
  8
0
  6
Continuous
 62
     7
370
    25
100
AcDbLine
 10
6772.3017034577
 20
5448.2994545943
 30
0.0
 11
6772.3017034577
 21
5461.7994545943
 31
0.0
  0
ARC
  5
2CE
330
1F
100
AcDbEntity
  8
0
  6
Continuous
 62
     7
370
    25
100
AcDbCircle
 10
6774.5517034577
 20
5448.2994545943
 30
0.0
 40
2.25
100
AcDbArc
 50
180.0
 51
0.0
  0
LINE
  5
2CF
330
1F
100
AcDbEntity
  8
0
  6
Continuous
 62
     7
370
    25
100
AcDbLine
 10
6776.8017034577
 20
5461.7994545943
 30
0.0
 11
6776.8017034577
 21
5448.2994545943
 31
0.0
  0
ARC
  5
2D0
330
1F
100
AcDbEntity
  8
0
  6
Continuous
 62
     7
370
    25
100
AcDbCircle
 10
6774.5517034577
 20
5461.7994545943
 30
0.0
 40
2.25
100
AcDbArc
 50
0.0
 51
180.0
  0
LINE
  5
2D1
330
1F
100
AcDbEntity
  8
0
  6
Continuous
 62
     7
370
    25
100
AcDbLine
 10
6742.3017034577
 20
5428.2994545943
 30
0.0
 11
6742.3017034577
 21
5441.7994545943
 31
0.0
  0
ARC
  5
2D2
330
1F
100
AcDbEntity
  8
0
  6
Continuous
 62
     7
370
    25
100
AcDbCircle
 10
6744.5517034577
 20
5428.2994545943
 30
0.0
 40
2.250000000000909
100
AcDbArc
 50
180.0
 51
0.0
  0
LINE
  5
2D3
330
1F
100
AcDbEntity
  8
0
  6
Continuous
 62
     7
370
    25
100
AcDbLine
 10
6746.8017034577
 20
5441.7994545943
 30
0.0
 11
6746.8017034577
 21
5428.2994545943
 31
0.0
  0
ARC
  5
2D4
330
1F
100
AcDbEntity
  8
0
  6
Continuous
 62
     7
370
    25
100
AcDbCircle
 10
6744.5517034577
 20
5441.7994545943
 30
0.0
 40
2.250000000000909
100
AcDbArc
 50
0.0
 51
180.0
  0
LINE
  5
2D5
330
1F
100
AcDbEntity
  8
0
  6
Continuous
 62
     7
370
    25
100
AcDbLine
 10
6762.3017034577
 20
5428.2994545943
 30
0.0
 11
6762.3017034577
 21
5441.7994545943
 31
0.0
  0
ARC
  5
2D6
330
1F
100
AcDbEntity
  8
0
  6
Continuous
 62
     7
370
    25
100
AcDbCircle
 10
6764.5517034577
 20
5428.2994545943
 30
0.0
 40
2.25
100
AcDbArc
 50
180.0
 51
0.0
  0
LINE
  5
2D7
330
1F
100
AcDbEntity
  8
0
  6
Continuous
 62
     7
370
    25
100
AcDbLine
 10
6766.8017034577
 20
5441.7994545943
 30
0.0
 11
6766.8017034577
 21
5428.2994545943
 31
0.0
  0
ARC
  5
2D8
330
1F
100
AcDbEntity
  8
0
  6
Continuous
 62
     7
370
    25
100
AcDbCircle
 10
6764.5517034577
 20
5441.7994545943
 30
0.0
 40
2.25
100
AcDbArc
 50
0.0
 51
180.0
  0
LINE
  5
2D9
330
1F
100
AcDbEntity
  8
0
  6
Continuous
 62
     7
370
    25
100
AcDbLine
 10
6782.3017034577
 20
5428.2994545943
 30
0.0
 11
6782.3017034577
 21
5441.7994545943
 31
0.0
  0
ARC
  5
2DA
330
1F
100
AcDbEntity
  8
0
  6
Continuous
 62
     7
370
    25
100
AcDbCircle
 10
6784.5517034577
 20
5428.2994545943
 30
0.0
 40
2.250000000000909
100
AcDbArc
 50
180.0
 51
0.0
  0
LINE
  5
2DB
330
1F
100
AcDbEntity
  8
0
  6
Continuous
 62
     7
370
    25
100
AcDbLine
 10
6786.8017034577
 20
5441.7994545943
 30
0.0
 11
6786.8017034577
 21
5428.2994545943
 31
0.0
  0
ARC
  5
2DC
330
1F
100
AcDbEntity
  8
0
  6
Continuous
 62
     7
370
    25
100
AcDbCircle
 10
6784.5517034577
 20
5441.7994545943
 30
0.0
 40
2.250000000000909
100
AcDbArc
 50
0.0
 51
180.0
  0
LINE
  5
2DD
330
1F
100
AcDbEntity
  8
0
  6
Continuous
 62
     7
370
    25
100
AcDbLine
 10
6752.3017034577
 20
5408.2994545943
 30
0.0
 11
6752.3017034577
 21
5421.7994545943
 31
0.0
  0
ARC
  5
2DE
330
1F
100
AcDbEntity
  8
0
  6
Continuous
 62
     7
370
    25
100
AcDbCircle
 10
6754.5517034577
 20
5408.2994545943
 30
0.0
 40
2.250000000000909
100
AcDbArc
 50
180.0
 51
0.0
  0
LINE
  5
2DF
330
1F
100
AcDbEntity
  8
0
  6
Continuous
 62
     7
370
    25
100
AcDbLine
 10
6756.8017034577
 20
5421.7994545943
 30
0.0
 11
6756.8017034577
 21
5408.2994545943
 31
0.0
  0
ARC
  5
2E0
330
1F
100
AcDbEntity
  8
0
  6
Continuous
 62
     7
370
    25
100
AcDbCircle
 10
6754.5517034577
 20
5421.7994545943
 30
0.0
 40
2.250000000000909
100
AcDbArc
 50
0.0
 51
180.0
  0
LINE
  5
2E1
330
1F
100
AcDbEntity
  8
0
  6
Continuous
 62
     7
370
    25
100
AcDbLine
 10
6772.3017034577
 20
5408.2994545943
 30
0.0
 11
6772.3017034577
 21
5421.7994545943
 31
0.0
  0
ARC
  5
2E2
330
1F
100
AcDbEntity
  8
0
  6
Continuous
 62
     7
370
    25
100
AcDbCircle
 10
6774.5517034577
 20
5408.2994545943
 30
0.0
 40
2.25
100
AcDbArc
 50
180.0
 51
0.0
  0
LINE
  5
2E3
330
1F
100
AcDbEntity
  8
0
  6
Continuous
 62
     7
370
    25
100
AcDbLine
 10
6776.8017034577
 20
5421.7994545943
 30
0.0
 11
6776.8017034577
 21
5408.2994545943
 31
0.0
  0
ARC
  5
2E4
330
1F
100
AcDbEntity
  8
0
  6
Continuous
 62
     7
370
    25
100
AcDbCircle
 10
6774.5517034577
 20
5421.7994545943
 30
0.0
 40
2.250000000000909
100
AcDbArc
 50
0.0
 51
180.0
  0
LINE
  5
2E5
330
1F
100
AcDbEntity
  8
0
  6
Continuous
 62
     7
370
    25
100
AcDbLine
 10
6742.3017034577
 20
5388.2994545943
 30
0.0
 11
6742.3017034577
 21
5401.7994545943
 31
0.0
  0
ARC
  5
2E6
330
1F
100
AcDbEntity
  8
0
  6
Continuous
 62
     7
370
    25
100
AcDbCircle
 10
6744.5517034577
 20
5388.2994545943
 30
0.0
 40
2.250000000000909
100
AcDbArc
 50
180.0
 51
0.0
  0
LINE
  5
2E7
330
1F
100
AcDbEntity
  8
0
  6
Continuous
 62
     7
370
    25
100
AcDbLine
 10
6746.8017034577
 20
5401.7994545943
 30
0.0
 11
6746.8017034577
 21
5388.2994545943
 31
0.0
  0
ARC
  5
2E8
330
1F
100
AcDbEntity
  8
0
  6
Continuous
 62
     7
370
    25
100
AcDbCircle
 10
6744.5517034577
 20
5401.7994545943
 30
0.0
 40
2.250000000000909
100
AcDbArc
 50
0.0
 51
180.0
  0
LINE
  5
2E9
330
1F
100
AcDbEntity
  8
0
  6
Continuous
 62
     7
370
    25
100
AcDbLine
 10
6762.3017034577
 20
5388.2994545943
 30
0.0
 11
6762.3017034577
 21
5401.7994545943
 31
0.0
  0
ARC
  5
2EA
330
1F
100
AcDbEntity
  8
0
  6
Continuous
 62
     7
370
    25
100
AcDbCircle
 10
6764.5517034577
 20
5388.2994545943
 30
0.0
 40
2.250000000000909
100
AcDbArc
 50
180.0
 51
0.0
  0
LINE
  5
2EB
330
1F
100
AcDbEntity
  8
0
  6
Continuous
 62
     7
370
    25
100
AcDbLine
 10
6766.8017034577
 20
5401.7994545943
 30
0.0
 11
6766.8017034577
 21
5388.2994545943
 31
0.0
  0
ARC
  5
2EC
330
1F
100
AcDbEntity
  8
0
  6
Continuous
 62
     7
370
    25
100
AcDbCircle
 10
6764.5517034577
 20
5401.7994545943
 30
0.0
 40
2.250000000001819
100
AcDbArc
 50
0.0
 51
180.0
  0
LINE
  5
2ED
330
1F
100
AcDbEntity
  8
0
  6
Continuous
 62
     7
370
    25
100
AcDbLine
 10
6782.3017034577
 20
5388.2994545943
 30
0.0
 11
6782.3017034577
 21
5401.7994545943
 31
0.0
  0
ARC
  5
2EE
330
1F
100
AcDbEntity
  8
0
  6
Continuous
 62
     7
370
    25
100
AcDbCircle
 10
6784.5517034577
 20
5388.2994545943
 30
0.0
 40
2.250000000000909
100
AcDbArc
 50
180.0
 51
0.0
  0
LINE
  5
2EF
330
1F
100
AcDbEntity
  8
0
  6
Continuous
 62
     7
370
    25
100
AcDbLine
 10
6786.8017034577
 20
5401.7994545943
 30
0.0
 11
6786.8017034577
 21
5388.2994545943
 31
0.0
  0
ARC
  5
2F0
330
1F
100
AcDbEntity
  8
0
  6
Continuous
 62
     7
370
    25
100
AcDbCircle
 10
6784.5517034577
 20
5401.7994545943
 30
0.0
 40
2.250000000000909
100
AcDbArc
 50
0.0
 51
180.0
  0
LINE
  5
2F1
330
1F
100
AcDbEntity
  8
0
  6
Continuous
 62
     7
370
    25
100
AcDbLine
 10
6752.3017034577
 20
5368.2994545943
 30
0.0
 11
6752.3017034577
 21
5381.7994545943
 31
0.0
  0
ARC
  5
2F2
330
1F
100
AcDbEntity
  8
0
  6
Continuous
 62
     7
370
    25
100
AcDbCircle
 10
6754.5517034577
 20
5368.2994545943
 30
0.0
 40
2.250000000000909
100
AcDbArc
 50
180.0
 51
0.0
  0
LINE
  5
2F3
330
1F
100
AcDbEntity
  8
0
  6
Continuous
 62
     7
370
    25
100
AcDbLine
 10
6756.8017034577
 20
5381.7994545943
 30
0.0
 11
6756.8017034577
 21
5368.2994545943
 31
0.0
  0
ARC
  5
2F4
330
1F
100
AcDbEntity
  8
0
  6
Continuous
 62
     7
370
    25
100
AcDbCircle
 10
6754.5517034577
 20
5381.7994545943
 30
0.0
 40
2.250000000001819
100
AcDbArc
 50
0.0
 51
180.0
  0
LINE
  5
2F5
330
1F
100
AcDbEntity
  8
0
  6
Continuous
 62
     7
370
    25
100
AcDbLine
 10
6772.3017034577
 20
5368.2994545943
 30
0.0
 11
6772.3017034577
 21
5381.7994545943
 31
0.0
  0
ARC
  5
2F6
330
1F
100
AcDbEntity
  8
0
  6
Continuous
 62
     7
370
    25
100
AcDbCircle
 10
6774.5517034577
 20
5368.2994545943
 30
0.0
 40
2.250000000000909
100
AcDbArc
 50
180.0
 51
0.0
  0
LINE
  5
2F7
330
1F
100
AcDbEntity
  8
0
  6
Continuous
 62
     7
370
    25
100
AcDbLine
 10
6776.8017034577
 20
5381.7994545943
 30
0.0
 11
6776.8017034577
 21
5368.2994545943
 31
0.0
  0
ARC
  5
2F8
330
1F
100
AcDbEntity
  8
0
  6
Continuous
 62
     7
370
    25
100
AcDbCircle
 10
6774.5517034577
 20
5381.7994545943
 30
0.0
 40
2.250000000001819
100
AcDbArc
 50
0.0
 51
180.0
  0
LINE
  5
2F9
330
1F
100
AcDbEntity
  8
0
  6
Continuous
 62
     7
370
    25
100
AcDbLine
 10
6742.3017034577
 20
5348.2994545943
 30
0.0
 11
6742.3017034577
 21
5361.7994545943
 31
0.0
  0
ARC
  5
2FA
330
1F
100
AcDbEntity
  8
0
  6
Continuous
 62
     7
370
    25
100
AcDbCircle
 10
6744.5517034577
 20
5348.2994545943
 30
0.0
 40
2.250000000000909
100
AcDbArc
 50
180.0
 51
0.0
  0
LINE
  5
2FB
330
1F
100
AcDbEntity
  8
0
  6
Continuous
 62
     7
370
    25
100
AcDbLine
 10
6746.8017034577
 20
5361.7994545943
 30
0.0
 11
6746.8017034577
 21
5348.2994545943
 31
0.0
  0
ARC
  5
2FC
330
1F
100
AcDbEntity
  8
0
  6
Continuous
 62
     7
370
    25
100
AcDbCircle
 10
6744.5517034577
 20
5361.7994545943
 30
0.0
 40
2.250000000001819
100
AcDbArc
 50
0.0
 51
180.0
  0
LINE
  5
2FD
330
1F
100
AcDbEntity
  8
0
  6
Continuous
 62
     7
370
    25
100
AcDbLine
 10
6762.3017034577
 20
5348.2994545943
 30
0.0
 11
6762.3017034577
 21
5361.7994545943
 31
0.0
  0
ARC
  5
2FE
330
1F
100
AcDbEntity
  8
0
  6
Continuous
 62
     7
370
    25
100
AcDbCircle
 10
6764.5517034577
 20
5348.2994545943
 30
0.0
 40
2.250000000000909
100
AcDbArc
 50
180.0
 51
0.0
  0
LINE
  5
2FF
330
1F
100
AcDbEntity
  8
0
  6
Continuous
 62
     7
370
    25
100
AcDbLine
 10
6766.8017034577
 20
5361.7994545943
 30
0.0
 11
6766.8017034577
 21
5348.2994545943
 31
0.0
  0
ARC
  5
300
330
1F
100
AcDbEntity
  8
0
  6
Continuous
 62
     7
370
    25
100
AcDbCircle
 10
6764.5517034577
 20
5361.7994545943
 30
0.0
 40
2.250000000001819
100
AcDbArc
 50
0.0
 51
180.0
  0
LINE
  5
301
330
1F
100
AcDbEntity
  8
0
  6
Continuous
 62
     7
370
    25
100
AcDbLine
 10
6782.3017034577
 20
5348.2994545943
 30
0.0
 11
6782.3017034577
 21
5361.7994545943
 31
0.0
  0
ARC
  5
302
330
1F
100
AcDbEntity
  8
0
  6
Continuous
 62
     7
370
    25
100
AcDbCircle
 10
6784.5517034577
 20
5348.2994545943
 30
0.0
 40
2.250000000001819
100
AcDbArc
 50
180.0
 51
0.0
  0
LINE
  5
303
330
1F
100
AcDbEntity
  8
0
  6
Continuous
 62
     7
370
    25
100
AcDbLine
 10
6786.8017034577
 20
5361.7994545943
 30
0.0
 11
6786.8017034577
 21
5348.2994545943
 31
0.0
  0
ARC
  5
304
330
1F
100
AcDbEntity
  8
0
  6
Continuous
 62
     7
370
    25
100
AcDbCircle
 10
6784.5517034577
 20
5361.7994545943
 30
0.0
 40
2.250000000002728
100
AcDbArc
 50
0.0
 51
180.0
  0
LINE
  5
305
330
1F
100
AcDbEntity
  8
0
  6
Continuous
 62
     7
370
    25
100
AcDbLine
 10
6752.3017034577
 20
5328.2994545943
 30
0.0
 11
6752.3017034577
 21
5341.7994545943
 31
0.0
  0
ARC
  5
306
330
1F
100
AcDbEntity
  8
0
  6
Continuous
 62
     7
370
    25
100
AcDbCircle
 10
6754.5517034577
 20
5328.2994545943
 30
0.0
 40
2.250000000000909
100
AcDbArc
 50
180.0
 51
0.0
  0
LINE
  5
307
330
1F
100
AcDbEntity
  8
0
  6
Continuous
 62
     7
370
    25
100
AcDbLine
 10
6756.8017034577
 20
5341.7994545943
 30
0.0
 11
6756.8017034577
 21
5328.2994545943
 31
0.0
  0
ARC
  5
308
330
1F
100
AcDbEntity
  8
0
  6
Continuous
 62
     7
370
    25
100
AcDbCircle
 10
6754.5517034577
 20
5341.7994545943
 30
0.0
 40
2.250000000001819
100
AcDbArc
 50
0.0
 51
180.0
  0
LINE
  5
309
330
1F
100
AcDbEntity
  8
0
  6
Continuous
 62
     7
370
    25
100
AcDbLine
 10
6772.3017034577
 20
5328.2994545943
 30
0.0
 11
6772.3017034577
 21
5341.7994545943
 31
0.0
  0
ARC
  5
30A
330
1F
100
AcDbEntity
  8
0
  6
Continuous
 62
     7
370
    25
100
AcDbCircle
 10
6774.5517034577
 20
5328.2994545943
 30
0.0
 40
2.250000000000909
100
AcDbArc
 50
180.0
 51
0.0
  0
LINE
  5
30B
330
1F
100
AcDbEntity
  8
0
  6
Continuous
 62
     7
370
    25
100
AcDbLine
 10
6776.8017034577
 20
5341.7994545943
 30
0.0
 11
6776.8017034577
 21
5328.2994545943
 31
0.0
  0
ARC
  5
30C
330
1F
100
AcDbEntity
  8
0
  6
Continuous
 62
     7
370
    25
100
AcDbCircle
 10
6774.5517034577
 20
5341.7994545943
 30
0.0
 40
2.250000000002728
100
AcDbArc
 50
0.0
 51
180.0
  0
LINE
  5
30D
330
1F
100
AcDbEntity
  8
0
  6
Continuous
 62
     7
370
    25
100
AcDbLine
 10
6732.3017034577
 20
5428.2994545943
 30
0.0
 11
6732.3017034577
 21
5441.7994545943
 31
0.0
  0
ARC
  5
30E
330
1F
100
AcDbEntity
  8
0
  6
Continuous
 62
     7
370
    25
100
AcDbCircle
 10
6734.5517034577
 20
5428.2994545943
 30
0.0
 40
2.25
100
AcDbArc
 50
180.0
 51
0.0
  0
LINE
  5
30F
330
1F
100
AcDbEntity
  8
0
  6
Continuous
 62
     7
370
    25
100
AcDbLine
 10
6736.8017034577
 20
5441.7994545943
 30
0.0
 11
6736.8017034577
 21
5428.2994545943
 31
0.0
  0
ARC
  5
310
330
1F
100
AcDbEntity
  8
0
  6
Continuous
 62
     7
370
    25
100
AcDbCircle
 10
6734.5517034577
 20
5441.7994545943
 30
0.0
 40
2.25
100
AcDbArc
 50
0.0
 51
180.0
  0
LINE
  5
311
330
1F
100
AcDbEntity
  8
0
  6
Continuous
 62
     7
370
    25
100
AcDbLine
 10
6732.3017034577
 20
5388.2994545943
 30
0.0
 11
6732.3017034577
 21
5401.7994545943
 31
0.0
  0
ARC
  5
312
330
1F
100
AcDbEntity
  8
0
  6
Continuous
 62
     7
370
    25
100
AcDbCircle
 10
6734.5517034577
 20
5388.2994545943
 30
0.0
 40
2.25
100
AcDbArc
 50
180.0
 51
0.0
  0
LINE
  5
313
330
1F
100
AcDbEntity
  8
0
  6
Continuous
 62
     7
370
    25
100
AcDbLine
 10
6736.8017034577
 20
5401.7994545943
 30
0.0
 11
6736.8017034577
 21
5388.2994545943
 31
0.0
  0
ARC
  5
314
330
1F
100
AcDbEntity
  8
0
  6
Continuous
 62
     7
370
    25
100
AcDbCircle
 10
6734.5517034577
 20
5401.7994545943
 30
0.0
 40
2.250000000000909
100
AcDbArc
 50
0.0
 51
180.0
  0
LINE
  5
315
330
1F
100
AcDbEntity
  8
0
  6
Continuous
 62
     7
370
    25
100
AcDbLine
 10
6732.3017034577
 20
5348.2994545943
 30
0.0
 11
6732.3017034577
 21
5361.7994545943
 31
0.0
  0
ARC
  5
316
330
1F
100
AcDbEntity
  8
0
  6
Continuous
 62
     7
370
    25
100
AcDbCircle
 10
6734.5517034577
 20
5348.2994545943
 30
0.0
 40
2.250000000000909
100
AcDbArc
 50
180.0
 51
0.0
  0
LINE
  5
317
330
1F
100
AcDbEntity
  8
0
  6
Continuous
 62
     7
370
    25
100
AcDbLine
 10
6736.8017034577
 20
5361.7994545943
 30
0.0
 11
6736.8017034577
 21
5348.2994545943
 31
0.0
  0
ARC
  5
318
330
1F
100
AcDbEntity
  8
0
  6
Continuous
 62
     7
370
    25
100
AcDbCircle
 10
6734.5517034577
 20
5361.7994545943
 30
0.0
 40
2.250000000002728
100
AcDbArc
 50
0.0
 51
180.0
  0
LINE
  5
319
330
1F
100
AcDbEntity
  8
0
  6
Continuous
 62
     7
370
    25
100
AcDbLine
 10
6736.8017034577
 20
4801.7994545943
 30
0.0
 11
6736.8017034577
 21
4788.2994545943
 31
0.0
  0
ARC
  5
31A
330
1F
100
AcDbEntity
  8
0
  6
Continuous
 62
     7
370
    25
100
AcDbCircle
 10
6734.5517034577
 20
4801.7994545943
 30
0.0
 40
2.25
100
AcDbArc
 50
0.0
 51
180.0
  0
LINE
  5
31B
330
1F
100
AcDbEntity
  8
0
  6
Continuous
 62
     7
370
    25
100
AcDbLine
 10
6732.3017034577
 20
4788.2994545943
 30
0.0
 11
6732.3017034577
 21
4801.7994545943
 31
0.0
  0
ARC
  5
31C
330
1F
100
AcDbEntity
  8
0
  6
Continuous
 62
     7
370
    25
100
AcDbCircle
 10
6734.5517034577
 20
4788.2994545943
 30
0.0
 40
2.25
100
AcDbArc
 50
180.0
 51
0.0
  0
LINE
  5
31D
330
1F
100
AcDbEntity
  8
0
  6
Continuous
 62
     7
370
    25
100
AcDbLine
 10
6736.8017034577
 20
4761.7994545943
 30
0.0
 11
6736.8017034577
 21
4748.2994545943
 31
0.0
  0
ARC
  5
31E
330
1F
100
AcDbEntity
  8
0
  6
Continuous
 62
     7
370
    25
100
AcDbCircle
 10
6734.5517034577
 20
4761.7994545943
 30
0.0
 40
2.25
100
AcDbArc
 50
0.0
 51
180.0
  0
LINE
  5
31F
330
1F
100
AcDbEntity
  8
0
  6
Continuous
 62
     7
370
    25
100
AcDbLine
 10
6732.3017034577
 20
4748.2994545943
 30
0.0
 11
6732.3017034577
 21
4761.7994545943
 31
0.0
  0
ARC
  5
320
330
1F
100
AcDbEntity
  8
0
  6
Continuous
 62
     7
370
    25
100
AcDbCircle
 10
6734.5517034577
 20
4748.2994545943
 30
0.0
 40
2.25
100
AcDbArc
 50
180.0
 51
0.0
  0
LINE
  5
321
330
1F
100
AcDbEntity
  8
0
  6
Continuous
 62
     7
370
    25
100
AcDbLine
 10
6736.8017034577
 20
4721.7994545943
 30
0.0
 11
6736.8017034577
 21
4708.2994545943
 31
0.0
  0
ARC
  5
322
330
1F
100
AcDbEntity
  8
0
  6
Continuous
 62
     7
370
    25
100
AcDbCircle
 10
6734.5517034577
 20
4721.7994545943
 30
0.0
 40
2.25
100
AcDbArc
 50
0.0
 51
180.0
  0
LINE
  5
323
330
1F
100
AcDbEntity
  8
0
  6
Continuous
 62
     7
370
    25
100
AcDbLine
 10
6732.3017034577
 20
4708.2994545943
 30
0.0
 11
6732.3017034577
 21
4721.7994545943
 31
0.0
  0
ARC
  5
324
330
1F
100
AcDbEntity
  8
0
  6
Continuous
 62
     7
370
    25
100
AcDbCircle
 10
6734.5517034577
 20
4708.2994545943
 30
0.0
 40
2.25
100
AcDbArc
 50
180.0
 51
0.0
  0
LINE
  5
325
330
1F
100
AcDbEntity
  8
0
  6
Continuous
 62
     7
370
    25
100
AcDbLine
 10
6786.8017034577
 20
4801.7994545943
 30
0.0
 11
6786.8017034577
 21
4788.2994545943
 31
0.0
  0
ARC
  5
326
330
1F
100
AcDbEntity
  8
0
  6
Continuous
 62
     7
370
    25
100
AcDbCircle
 10
6784.5517034577
 20
4801.7994545943
 30
0.0
 40
2.25
100
AcDbArc
 50
0.0
 51
180.0
  0
LINE
  5
327
330
1F
100
AcDbEntity
  8
0
  6
Continuous
 62
     7
370
    25
100
AcDbLine
 10
6782.3017034577
 20
4788.2994545943
 30
0.0
 11
6782.3017034577
 21
4801.7994545943
 31
0.0
  0
ARC
  5
328
330
1F
100
AcDbEntity
  8
0
  6
Continuous
 62
     7
370
    25
100
AcDbCircle
 10
6784.5517034577
 20
4788.2994545943
 30
0.0
 40
2.25
100
AcDbArc
 50
180.0
 51
0.0
  0
LINE
  5
329
330
1F
100
AcDbEntity
  8
0
  6
Continuous
 62
     7
370
    25
100
AcDbLine
 10
6766.8017034577
 20
4801.7994545943
 30
0.0
 11
6766.8017034577
 21
4788.2994545943
 31
0.0
  0
ARC
  5
32A
330
1F
100
AcDbEntity
  8
0
  6
Continuous
 62
     7
370
    25
100
AcDbCircle
 10
6764.5517034577
 20
4801.7994545943
 30
0.0
 40
2.25
100
AcDbArc
 50
0.0
 51
180.0
  0
LINE
  5
32B
330
1F
100
AcDbEntity
  8
0
  6
Continuous
 62
     7
370
    25
100
AcDbLine
 10
6762.3017034577
 20
4788.2994545943
 30
0.0
 11
6762.3017034577
 21
4801.7994545943
 31
0.0
  0
ARC
  5
32C
330
1F
100
AcDbEntity
  8
0
  6
Continuous
 62
     7
370
    25
100
AcDbCircle
 10
6764.5517034577
 20
4788.2994545943
 30
0.0
 40
2.25
100
AcDbArc
 50
180.0
 51
0.0
  0
LINE
  5
32D
330
1F
100
AcDbEntity
  8
0
  6
Continuous
 62
     7
370
    25
100
AcDbLine
 10
6746.8017034577
 20
4801.7994545943
 30
0.0
 11
6746.8017034577
 21
4788.2994545943
 31
0.0
  0
ARC
  5
32E
330
1F
100
AcDbEntity
  8
0
  6
Continuous
 62
     7
370
    25
100
AcDbCircle
 10
6744.5517034577
 20
4801.7994545943
 30
0.0
 40
2.25
100
AcDbArc
 50
0.0
 51
180.0
  0
LINE
  5
32F
330
1F
100
AcDbEntity
  8
0
  6
Continuous
 62
     7
370
    25
100
AcDbLine
 10
6742.3017034577
 20
4788.2994545943
 30
0.0
 11
6742.3017034577
 21
4801.7994545943
 31
0.0
  0
ARC
  5
330
330
1F
100
AcDbEntity
  8
0
  6
Continuous
 62
     7
370
    25
100
AcDbCircle
 10
6744.5517034577
 20
4788.2994545943
 30
0.0
 40
2.25
100
AcDbArc
 50
180.0
 51
0.0
  0
LINE
  5
331
330
1F
100
AcDbEntity
  8
0
  6
Continuous
 62
     7
370
    25
100
AcDbLine
 10
6776.8017034577
 20
4781.7994545943
 30
0.0
 11
6776.8017034577
 21
4768.2994545943
 31
0.0
  0
ARC
  5
332
330
1F
100
AcDbEntity
  8
0
  6
Continuous
 62
     7
370
    25
100
AcDbCircle
 10
6774.5517034577
 20
4781.7994545943
 30
0.0
 40
2.25
100
AcDbArc
 50
0.0
 51
180.0
  0
LINE
  5
333
330
1F
100
AcDbEntity
  8
0
  6
Continuous
 62
     7
370
    25
100
AcDbLine
 10
6772.3017034577
 20
4768.2994545943
 30
0.0
 11
6772.3017034577
 21
4781.7994545943
 31
0.0
  0
ARC
  5
334
330
1F
100
AcDbEntity
  8
0
  6
Continuous
 62
     7
370
    25
100
AcDbCircle
 10
6774.5517034577
 20
4768.2994545943
 30
0.0
 40
2.25
100
AcDbArc
 50
180.0
 51
0.0
  0
LINE
  5
335
330
1F
100
AcDbEntity
  8
0
  6
Continuous
 62
     7
370
    25
100
AcDbLine
 10
6756.8017034577
 20
4781.7994545943
 30
0.0
 11
6756.8017034577
 21
4768.2994545943
 31
0.0
  0
ARC
  5
336
330
1F
100
AcDbEntity
  8
0
  6
Continuous
 62
     7
370
    25
100
AcDbCircle
 10
6754.5517034577
 20
4781.7994545943
 30
0.0
 40
2.25
100
AcDbArc
 50
0.0
 51
180.0
  0
LINE
  5
337
330
1F
100
AcDbEntity
  8
0
  6
Continuous
 62
     7
370
    25
100
AcDbLine
 10
6752.3017034577
 20
4768.2994545943
 30
0.0
 11
6752.3017034577
 21
4781.7994545943
 31
0.0
  0
ARC
  5
338
330
1F
100
AcDbEntity
  8
0
  6
Continuous
 62
     7
370
    25
100
AcDbCircle
 10
6754.5517034577
 20
4768.2994545943
 30
0.0
 40
2.25
100
AcDbArc
 50
180.0
 51
0.0
  0
LINE
  5
339
330
1F
100
AcDbEntity
  8
0
  6
Continuous
 62
     7
370
    25
100
AcDbLine
 10
6786.8017034577
 20
4761.7994545943
 30
0.0
 11
6786.8017034577
 21
4748.2994545943
 31
0.0
  0
ARC
  5
33A
330
1F
100
AcDbEntity
  8
0
  6
Continuous
 62
     7
370
    25
100
AcDbCircle
 10
6784.5517034577
 20
4761.7994545943
 30
0.0
 40
2.25
100
AcDbArc
 50
0.0
 51
180.0
  0
LINE
  5
33B
330
1F
100
AcDbEntity
  8
0
  6
Continuous
 62
     7
370
    25
100
AcDbLine
 10
6782.3017034577
 20
4748.2994545943
 30
0.0
 11
6782.3017034577
 21
4761.7994545943
 31
0.0
  0
ARC
  5
33C
330
1F
100
AcDbEntity
  8
0
  6
Continuous
 62
     7
370
    25
100
AcDbCircle
 10
6784.5517034577
 20
4748.2994545943
 30
0.0
 40
2.25
100
AcDbArc
 50
180.0
 51
0.0
  0
LINE
  5
33D
330
1F
100
AcDbEntity
  8
0
  6
Continuous
 62
     7
370
    25
100
AcDbLine
 10
6766.8017034577
 20
4761.7994545943
 30
0.0
 11
6766.8017034577
 21
4748.2994545943
 31
0.0
  0
ARC
  5
33E
330
1F
100
AcDbEntity
  8
0
  6
Continuous
 62
     7
370
    25
100
AcDbCircle
 10
6764.5517034577
 20
4761.7994545943
 30
0.0
 40
2.25
100
AcDbArc
 50
0.0
 51
180.0
  0
LINE
  5
33F
330
1F
100
AcDbEntity
  8
0
  6
Continuous
 62
     7
370
    25
100
AcDbLine
 10
6762.3017034577
 20
4748.2994545943
 30
0.0
 11
6762.3017034577
 21
4761.7994545943
 31
0.0
  0
ARC
  5
340
330
1F
100
AcDbEntity
  8
0
  6
Continuous
 62
     7
370
    25
100
AcDbCircle
 10
6764.5517034577
 20
4748.2994545943
 30
0.0
 40
2.25
100
AcDbArc
 50
180.0
 51
0.0
  0
LINE
  5
341
330
1F
100
AcDbEntity
  8
0
  6
Continuous
 62
     7
370
    25
100
AcDbLine
 10
6746.8017034577
 20
4761.7994545943
 30
0.0
 11
6746.8017034577
 21
4748.2994545943
 31
0.0
  0
ARC
  5
342
330
1F
100
AcDbEntity
  8
0
  6
Continuous
 62
     7
370
    25
100
AcDbCircle
 10
6744.5517034577
 20
4761.7994545943
 30
0.0
 40
2.25
100
AcDbArc
 50
0.0
 51
180.0
  0
LINE
  5
343
330
1F
100
AcDbEntity
  8
0
  6
Continuous
 62
     7
370
    25
100
AcDbLine
 10
6742.3017034577
 20
4748.2994545943
 30
0.0
 11
6742.3017034577
 21
4761.7994545943
 31
0.0
  0
ARC
  5
344
330
1F
100
AcDbEntity
  8
0
  6
Continuous
 62
     7
370
    25
100
AcDbCircle
 10
6744.5517034577
 20
4748.2994545943
 30
0.0
 40
2.25
100
AcDbArc
 50
180.0
 51
0.0
  0
LINE
  5
345
330
1F
100
AcDbEntity
  8
0
  6
Continuous
 62
     7
370
    25
100
AcDbLine
 10
6776.8017034577
 20
4741.7994545943
 30
0.0
 11
6776.8017034577
 21
4728.2994545943
 31
0.0
  0
ARC
  5
346
330
1F
100
AcDbEntity
  8
0
  6
Continuous
 62
     7
370
    25
100
AcDbCircle
 10
6774.5517034577
 20
4741.7994545943
 30
0.0
 40
2.25
100
AcDbArc
 50
0.0
 51
180.0
  0
LINE
  5
347
330
1F
100
AcDbEntity
  8
0
  6
Continuous
 62
     7
370
    25
100
AcDbLine
 10
6772.3017034577
 20
4728.2994545943
 30
0.0
 11
6772.3017034577
 21
4741.7994545943
 31
0.0
  0
ARC
  5
348
330
1F
100
AcDbEntity
  8
0
  6
Continuous
 62
     7
370
    25
100
AcDbCircle
 10
6774.5517034577
 20
4728.2994545943
 30
0.0
 40
2.25
100
AcDbArc
 50
180.0
 51
0.0
  0
LINE
  5
349
330
1F
100
AcDbEntity
  8
0
  6
Continuous
 62
     7
370
    25
100
AcDbLine
 10
6756.8017034577
 20
4741.7994545943
 30
0.0
 11
6756.8017034577
 21
4728.2994545943
 31
0.0
  0
ARC
  5
34A
330
1F
100
AcDbEntity
  8
0
  6
Continuous
 62
     7
370
    25
100
AcDbCircle
 10
6754.5517034577
 20
4741.7994545943
 30
0.0
 40
2.25
100
AcDbArc
 50
0.0
 51
180.0
  0
LINE
  5
34B
330
1F
100
AcDbEntity
  8
0
  6
Continuous
 62
     7
370
    25
100
AcDbLine
 10
6752.3017034577
 20
4728.2994545943
 30
0.0
 11
6752.3017034577
 21
4741.7994545943
 31
0.0
  0
ARC
  5
34C
330
1F
100
AcDbEntity
  8
0
  6
Continuous
 62
     7
370
    25
100
AcDbCircle
 10
6754.5517034577
 20
4728.2994545943
 30
0.0
 40
2.25
100
AcDbArc
 50
180.0
 51
0.0
  0
LINE
  5
34D
330
1F
100
AcDbEntity
  8
0
  6
Continuous
 62
     7
370
    25
100
AcDbLine
 10
6786.8017034577
 20
4721.7994545943
 30
0.0
 11
6786.8017034577
 21
4708.2994545943
 31
0.0
  0
ARC
  5
34E
330
1F
100
AcDbEntity
  8
0
  6
Continuous
 62
     7
370
    25
100
AcDbCircle
 10
6784.5517034577
 20
4721.7994545943
 30
0.0
 40
2.25
100
AcDbArc
 50
0.0
 51
180.0
  0
LINE
  5
34F
330
1F
100
AcDbEntity
  8
0
  6
Continuous
 62
     7
370
    25
100
AcDbLine
 10
6782.3017034577
 20
4708.2994545943
 30
0.0
 11
6782.3017034577
 21
4721.7994545943
 31
0.0
  0
ARC
  5
350
330
1F
100
AcDbEntity
  8
0
  6
Continuous
 62
     7
370
    25
100
AcDbCircle
 10
6784.5517034577
 20
4708.2994545943
 30
0.0
 40
2.25
100
AcDbArc
 50
180.0
 51
0.0
  0
LINE
  5
351
330
1F
100
AcDbEntity
  8
0
  6
Continuous
 62
     7
370
    25
100
AcDbLine
 10
6766.8017034577
 20
4721.7994545943
 30
0.0
 11
6766.8017034577
 21
4708.2994545943
 31
0.0
  0
ARC
  5
352
330
1F
100
AcDbEntity
  8
0
  6
Continuous
 62
     7
370
    25
100
AcDbCircle
 10
6764.5517034577
 20
4721.7994545943
 30
0.0
 40
2.25
100
AcDbArc
 50
0.0
 51
180.0
  0
LINE
  5
353
330
1F
100
AcDbEntity
  8
0
  6
Continuous
 62
     7
370
    25
100
AcDbLine
 10
6762.3017034577
 20
4708.2994545943
 30
0.0
 11
6762.3017034577
 21
4721.7994545943
 31
0.0
  0
ARC
  5
354
330
1F
100
AcDbEntity
  8
0
  6
Continuous
 62
     7
370
    25
100
AcDbCircle
 10
6764.5517034577
 20
4708.2994545943
 30
0.0
 40
2.25
100
AcDbArc
 50
180.0
 51
0.0
  0
LINE
  5
355
330
1F
100
AcDbEntity
  8
0
  6
Continuous
 62
     7
370
    25
100
AcDbLine
 10
6746.8017034577
 20
4721.7994545943
 30
0.0
 11
6746.8017034577
 21
4708.2994545943
 31
0.0
  0
ARC
  5
356
330
1F
100
AcDbEntity
  8
0
  6
Continuous
 62
     7
370
    25
100
AcDbCircle
 10
6744.5517034577
 20
4721.7994545943
 30
0.0
 40
2.25
100
AcDbArc
 50
0.0
 51
180.0
  0
LINE
  5
357
330
1F
100
AcDbEntity
  8
0
  6
Continuous
 62
     7
370
    25
100
AcDbLine
 10
6742.3017034577
 20
4708.2994545943
 30
0.0
 11
6742.3017034577
 21
4721.7994545943
 31
0.0
  0
ARC
  5
358
330
1F
100
AcDbEntity
  8
0
  6
Continuous
 62
     7
370
    25
100
AcDbCircle
 10
6744.5517034577
 20
4708.2994545943
 30
0.0
 40
2.25
100
AcDbArc
 50
180.0
 51
0.0
  0
LINE
  5
359
330
1F
100
AcDbEntity
  8
0
  6
Continuous
 62
     7
370
    25
100
AcDbLine
 10
6776.8017034577
 20
4701.7994545943
 30
0.0
 11
6776.8017034577
 21
4688.2994545943
 31
0.0
  0
ARC
  5
35A
330
1F
100
AcDbEntity
  8
0
  6
Continuous
 62
     7
370
    25
100
AcDbCircle
 10
6774.5517034577
 20
4701.7994545943
 30
0.0
 40
2.25
100
AcDbArc
 50
0.0
 51
180.0
  0
LINE
  5
35B
330
1F
100
AcDbEntity
  8
0
  6
Continuous
 62
     7
370
    25
100
AcDbLine
 10
6772.3017034577
 20
4688.2994545943
 30
0.0
 11
6772.3017034577
 21
4701.7994545943
 31
0.0
  0
ARC
  5
35C
330
1F
100
AcDbEntity
  8
0
  6
Continuous
 62
     7
370
    25
100
AcDbCircle
 10
6774.5517034577
 20
4688.2994545943
 30
0.0
 40
2.25
100
AcDbArc
 50
180.0
 51
0.0
  0
LINE
  5
35D
330
1F
100
AcDbEntity
  8
0
  6
Continuous
 62
     7
370
    25
100
AcDbLine
 10
6756.8017034577
 20
4701.7994545943
 30
0.0
 11
6756.8017034577
 21
4688.2994545943
 31
0.0
  0
ARC
  5
35E
330
1F
100
AcDbEntity
  8
0
  6
Continuous
 62
     7
370
    25
100
AcDbCircle
 10
6754.5517034577
 20
4701.7994545943
 30
0.0
 40
2.25
100
AcDbArc
 50
0.0
 51
180.0
  0
LINE
  5
35F
330
1F
100
AcDbEntity
  8
0
  6
Continuous
 62
     7
370
    25
100
AcDbLine
 10
6752.3017034577
 20
4688.2994545943
 30
0.0
 11
6752.3017034577
 21
4701.7994545943
 31
0.0
  0
ARC
  5
360
330
1F
100
AcDbEntity
  8
0
  6
Continuous
 62
     7
370
    25
100
AcDbCircle
 10
6754.5517034577
 20
4688.2994545943
 30
0.0
 40
2.25
100
AcDbArc
 50
180.0
 51
0.0
  0
LINE
  5
361
330
1F
100
AcDbEntity
  8
0
  6
Continuous
 62
     7
370
    25
100
AcDbLine
 10
6786.8017034577
 20
4681.7994545943
 30
0.0
 11
6786.8017034577
 21
4668.2994545943
 31
0.0
  0
ARC
  5
362
330
1F
100
AcDbEntity
  8
0
  6
Continuous
 62
     7
370
    25
100
AcDbCircle
 10
6784.5517034577
 20
4681.7994545943
 30
0.0
 40
2.25
100
AcDbArc
 50
0.0
 51
180.0
  0
LINE
  5
363
330
1F
100
AcDbEntity
  8
0
  6
Continuous
 62
     7
370
    25
100
AcDbLine
 10
6782.3017034577
 20
4668.2994545943
 30
0.0
 11
6782.3017034577
 21
4681.7994545943
 31
0.0
  0
ARC
  5
364
330
1F
100
AcDbEntity
  8
0
  6
Continuous
 62
     7
370
    25
100
AcDbCircle
 10
6784.5517034577
 20
4668.2994545943
 30
0.0
 40
2.25
100
AcDbArc
 50
180.0
 51
0.0
  0
LINE
  5
365
330
1F
100
AcDbEntity
  8
0
  6
Continuous
 62
     7
370
    25
100
AcDbLine
 10
6766.8017034577
 20
4681.7994545943
 30
0.0
 11
6766.8017034577
 21
4668.2994545943
 31
0.0
  0
ARC
  5
366
330
1F
100
AcDbEntity
  8
0
  6
Continuous
 62
     7
370
    25
100
AcDbCircle
 10
6764.5517034577
 20
4681.7994545943
 30
0.0
 40
2.25
100
AcDbArc
 50
0.0
 51
180.0
  0
LINE
  5
367
330
1F
100
AcDbEntity
  8
0
  6
Continuous
 62
     7
370
    25
100
AcDbLine
 10
6762.3017034577
 20
4668.2994545943
 30
0.0
 11
6762.3017034577
 21
4681.7994545943
 31
0.0
  0
ARC
  5
368
330
1F
100
AcDbEntity
  8
0
  6
Continuous
 62
     7
370
    25
100
AcDbCircle
 10
6764.5517034577
 20
4668.2994545943
 30
0.0
 40
2.25
100
AcDbArc
 50
180.0
 51
0.0
  0
LINE
  5
369
330
1F
100
AcDbEntity
  8
0
  6
Continuous
 62
     7
370
    25
100
AcDbLine
 10
6746.8017034577
 20
4681.7994545943
 30
0.0
 11
6746.8017034577
 21
4668.2994545943
 31
0.0
  0
ARC
  5
36A
330
1F
100
AcDbEntity
  8
0
  6
Continuous
 62
     7
370
    25
100
AcDbCircle
 10
6744.5517034577
 20
4681.7994545943
 30
0.0
 40
2.25
100
AcDbArc
 50
0.0
 51
180.0
  0
LINE
  5
36B
330
1F
100
AcDbEntity
  8
0
  6
Continuous
 62
     7
370
    25
100
AcDbLine
 10
6742.3017034577
 20
4668.2994545943
 30
0.0
 11
6742.3017034577
 21
4681.7994545943
 31
0.0
  0
ARC
  5
36C
330
1F
100
AcDbEntity
  8
0
  6
Continuous
 62
     7
370
    25
100
AcDbCircle
 10
6744.5517034577
 20
4668.2994545943
 30
0.0
 40
2.25
100
AcDbArc
 50
180.0
 51
0.0
  0
LINE
  5
36D
330
1F
100
AcDbEntity
  8
0
  6
Continuous
 62
     7
370
    25
100
AcDbLine
 10
6680.3017034577
 20
4615.0494545943
 30
0.0
 11
6680.3017034577
 21
5484.0494545927
 31
0.0
  0
LINE
  5
36E
330
1F
100
AcDbEntity
  8
0
  6
Continuous
 62
     7
370
    25
100
AcDbLine
 10
6682.3017034577
 20
4615.0494545943
 30
0.0
 11
6680.3017034577
 21
4615.0494545943
 31
0.0
  0
LINE
  5
36F
330
1F
100
AcDbEntity
  8
0
  6
Continuous
 62
     7
370
    25
100
AcDbLine
 10
6680.3017034577
 20
5484.0494545927
 30
0.0
 11
6865.3017034577
 21
5484.0494545927
 31
0.0
  0
LINE
  5
370
330
1F
100
AcDbEntity
  8
0
  6
Continuous
 62
     7
370
    25
100
AcDbLine
 10
6680.3017034577
 20
5484.0494545927
 30
0.0
 11
6680.3017034577
 21
5515.5494545927
 31
0.0
  0
LINE
  5
371
330
1F
100
AcDbEntity
  8
0
  6
Continuous
 62
     7
370
    25
100
AcDbLine
 10
6865.3017034577
 20
5515.5494545927
 30
0.0
 11
6680.3017034577
 21
5515.5494545927
 31
0.0
  0
LINE
  5
372
330
1F
100
AcDbEntity
  8
0
  6
Continuous
 62
     7
370
    25
100
AcDbLine
 10
6865.3017034577
 20
5484.0494545927
 30
0.0
 11
6865.3017034577
 21
5515.5494545927
 31
0.0
  0
LINE
  5
373
330
1F
100
AcDbEntity
  8
0
  6
Continuous
 62
     7
370
    25
100
AcDbLine
 10
6680.3017034577
 20
5516.0494545927
 30
0.0
 11
6865.3017034577
 21
5516.0494545927
 31
0.0
  0
LINE
  5
374
330
1F
100
AcDbEntity
  8
0
  6
Continuous
 62
     7
370
    25
100
AcDbLine
 10
6865.3017034577
 20
5515.5494545927
 30
0.0
 11
6865.3017034577
 21
5516.0494545927
 31
0.0
  0
LINE
  5
375
330
1F
100
AcDbEntity
  8
0
  6
Continuous
 62
     7
370
    25
100
AcDbLine
 10
6680.3017034577
 20
5515.5494545927
 30
0.0
 11
6680.3017034577
 21
5516.0494545927
 31
0.0
  0
LINE
  5
376
330
1F
100
AcDbEntity
  8
0
  6
Continuous
 62
     7
370
    25
100
AcDbLine
 10
6865.3017034577
 20
5516.0494545927
 30
0.0
 11
7039.8017034577
 21
5516.0494545927
 31
0.0
  0
LINE
  5
377
330
1F
100
AcDbEntity
  8
0
  6
Continuous
 62
     7
370
    25
100
AcDbLine
 10
6865.3017034577
 20
5484.0494545927
 30
0.0
 11
7040.3017034577
 21
5484.0494545927
 31
0.0
  0
LINE
  5
378
330
1F
100
AcDbEntity
  8
0
  6
Continuous
 62
     7
370
    25
100
AcDbLine
 10
6681.3017034577
 20
5517.0494545927
 30
0.0
 11
6681.3017034577
 21
5546.9994545927
 31
0.0
  0
ARC
  5
379
330
1F
100
AcDbEntity
  8
0
  6
Continuous
 62
     7
370
    25
100
AcDbCircle
 10
6682.3017034577
 20
5517.0494545927
 30
0.0
 40
1.0
100
AcDbArc
 50
180.0
 51
270.0
  0
ARC
  5
37A
330
1F
100
AcDbEntity
  8
0
  6
Continuous
 62
     7
370
    25
100
AcDbCircle
 10
6682.3017034577
 20
5517.0494545927
 30
0.0
 40
2.0
100
AcDbArc
 50
180.0
 51
210.0
  0
LINE
  5
37B
330
1F
100
AcDbEntity
  8
0
  6
Continuous
 62
     7
370
    25
100
AcDbLine
 10
6680.3017034577
 20
5546.9994545927
 30
0.0
 11
6681.3017034577
 21
5546.9994545927
 31
0.0
  0
LINE
  5
37C
330
1F
100
AcDbEntity
  8
0
  6
Continuous
 62
     7
370
    25
100
AcDbLine
 10
6680.3017034577
 20
5517.0494545927
 30
0.0
 11
6680.3017034577
 21
5546.9994545927
 31
0.0
  0
LINE
  5
37D
330
1F
100
AcDbEntity
  8
0
  6
Continuous
 62
     7
370
    25
100
AcDbLine
 10
6679.2017034577
 20
5546.9994545927
 30
0.0
 11
6679.2017034577
 21
5542.0494545927
 31
0.0
  0
LINE
  5
37E
330
1F
100
AcDbEntity
  8
0
  6
Continuous
 62
     7
370
    25
100
AcDbLine
 10
6680.2017034577
 20
5546.9994545927
 30
0.0
 11
6679.2017034577
 21
5546.9994545927
 31
0.0
  0
LINE
  5
37F
330
1F
100
AcDbEntity
  8
0
  6
Continuous
 62
     7
370
    25
100
AcDbLine
 10
6680.2017034577
 20
5546.9994545927
 30
0.0
 11
6680.2017034577
 21
5542.0494545927
 31
0.0
  0
LINE
  5
380
330
1F
100
AcDbEntity
  8
0
  6
Continuous
 62
     7
370
    25
100
AcDbLine
 10
6680.2017034577
 20
5542.0494545927
 30
0.0
 11
6679.2017034577
 21
5542.0494545927
 31
0.0
  0
ARC
  5
381
330
1F
100
AcDbEntity
  8
0
  6
Continuous
 62
     7
370
    25
100
AcDbCircle
 10
6680.2517034577
 20
5546.9994545927
 30
0.0
 40
1.050000000000182
100
AcDbArc
 50
0.0
 51
180.0
  0
ARC
  5
382
330
1F
100
AcDbEntity
  8
0
  6
Continuous
 62
     7
370
    25
100
AcDbCircle
 10
6680.2517034577
 20
5546.9994545927
 30
0.0
 40
0.0500000000001819
100
AcDbArc
 50
0.0
 51
180.0
  0
LWPOLYLINE
  5
383
330
1F
100
AcDbEntity
  8
0
  6
Continuous
 62
     7
370
    25
100
AcDbPolyline
 90
        3
 70
   128
 43
0.0
 10
6753.20684971
 20
5549.1441452227
 10
6752.9851667052
 20
5549.3069555738
 10
6752.7646719162
 20
5549.4651097796
  0
ARC
  5
384
330
1F
100
AcDbEntity
  8
0
  6
Continuous
 62
     7
370
    25
100
AcDbCircle
 10
6753.1949732534
 20
5548.8870680262
 30
0.0
 40
0.2573513846781579
100
AcDbArc
 50
48.466364433
 51
87.3549293179
  0
ELLIPSE
  5
385
330
1F
100
AcDbEntity
  8
0
  6
Continuous
 62
     7
370
    25
100
AcDbEllipse
 10
6745.0662798593
 20
5549.8200476516
 30
0.0
 11
9.915020818737503
 21
-3.444501636966379
 31
0.0
210
0.0
220
0.0
230
1.0
 40
0.2640824192
 41
0.0914867555982393
 42
0.1806975037727375
  0
LINE
  5
386
330
1F
100
AcDbEntity
  8
0
  6
Continuous
 62
     7
370
    25
100
AcDbLine
 10
6753.1954181389
 20
5548.8494545939
 30
0.0
 11
6752.7646719162
 21
5549.3000887367
 31
0.0
  0
ARC
  5
387
330
1F
100
AcDbEntity
  8
0
  6
Continuous
 62
     7
370
    25
100
AcDbCircle
 10
6738.4375607397
 20
5577.9008893188
 30
0.0
 40
1.24813413207748
100
AcDbArc
 50
100.3685714753
 51
165.21988223
  0
ARC
  5
388
330
1F
100
AcDbEntity
  8
0
  6
Continuous
 62
     7
370
    25
100
AcDbCircle
 10
6754.0403932524
 20
5576.8012926002
 30
0.0
 40
0.580262164608644
100
AcDbArc
 50
339.0386190239
 51
51.6583188366
  0
LINE
  5
389
330
1F
100
AcDbEntity
  8
0
  6
Continuous
 62
     7
370
    25
100
AcDbLine
 10
6754.4003587538
 20
5577.2564068908
 30
0.0
 11
6751.3825539339
 21
5579.1286418488
 31
0.0
  0
LINE
  5
38A
330
1F
100
AcDbEntity
  8
0
  6
Continuous
 62
     7
370
    25
100
AcDbLine
 10
6731.5832552541
 20
5564.1977683478
 30
0.0
 11
6731.8208528017
 21
5563.3126036331
 31
0.0
  0
LWPOLYLINE
  5
38B
330
1F
100
AcDbEntity
  8
0
  6
Continuous
 62
     7
370
    25
100
AcDbPolyline
 90
        3
 70
   128
 43
0.0
 10
6731.7382929633
 20
5565.3325279735
 10
6731.8713066232
 20
5565.3198826294
 10
6732.4701647389
 20
5565.2369365151
  0
LWPOLYLINE
  5
38C
330
1F
100
AcDbEntity
  8
0
  6
Continuous
 62
     7
370
    25
100
AcDbPolyline
 90
        3
 70
   128
 43
0.0
 10
6731.7160193039
 20
5564.7646346752
 10
6731.9027280685
 20
5564.7147627922
 10
6732.2514823187
 20
5564.5888385089
  0
LINE
  5
38D
330
1F
100
AcDbEntity
  8
0
  6
Continuous
 62
     8
370
    25
100
AcDbLine
 10
6748.8626123656
 20
5791.8494545938
 30
0.0
 11
6738.8626123656
 21
5791.8494545938
 31
0.0
  0
LWPOLYLINE
  5
38E
330
1F
100
AcDbEntity
  8
0
  6
Continuous
 62
     8
370
    25
100
AcDbPolyline
 90
       14
 70
   128
 43
0.0
 10
6759.2439330746
 20
5806.8496167724
 10
6759.4367515171
 20
5806.8611107478
 10
6760.2909483949
 20
5807.1381499831
 10
6761.0655792882
 20
5807.7646051287
 10
6761.7031933672
 20
5808.6940148721
 10
6762.1565017127
 20
5809.8574491445
 10
6762.3918845184
 20
5811.1686213483
 10
6762.3918845184
 20
5812.5302878392
 10
6762.1565017127
 20
5813.841460043
 10
6761.7031933672
 20
5815.0048943154
 10
6761.0655792882
 20
5815.9343040588
 10
6760.2909483949
 20
5816.5607592043
 10
6759.4367515171
 20
5816.8377984397
 10
6759.2160787934
 20
5816.8494535682
  0
LWPOLYLINE
  5
38F
330
1F
100
AcDbEntity
  8
0
  6
Continuous
 62
     8
370
    25
100
AcDbPolyline
 90
       14
 70
   128
 43
0.0
 10
6801.4458059205
 20
5806.8494545934
 10
6801.6644267907
 20
5806.8611107474
 10
6802.5186236685
 20
5807.1381499828
 10
6803.2932545618
 20
5807.7646051284
 10
6803.9308686408
 20
5808.6940148718
 10
6804.3841769863
 20
5809.8574491442
 10
6804.619559792
 20
5811.168621348
 10
6804.619559792
 20
5812.5302878389
 10
6804.3841769863
 20
5813.8414600427
 10
6803.9308686408
 20
5815.0048943151
 10
6803.2932545618
 20
5815.9343040585
 10
6802.5186236685
 20
5816.560759204
 10
6801.6644267907
 20
5816.8377984394
 10
6801.4458059205
 20
5816.8494545934
  0
LINE
  5
390
330
1F
100
AcDbEntity
  8
0
  6
Continuous
 62
     8
370
    25
100
AcDbLine
 10
6811.8013244249
 20
5791.8494545933
 30
0.0
 11
6821.8013241609
 21
5791.8494545933
 31
0.0
  0
LWPOLYLINE
  5
391
330
1F
100
AcDbEntity
  8
0
  6
Continuous
 62
     8
370
    25
100
AcDbPolyline
 90
       23
 70
   128
 43
0.0
 10
6698.197731349
 20
5560.4335807749
 10
6698.2250088568
 20
5560.3815839932
 10
6698.7819720878
 20
5559.7380691048
 10
6699.6527936717
 20
5559.2678643278
 10
6700.8180208933
 20
5558.9814732598
 10
6702.2516245021
 20
5558.8852934042
 10
6703.9215801623
 20
5558.9814732599
 10
6705.790583824
 20
5559.2678643279
 10
6707.8168850338
 20
5559.7380691049
 10
6709.9552195711
 20
5560.3815839933
 10
6712.1578205758
 20
5561.1840339339
 10
6714.3754855811
 20
5562.1274935208
 10
6716.5586756155
 20
5563.1908874261
 10
6718.6586218211
 20
5564.3504611871
 10
6720.6284148698
 20
5565.5803118421
 10
6722.4240528398
 20
5566.8529665596
 10
6724.0054241461
 20
5568.1399963364
 10
6725.3372035669
 20
5569.412651054
 10
6726.3896413506
 20
5570.6425017089
 10
6727.1392277762
 20
5571.8020754699
 10
6727.5692183216
 20
5572.8654693751
 10
6727.6700077086
 20
5573.8089289621
 10
6727.483907479
 20
5574.5242313669
  0
ARC
  5
392
330
1F
100
AcDbEntity
  8
0
  6
Continuous
 62
     8
370
    25
100
AcDbCircle
 10
6722.493668948
 20
5553.8895716886
 30
0.0
 40
23.06425274330471
100
AcDbArc
 50
92.2060775321
 51
109.0734962455
  0
LWPOLYLINE
  5
393
330
1F
100
AcDbEntity
  8
0
  6
Continuous
 62
     8
370
    25
100
AcDbPolyline
 90
       33
 70
   128
 43
0.0
 10
6702.8750965177
 20
5569.351890744
 10
6702.6243030477
 20
5569.150344847
 10
6701.2435830948
 20
5567.9322858346
 10
6700.1286752336
 20
5566.7442194777
 10
6699.3070321957
 20
5565.6153999128
 10
6698.7988855596
 20
5564.573622424
 10
6698.616747582
 20
5563.6445390306
 10
6698.7651031043
 20
5562.851026849
 10
6699.2402991212
 20
5562.2126247828
 10
6700.0306347297
 20
5561.7450524096
 10
6701.1166492441
 20
5561.4598229129
 10
6702.4716013828
 20
5561.3639595897
 10
6704.0621277274
 20
5561.459822913
 10
6705.8490642405
 20
5561.7450524097
 10
6707.7884106148
 20
5562.2126247829
 10
6709.8324137061
 20
5562.8510268491
 10
6711.9307433747
 20
5563.6445390307
 10
6714.0317317802
 20
5564.5736224242
 10
6716.0836456152
 20
5565.615399913
 10
6718.0359599514
 20
5566.7442194779
 10
6719.8406023302
 20
5567.9322858348
 10
6721.4531364671
 20
5569.1503448472
 10
6722.83385642
 20
5570.3684038595
 10
6723.9487642812
 20
5571.5564702165
 10
6724.7704073191
 20
5572.6852897814
 10
6725.2785539552
 20
5573.7270672702
 10
6725.4606919328
 20
5574.6561506636
 10
6725.3123364105
 20
5575.4496628452
 10
6724.8371403936
 20
5576.0880649114
 10
6724.0468047851
 20
5576.5556372846
 10
6722.9607902707
 20
5576.8408667813
 10
6721.605838132
 20
5576.9367301045
 10
6721.605838132
 20
5576.9367301045
  0
LINE
  5
394
330
1F
100
AcDbEntity
  8
0
  6
Continuous
 62
     8
370
    25
100
AcDbLine
 10
6679.6474875525
 20
5231.9494545913
 30
0.0
 11
6679.6585113712
 21
5231.8808359741
 31
0.0
  0
LINE
  5
395
330
1F
100
AcDbEntity
  8
0
  6
Continuous
 62
     8
370
    25
100
AcDbLine
 10
6679.6585113712
 20
5233.2180732085
 30
0.0
 11
6679.6474875525
 21
5233.1494545913
 31
0.0
  0
LINE
  5
396
330
1F
100
AcDbEntity
  8
0
  6
Continuous
 62
     8
370
    25
100
AcDbLine
 10
6679.6474875525
 20
5366.9494545913
 30
0.0
 11
6679.6585113712
 21
5366.8808359741
 31
0.0
  0
LINE
  5
397
330
1F
100
AcDbEntity
  8
0
  6
Continuous
 62
     8
370
    25
100
AcDbLine
 10
6679.6585113712
 20
5368.2180732085
 30
0.0
 11
6679.6474875525
 21
5368.1494545913
 31
0.0
  0
LWPOLYLINE
  5
398
330
1F
100
AcDbEntity
  8
0
  6
Continuous
 62
     8
370
    25
100
AcDbPolyline
 90
        3
 70
   128
 43
0.0
 10
6679.6095754893
 20
5498.8097491631
 10
6679.6400260791
 20
5498.5009617779
 10
6679.8525010483
 20
5497.6670363744
  0
LINE
  5
399
330
1F
100
AcDbEntity
  8
0
  6
Continuous
 62
     8
370
    25
100
AcDbLine
 10
6865.3017034577
 20
5484.0494545927
 30
0.0
 11
6865.3017034577
 21
4615.0494545943
 31
0.0
  0
LINE
  5
39A
330
1F
100
AcDbEntity
  8
0
  6
Continuous
 62
     8
370
    25
100
AcDbLine
 10
6682.3017034577
 20
5484.0494545927
 30
0.0
 11
6682.3017034577
 21
4615.0494545943
 31
0.0
  0
LINE
  5
39B
330
1F
100
AcDbEntity
  8
0
  6
Continuous
 62
     8
370
    25
100
AcDbLine
 10
7040.3017034577
 20
5515.5494545927
 30
0.0
 11
6865.3017034577
 21
5515.5494545927
 31
0.0
  0
ELLIPSE
  5
39C
330
1F
100
AcDbEntity
  8
0
  6
Continuous
 62
     8
370
    25
100
AcDbEllipse
 10
6745.2196955687
 20
5550.2747180146
 30
0.0
 11
9.408479369163613
 21
-3.469220671552648
 31
0.0
210
0.0
220
0.0
230
1.0
 40
0.2748097626
 41
0.5946444866947243
 42
0.665953789614179
  0
ELLIPSE
  5
39D
330
1F
100
AcDbEntity
  8
0
  6
Continuous
 62
     8
370
    25
100
AcDbEllipse
 10
6745.0662798593
 20
5549.8200476516
 30
0.0
 11
9.915020818737503
 21
-3.444501636966379
 31
0.0
210
0.0
220
0.0
230
1.0
 40
0.2640824192
 41
6.152253890705783
 42
6.374672062777825
  0
LINE
  5
39E
330
1F
100
AcDbEntity
  8
0
  6
Continuous
 62
     8
370
    25
100
AcDbLine
 10
6738.8626123656
 20
5569.0363736786
 30
0.0
 11
6735.0223837516
 21
5557.6552827542
 31
0.0
  0
LINE
  5
39F
330
1F
100
AcDbEntity
  8
0
  6
Continuous
 62
     8
370
    25
100
AcDbLine
 10
6733.9316340645
 20
5558.8277748736
 30
0.0
 11
6738.8626123656
 21
5573.4414653676
 31
0.0
  0
LINE
  5
3A0
330
1F
100
AcDbEntity
  8
0
  6
Continuous
 62
     8
370
    25
100
AcDbLine
 10
6738.2129220599
 20
5579.1286418489
 30
0.0
 11
6738.8626123656
 21
5578.7255763842
 31
0.0
  0
LINE
  5
3A1
330
1F
100
AcDbEntity
  8
0
  6
Continuous
 62
     8
370
    25
100
AcDbLine
 10
6738.8626123656
 20
5577.2068841722
 30
0.0
 11
6737.2307249039
 21
5578.2193011228
 31
0.0
  0
LINE
  5
3A2
330
1F
100
AcDbEntity
  8
0
  6
Continuous
 62
     8
370
    25
100
AcDbLine
 10
6748.8626123656
 20
5576.5937104214
 30
0.0
 11
6754.582254691
 21
5576.5937104213
 31
0.0
  0
LINE
  5
3A3
330
1F
100
AcDbEntity
  8
0
  6
Continuous
 62
     8
370
    25
100
AcDbLine
 10
6748.8626123656
 20
5577.2564068909
 30
0.0
 11
6754.4003587538
 21
5577.2564068908
 31
0.0
  0
LINE
  5
3A4
330
1F
100
AcDbEntity
  8
0
  6
Continuous
 62
     8
370
    25
100
AcDbLine
 10
6749.2697989576
 20
5560.8494545938
 30
0.0
 11
6754.582254691
 21
5576.5937104213
 31
0.0
  0
LINE
  5
3A5
330
1F
100
AcDbEntity
  8
0
  6
Continuous
 62
     8
370
    25
100
AcDbLine
 10
6737.2307249039
 20
5578.2193011228
 30
0.0
 11
6731.214772706
 21
5560.3901284762
 31
0.0
  0
LINE
  5
3A6
330
1F
100
AcDbEntity
  8
0
  6
Continuous
 62
     8
370
    25
100
AcDbLine
 10
6738.2129220599
 20
5579.1286418489
 30
0.0
 11
6738.8626123656
 21
5579.1286418489
 31
0.0
  0
LINE
  5
3A7
330
1F
100
AcDbEntity
  8
0
  6
Continuous
 62
     8
370
    25
100
AcDbLine
 10
6748.8626123656
 20
5579.1286418488
 30
0.0
 11
6751.3825539339
 21
5579.1286418488
 31
0.0
  0
LWPOLYLINE
  5
3A8
330
1F
100
AcDbEntity
  8
0
  6
Continuous
 62
     8
370
    25
100
AcDbPolyline
 90
        6
 70
   128
 43
0.0
 10
6736.9585759251
 20
5578.5390132794
 10
6736.9543326702
 20
5578.5134944639
 10
6736.9719662141
 20
5578.4504473477
 10
6737.0254976358
 20
5578.3785174117
 10
6737.1128697529
 20
5578.300468883
 10
6737.2307249039
 20
5578.2193011228
  0
ARC
  5
3A9
330
1F
100
AcDbEntity
  8
0
  6
Continuous
 62
     8
370
    25
100
AcDbCircle
 10
6737.9033303309
 20
5578.6454021781
 30
0.0
 40
0.573905582915978
100
AcDbArc
 50
57.3539883778
 51
89.7244237862
  0
ARC
  5
3AA
330
1F
100
AcDbEntity
  8
0
  6
Continuous
 62
     8
370
    25
100
AcDbCircle
 10
6751.072962205
 20
5578.6454021778
 30
0.0
 40
0.5739055830016095
100
AcDbArc
 50
57.3539883801
 51
89.7244237834
  0
ELLIPSE
  5
3AB
330
1F
100
AcDbEntity
  8
0
  6
Continuous
 62
     8
370
    25
100
AcDbEllipse
 10
6753.7582156883
 20
5576.5550922711
 30
0.0
 11
1.065438260153314
 21
0.02988408124747366
 31
0.0
210
0.0
220
0.0
230
1.0
 40
0.0229579115
 41
6.273894824882094
 42
6.969107723315409
  0
ELLIPSE
  5
3AC
330
1F
100
AcDbEntity
  8
0
  6
Continuous
 62
     8
370
    25
100
AcDbEllipse
 10
6753.7582156883
 20
5576.5550922711
 30
0.0
 11
0.8997190678446714
 21
0.5989913213315958
 31
0.0
210
0.0
220
0.0
230
1.0
 40
0.4054180816
 41
0.1960837058116653
 42
0.5469824601952236
  0
LWPOLYLINE
  5
3AD
330
1F
100
AcDbEntity
  8
0
  6
Continuous
 62
     8
370
    25
100
AcDbPolyline
 90
        3
 70
   128
 43
0.0
 10
6751.6029054161
 20
5579.0690529623
 10
6751.5084155734
 20
5579.1111691217
 10
6751.3825539339
 20
5579.1286418488
  0
ARC
  5
3AE
330
1F
100
AcDbEntity
  8
0
  6
Continuous
 62
     8
370
    25
100
AcDbCircle
 10
6730.7777995664
 20
5561.7011906272
 30
0.0
 40
5.643332142842447
100
AcDbArc
 50
66.5453313598
 51
88.4604404966
  0
LINE
  5
3AF
330
1F
100
AcDbEntity
  8
0
  6
Continuous
 62
     7
370
    25
100
AcDbLine
 10
6153.5437369647
 20
4361.4847073245
 30
0.0
 11
6166.3581061773
 21
4346.1291890431
 31
0.0
  0
LINE
  5
3B0
330
1F
100
AcDbEntity
  8
0
  6
Continuous
 62
     7
370
    25
100
AcDbLine
 10
6174.0358653179
 20
4352.5363736493
 30
0.0
 11
6161.2214961053
 21
4367.8918919307
 31
0.0
  0
LINE
  5
3B1
330
1F
100
AcDbEntity
  8
0
  6
Continuous
 62
     7
370
    25
100
AcDbLine
 10
6209.2753806521
 20
4310.3086983757
 30
0.0
 11
6174.0358653179
 21
4352.5363736493
 31
0.0
  0
LINE
  5
3B2
330
1F
100
AcDbEntity
  8
0
  6
Continuous
 62
     7
370
    25
100
AcDbLine
 10
6166.3581061773
 20
4346.1291890431
 30
0.0
 11
6201.5976215114
 21
4303.9015137695
 31
0.0
  0
LINE
  5
3B3
330
1F
100
AcDbEntity
  8
0
  6
Continuous
 62
     7
370
    25
100
AcDbLine
 10
6201.5976215114
 20
4303.9015137695
 30
0.0
 11
6214.4119907237
 21
4288.5459954882
 31
0.0
  0
LINE
  5
3B4
330
1F
100
AcDbEntity
  8
0
  6
Continuous
 62
     7
370
    25
100
AcDbLine
 10
6222.0897498643
 20
4294.9531800944
 30
0.0
 11
6209.2753806521
 21
4310.3086983757
 31
0.0
  0
LWPOLYLINE
  5
3B5
330
1F
100
AcDbEntity
  8
0
  6
Continuous
 62
     7
370
    25
100
AcDbPolyline
 90
       24
 70
   128
 43
0.0
 10
6144.3640946714
 20
4405.5715933087
 10
6143.4660909577
 20
4406.6909070559
 10
6142.0035765519
 20
4408.0105698353
 10
6140.3411590743
 20
4409.0892289975
 10
6138.509947765
 20
4409.9083165816
 10
6136.5432170827
 20
4410.4531963117
 10
6134.4769791229
 20
4410.7132286232
 10
6132.3500387627
 20
4410.6824698364
 10
6130.2033989517
 20
4410.3604428526
 10
6128.0791588913
 20
4409.7525871965
 10
6126.0192538131
 20
4408.8702486885
 10
6124.0643303855
 20
4407.7303065351
 10
6122.2528742471
 20
4406.354623487
 10
6120.6205635046
 20
4404.7694685424
 10
6119.1998127448
 20
4403.005056839
 10
6118.0192528201
 20
4401.0950656115
 10
6117.1032555559
 20
4399.0762528137
 10
6116.4713701814
 20
4396.9881234438
 10
6116.1375879832
 20
4394.8724589163
 10
6116.109509248
 20
4392.7725756918
 10
6116.387594992
 20
4390.7321492175
 10
6116.9648355738
 20
4388.7935919164
 10
6117.8271578931
 20
4386.9962735478
 10
6118.9321156293
 20
4385.4074454242
  0
LINE
  5
3B6
330
1F
100
AcDbEntity
  8
0
  6
Continuous
 62
     7
370
    25
100
AcDbLine
 10
6119.0109769865
 20
4385.3070603454
 30
0.0
 11
6122.4062675387
 21
4381.2384678706
 31
0.0
  0
LINE
  5
3B7
330
1F
100
AcDbEntity
  8
0
  6
Continuous
 62
     7
370
    25
100
AcDbLine
 10
6147.3589847461
 20
4402.0618178405
 30
0.0
 11
6143.9636941938
 21
4406.1304103153
 31
0.0
  0
LINE
  5
3B8
330
1F
100
AcDbEntity
  8
0
  6
Continuous
 62
     7
370
    25
100
AcDbLine
 10
6125.9817286149
 20
4377.7343501746
 30
0.0
 11
6126.4910221977
 21
4377.1240613034
 31
0.0
  0
LINE
  5
3B9
330
1F
100
AcDbEntity
  8
0
  6
Continuous
 62
     7
370
    25
100
AcDbLine
 10
6150.675963491
 20
4397.3066928127
 30
0.0
 11
6150.1666699082
 21
4397.9169816839
 31
0.0
  0
LINE
  5
3BA
330
1F
100
AcDbEntity
  8
0
  6
Continuous
 62
     7
370
    25
100
AcDbLine
 10
6126.246037894
 20
4377.0274401568
 30
0.0
 11
6139.4001614802
 21
4361.2647926274
 31
0.0
  0
LINE
  5
3BB
330
1F
100
AcDbEntity
  8
0
  6
Continuous
 62
     7
370
    25
100
AcDbLine
 10
6163.9689907307
 20
4381.7677833669
 30
0.0
 11
6150.8148671444
 21
4397.5304308964
 31
0.0
  0
LINE
  5
3BC
330
1F
100
AcDbEntity
  8
0
  6
Continuous
 62
     7
370
    25
100
AcDbLine
 10
6099.6628193729
 20
4320.2492085355
 30
0.0
 11
6095.9910304372
 21
4319.9279686287
 31
0.0
  0
LINE
  5
3BD
330
1F
100
AcDbEntity
  8
0
  6
Continuous
 62
     7
370
    25
100
AcDbLine
 10
6095.9910304372
 20
4310.5704484422
 30
0.0
 11
6099.6628193729
 21
4310.2492085355
 31
0.0
  0
ARC
  5
3BE
330
1F
100
AcDbEntity
  8
0
  6
Continuous
 62
     7
370
    25
100
AcDbCircle
 10
6096.0128193729
 20
4319.6789199542
 30
0.0
 40
0.2500000000007033
100
AcDbArc
 50
94.9999999999
 51
180.0
  0
ARC
  5
3BF
330
1F
100
AcDbEntity
  8
0
  6
Continuous
 62
     7
370
    25
100
AcDbCircle
 10
6096.0128193729
 20
4310.8194971167
 30
0.0
 40
0.2500000000007033
100
AcDbArc
 50
180.0
 51
265.0000000001
  0
LINE
  5
3C0
330
1F
100
AcDbEntity
  8
0
  6
Continuous
 62
     7
370
    25
100
AcDbLine
 10
6449.6628193729
 20
4311.7492085355
 30
0.0
 11
6452.0802505215
 21
4311.9607063558
 31
0.0
  0
LINE
  5
3C1
330
1F
100
AcDbEntity
  8
0
  6
Continuous
 62
     7
370
    25
100
AcDbLine
 10
6452.0802505215
 20
4318.5377107151
 30
0.0
 11
6449.6628193729
 21
4318.7492085355
 31
0.0
  0
ARC
  5
3C2
330
1F
100
AcDbEntity
  8
0
  6
Continuous
 62
     7
370
    25
100
AcDbCircle
 10
6452.0628193729
 20
4318.3384717755
 30
0.0
 40
0.200000000000728
100
AcDbArc
 50
0.0
 51
85.0000000002
  0
ARC
  5
3C3
330
1F
100
AcDbEntity
  8
0
  6
Continuous
 62
     7
370
    25
100
AcDbCircle
 10
6452.0628193729
 20
4312.1599452954
 30
0.0
 40
0.200000000000728
100
AcDbArc
 50
274.9999999998
 51
0.0
  0
LINE
  5
3C4
330
1F
100
AcDbEntity
  8
0
  6
Continuous
 62
     7
370
    25
100
AcDbLine
 10
6379.1448494651
 20
4367.1048593412
 30
0.0
 11
6393.5257672488
 21
4353.9352274671
 31
0.0
  0
LWPOLYLINE
  5
3C5
330
1F
100
AcDbEntity
  8
0
  6
Continuous
 62
     7
370
    25
100
AcDbPolyline
 90
       10
 70
   128
 43
0.0
 10
6398.425274861
 20
4394.4514412517
 10
6397.8566773322
 20
4393.8305466909
 10
6396.6245346428
 20
4392.4850771244
 10
6395.5268951034
 20
4391.2864817263
 10
6394.4933815828
 20
4390.1579103809
 10
6393.4538022327
 20
4389.0227152965
 10
6392.366322533
 20
4387.8352141942
 10
6390.6036391187
 20
4385.9104072164
 10
6388.8569048542
 20
4384.0030163206
 10
6387.219075616
 20
4382.2145470636
  0
LWPOLYLINE
  5
3C6
330
1F
100
AcDbEntity
  8
0
  6
Continuous
 62
     7
370
    25
100
AcDbPolyline
 90
        9
 70
   128
 43
0.0
 10
6407.8700202248
 20
4363.3059817549
 10
6409.9773010886
 20
4365.6070816022
 10
6412.2199246549
 20
4368.0559723909
 10
6414.4062553585
 20
4370.4433927433
 10
6415.3784257223
 20
4371.5049793241
 10
6416.3593389222
 20
4372.5761128696
 10
6417.407984194
 20
4373.7212081908
 10
6418.5833501361
 20
4375.0046794031
 10
6419.0761556464
 20
4375.5428111039
  0
LWPOLYLINE
  5
3C7
330
1F
100
AcDbEntity
  8
0
  6
Continuous
 62
     7
370
    25
100
AcDbPolyline
 90
       22
 70
   128
 43
0.0
 10
6421.022433067
 20
4379.384533204
 10
6421.2195841715
 20
4379.6055217392
 10
6422.2438069592
 20
4381.2263005942
 10
6422.9922620798
 20
4382.9977367432
 10
6423.4476110355
 20
4384.877105467
 10
6423.5991541375
 20
4386.8193936227
 10
6423.4430554102
 20
4388.7780282715
 10
6422.9825833679
 20
4390.705734575
 10
6422.2282520787
 20
4392.5555698026
 10
6421.1977583122
 20
4394.2820867075
 10
6419.9156719882
 20
4395.8425282656
 10
6418.4129008103
 20
4397.1979618317
 10
6416.7259934647
 20
4398.3142950854
 10
6414.8965166913
 20
4399.1631093793
 10
6412.9696993772
 20
4399.7227227875
 10
6410.9935315432
 20
4399.9787020794
 10
6409.0175379389
 20
4399.9244130803
 10
6407.0913876197
 20
4399.5613549119
 10
6405.2633896261
 20
4398.8991790876
 10
6403.578997648
 20
4397.955322095
 10
6402.0794918955
 20
4396.7542645858
 10
6402.0079371033
 20
4396.6743586974
  0
LINE
  5
3C8
330
1F
100
AcDbEntity
  8
0
  6
Continuous
 62
     7
370
    25
100
AcDbLine
 10
6401.4976638729
 20
4396.1627896596
 30
0.0
 11
6401.0086901734
 21
4395.6288422693
 31
0.0
  0
LINE
  5
3C9
330
1F
100
AcDbEntity
  8
0
  6
Continuous
 62
     7
370
    25
100
AcDbLine
 10
6420.0208692842
 20
4378.2180341561
 30
0.0
 11
6420.5098429838
 21
4378.7519815465
 31
0.0
  0
ARC
  5
3CA
330
1F
100
AcDbEntity
  8
0
  6
Continuous
 62
     7
370
    25
100
AcDbCircle
 10
6157.382616535
 20
4364.6882996276
 30
0.0
 40
5.000000000000176
100
AcDbArc
 50
39.8454141827
 51
219.8454141827
  0
ARC
  5
3CB
330
1F
100
AcDbEntity
  8
0
  6
Continuous
 62
     7
370
    25
100
AcDbCircle
 10
6218.250870294
 20
4291.7495877913
 30
0.0
 40
5.000000000000176
100
AcDbArc
 50
219.8454141827
 51
39.8454141827
  0
ARC
  5
3CC
330
1F
100
AcDbEntity
  8
0
  6
Continuous
 62
     7
370
    25
100
AcDbCircle
 10
6157.3826165329
 20
4364.6882996276
 30
0.0
 40
5.720000000000004
100
AcDbArc
 50
10.7871055159
 51
219.8454141827
  0
ARC
  5
3CD
330
1F
100
AcDbEntity
  8
0
  6
Continuous
 62
     7
370
    25
100
AcDbCircle
 10
6157.3826165329
 20
4364.6882996276
 30
0.0
 40
5.719999999999656
100
AcDbArc
 50
219.8454141827
 51
248.9037228495
  0
ARC
  5
3CE
330
1F
100
AcDbEntity
  8
0
  6
Continuous
 62
     7
370
    25
100
AcDbCircle
 10
6150.2812112128
 20
4367.2947191656
 30
0.0
 40
1.448852371840818
100
AcDbArc
 50
129.8454141808
 51
189.8454141845
  0
LINE
  5
3CF
330
1F
100
AcDbEntity
  8
0
  6
Continuous
 62
     7
370
    25
100
AcDbLine
 10
6149.3529047515
 20
4368.4071131198
 30
0.0
 11
6155.1608329443
 21
4373.2539007604
 31
0.0
  0
ARC
  5
3D0
330
1F
100
AcDbEntity
  8
0
  6
Continuous
 62
     7
370
    25
100
AcDbCircle
 10
6156.0891394057
 20
4372.1415068062
 30
0.0
 40
1.448852371899433
100
AcDbArc
 50
69.8454141821
 51
129.8454141831
  0
LINE
  5
3D1
330
1F
100
AcDbEntity
  8
0
  6
Continuous
 62
     7
370
    25
100
AcDbLine
 10
6156.5883475984
 20
4373.5016407614
 30
0.0
 11
6163.6897529183
 21
4370.8952212234
 31
0.0
  0
ARC
  5
3D2
330
1F
100
AcDbEntity
  8
0
  6
Continuous
 62
     7
370
    25
100
AcDbCircle
 10
6163.1905447256
 20
4369.5350872682
 30
0.0
 40
1.448852371981952
100
AcDbArc
 50
9.8454141837
 51
69.8454141813
  0
LINE
  5
3D3
330
1F
100
AcDbEntity
  8
0
  6
Continuous
 62
     7
370
    25
100
AcDbLine
 10
6164.6180593797
 20
4369.7828272692
 30
0.0
 11
6165.9115365069
 21
4362.3296200905
 31
0.0
  0
LINE
  5
3D4
330
1F
100
AcDbEntity
  8
0
  6
Continuous
 62
     7
370
    25
100
AcDbLine
 10
6158.1768854674
 20
4355.8749584937
 30
0.0
 11
6151.0754801474
 21
4358.4813780317
 31
0.0
  0
ARC
  5
3D5
330
1F
100
AcDbEntity
  8
0
  6
Continuous
 62
     7
370
    25
100
AcDbCircle
 10
6151.57468834
 20
4359.8415119868
 30
0.0
 40
1.448852371853842
100
AcDbArc
 50
189.8454141811
 51
249.8454141841
  0
LINE
  5
3D6
330
1F
100
AcDbEntity
  8
0
  6
Continuous
 62
     7
370
    25
100
AcDbLine
 10
6150.147173686
 20
4359.5937719859
 30
0.0
 11
6148.8536965588
 21
4367.0469791646
 31
0.0
  0
ELLIPSE
  5
3D7
330
1F
100
AcDbEntity
  8
0
  6
Continuous
 62
     7
370
    25
100
AcDbEllipse
 10
6151.6845761054
 20
4371.5162879971
 30
0.0
 11
-12.08834194239444
 21
14.48551642380699
 31
1.092530510504730E-10
210
3.710234096448815E-12
220
-4.445990789836338E-12
230
1.0
 40
0.8480480962
 41
3.738999070251831
 42
4.712388980371645
  0
ELLIPSE
  5
3D8
330
1F
100
AcDbEntity
  8
0
  6
Continuous
 62
     7
370
    25
100
AcDbEllipse
 10
6151.6845761054
 20
4371.5162879971
 30
0.0
 11
-12.08834194239444
 21
14.48551642380699
 31
1.092530510504730E-10
210
3.710234096448815E-12
220
-4.445990789836338E-12
230
1.0
 40
0.8480480962
 41
1.570796326781773
 42
2.544186236961059
  0
LINE
  5
3D9
330
1F
100
AcDbEntity
  8
0
  6
Continuous
 62
     7
370
    25
100
AcDbLine
 10
6144.3697005216
 20
4405.6151630821
 30
0.0
 11
6143.9636941938
 21
4406.1304103153
 31
0.0
  0
LWPOLYLINE
  5
3DA
330
1F
100
AcDbEntity
  8
0
  6
Continuous
 62
     7
370
    25
100
AcDbPolyline
 90
       41
 70
   128
 43
0.0
 10
6138.809064193
 20
4386.9450738612
 10
6140.4755596935
 20
4388.5356002057
 10
6141.9044309666
 20
4390.3225367189
 10
6143.0604944593
 20
4392.2618830931
 10
6143.9152840517
 20
4394.3058861844
 10
6144.4477519872
 20
4396.404215853
 10
6144.644787138
 20
4398.5052042585
 10
6144.5015378448
 20
4400.5571180936
 10
6144.0215313806
 20
4402.5094324297
 10
6143.2165870976
 20
4404.3140748085
 10
6142.1065253955
 20
4405.9266089454
 10
6140.7186796775
 20
4407.3073288983
 10
6139.0872233112
 20
4408.4222367596
 10
6137.2523281668
 20
4409.2438797974
 10
6135.2591754525
 20
4409.7520264335
 10
6133.1568432028
 20
4409.9341644112
 10
6130.9970978152
 20
4409.7858088889
 10
6128.8331193887
 20
4409.310612872
 10
6126.7181922542
 20
4408.5202772635
 10
6124.7043929366
 20
4407.434262749
 10
6122.8413078587
 20
4406.0793106103
 10
6121.1748123582
 20
4404.4887842657
 10
6119.7459410851
 20
4402.7018477526
 10
6118.5898775924
 20
4400.7625013784
 10
6117.735088
 20
4398.718498287
 10
6117.2026200645
 20
4396.6201686185
 10
6117.0055849137
 20
4394.519180213
 10
6117.1488342069
 20
4392.4672663779
 10
6117.6288406711
 20
4390.5149520418
 10
6118.4337849541
 20
4388.710309663
 10
6119.5438466561
 20
4387.097775526
 10
6120.9316923741
 20
4385.7170555731
 10
6122.5631487404
 20
4384.6021477119
 10
6124.3980438848
 20
4383.780504674
 10
6126.3911965992
 20
4383.2723580379
 10
6128.4935288488
 20
4383.0902200603
 10
6130.6532742365
 20
4383.2385755826
 10
6132.8172526629
 20
4383.7137715995
 10
6134.9321797975
 20
4384.504107208
 10
6136.945979115
 20
4385.5901217224
 10
6138.809064193
 20
4386.9450738612
  0
LWPOLYLINE
  5
3DB
330
1F
100
AcDbEntity
  8
0
  6
Continuous
 62
     7
370
    25
100
AcDbPolyline
 90
       12
 70
   128
 43
0.0
 10
6143.7122272914
 20
4381.0695906948
 10
6145.4731127017
 20
4382.739546355
 10
6146.9974241425
 20
4384.6085500167
 10
6148.2511110151
 20
4386.6348512265
 10
6149.2061680264
 20
4388.7731857638
 10
6149.841260781
 20
4390.9757867685
 10
6150.1422023561
 20
4393.1934517739
 10
6150.1022702143
 20
4395.3766418082
 10
6149.7223563737
 20
4397.4765880138
 10
6149.0109474815
 20
4399.4463810625
 10
6147.9839352371
 20
4401.2420190325
 10
6147.3589847461
 20
4402.0618178405
  0
LWPOLYLINE
  5
3DC
330
1F
100
AcDbEntity
  8
0
  6
Continuous
 62
     7
370
    25
100
AcDbPolyline
 90
       12
 70
   128
 43
0.0
 10
6122.4062675387
 20
4381.2384678706
 10
6123.1009908881
 20
4380.4768953722
 10
6124.6838469915
 20
4379.1451159514
 10
6126.4945269682
 20
4378.0926781677
 10
6128.4925832195
 20
4377.3430917421
 10
6130.6333824704
 20
4376.9131011967
 10
6132.8691028034
 20
4376.8123118097
 10
6135.1498019205
 20
4377.0429750495
 10
6137.4245327721
 20
4377.5999382805
 10
6139.6424816301
 20
4378.4707598644
 10
6141.7541031819
 20
4379.6359870861
 10
6143.7122272914
 20
4381.0695906948
  0
LINE
  5
3DD
330
1F
100
AcDbEntity
  8
0
  6
Continuous
 62
     7
370
    25
100
AcDbLine
 10
6139.645650287
 20
4375.9928974145
 30
0.0
 11
6138.1098714472
 21
4377.8332283478
 31
0.0
  0
ARC
  5
3DE
330
1F
100
AcDbEntity
  8
0
  6
Continuous
 62
     7
370
    25
100
AcDbCircle
 10
6136.1198583969
 20
4388.1651728844
 30
0.0
 40
12.67262792659574
100
AcDbArc
 50
252.9376730426
 51
286.1540602652
  0
LINE
  5
3DF
330
1F
100
AcDbEntity
  8
0
  6
Continuous
 62
     7
370
    25
100
AcDbLine
 10
6131.7588206384
 20
4376.8205133727
 30
0.0
 11
6132.4015596995
 21
4376.0503161637
 31
0.0
  0
LINE
  5
3E0
330
1F
100
AcDbEntity
  8
0
  6
Continuous
 62
     7
370
    25
100
AcDbLine
 10
6147.8989390791
 20
4386.0023259049
 30
0.0
 11
6149.4347179189
 21
4384.1619949717
 31
0.0
  0
LINE
  5
3E1
330
1F
100
AcDbEntity
  8
0
  6
Continuous
 62
     7
370
    25
100
AcDbLine
 10
6139.645650287
 20
4375.9928974145
 30
0.0
 11
6149.4347179189
 21
4384.1619949717
 31
0.0
  0
LINE
  5
3E2
330
1F
100
AcDbEntity
  8
0
  6
Continuous
 62
     7
370
    25
100
AcDbLine
 10
6150.6746264543
 20
4391.2994155264
 30
0.0
 11
6150.0318873933
 21
4392.0696127353
 31
0.0
  0
ARC
  5
3E3
330
1F
100
AcDbEntity
  8
0
  6
Continuous
 62
     7
370
    25
100
AcDbCircle
 10
6138.0899214412
 20
4389.8092147693
 30
0.0
 40
12.67262792642098
100
AcDbArc
 50
333.5367681003
 51
6.7531553232
  0
LWPOLYLINE
  5
3E4
330
1F
100
AcDbEntity
  8
0
  6
Continuous
 62
     7
370
    25
100
AcDbPolyline
 90
       12
 70
   128
 43
0.0
 10
6147.141413958
 20
4376.9603803484
 10
6148.8481182787
 20
4378.5789527575
 10
6150.3255278291
 20
4380.3904486142
 10
6151.540639721
 20
4382.3544020945
 10
6152.4663103627
 20
4384.426941723
 10
6153.0818618017
 20
4386.5617703891
 10
6153.3735436361
 20
4388.7111995481
 10
6153.3348401756
 20
4390.8272145045
 10
6152.9666159916
 20
4392.8625469807
 10
6152.2770966038
 20
4394.7717310125
 10
6151.2816847361
 20
4396.5121185834
 10
6150.675963491
 20
4397.3066928127
  0
LWPOLYLINE
  5
3E5
330
1F
100
AcDbEntity
  8
0
  6
Continuous
 62
     7
370
    25
100
AcDbPolyline
 90
       12
 70
   128
 43
0.0
 10
6126.4910221977
 20
4377.1240613034
 10
6127.1643694441
 20
4376.385921805
 10
6128.6985222827
 20
4375.0951202125
 10
6130.4534890294
 20
4374.0750651299
 10
6132.3900666268
 20
4373.348542902
 10
6134.4649951315
 20
4372.9317828349
 10
6136.6319240696
 20
4372.8340946598
 10
6138.8424478292
 20
4373.0576605691
 10
6141.0471869624
 20
4373.5974864699
 10
6143.1968912401
 20
4374.4415135436
 10
6145.2435398211
 20
4375.5708876199
 10
6147.141413958
 20
4376.9603803484
  0
LWPOLYLINE
  5
3E6
330
1F
100
AcDbEntity
  8
0
  6
Continuous
 62
     7
370
    25
100
AcDbPolyline
 90
       13
 70
   128
 43
0.0
 10
6146.6321203752
 20
4377.5706692196
 10
6148.3388246959
 20
4379.1892416287
 10
6149.8162342462
 20
4381.0007374854
 10
6151.0313461382
 20
4382.9646909657
 10
6151.9570167799
 20
4385.0372305942
 10
6152.5725682189
 20
4387.1720592603
 10
6152.8642500533
 20
4389.3214884193
 10
6152.8255465928
 20
4391.4375033757
 10
6152.4573224087
 20
4393.4728358519
 10
6151.767803021
 20
4395.3820198837
 10
6150.7723911533
 20
4397.1224074546
 10
6149.4933226618
 20
4398.6551211823
 10
6149.2503261588
 20
4398.8918387803
  0
LWPOLYLINE
  5
3E7
330
1F
100
AcDbEntity
  8
0
  6
Continuous
 62
     7
370
    25
100
AcDbPolyline
 90
       13
 70
   128
 43
0.0
 10
6125.1865978329
 20
4378.8103609749
 10
6125.3760073698
 20
4378.5289244039
 10
6126.6550758612
 20
4376.9962106762
 10
6128.1892286999
 20
4375.7054090837
 10
6129.9441954465
 20
4374.6853540011
 10
6131.8807730439
 20
4373.9588317732
 10
6133.9557015487
 20
4373.5420717061
 10
6136.1226304868
 20
4373.444383531
 10
6138.3331542464
 20
4373.6679494404
 10
6140.5378933796
 20
4374.2077753411
 10
6142.6875976573
 20
4375.0518024148
 10
6144.7342462383
 20
4376.1811764911
 10
6146.6321203752
 20
4377.5706692196
  0
LWPOLYLINE
  5
3E8
330
1F
100
AcDbEntity
  8
0
  6
Continuous
 62
     7
370
    25
100
AcDbPolyline
 90
       13
 70
   128
 43
0.0
 10
6147.2242136505
 20
4376.8611610914
 10
6148.958008516
 20
4378.5054251261
 10
6150.4588690116
 20
4380.3456748853
 10
6151.6932683939
 20
4382.3408022303
 10
6152.6336322204
 20
4384.4462393132
 10
6153.2589543172
 20
4386.6149541486
 10
6153.5552660219
 20
4388.7985012308
 10
6153.5159482208
 20
4390.9481037262
 10
6153.1418792084
 20
4393.0157430671
 10
6152.4414150685
 20
4394.9552316073
 10
6151.4302030124
 20
4396.7232443778
 10
6150.1308318465
 20
4398.2802868948
 10
6149.1335804358
 20
4399.1718049754
  0
LWPOLYLINE
  5
3E9
330
1F
100
AcDbEntity
  8
0
  6
Continuous
 62
     7
370
    25
100
AcDbPolyline
 90
       13
 70
   128
 43
0.0
 10
6124.9320440773
 20
4378.9753246736
 10
6125.630702026
 20
4377.8346266754
 10
6126.9300731919
 20
4376.2775841584
 10
6128.4885776629
 20
4374.9662936518
 10
6130.2714010246
 20
4373.9300472186
 10
6132.2387179489
 20
4373.1919928919
 10
6134.3465818268
 20
4372.7686175856
 10
6136.5479064623
 20
4372.6693788046
 10
6138.7935179007
 20
4372.8964933792
 10
6141.0332528931
 20
4373.444887945
 10
6143.2170794609
 20
4374.3023122738
 10
6145.2962145273
 20
4375.4496129228
 10
6147.2242136505
 20
4376.8611610914
  0
ELLIPSE
  5
3EA
330
1F
100
AcDbEntity
  8
0
  6
Continuous
 62
     7
370
    25
100
AcDbEllipse
 10
6151.6845761054
 20
4371.5162879971
 30
0.0
 11
-12.08834194239444
 21
14.48551642380699
 31
1.092530510504730E-10
210
9.037408745127180E-12
220
-3.979054678620387E-16
230
1.0
 40
0.8480480962
 41
3.738999070235186
 42
4.712388980371645
  0
ELLIPSE
  5
3EB
330
1F
100
AcDbEntity
  8
0
  6
Continuous
 62
     7
370
    25
100
AcDbEllipse
 10
6151.6845761054
 20
4371.5162879971
 30
0.0
 11
-12.08834194239444
 21
14.48551642380699
 31
1.092530510504730E-10
210
9.037408745127180E-12
220
-3.979054678620387E-16
230
1.0
 40
0.8480480962
 41
1.570796326781773
 42
2.544186236944461
  0
ELLIPSE
  5
3EC
330
1F
100
AcDbEntity
  8
0
  6
Continuous
 62
     7
370
    25
100
AcDbEllipse
 10
6138.9529586358
 20
4386.7726444802
 30
0.0
 11
-12.08834194239444
 21
14.48551642380699
 31
1.092530510504730E-10
210
3.710234096448815E-12
220
-4.445990789836338E-12
230
1.0
 40
0.8480480962
 41
2.544186236944388
 42
3.738999070235187
  0
ELLIPSE
  5
3ED
330
1F
100
AcDbEntity
  8
0
  6
Continuous
 62
     7
370
    25
100
AcDbEllipse
 10
6151.6845761057
 20
4371.5162879971
 30
0.0
 11
-12.08834194239353
 21
14.48551642380698
 31
1.092530510504730E-10
210
3.710234096448765E-12
220
-4.445990789836613E-12
230
1.0
 40
0.8480480962
 41
3.459416357517729
 42
3.738999070235212
  0
ELLIPSE
  5
3EE
330
1F
100
AcDbEntity
  8
0
  6
Continuous
 62
     7
370
    25
100
AcDbEllipse
 10
6151.6845761057
 20
4371.5162879971
 30
0.0
 11
-12.08834194239353
 21
14.48551642380698
 31
1.092530510504730E-10
210
3.710234096448765E-12
220
-4.445990789836613E-12
230
1.0
 40
0.8480480962
 41
2.544186236944515
 42
2.823768949662002
  0
LINE
  5
3EF
330
1F
100
AcDbEntity
  8
0
  6
Continuous
 62
     7
370
    25
100
AcDbLine
 10
6154.7692011737
 20
4353.7732362047
 30
0.0
 11
6150.9081239276
 21
4358.399983043
 31
0.0
  0
LINE
  5
3F0
330
1F
100
AcDbEntity
  8
0
  6
Continuous
 62
     7
370
    25
100
AcDbLine
 10
6150.0371426849
 20
4359.4436839209
 30
0.0
 11
6142.0375837037
 21
4369.0295926879
 31
0.0
  0
LINE
  5
3F1
330
1F
100
AcDbEntity
  8
0
  6
Continuous
 62
     7
370
    25
100
AcDbLine
 10
6155.8575501569
 20
4380.562524979
 30
0.0
 11
6163.857109138
 21
4370.9766162121
 31
0.0
  0
LINE
  5
3F2
330
1F
100
AcDbEntity
  8
0
  6
Continuous
 62
     7
370
    25
100
AcDbLine
 10
6164.7280903808
 20
4369.9329153342
 30
0.0
 11
6168.5891676269
 21
4365.3061684959
 31
0.0
  0
LINE
  5
3F3
330
1F
100
AcDbEntity
  8
0
  6
Continuous
 62
     7
370
    25
100
AcDbLine
 10
6097.3628193729
 20
4310.8013667328
 30
0.0
 11
6097.3628193729
 21
4310.4563882349
 31
0.0
  0
LWPOLYLINE
  5
3F4
330
1F
100
AcDbEntity
  8
0
  6
Continuous
 62
     7
370
    25
100
AcDbPolyline
 90
        3
 70
   128
 43
0.0
 10
6097.3628193729
 20
4310.8013667328
 10
6096.5952282684
 20
4310.867886886
 10
6095.9910304372
 20
4310.9202667156
  0
LWPOLYLINE
  5
3F5
330
1F
100
AcDbEntity
  8
0
  6
Continuous
 62
     7
370
    25
100
AcDbPolyline
 90
        3
 70
   128
 43
0.0
 10
6095.9910304372
 20
4310.5752882177
 10
6096.5952282684
 20
4310.5229083881
 10
6097.3628193729
 20
4310.4563882349
  0
LINE
  5
3F6
330
1F
100
AcDbEntity
  8
0
  6
Continuous
 62
     7
370
    25
100
AcDbLine
 10
6095.7628193729
 20
4311.1673017608
 30
0.0
 11
6095.7628193729
 21
4319.6789199542
 31
0.0
  0
ARC
  5
3F7
330
1F
100
AcDbEntity
  8
0
  6
Continuous
 62
     7
370
    25
100
AcDbCircle
 10
6096.0116369824
 20
4311.168231304
 30
0.0
 40
0.2488193457783075
100
AcDbArc
 50
180.2140469697
 51
265.2494775313
  0
ARC
  5
3F8
330
1F
100
AcDbEntity
  8
0
  6
Continuous
 62
     7
370
    25
100
AcDbCircle
 10
6096.0115808675
 20
4310.8232009672
 30
0.0
 40
0.2487630429356997
100
AcDbArc
 50
180.2021556393
 51
265.2613688625
  0
LINE
  5
3F9
330
1F
100
AcDbEntity
  8
0
  6
Continuous
 62
     7
370
    25
100
AcDbLine
 10
6095.7628193729
 20
4311.1673017608
 30
0.0
 11
6095.7628193729
 21
4310.822323263
 31
0.0
  0
LWPOLYLINE
  5
3FA
330
1F
100
AcDbEntity
  8
0
  6
Continuous
 62
     7
370
    25
100
AcDbPolyline
 90
        3
 70
   128
 43
0.0
 10
6452.0802505215
 20
4314.5691088441
 10
6451.6793096091
 20
4314.5554882189
 10
6451.1628193729
 20
4314.5379493073
  0
LINE
  5
3FB
330
1F
100
AcDbEntity
  8
0
  6
Continuous
 62
     7
370
    25
100
AcDbLine
 10
6451.1628193729
 20
4314.5379493073
 30
0.0
 11
6451.1628193729
 21
4313.428879796
 31
0.0
  0
LWPOLYLINE
  5
3FC
330
1F
100
AcDbEntity
  8
0
  6
Continuous
 62
     7
370
    25
100
AcDbPolyline
 90
        3
 70
   128
 43
0.0
 10
6451.1628193729
 20
4313.428879796
 10
6451.6793096091
 20
4313.4464187076
 10
6452.0802505215
 20
4313.4600393328
  0
LINE
  5
3FD
330
1F
100
AcDbEntity
  8
0
  6
Continuous
 62
     7
370
    25
100
AcDbLine
 10
6452.2628193729
 20
4318.3384717755
 30
0.0
 11
6452.2628193729
 21
4314.6465730532
 31
0.0
  0
LWPOLYLINE
  5
3FE
330
1F
100
AcDbEntity
  8
0
  6
Continuous
 62
     7
370
    25
100
AcDbPolyline
 90
        6
 70
   128
 43
0.0
 10
6452.2628193729
 20
4314.6465730532
 10
6452.253561577
 20
4314.6231696942
 10
6452.2219891412
 20
4314.5994686216
 10
6452.1914119225
 20
4314.5870012519
 10
6452.1342062861
 20
4314.5739299985
 10
6452.0802505215
 20
4314.5691088441
  0
LINE
  5
3FF
330
1F
100
AcDbEntity
  8
0
  6
Continuous
 62
     7
370
    25
100
AcDbLine
 10
6452.2628193729
 20
4313.5375035419
 30
0.0
 11
6452.2628193729
 21
4314.6465730532
 31
0.0
  0
LWPOLYLINE
  5
400
330
1F
100
AcDbEntity
  8
0
  6
Continuous
 62
     7
370
    25
100
AcDbPolyline
 90
        7
 70
   128
 43
0.0
 10
6452.0802505215
 20
4313.4600393328
 10
6452.0966337025
 20
4313.4608619786
 10
6452.1588850865
 20
4313.4692918997
 10
6452.1914119225
 20
4313.4779317406
 10
6452.2350940417
 20
4313.4979813482
 10
6452.2590157934
 20
4313.5223962149
 10
6452.2628193729
 20
4313.5375035419
  0
LINE
  5
401
330
1F
100
AcDbEntity
  8
0
  6
Continuous
 62
     7
370
    25
100
AcDbLine
 10
6452.2628193729
 20
4313.5375035419
 30
0.0
 11
6452.2628193729
 21
4312.1599452954
 31
0.0
  0
LINE
  5
402
330
1F
100
AcDbEntity
  8
0
  6
Continuous
 62
     7
370
    25
100
AcDbLine
 10
6273.025086239
 20
4240.758192386
 30
0.0
 11
6274.9912693103
 21
4246.2366107569
 31
0.0
  0
LINE
  5
403
330
1F
100
AcDbEntity
  8
0
  6
Continuous
 62
     7
370
    25
100
AcDbLine
 10
6276.2975062899
 20
4245.7317369457
 30
0.0
 11
6274.3461252771
 21
4240.2945618699
 31
0.0
  0
LINE
  5
404
330
1F
100
AcDbEntity
  8
0
  6
Continuous
 62
     7
370
    25
100
AcDbLine
 10
6101.6628193731
 20
4426.2492085355
 30
0.0
 11
6100.6628193731
 21
4426.2492085355
 31
0.0
  0
ARC
  5
405
330
1F
100
AcDbEntity
  8
0
  6
Continuous
 62
     7
370
    25
100
AcDbCircle
 10
6102.6628193731
 20
4426.2492085355
 30
0.0
 40
2.00000000000001
100
AcDbArc
 50
119.9999999997
 51
179.9999999995
  0
LINE
  5
406
330
1F
100
AcDbEntity
  8
0
  6
Continuous
 62
     7
370
    25
100
AcDbLine
 10
6447.6628193731
 20
4426.2492085355
 30
0.0
 11
6448.6628193731
 21
4426.2492085355
 31
0.0
  0
ARC
  5
407
330
1F
100
AcDbEntity
  8
0
  6
Continuous
 62
     7
370
    25
100
AcDbCircle
 10
6446.6628193731
 20
4426.2492085355
 30
0.0
 40
2.000000000000286
100
AcDbArc
 50
0.0000000005
 51
30.0000000001
  0
LINE
  5
408
330
1F
100
AcDbEntity
  8
0
  6
Continuous
 62
     7
370
    25
100
AcDbLine
 10
6449.6628193731
 20
4429.3492085355
 30
0.0
 11
6101.6628193731
 21
4429.3492085355
 31
0.0
  0
LINE
  5
409
330
1F
100
AcDbEntity
  8
0
  6
Continuous
 62
     7
370
    25
100
AcDbLine
 10
6449.6628193731
 20
4427.2492085355
 30
0.0
 11
6101.6628193731
 21
4427.2492085355
 31
0.0
  0
LINE
  5
40A
330
1F
100
AcDbEntity
  8
0
  6
Continuous
 62
     7
370
    25
100
AcDbLine
 10
6101.6628193731
 20
4427.2492085355
 30
0.0
 11
6101.6628193731
 21
4429.3492085355
 31
0.0
  0
LINE
  5
40B
330
1F
100
AcDbEntity
  8
0
  6
Continuous
 62
     7
370
    25
100
AcDbLine
 10
6449.6628193731
 20
4429.3492085355
 30
0.0
 11
6449.6628193731
 21
4427.2492085355
 31
0.0
  0
LINE
  5
40C
330
1F
100
AcDbEntity
  8
0
  6
Continuous
 62
     7
370
    25
100
AcDbLine
 10
6447.6628193731
 20
4426.2492085355
 30
0.0
 11
6447.6628193731
 21
4427.2492085355
 31
0.0
  0
LINE
  5
40D
330
1F
100
AcDbEntity
  8
0
  6
Continuous
 62
     7
370
    25
100
AcDbLine
 10
6101.6628193731
 20
4426.2492085355
 30
0.0
 11
6447.6628193731
 21
4426.2492085355
 31
0.0
  0
LINE
  5
40E
330
1F
100
AcDbEntity
  8
0
  6
Continuous
 62
     7
370
    25
100
AcDbLine
 10
6101.6628193731
 20
4427.2492085355
 30
0.0
 11
6101.6628193731
 21
4426.2492085355
 31
0.0
  0
LINE
  5
40F
330
1F
100
AcDbEntity
  8
0
  6
Continuous
 62
     7
370
    25
100
AcDbLine
 10
6449.6628193731
 20
4427.2492085355
 30
0.0
 11
6449.6628193731
 21
4243.2492085355
 31
0.0
  0
LINE
  5
410
330
1F
100
AcDbEntity
  8
0
  6
Continuous
 62
     7
370
    25
100
AcDbLine
 10
6449.6628193731
 20
4243.2492085355
 30
0.0
 11
6449.1628193731
 21
4243.2492085355
 31
0.0
  0
LINE
  5
411
330
1F
100
AcDbEntity
  8
0
  6
Continuous
 62
     7
370
    25
100
AcDbLine
 10
6100.1628193731
 20
4428.2492085355
 30
0.0
 11
6100.1628193731
 21
4243.2492085355
 31
0.0
  0
LINE
  5
412
330
1F
100
AcDbEntity
  8
0
  6
Continuous
 62
     7
370
    25
100
AcDbLine
 10
6099.6628193731
 20
4243.2492085355
 30
0.0
 11
6100.1628193731
 21
4243.2492085355
 31
0.0
  0
LINE
  5
413
330
1F
100
AcDbEntity
  8
0
  6
Continuous
 62
     7
370
    25
100
AcDbLine
 10
6099.6628193731
 20
4243.2492085355
 30
0.0
 11
6099.6628193731
 21
4428.2492085355
 31
0.0
  0
LINE
  5
414
330
1F
100
AcDbEntity
  8
0
  6
Continuous
 62
     7
370
    25
100
AcDbLine
 10
6099.6628193731
 20
4428.2492085355
 30
0.0
 11
6100.1628193731
 21
4428.2492085355
 31
0.0
  0
LINE
  5
415
330
1F
100
AcDbEntity
  8
0
  6
Continuous
 62
     7
370
    25
100
AcDbLine
 10
6447.6628193731
 20
4425.2492085355
 30
0.0
 11
6448.6628193731
 21
4425.2492085355
 31
0.0
  0
ARC
  5
416
330
1F
100
AcDbEntity
  8
0
  6
Continuous
 62
     7
370
    25
100
AcDbCircle
 10
6274.6628193731
 20
4243.2492085355
 30
0.0
 40
174.5
100
AcDbArc
 50
180.0
 51
0.0
  0
LWPOLYLINE
  5
417
330
1F
100
AcDbEntity
  8
0
  6
Continuous
 62
     7
370
    25
100
AcDbPolyline
 90
        3
 70
   128
 43
0.0
 10
6389.9067263691
 20
4353.4199450341
 10
6391.8708522119
 20
4353.5967195595
 10
6393.4487029706
 20
4354.005800722
  0
LWPOLYLINE
  5
418
330
1F
100
AcDbEntity
  8
0
  6
Continuous
 62
     7
370
    25
100
AcDbPolyline
 90
        4
 70
   128
 43
0.0
 10
6396.1915775107
 20
4355.3921742058
 10
6397.1440523544
 20
4356.1361589081
 10
6398.5068726762
 20
4357.5615572137
 10
6399.0018886925
 20
4358.2281437191
  0
LWPOLYLINE
  5
419
330
1F
100
AcDbEntity
  8
0
  6
Continuous
 62
     7
370
    25
100
AcDbPolyline
 90
        4
 70
   128
 43
0.0
 10
6382.9385634531
 20
4372.9317033128
 10
6381.955982867
 20
4372.021634173
 10
6380.7264205782
 20
4370.4798118301
 10
6380.3649780091
 20
4369.8930646412
  0
ARC
  5
41A
330
1F
100
AcDbEntity
  8
0
  6
Continuous
 62
     7
370
    25
100
AcDbCircle
 10
6389.9067263691
 20
4364.4199450341
 30
0.0
 40
10.99999999999969
100
AcDbArc
 50
166.2510926513
 51
194.794541915
  0
LINE
  5
41B
330
1F
100
AcDbEntity
  8
0
  6
Continuous
 62
     7
370
    25
100
AcDbLine
 10
6388.042054426
 20
4353.5791425479
 30
0.0
 11
6389.9067263691
 21
4353.4199450341
 31
0.0
  0
LINE
  5
41C
330
1F
100
AcDbEntity
  8
0
  6
Continuous
 62
     7
370
    25
100
AcDbLine
 10
6100.6628193731
 20
4428.2492085355
 30
0.0
 11
6100.1628193731
 21
4428.2492085355
 31
0.0
  0
LINE
  5
41D
330
1F
100
AcDbEntity
  8
0
  6
Continuous
 62
     7
370
    25
100
AcDbLine
 10
6100.6628193731
 20
4425.2492085355
 30
0.0
 11
6101.6628193731
 21
4425.2492085355
 31
0.0
  0
LINE
  5
41E
330
1F
100
AcDbEntity
  8
0
  6
Continuous
 62
     7
370
    25
100
AcDbLine
 10
6101.6628193731
 20
4425.2492085355
 30
0.0
 11
6101.6628193731
 21
4426.2492085355
 31
0.0
  0
LINE
  5
41F
330
1F
100
AcDbEntity
  8
0
  6
Continuous
 62
     7
370
    25
100
AcDbLine
 10
6100.6628193731
 20
4428.2492085355
 30
0.0
 11
6100.6628193731
 21
4425.2492085355
 31
0.0
  0
LINE
  5
420
330
1F
100
AcDbEntity
  8
0
  6
Continuous
 62
     7
370
    25
100
AcDbLine
 10
6448.6628193731
 20
4425.2492085355
 30
0.0
 11
6448.6628193731
 21
4427.2492085355
 31
0.0
  0
LINE
  5
421
330
1F
100
AcDbEntity
  8
0
  6
Continuous
 62
     7
370
    25
100
AcDbLine
 10
6447.6628193731
 20
4426.2492085355
 30
0.0
 11
6447.6628193731
 21
4425.2492085355
 31
0.0
  0
ARC
  5
422
330
1F
100
AcDbEntity
  8
0
  6
Continuous
 62
     7
370
    25
100
AcDbCircle
 10
6274.6628193731
 20
4243.2492085355
 30
0.0
 40
175.0000000000009
100
AcDbArc
 50
180.0
 51
0.0
  0
CIRCLE
  5
423
330
1F
100
AcDbEntity
  8
0
  6
Continuous
 62
     7
370
    25
100
AcDbCircle
 10
6274.6628193731
 20
4243.2492085355
 30
0.0
 40
3.00000000000057
  0
CIRCLE
  5
424
330
1F
100
AcDbEntity
  8
0
  6
Continuous
 62
     7
370
    25
100
AcDbCircle
 10
6257.1628193731
 20
4243.2492085355
 30
0.0
 40
4.000000000000859
  0
CIRCLE
  5
425
330
1F
100
AcDbEntity
  8
0
  6
Continuous
 62
     7
370
    25
100
AcDbCircle
 10
6262.2884507023
 20
4255.6235772062
 30
0.0
 40
4.000000000002432
  0
CIRCLE
  5
426
330
1F
100
AcDbEntity
  8
0
  6
Continuous
 62
     7
370
    25
100
AcDbCircle
 10
6274.6628193731
 20
4260.7492085355
 30
0.0
 40
4.000000000001464
  0
CIRCLE
  5
427
330
1F
100
AcDbEntity
  8
0
  6
Continuous
 62
     7
370
    25
100
AcDbCircle
 10
6287.0371880439
 20
4255.6235772062
 30
0.0
 40
3.999999999999382
  0
CIRCLE
  5
428
330
1F
100
AcDbEntity
  8
0
  6
Continuous
 62
     7
370
    25
100
AcDbCircle
 10
6292.1628193731
 20
4243.2492085355
 30
0.0
 40
3.999999999998646
  0
CIRCLE
  5
429
330
1F
100
AcDbEntity
  8
0
  6
Continuous
 62
     7
370
    25
100
AcDbCircle
 10
6287.0371880439
 20
4230.8748398647
 30
0.0
 40
4.000000000000286
  0
CIRCLE
  5
42A
330
1F
100
AcDbEntity
  8
0
  6
Continuous
 62
     7
370
    25
100
AcDbCircle
 10
6274.6628193731
 20
4225.7492085355
 30
0.0
 40
4.000000000000326
  0
CIRCLE
  5
42B
330
1F
100
AcDbEntity
  8
0
  6
Continuous
 62
     7
370
    25
100
AcDbCircle
 10
6262.2884507023
 20
4230.8748398647
 30
0.0
 40
4.000000000003296
  0
LWPOLYLINE
  5
42C
330
1F
100
AcDbEntity
  8
0
  6
Continuous
 62
     7
370
    25
100
AcDbPolyline
 90
        9
 70
   128
 43
0.0
 10
6382.105657693
 20
4370.3379899333
 10
6381.9671809985
 20
4370.4756429321
 10
6381.8448240743
 20
4370.6197973627
 10
6381.7432890283
 20
4370.7649134512
 10
6381.6664777955
 20
4370.9054144677
 10
6381.6173421884
 20
4371.0359010369
 10
6381.5977704608
 20
4371.1513586331
 10
6381.6085147434
 20
4371.2473502857
 10
6381.6491621392
 20
4371.3201870893
  0
ARC
  5
42D
330
1F
100
AcDbEntity
  8
0
  6
Continuous
 62
     7
370
    25
100
AcDbCircle
 10
6382.3225904676
 20
4370.6389514349
 30
0.0
 40
0.9579079967590961
100
AcDbArc
 50
44.9281418838
 51
134.6697912725
  0
LINE
  5
42E
330
1F
100
AcDbEntity
  8
0
  6
Continuous
 62
     7
370
    25
100
AcDbLine
 10
6383.0007826723
 20
4371.3154446454
 30
0.0
 11
6382.105657693
 21
4370.3379899333
 31
0.0
  0
LINE
  5
42F
330
1F
100
AcDbEntity
  8
0
  6
Continuous
 62
     7
370
    25
100
AcDbLine
 10
6396.4865754767
 20
4357.1683580592
 30
0.0
 11
6397.381700456
 21
4358.1458127714
 31
0.0
  0
LINE
  5
430
330
1F
100
AcDbEntity
  8
0
  6
Continuous
 62
     7
370
    25
100
AcDbLine
 10
6382.105657693
 20
4370.3379899333
 30
0.0
 11
6396.4865754767
 21
4357.1683580592
 31
0.0
  0
LINE
  5
431
330
1F
100
AcDbEntity
  8
0
  6
Continuous
 62
     7
370
    25
100
AcDbLine
 10
6383.0007826723
 20
4371.3154446454
 30
0.0
 11
6397.381700456
 21
4358.1458127714
 31
0.0
  0
LWPOLYLINE
  5
432
330
1F
100
AcDbEntity
  8
0
  6
Continuous
 62
     7
370
    25
100
AcDbPolyline
 90
        9
 70
   128
 43
0.0
 10
6397.5050458494
 20
4356.7998237409
 10
6397.4360573969
 20
4356.7529408639
 10
6397.3413790752
 20
4356.733813596
 10
6397.2246493192
 20
4356.7431769876
 10
6397.0903539879
 20
4356.7806712086
 10
6396.9436539755
 20
4356.8448553772
 10
6396.7901868814
 20
4356.9332629319
 10
6396.6358503598
 20
4357.0424964198
 10
6396.4865754767
 20
4357.1683580592
  0
ARC
  5
433
330
1F
100
AcDbEntity
  8
0
  6
Continuous
 62
     7
370
    25
100
AcDbCircle
 10
6396.7673371967
 20
4357.4108668441
 30
0.0
 40
0.9579079967508942
100
AcDbArc
 50
320.3650922569
 51
50.1067416464
  0
LINE
  5
434
330
1F
100
AcDbEntity
  8
0
  6
Continuous
 62
     7
370
    25
100
AcDbLine
 10
6382.105657693
 20
4370.3379899333
 30
0.0
 11
6379.342038629
 21
4367.3201851134
 31
0.0
  0
ELLIPSE
  5
435
330
1F
100
AcDbEntity
  8
0
  6
Continuous
 62
     7
370
    25
100
AcDbEllipse
 10
6379.9300948233
 20
4367.9623281789
 30
0.0
 11
0.7374829632553883
 21
-0.675365737143693
 31
0.0
210
0.0
220
0.0
230
1.0
 40
0.8707225759
 41
3.141592653609764
 42
4.712388980404253
  0
LINE
  5
436
330
1F
100
AcDbEntity
  8
0
  6
Continuous
 62
     7
370
    25
100
AcDbLine
 10
6379.19261186
 20
4368.637693916
 30
0.0
 11
6381.6491621392
 21
4371.3201870893
 31
0.0
  0
LINE
  5
437
330
1F
100
AcDbEntity
  8
0
  6
Continuous
 62
     7
370
    25
100
AcDbLine
 10
6393.7229564127
 20
4354.1505532393
 30
0.0
 11
6396.4865754767
 21
4357.1683580592
 31
0.0
  0
LINE
  5
438
330
1F
100
AcDbEntity
  8
0
  6
Continuous
 62
     7
370
    25
100
AcDbLine
 10
6379.342038629
 20
4367.3201851134
 30
0.0
 11
6393.7229564127
 21
4354.1505532393
 31
0.0
  0
LINE
  5
439
330
1F
100
AcDbEntity
  8
0
  6
Continuous
 62
     7
370
    25
100
AcDbLine
 10
6397.5050458494
 20
4356.7998237409
 30
0.0
 11
6395.0484955703
 21
4354.1173305677
 31
0.0
  0
ELLIPSE
  5
43A
330
1F
100
AcDbEntity
  8
0
  6
Continuous
 62
     7
370
    25
100
AcDbEllipse
 10
6394.311012607
 20
4354.7926963048
 30
0.0
 11
0.7374829632553883
 21
-0.675365737143693
 31
0.0
210
0.0
220
0.0
230
1.0
 40
0.8707225759
 41
4.712388980403638
 42
6.283185307179586
  0
LINE
  5
43B
330
1F
100
AcDbEntity
  8
0
  6
Continuous
 62
     7
370
    25
100
AcDbLine
 10
6381.6491621392
 20
4371.3201870893
 30
0.0
 11
6388.3542929991
 21
4378.6420269516
 31
0.0
  0
ARC
  5
43C
330
1F
100
AcDbEntity
  8
0
  6
Continuous
 62
     7
370
    25
100
AcDbCircle
 10
6389.0277213275
 20
4377.9607912972
 30
0.0
 40
0.9579079967610261
100
AcDbArc
 50
44.9281418837
 51
134.6697912725
  0
LINE
  5
43D
330
1F
100
AcDbEntity
  8
0
  6
Continuous
 62
     7
370
    25
100
AcDbLine
 10
6389.7059135321
 20
4378.6372845077
 30
0.0
 11
6383.0007826723
 21
4371.3154446454
 31
0.0
  0
LINE
  5
43E
330
1F
100
AcDbEntity
  8
0
  6
Continuous
 62
     7
370
    25
100
AcDbLine
 10
6397.381700456
 20
4358.1458127714
 30
0.0
 11
6404.0868313158
 21
4365.4676526337
 31
0.0
  0
LINE
  5
43F
330
1F
100
AcDbEntity
  8
0
  6
Continuous
 62
     7
370
    25
100
AcDbLine
 10
6404.0868313158
 20
4365.4676526337
 30
0.0
 11
6389.7059135321
 21
4378.6372845077
 31
0.0
  0
LINE
  5
440
330
1F
100
AcDbEntity
  8
0
  6
Continuous
 62
     7
370
    25
100
AcDbLine
 10
6404.2101767093
 20
4364.1216636032
 30
0.0
 11
6397.5050458494
 21
4356.7998237409
 31
0.0
  0
ARC
  5
441
330
1F
100
AcDbEntity
  8
0
  6
Continuous
 62
     7
370
    25
100
AcDbCircle
 10
6403.4724680566
 20
4364.7327067064
 30
0.0
 40
0.957907996750861
100
AcDbArc
 50
320.3650922568
 51
50.1067416464
  0
ELLIPSE
  5
442
330
1F
100
AcDbEntity
  8
0
  6
Continuous
 62
     7
370
    25
100
AcDbEllipse
 10
6379.9300948233
 20
4367.9623281789
 30
0.0
 11
0.7546312745089382
 21
0.824039002724021
 31
0.0
210
0.0
220
0.0
230
1.0
 40
0.8949612346
 41
1.570796326794572
 42
3.141592653589123
  0
ELLIPSE
  5
443
330
1F
100
AcDbEntity
  8
0
  6
Continuous
 62
     7
370
    25
100
AcDbEllipse
 10
6394.311012607
 20
4354.7926963048
 30
0.0
 11
0.7546312745089382
 21
0.824039002724021
 31
0.0
210
0.0
220
0.0
230
1.0
 40
0.8949612346
 41
3.141592653588508
 42
4.712388980383777
  0
LINE
  5
444
330
1F
100
AcDbEntity
  8
0
  6
Continuous
 62
     7
370
    25
100
AcDbLine
 10
6398.6114303486
 20
4383.7360012258
 30
0.0
 11
6398.2977076128
 21
4383.3934236265
 31
0.0
  0
LINE
  5
445
330
1F
100
AcDbEntity
  8
0
  6
Continuous
 62
     7
370
    25
100
AcDbLine
 10
6405.9341147726
 20
4375.6162425072
 30
0.0
 11
6405.4571215358
 21
4375.0953774909
 31
0.0
  0
LINE
  5
446
330
1F
100
AcDbEntity
  8
0
  6
Continuous
 62
     7
370
    25
100
AcDbLine
 10
6398.2977076128
 20
4383.3934236265
 30
0.0
 11
6399.1052226292
 21
4382.4574815322
 31
0.0
  0
LINE
  5
447
330
1F
100
AcDbEntity
  8
0
  6
Continuous
 62
     7
370
    25
100
AcDbLine
 10
6404.1928230721
 20
4376.5607498097
 30
0.0
 11
6405.4571215358
 21
4375.0953774909
 31
0.0
  0
LINE
  5
448
330
1F
100
AcDbEntity
  8
0
  6
Continuous
 62
     7
370
    25
100
AcDbLine
 10
6405.4571215358
 20
4375.0953774909
 30
0.0
 11
6406.7281305246
 21
4375.2882892973
 31
0.0
  0
LINE
  5
449
330
1F
100
AcDbEntity
  8
0
  6
Continuous
 62
     7
370
    25
100
AcDbLine
 10
6398.5140877081
 20
4384.0462491408
 30
0.0
 11
6398.2977076128
 21
4383.3934236265
 31
0.0
  0
ARC
  5
44A
330
1F
100
AcDbEntity
  8
0
  6
Continuous
 62
     7
370
    25
100
AcDbCircle
 10
6411.0139808928
 20
4387.5819352126
 30
0.0
 40
15.56031305049
100
AcDbArc
 50
196.8106795305
 51
227.7994015371
  0
LWPOLYLINE
  5
44B
330
1F
100
AcDbEntity
  8
0
  6
Continuous
 62
     7
370
    25
100
AcDbPolyline
 90
        3
 70
   128
 43
0.0
 10
6395.5785826609
 20
4387.4621406301
 10
6395.6392380669
 20
4385.4686593668
 10
6396.1186283691
 20
4383.0817335034
  0
LWPOLYLINE
  5
44C
330
1F
100
AcDbEntity
  8
0
  6
Continuous
 62
     7
370
    25
100
AcDbPolyline
 90
        8
 70
   128
 43
0.0
 10
6412.1460688479
 20
4372.0643339533
 10
6412.541238946
 20
4372.1181407469
 10
6414.6614143998
 20
4372.6462592258
 10
6416.625307004
 20
4373.5544640067
 10
6418.226651824
 20
4374.7125394907
 10
6419.5831029098
 20
4376.1430795173
 10
6421.3459027343
 20
4379.4792086539
 10
6421.4081408002
 20
4379.9039027169
  0
ARC
  5
44D
330
1F
100
AcDbEntity
  8
0
  6
Continuous
 62
     7
370
    25
100
AcDbCircle
 10
6406.2267665143
 20
4387.1725580645
 30
0.0
 40
10.65212079538397
100
AcDbArc
 50
109.6843199629
 51
178.4421972374
  0
LWPOLYLINE
  5
44E
330
1F
100
AcDbEntity
  8
0
  6
Continuous
 62
     7
370
    25
100
AcDbPolyline
 90
        3
 70
   128
 43
0.0
 10
6407.9513369511
 20
4372.2456785005
 10
6410.025042883
 20
4371.9891249436
 10
6412.1460688479
 20
4372.0643339533
  0
ARC
  5
44F
330
1F
100
AcDbEntity
  8
0
  6
Continuous
 62
     7
370
    25
100
AcDbCircle
 10
6411.0671158079
 20
4387.3624781797
 30
0.0
 40
15.43456220395208
100
AcDbArc
 50
227.106033222
 51
258.3536527702
  0
ARC
  5
450
330
1F
100
AcDbEntity
  8
0
  6
Continuous
 62
     7
370
    25
100
AcDbCircle
 10
6409.5769750345
 20
4385.8993782894
 30
0.0
 40
13.75013516680538
100
AcDbArc
 50
191.8246758493
 51
263.2102076808
  0
LINE
  5
451
330
1F
100
AcDbEntity
  8
0
  6
Continuous
 62
     7
370
    25
100
AcDbLine
 10
6407.9513369511
 20
4372.2456785005
 30
0.0
 11
6407.7059297768
 21
4370.379095233
 31
0.0
  0
ARC
  5
452
330
1F
100
AcDbEntity
  8
0
  6
Continuous
 62
     7
370
    25
100
AcDbCircle
 10
6409.7624944557
 20
4386.1019609865
 30
0.0
 40
15.85679557104259
100
AcDbArc
 50
192.4869154785
 51
262.5479680516
  0
LINE
  5
453
330
1F
100
AcDbEntity
  8
0
  6
Continuous
 62
     7
370
    25
100
AcDbLine
 10
6396.1186283691
 20
4383.0817335034
 30
0.0
 11
6394.2807848899
 21
4382.6734577121
 31
0.0
  0
LINE
  5
454
330
1F
100
AcDbEntity
  8
0
  6
Continuous
 62
     7
370
    25
100
AcDbLine
 10
6412.1460688479
 20
4372.0643339533
 30
0.0
 11
6411.960258633
 21
4371.581206876
 31
0.0
  0
LINE
  5
455
330
1F
100
AcDbEntity
  8
0
  6
Continuous
 62
     7
370
    25
100
AcDbLine
 10
6409.866802288
 20
4370.3080229494
 30
0.0
 11
6411.960258633
 21
4371.581206876
 31
0.0
  0
LWPOLYLINE
  5
456
330
1F
100
AcDbEntity
  8
0
  6
Continuous
 62
     7
370
    25
100
AcDbPolyline
 90
        3
 70
   128
 43
0.0
 10
6409.866802288
 20
4370.3080229494
 10
6408.8229381314
 20
4370.2873474985
 10
6407.7059297768
 20
4370.379095233
  0
LINE
  5
457
330
1F
100
AcDbEntity
  8
0
  6
Continuous
 62
     7
370
    25
100
AcDbLine
 10
6394.2807848899
 20
4382.6734577121
 30
0.0
 11
6394.0203438256
 21
4384.8197549263
 31
0.0
  0
LINE
  5
458
330
1F
100
AcDbEntity
  8
0
  6
Continuous
 62
     7
370
    25
100
AcDbLine
 10
6395.235816684
 20
4387.2678156242
 30
0.0
 11
6394.0203438256
 21
4384.8197549263
 31
0.0
  0
LWPOLYLINE
  5
459
330
1F
100
AcDbEntity
  8
0
  6
Continuous
 62
     7
370
    25
100
AcDbPolyline
 90
        3
 70
   128
 43
0.0
 10
6395.235816684
 20
4387.2678156242
 10
6395.3789747776
 20
4387.3512062182
 10
6395.5785826609
 20
4387.4621406301
  0
ARC
  5
45A
330
1F
100
AcDbEntity
  8
0
  6
Continuous
 62
     7
370
    25
100
AcDbCircle
 10
6389.5992436866
 20
4378.5085428377
 30
0.0
 40
0.9628220888380297
100
AcDbArc
 50
48.010206371
 51
86.8406841
  0
LINE
  5
45B
330
1F
100
AcDbEntity
  8
0
  6
Continuous
 62
     7
370
    25
100
AcDbLine
 10
6390.2433699462
 20
4379.2241738435
 30
0.0
 11
6389.7059135321
 21
4378.6372845077
 31
0.0
  0
ARC
  5
45C
330
1F
100
AcDbEntity
  8
0
  6
Continuous
 62
     7
370
    25
100
AcDbCircle
 10
6389.5781918444
 20
4378.4195779196
 30
0.0
 40
1.05293536675894
100
AcDbArc
 50
85.9636514586
 51
136.7422663047
  0
LINE
  5
45D
330
1F
100
AcDbEntity
  8
0
  6
Continuous
 62
     7
370
    25
100
AcDbLine
 10
6388.3542929991
 20
4378.6420269516
 30
0.0
 11
6388.8113616777
 21
4379.1411348349
 31
0.0
  0
LINE
  5
45E
330
1F
100
AcDbEntity
  8
0
  6
Continuous
 62
     7
370
    25
100
AcDbLine
 10
6404.0868313158
 20
4365.4676526337
 30
0.0
 11
6404.6242877299
 21
4366.0545419695
 31
0.0
  0
LINE
  5
45F
330
1F
100
AcDbEntity
  8
0
  6
Continuous
 62
     7
370
    25
100
AcDbLine
 10
6404.6242877299
 20
4366.0545419695
 30
0.0
 11
6390.2433699462
 21
4379.2241738435
 31
0.0
  0
ARC
  5
460
330
1F
100
AcDbEntity
  8
0
  6
Continuous
 62
     7
370
    25
100
AcDbCircle
 10
6403.8829932723
 20
4365.3207847036
 30
0.0
 40
1.05122304245574
100
AcDbArc
 50
318.2483148553
 51
9.1155344408
  0
ARC
  5
461
330
1F
100
AcDbEntity
  8
0
  6
Continuous
 62
     7
370
    25
100
AcDbCircle
 10
6403.9558109924
 20
4365.3437481082
 30
0.0
 40
0.9757505121123632
100
AcDbArc
 50
8.4615475641
 51
46.7573290249
  0
LINE
  5
462
330
1F
100
AcDbEntity
  8
0
  6
Continuous
 62
     7
370
    25
100
AcDbLine
 10
6404.667245388
 20
4364.6207714866
 30
0.0
 11
6404.2101767093
 21
4364.1216636032
 31
0.0
  0
ARC
  5
463
330
1F
100
AcDbEntity
  8
0
  6
Continuous
 62
     7
370
    25
100
AcDbCircle
 10
6573.4007189847
 20
4228.3904625312
 30
0.0
 40
240.1582739691652
100
AcDbArc
 50
140.6489403581
 51
142.1043977778
  0
ARC
  5
464
330
1F
100
AcDbEntity
  8
0
  6
Continuous
 62
     7
370
    25
100
AcDbCircle
 10
6397.5215360412
 20
4372.7351320401
 30
0.0
 40
14.00000000000096
100
AcDbArc
 50
137.517441765
 51
166.9279850465
  0
ARC
  5
465
330
1F
100
AcDbEntity
  8
0
  6
Continuous
 62
     7
370
    25
100
AcDbCircle
 10
6397.5215360412
 20
4372.7351320401
 30
0.0
 40
14.00000000000045
100
AcDbArc
 50
288.1068984834
 51
317.6753621631
  0
ARC
  5
466
330
1F
100
AcDbEntity
  8
0
  6
Continuous
 62
     7
370
    25
100
AcDbCircle
 10
6224.4296607164
 20
4549.9186004879
 30
0.0
 40
260.3315243124219
100
AcDbArc
 50
312.969094487
 51
315.0611425054
  0
LINE
  5
467
330
1F
100
AcDbEntity
  8
0
  6
Continuous
 62
     7
370
    25
100
AcDbLine
 10
6393.1672574878
 20
4385.5140680053
 30
0.0
 11
6394.0203438256
 21
4384.8197549263
 31
0.0
  0
LINE
  5
468
330
1F
100
AcDbEntity
  8
0
  6
Continuous
 62
     7
370
    25
100
AcDbLine
 10
6393.1672574878
 20
4385.5140680053
 30
0.0
 11
6393.5343800763
 21
4385.9783563954
 31
0.0
  0
ARC
  5
469
330
1F
100
AcDbEntity
  8
0
  6
Continuous
 62
     7
370
    25
100
AcDbCircle
 10
6400.9400969513
 20
4377.9737900232
 30
0.0
 40
10.90494040512902
100
AcDbArc
 50
121.5398441823
 51
132.7745838795
  0
LINE
  5
46A
330
1F
100
AcDbEntity
  8
0
  6
Continuous
 62
     7
370
    25
100
AcDbLine
 10
6411.1358666414
 20
4369.9917133451
 30
0.0
 11
6410.6333050953
 21
4369.5191627604
 31
0.0
  0
LINE
  5
46B
330
1F
100
AcDbEntity
  8
0
  6
Continuous
 62
     7
370
    25
100
AcDbLine
 10
6410.6333050953
 20
4369.5191627604
 30
0.0
 11
6409.866802288
 21
4370.3080229494
 31
0.0
  0
ARC
  5
46C
330
1F
100
AcDbEntity
  8
0
  6
Continuous
 62
     7
370
    25
100
AcDbCircle
 10
6401.6013370186
 20
4375.9453366851
 30
0.0
 40
11.24067996179697
100
AcDbArc
 50
328.0182070479
 51
337.1547019839
  0
LINE
  5
46D
330
1F
100
AcDbEntity
  8
0
  6
Continuous
 62
     7
370
    25
100
AcDbLine
 10
6405.2300264532
 20
4365.8248400907
 30
0.0
 11
6404.9209403028
 21
4365.48732553
 31
0.0
  0
ARC
  5
46E
330
1F
100
AcDbEntity
  8
0
  6
Continuous
 62
     7
370
    25
100
AcDbCircle
 10
6404.6728292014
 20
4365.2690119207
 30
0.0
 40
0.7870284187383039
100
AcDbArc
 50
44.9295231119
 51
93.5360702616
  0
LINE
  5
46F
330
1F
100
AcDbEntity
  8
0
  6
Continuous
 62
     7
370
    25
100
AcDbLine
 10
6389.6523072447
 20
4379.4699015811
 30
0.0
 11
6389.961393395
 21
4379.8074161418
 31
0.0
  0
ARC
  5
470
330
1F
100
AcDbEntity
  8
0
  6
Continuous
 62
     7
370
    25
100
AcDbCircle
 10
6389.456610774
 20
4379.2035881264
 30
0.0
 40
0.7870284408905703
100
AcDbArc
 50
1.4988139966
 51
50.1053596898
  0
ARC
  5
471
330
1F
100
AcDbEntity
  8
0
  6
Continuous
 62
     7
370
    25
100
AcDbCircle
 10
6389.2442685369
 20
4378.6753699073
 30
0.0
 40
1.274923619107957
100
AcDbArc
 50
81.781595125
 51
144.9476470615
  0
LWPOLYLINE
  5
472
330
1F
100
AcDbEntity
  8
0
  6
Continuous
 62
     7
370
    25
100
AcDbPolyline
 90
        3
 70
   128
 43
0.0
 10
6388.2005808645
 20
4379.4075900088
 10
6389.5573571037
 20
4381.1394671539
 10
6392.8751606365
 20
4385.1640375306
  0
LINE
  5
473
330
1F
100
AcDbEntity
  8
0
  6
Continuous
 62
     7
370
    25
100
AcDbLine
 10
6392.8751606365
 20
4385.1640375306
 30
0.0
 11
6393.7112632662
 21
4384.4492421804
 31
0.0
  0
LINE
  5
474
330
1F
100
AcDbEntity
  8
0
  6
Continuous
 62
     7
370
    25
100
AcDbLine
 10
6393.7112632662
 20
4384.4492421804
 30
0.0
 11
6389.9294699321
 21
4379.8366507333
 31
0.0
  0
LWPOLYLINE
  5
475
330
1F
100
AcDbEntity
  8
0
  6
Continuous
 62
     7
370
    25
100
AcDbPolyline
 90
        9
 70
   128
 43
0.0
 10
6389.426514875
 20
4379.9372005246
 10
6389.6830853313
 20
4379.8860022492
 10
6389.804824211
 20
4379.8616404422
 10
6389.8659729105
 20
4379.8493868403
 10
6389.8675312769
 20
4379.8490744118
 10
6389.8978622061
 20
4379.8429920683
 10
6389.9133337095
 20
4379.8398884573
 10
6389.9228966104
 20
4379.8379697614
 10
6389.9294699321
 20
4379.8366507333
  0
LWPOLYLINE
  5
476
330
1F
100
AcDbEntity
  8
0
  6
Continuous
 62
     7
370
    25
100
AcDbPolyline
 90
        9
 70
   128
 43
0.0
 10
6388.4558482969
 20
4378.94860414
 10
6388.3838042816
 20
4379.0107862246
 10
6388.3195701882
 20
4379.0763207846
 10
6388.2655063659
 20
4379.1427996838
 10
6388.2235994468
 20
4379.2077800851
 10
6388.1953893445
 20
4379.2688742153
 10
6388.1819126691
 20
4379.3238371066
 10
6388.183664635
 20
4379.3706490896
 10
6388.2005808645
 20
4379.4075900088
  0
ARC
  5
477
330
1F
100
AcDbEntity
  8
0
  6
Continuous
 62
     7
370
    25
100
AcDbCircle
 10
6390.9641229674
 20
4379.921995265
 30
0.0
 40
1.537683272242889
100
AcDbArc
 50
179.4334259756
 51
189.983216635
  0
ARC
  5
478
330
1F
100
AcDbEntity
  8
0
  6
Continuous
 62
     7
370
    25
100
AcDbCircle
 10
6389.7283429373
 20
4378.2114842917
 30
0.0
 40
1.470574132971119
100
AcDbArc
 50
100.9214924657
 51
149.9175109054
  0
LWPOLYLINE
  5
479
330
1F
100
AcDbEntity
  8
0
  6
Continuous
 62
     7
370
    25
100
AcDbPolyline
 90
        9
 70
   128
 43
0.0
 10
6405.4062521947
 20
4365.3034155945
 10
6405.3327342718
 20
4365.5545027855
 10
6405.297782389
 20
4365.6736338829
 10
6405.2802095213
 20
4365.7334712335
 10
6405.2797615326
 20
4365.7349961674
 10
6405.2710407477
 20
4365.7646762631
 10
6405.2665912984
 20
4365.7798156891
 10
6405.2638407442
 20
4365.7891733021
 10
6405.2619499161
 20
4365.7956054993
  0
LINE
  5
47A
330
1F
100
AcDbEntity
  8
0
  6
Continuous
 62
     7
370
    25
100
AcDbLine
 10
6405.2619499161
 20
4365.7956054993
 30
0.0
 11
6409.524844787
 21
4369.9676179635
 31
0.0
  0
LINE
  5
47B
330
1F
100
AcDbEntity
  8
0
  6
Continuous
 62
     7
370
    25
100
AcDbLine
 10
6410.3102603052
 20
4369.19747352
 30
0.0
 11
6409.524844787
 21
4369.9676179635
 31
0.0
  0
LWPOLYLINE
  5
47C
330
1F
100
AcDbEntity
  8
0
  6
Continuous
 62
     7
370
    25
100
AcDbPolyline
 90
        3
 70
   128
 43
0.0
 10
6410.3102603052
 20
4369.19747352
 10
6408.7580663249
 20
4367.6383161026
 10
6404.986275925
 20
4364.0357321051
  0
ARC
  5
47D
330
1F
100
AcDbEntity
  8
0
  6
Continuous
 62
     7
370
    25
100
AcDbCircle
 10
6404.1652847609
 20
4365.0111313787
 30
0.0
 40
1.274923619087982
100
AcDbArc
 50
310.0872364676
 51
13.2532884048
  0
ARC
  5
47E
330
1F
100
AcDbEntity
  8
0
  6
Continuous
 62
     7
370
    25
100
AcDbCircle
 10
6403.6607056162
 20
4365.4526263122
 30
0.0
 40
1.47057413297146
100
AcDbArc
 50
305.1173726242
 51
354.1133910638
  0
ARC
  5
47F
330
1F
100
AcDbEntity
  8
0
  6
Continuous
 62
     7
370
    25
100
AcDbCircle
 10
6405.2561616715
 20
4366.833756302
 30
0.0
 40
1.53768327236127
100
AcDbArc
 50
265.0516668954
 51
275.601457554
  0
LWPOLYLINE
  5
480
330
1F
100
AcDbEntity
  8
0
  6
Continuous
 62
     7
370
    25
100
AcDbPolyline
 90
        9
 70
   128
 43
0.0
 10
6404.986275925
 20
4364.0357321051
 10
6404.9509621503
 20
4364.0156391298
 10
6404.9044845501
 20
4364.0097855993
 10
6404.8485509927
 20
4364.0183866078
 10
6404.7852168153
 20
4364.0411261021
 10
6404.716809299
 20
4364.0771684955
 10
6404.6458421497
 20
4364.1251893726
 10
6404.57492313
 20
4364.1834241557
 10
6404.5066582338
 20
4364.2497329464
  0
LINE
  5
481
330
1F
100
AcDbEntity
  8
0
  6
Continuous
 62
     7
370
    25
100
AcDbLine
 10
6388.4558482969
 20
4378.94860414
 30
0.0
 11
6387.5483390062
 21
4377.7619447884
 31
0.0
  0
LINE
  5
482
330
1F
100
AcDbEntity
  8
0
  6
Continuous
 62
     7
370
    25
100
AcDbLine
 10
6389.6523072447
 20
4379.4699015811
 30
0.0
 11
6389.4497224086
 21
4379.6554229613
 31
0.0
  0
LINE
  5
483
330
1F
100
AcDbEntity
  8
0
  6
Continuous
 62
     7
370
    25
100
AcDbLine
 10
6403.4042227165
 20
4363.2415814401
 30
0.0
 11
6404.5066582338
 21
4364.2497329464
 31
0.0
  0
LINE
  5
484
330
1F
100
AcDbEntity
  8
0
  6
Continuous
 62
     7
370
    25
100
AcDbLine
 10
6405.1235251389
 20
4365.3018041499
 30
0.0
 11
6404.9209403028
 21
4365.48732553
 31
0.0
  0
LWPOLYLINE
  5
485
330
1F
100
AcDbEntity
  8
0
  6
Continuous
 62
     7
370
    25
100
AcDbPolyline
 90
        9
 70
   128
 43
0.0
 10
6389.4497224086
 20
4379.6554229613
 10
6389.6957693904
 20
4379.7484107556
 10
6389.8113861344
 20
4379.7920749716
 10
6389.8693394023
 20
4379.813954452
 10
6389.8703685707
 20
4379.8143429564
 10
6389.8993147501
 20
4379.8252693151
 10
6389.9140762397
 20
4379.830840885
 10
6389.923197421
 20
4379.83428342
 10
6389.9294699321
 20
4379.8366507333
  0
LWPOLYLINE
  5
486
330
1F
100
AcDbEntity
  8
0
  6
Continuous
 62
     7
370
    25
100
AcDbPolyline
 90
        9
 70
   128
 43
0.0
 10
6405.1235251389
 20
4365.3018041499
 10
6405.1945605004
 20
4365.5550625645
 10
6405.2279094511
 20
4365.674065265
 10
6405.2446183997
 20
4365.7337151097
 10
6405.2449150829
 20
4365.734774403
 10
6405.2532589002
 20
4365.7645678138
 10
6405.2575134704
 20
4365.7797613189
 10
6405.2601422269
 20
4365.7891494304
 10
6405.2619499161
 20
4365.7956054993
  0
LINE
  5
487
330
1F
100
AcDbEntity
  8
0
  6
Continuous
 62
     7
370
    25
100
AcDbLine
 10
6389.9294699321
 20
4379.8366507333
 30
0.0
 11
6389.961393395
 21
4379.8074161418
 31
0.0
  0
LINE
  5
488
330
1F
100
AcDbEntity
  8
0
  6
Continuous
 62
     7
370
    25
100
AcDbLine
 10
6394.0203438256
 20
4384.8197549263
 30
0.0
 11
6393.7112632662
 21
4384.4492421804
 31
0.0
  0
LINE
  5
489
330
1F
100
AcDbEntity
  8
0
  6
Continuous
 62
     7
370
    25
100
AcDbLine
 10
6409.524844787
 20
4369.9676179635
 30
0.0
 11
6409.866802288
 21
4370.3080229494
 31
0.0
  0
LINE
  5
48A
330
1F
100
AcDbEntity
  8
0
  6
Continuous
 62
     7
370
    25
100
AcDbLine
 10
6405.2300264532
 20
4365.8248400907
 30
0.0
 11
6405.2619499161
 21
4365.7956054993
 31
0.0
  0
LINE
  5
48B
330
1F
100
AcDbEntity
  8
0
  6
Continuous
 62
     7
370
    25
100
AcDbLine
 10
6392.8751606365
 20
4385.1640375306
 30
0.0
 11
6393.1672574878
 21
4385.5140680053
 31
0.0
  0
LINE
  5
48C
330
1F
100
AcDbEntity
  8
0
  6
Continuous
 62
     7
370
    25
100
AcDbLine
 10
6410.6333050953
 20
4369.5191627604
 30
0.0
 11
6410.3102603052
 21
4369.19747352
 31
0.0
  0
LWPOLYLINE
  5
48D
330
1F
100
AcDbEntity
  8
0
  6
Continuous
 62
     7
370
    25
100
AcDbPolyline
 90
        9
 70
   128
 43
0.0
 10
6387.5483390062
 20
4377.7619447884
 10
6387.4760236729
 20
4377.8233884628
 10
6387.4114894148
 20
4377.8881949705
 10
6387.3570958399
 20
4377.9539947491
 10
6387.3148317759
 20
4378.0183819184
 10
6387.2862425512
 20
4378.0790022486
 10
6387.2723734922
 20
4378.133639239
 10
6387.2737317023
 20
4378.1802951619
 10
6387.2902675205
 20
4378.2172641065
  0
LINE
  5
48E
330
1F
100
AcDbEntity
  8
0
  6
Continuous
 62
     7
370
    25
100
AcDbLine
 10
6387.2902675205
 20
4378.2172641065
 30
0.0
 11
6388.2005808645
 21
4379.4075900088
 31
0.0
  0
LWPOLYLINE
  5
48F
330
1F
100
AcDbEntity
  8
0
  6
Continuous
 62
     7
370
    25
100
AcDbPolyline
 90
        9
 70
   128
 43
0.0
 10
6403.4042227165
 20
4363.2415814401
 10
6403.4717758632
 20
4363.1749375737
 10
6403.541995983
 20
4363.1163398887
 10
6403.612315572
 20
4363.0679309302
 10
6403.6801634892
 20
4363.0314807065
 10
6403.7430589673
 20
4363.0083219708
 10
6403.7987023178
 20
4362.9993014911
 10
6403.845059017
 20
4363.0047490889
 10
6403.8804340946
 20
4363.0244655803
  0
LINE
  5
490
330
1F
100
AcDbEntity
  8
0
  6
Continuous
 62
     7
370
    25
100
AcDbLine
 10
6404.986275925
 20
4364.0357321051
 30
0.0
 11
6403.8804340946
 21
4363.0244655803
 31
0.0
  0
LWPOLYLINE
  5
491
330
1F
100
AcDbEntity
  8
0
  6
Continuous
 62
     7
370
    25
100
AcDbPolyline
 90
        3
 70
   128
 43
0.0
 10
6401.8726082304
 20
4359.4284355754
 10
6399.0171519128
 20
4358.2359315391
 10
6398.5650864172
 20
4357.9573622658
  0
LINE
  5
492
330
1F
100
AcDbEntity
  8
0
  6
Continuous
 62
     7
370
    25
100
AcDbLine
 10
6411.1358666414
 20
4369.9917133451
 30
0.0
 11
6408.708183164
 21
4366.0329601693
 31
0.0
  0
LINE
  5
493
330
1F
100
AcDbEntity
  8
0
  6
Continuous
 62
     7
370
    25
100
AcDbLine
 10
6382.7737578936
 20
4372.5482183083
 30
0.0
 11
6383.8843242759
 21
4375.9015898824
 31
0.0
  0
LINE
  5
494
330
1F
100
AcDbEntity
  8
0
  6
Continuous
 62
     7
370
    25
100
AcDbLine
 10
6387.692219318
 20
4380.6676758871
 30
0.0
 11
6393.5343800763
 21
4385.9783563954
 31
0.0
  0
LINE
  5
495
330
1F
100
AcDbEntity
  8
0
  6
Continuous
 62
     7
370
    25
100
AcDbLine
 10
6388.0547139185
 20
4356.1961554198
 30
0.0
 11
6389.2783441993
 21
4357.8248956244
 31
0.0
  0
LINE
  5
496
330
1F
100
AcDbEntity
  8
0
  6
Continuous
 62
     7
370
    25
100
AcDbLine
 10
6383.637039731
 20
4356.969921041
 30
0.0
 11
6388.0547139185
 21
4356.1961554198
 31
0.0
  0
LINE
  5
497
330
1F
100
AcDbEntity
  8
0
  6
Continuous
 62
     7
370
    25
100
AcDbLine
 10
6381.7441983513
 20
4361.1044213294
 30
0.0
 11
6383.637039731
 21
4356.969921041
 31
0.0
  0
LINE
  5
498
330
1F
100
AcDbEntity
  8
0
  6
Continuous
 62
     7
370
    25
100
AcDbLine
 10
6383.3553603807
 20
4363.248994257
 30
0.0
 11
6381.7441983513
 21
4361.1044213294
 31
0.0
  0
LWPOLYLINE
  5
499
330
1F
100
AcDbEntity
  8
0
  6
Continuous
 62
     7
370
    25
100
AcDbPolyline
 90
       11
 70
   128
 43
0.0
 10
6384.8337445301
 20
4361.8951324724
 10
6384.6459338859
 20
4361.7189088296
 10
6384.2782301544
 20
4361.0857034217
 10
6384.1972939007
 20
4360.3375488439
 10
6384.4154469356
 20
4359.5883448487
 10
6384.8994774373
 20
4358.9521509527
 10
6385.5756961496
 20
4358.5258219096
 10
6386.3411549034
 20
4358.3742624515
 10
6387.0793195424
 20
4358.5205461319
 10
6387.6778111918
 20
4358.9424025866
 10
6387.8368721836
 20
4359.1449543362
  0
LWPOLYLINE
  5
49A
330
1F
100
AcDbEntity
  8
0
  6
Continuous
 62
     7
370
    25
100
AcDbPolyline
 90
        5
 70
   128
 43
0.0
 10
6385.7481377402
 20
4375.7961687782
 10
6385.694683286
 20
4375.8699614523
 10
6385.6619958086
 20
4375.9364319513
 10
6385.6518909734
 20
4375.9918880909
 10
6385.6649300659
 20
4376.0332494925
  0
ARC
  5
49B
330
1F
100
AcDbEntity
  8
0
  6
Continuous
 62
     7
370
    25
100
AcDbCircle
 10
6515.1422876769
 20
4281.373361832
 30
0.0
 40
160.3897766873972
100
AcDbArc
 50
142.8572110914
 51
143.8297531025
  0
ARC
  5
49C
330
1F
100
AcDbEntity
  8
0
  6
Continuous
 62
     7
370
    25
100
AcDbCircle
 10
6400.8377470435
 20
4360.580819637
 30
0.0
 40
0.184915294776138
100
AcDbArc
 50
258.700639163
 51
309.7750994841
  0
ARC
  5
49D
330
1F
100
AcDbEntity
  8
0
  6
Continuous
 62
     7
370
    25
100
AcDbCircle
 10
6294.4560020807
 20
4483.8319841185
 30
0.0
 40
162.9974320562179
100
AcDbArc
 50
310.7972923074
 51
312.169497296
  0
LINE
  5
49E
330
1F
100
AcDbEntity
  8
0
  6
Continuous
 62
     7
370
    25
100
AcDbLine
 10
6388.0547139185
 20
4356.1961554198
 30
0.0
 11
6388.8976761468
 21
4357.1166496763
 31
0.0
  0
LINE
  5
49F
330
1F
100
AcDbEntity
  8
0
  6
Continuous
 62
     7
370
    25
100
AcDbLine
 10
6388.8976761468
 20
4357.1166496763
 30
0.0
 11
6389.368047511
 21
4357.7427479054
 31
0.0
  0
LINE
  5
4A0
330
1F
100
AcDbEntity
  8
0
  6
Continuous
 62
     7
370
    25
100
AcDbLine
 10
6384.9636291324
 20
4375.0668192937
 30
0.0
 11
6385.6649300659
 21
4376.0332494925
 31
0.0
  0
LWPOLYLINE
  5
4A1
330
1F
100
AcDbEntity
  8
0
  6
Continuous
 62
     7
370
    25
100
AcDbPolyline
 90
        3
 70
   128
 43
0.0
 10
6386.0019881073
 20
4360.8252885248
 10
6386.3044144844
 20
4360.4863080468
 10
6386.6686286064
 20
4360.2147982838
  0
LWPOLYLINE
  5
4A2
330
1F
100
AcDbEntity
  8
0
  6
Continuous
 62
     7
370
    25
100
AcDbPolyline
 90
        3
 70
   128
 43
0.0
 10
6384.5451185553
 20
4374.4825010798
 10
6384.6829838857
 20
4374.6760592929
 10
6384.963629133
 20
4375.0668192945
  0
ARC
  5
4A3
330
1F
100
AcDbEntity
  8
0
  6
Continuous
 62
     7
370
    25
100
AcDbCircle
 10
6387.3976662285
 20
4361.6797336461
 30
0.0
 40
6.59239387916061
100
AcDbArc
 50
150.4065515558
 51
304.5540122855
  0
ARC
  5
4A4
330
1F
100
AcDbEntity
  8
0
  6
Continuous
 62
     7
370
    25
100
AcDbCircle
 10
6389.0501936523
 20
4363.4846321339
 30
0.0
 40
9.956659520304584
100
AcDbArc
 50
161.3294617642
 51
293.7054217657
  0
LINE
  5
4A5
330
1F
100
AcDbEntity
  8
0
  6
Continuous
 62
     7
370
    25
100
AcDbLine
 10
6378.9460219215
 20
4363.4909897008
 30
0.0
 11
6379.1279568076
 21
4364.311847221
 31
0.0
  0
LINE
  5
4A6
330
1F
100
AcDbEntity
  8
0
  6
Continuous
 62
     7
370
    25
100
AcDbLine
 10
6390.7360081109
 20
4353.6717274459
 30
0.0
 11
6389.9377399313
 21
4353.4199887543
 31
0.0
  0
LWPOLYLINE
  5
4A7
330
1F
100
AcDbEntity
  8
0
  6
Continuous
 62
     7
370
    25
100
AcDbPolyline
 90
       37
 70
   128
 43
0.0
 10
6403.9775488019
 20
4379.7849409948
 10
6405.5930350297
 20
4378.5326224565
 10
6407.3856566555
 20
4377.5653829562
 10
6409.3009457781
 20
4376.9126115763
 10
6411.2807073069
 20
4376.5941424452
 10
6413.2647871895
 20
4376.6196520861
 10
6415.1929001627
 20
4376.9883654014
 10
6417.0064614894
 20
4377.6890792238
 10
6418.6503670266
 20
4378.7005027183
 10
6420.0746675363
 20
4379.9919042938
 10
6421.2360863682
 20
4381.5240453669
 10
6422.0993343988
 20
4383.2503726064
 10
6422.6381822736
 20
4385.1184324328
 10
6422.8362573725
 20
4387.0714647934
 10
6422.6875412839
 20
4389.0501277882
 10
6422.1965526709
 20
4390.9943007435
 10
6421.3782099741
 20
4392.8449109478
 10
6420.2573781221
 20
4394.5457285465
 10
6418.8681130237
 20
4396.0450750574
 10
6417.2526267958
 20
4397.2973935956
 10
6415.4600051701
 20
4398.264633096
 10
6413.5447160474
 20
4398.9174044758
 10
6411.5649545187
 20
4399.235873607
 10
6409.5808746361
 20
4399.2103639661
 10
6407.6527616629
 20
4398.8416506507
 10
6405.8392003361
 20
4398.1409368283
 10
6404.195294799
 20
4397.1295133338
 10
6402.7709942893
 20
4395.8381117584
 10
6401.6095754574
 20
4394.3059706852
 10
6400.7463274268
 20
4392.5796434457
 10
6400.207479552
 20
4390.7115836194
 10
6400.0094044531
 20
4388.7585512588
 10
6400.1581205417
 20
4386.7798882639
 10
6400.6491091547
 20
4384.8357153086
 10
6401.4674518515
 20
4382.9851051043
 10
6402.5882837035
 20
4381.2842875057
 10
6403.9775488019
 20
4379.7849409948
  0
LINE
  5
4A8
330
1F
100
AcDbEntity
  8
0
  6
Continuous
 62
     7
370
    25
100
AcDbLine
 10
6401.4976638729
 20
4396.1627896596
 30
0.0
 11
6401.9924305331
 21
4396.670385183
 31
0.0
  0
LINE
  5
4A9
330
1F
100
AcDbEntity
  8
0
  6
Continuous
 62
     7
370
    25
100
AcDbLine
 10
6421.0276279203
 20
4379.3587715697
 30
0.0
 11
6420.5098429838
 21
4378.7519815465
 31
0.0
  0
LWPOLYLINE
  5
4AA
330
1F
100
AcDbEntity
  8
0
  6
Continuous
 62
     7
370
    25
100
AcDbPolyline
 90
       21
 70
   128
 43
0.0
 10
6401.0086901734
 20
4395.6288422693
 10
6400.3656258845
 20
4394.8614439411
 10
6399.2914035362
 20
4393.1695859185
 10
6398.5233256334
 20
4391.3073492691
 10
6398.0823433389
 20
4389.325530954
 10
6397.9804855001
 20
4387.2781898107
 10
6398.2205305335
 20
4385.2211719685
 10
6398.7959306362
 20
4383.2105875121
 10
6399.6909903933
 20
4381.3012799441
 10
6400.8812949081
 20
4379.5453301977
 10
6402.3343757761
 20
4377.9906360048
 10
6404.0105967392
 20
4376.67960537
 10
6405.8642348592
 20
4375.6479997914
 10
6407.8447277201
 20
4374.9239587801
 10
6409.8980526395
 20
4374.5272322875
 10
6411.9682002662
 20
4374.4686419779
 10
6413.9987023695
 20
4374.7497860424
 10
6415.934172145
 20
4375.3629956038
 10
6417.7218150227
 20
4376.2915439038
 10
6419.3128687649
 20
4377.5101025652
 10
6420.0208692842
 20
4378.2180341561
  0
LINE
  5
4AB
330
1F
100
AcDbEntity
  8
0
  6
Continuous
 62
     8
370
    25
100
AcDbLine
 10
6166.3581061773
 20
4346.1291890431
 30
0.0
 11
6174.0358653179
 21
4352.5363736493
 31
0.0
  0
LINE
  5
4AC
330
1F
100
AcDbEntity
  8
0
  6
Continuous
 62
     8
370
    25
100
AcDbLine
 10
6201.5976215114
 20
4303.9015137695
 30
0.0
 11
6209.2753806521
 21
4310.3086983757
 31
0.0
  0
LWPOLYLINE
  5
4AD
330
1F
100
AcDbEntity
  8
0
  6
Continuous
 62
     8
370
    25
100
AcDbPolyline
 90
       12
 70
   128
 43
0.0
 10
6140.3169367391
 20
4385.1381831696
 10
6142.0778221494
 20
4386.8081388298
 10
6143.6021335903
 20
4388.6771424915
 10
6144.8558204629
 20
4390.7034437013
 10
6145.8108774742
 20
4392.8417782386
 10
6146.4459702287
 20
4395.0443792433
 10
6146.7469118039
 20
4397.2620442486
 10
6146.7069796621
 20
4399.445234283
 10
6146.3270658214
 20
4401.5451804886
 10
6145.6156569293
 20
4403.5149735373
 10
6144.5886446848
 20
4405.3106115073
 10
6144.3697005216
 20
4405.6151630821
  0
LWPOLYLINE
  5
4AE
330
1F
100
AcDbEntity
  8
0
  6
Continuous
 62
     8
370
    25
100
AcDbPolyline
 90
       12
 70
   128
 43
0.0
 10
6118.9334963082
 20
4385.4008945952
 10
6119.7057003359
 20
4384.545487847
 10
6121.2885564393
 20
4383.2137084262
 10
6123.0992364159
 20
4382.1612706425
 10
6125.0972926672
 20
4381.4116842169
 10
6127.2380919182
 20
4380.9816936715
 10
6129.4738122511
 20
4380.8809042845
 10
6131.7545113682
 20
4381.1115675243
 10
6134.0292422199
 20
4381.6685307553
 10
6136.2471910779
 20
4382.5393523392
 10
6138.3588126296
 20
4383.7045795608
 10
6140.3169367391
 20
4385.1381831696
  0
LINE
  5
4AF
330
1F
100
AcDbEntity
  8
0
  6
Continuous
 62
     8
370
    25
100
AcDbLine
 10
6095.9910304372
 20
4319.9279686287
 30
0.0
 11
6095.9910304372
 21
4310.9202667156
 31
0.0
  0
LINE
  5
4B0
330
1F
100
AcDbEntity
  8
0
  6
Continuous
 62
     8
370
    25
100
AcDbLine
 10
6095.9910304372
 20
4310.5752882177
 30
0.0
 11
6095.9910304372
 21
4310.5704484422
 31
0.0
  0
LINE
  5
4B1
330
1F
100
AcDbEntity
  8
0
  6
Continuous
 62
     8
370
    25
100
AcDbLine
 10
6452.0802505215
 20
4314.5691088441
 30
0.0
 11
6452.0802505215
 21
4318.5377107151
 31
0.0
  0
LINE
  5
4B2
330
1F
100
AcDbEntity
  8
0
  6
Continuous
 62
     8
370
    25
100
AcDbLine
 10
6452.0802505215
 20
4311.9607063558
 30
0.0
 11
6452.0802505215
 21
4313.4600393328
 31
0.0
  0
LINE
  5
4B3
330
1F
100
AcDbEntity
  8
0
  6
Continuous
 62
     8
370
    25
100
AcDbLine
 10
6449.1628193731
 20
4243.2492085355
 30
0.0
 11
6449.1628193731
 21
4427.2492085355
 31
0.0
  0
ARC
  5
4B4
330
1F
100
AcDbEntity
  8
0
  6
Continuous
 62
     8
370
    25
100
AcDbCircle
 10
6274.6628193731
 20
4240.7492085355
 30
0.0
 40
140.255765255836
100
AcDbArc
 50
136.2456981884
 51
270.0
  0
ARC
  5
4B5
330
1F
100
AcDbEntity
  8
0
  6
Continuous
 62
     8
370
    25
100
AcDbCircle
 10
6274.6628193731
 20
4240.7492085355
 30
0.0
 40
140.2557652558359
100
AcDbArc
 50
270.0
 51
132.1479228219
  0
ARC
  5
4B6
330
1F
100
AcDbEntity
  8
0
  6
Continuous
 62
     8
370
    25
100
AcDbCircle
 10
6274.6628193731
 20
4240.7492085355
 30
0.0
 40
140.0450350555526
100
AcDbArc
 50
270.0
 51
132.1513893501
  0
ARC
  5
4B7
330
1F
100
AcDbEntity
  8
0
  6
Continuous
 62
     8
370
    25
100
AcDbCircle
 10
6274.6628193731
 20
4240.7492085355
 30
0.0
 40
140.0450350555526
100
AcDbArc
 50
136.2553692491
 51
270.0
  0
LINE
  5
4B8
330
1F
100
AcDbEntity
  8
0
  6
Continuous
 62
     8
370
    25
100
AcDbLine
 10
6379.342038629
 20
4367.3201851134
 30
0.0
 11
6379.1448494651
 21
4367.1048593412
 31
0.0
  0
LINE
  5
4B9
330
1F
100
AcDbEntity
  8
0
  6
Continuous
 62
     8
370
    25
100
AcDbLine
 10
6393.5257672488
 20
4353.9352274671
 30
0.0
 11
6393.7229564127
 21
4354.1505532393
 31
0.0
  0
ARC
  5
4BA
330
1F
100
AcDbEntity
  8
0
  6
Continuous
 62
     8
370
    25
100
AcDbCircle
 10
6388.9096999476
 20
4363.3312164245
 30
0.0
 40
9.456659520303429
100
AcDbArc
 50
161.2886900851
 51
293.7461934448
  0
ARC
  5
4BB
330
1F
100
AcDbEntity
  8
0
  6
Continuous
 62
     8
370
    25
100
AcDbCircle
 10
6410.9671738059
 20
4388.0055946403
 30
0.0
 40
12.49845786304761
100
AcDbArc
 50
139.2578373905
 51
229.3386883512
  0
ARC
  5
4BC
330
1F
100
AcDbEntity
  8
0
  6
Continuous
 62
     8
370
    25
100
AcDbCircle
 10
6411.5530574835
 20
4387.4690591792
 30
0.0
 40
12.49845786300436
100
AcDbArc
 50
225.6961951787
 51
315.7770461375
  0
ENDSEC
  0
SECTION
  2
OBJECTS
  0
DICTIONARY
  5
C
330
0
100
AcDbDictionary
281
     1
  3
ACAD_GROUP
350
D
  3
ACAD_LAYOUT
350
1A
  3
ACAD_MLINESTYLE
350
17
  3
ACAD_PLOTSETTINGS
350
19
  3
ACAD_PLOTSTYLENAME
350
E
  3
ACAD_SCALELIST
350
47
  3
DWGPROPS
350
4BD
  0
DICTIONARY
  5
D
102
{ACAD_REACTORS
330
C
102
}
330
C
100
AcDbDictionary
281
     1
  0
DICTIONARY
  5
1A
102
{ACAD_REACTORS
330
C
102
}
330
C
100
AcDbDictionary
281
     1
  3
Layout1
350
1E
  3
Layout2
350
26
  3
Model
350
22
  0
DICTIONARY
  5
17
102
{ACAD_REACTORS
330
C
102
}
330
C
100
AcDbDictionary
281
     1
  3
Standard
350
18
  0
DICTIONARY
  5
19
102
{ACAD_REACTORS
330
C
102
}
330
C
100
AcDbDictionary
281
     1
  0
ACDBDICTIONARYWDFLT
  5
E
102
{ACAD_REACTORS
330
C
102
}
330
C
100
AcDbDictionary
281
     1
  3
Normal
350
F
100
AcDbDictionaryWithDefault
340
F
  0
DICTIONARY
  5
47
102
{ACAD_REACTORS
330
C
102
}
330
C
100
AcDbDictionary
281
     1
  3
A0
350
48
  3
A1
350
49
  3
A2
350
4A
  3
A3
350
4B
  3
A4
350
4C
  3
A5
350
4D
  3
A6
350
4E
  3
A7
350
4F
  3
A8
350
50
  3
A9
350
51
  3
B0
350
52
  3
B1
350
53
  3
B2
350
54
  3
B3
350
55
  3
B4
350
56
  3
B5
350
57
  3
B6
350
58
  3
B7
350
59
  3
B8
350
5A
  3
B9
350
5B
  3
C0
350
5C
  3
C1
350
5D
  3
C2
350
5E
  3
C3
350
5F
  3
C4
350
60
  3
C5
350
61
  3
C6
350
62
  3
C7
350
63
  3
C8
350
64
  3
C9
350
65
  3
D0
350
66
  3
D1
350
67
  3
D2
350
68
  0
XRECORD
  5
4BD
102
{ACAD_REACTORS
330
C
102
}
330
C
100
AcDbXrecord
280
     1
  1
DWGPROPS COOKIE
  2

  3

  4

  6

  7

  8
radek.stransky
  9

300
=
301
=
302
=
303
=
304
=
305
=
306
=
307
=
308
=
309
=
 40
0.0
 41
2459811.199300012
 42
2459811.19930037
  1

 90
        0
  0
LAYOUT
  5
1E
102
{ACAD_REACTORS
330
1A
102
}
330
1A
100
AcDbPlotSettings
  1

  2
none_device
  4

  6

 40
0.0
 41
0.0
 42
0.0
 43
0.0
 44
0.0
 45
0.0
 46
0.0
 47
0.0
 48
0.0
 49
0.0
140
0.0
141
0.0
142
1.0
143
1.0
 70
   688
 72
     1
 73
     0
 74
     5
  7

 75
    16
147
1.0
148
0.0
149
0.0
100
AcDbLayout
  1
Layout1
 70
     1
 71
     1
 10
0.0
 20
0.0
 11
420.0
 21
297.0
 12
0.0
 22
0.0
 32
0.0
 14
1.0000000000E+20
 24
1.0000000000E+20
 34
1.0000000000E+20
 15
-1.0000000000E+20
 25
-1.0000000000E+20
 35
-1.0000000000E+20
146
0.0
 13
0.0
 23
0.0
 33
0.0
 16
1.0
 26
0.0
 36
0.0
 17
0.0
 27
1.0
 37
0.0
 76
     0
330
1B
  0
LAYOUT
  5
26
102
{ACAD_REACTORS
330
1A
102
}
330
1A
100
AcDbPlotSettings
  1

  2
none_device
  4

  6

 40
0.0
 41
0.0
 42
0.0
 43
0.0
 44
0.0
 45
0.0
 46
0.0
 47
0.0
 48
0.0
 49
0.0
140
0.0
141
0.0
142
1.0
143
1.0
 70
   688
 72
     1
 73
     0
 74
     5
  7

 75
    16
147
1.0
148
0.0
149
0.0
100
AcDbLayout
  1
Layout2
 70
     1
 71
     2
 10
0.0
 20
0.0
 11
0.0
 21
0.0
 12
0.0
 22
0.0
 32
0.0
 14
0.0
 24
0.0
 34
0.0
 15
0.0
 25
0.0
 35
0.0
146
0.0
 13
0.0
 23
0.0
 33
0.0
 16
1.0
 26
0.0
 36
0.0
 17
0.0
 27
1.0
 37
0.0
 76
     0
330
23
  0
LAYOUT
  5
22
102
{ACAD_REACTORS
330
1A
102
}
330
1A
100
AcDbPlotSettings
  1

  2
none_device
  4
Letter_(8.50_x_11.00_Inches)
  6

 40
6.35
 41
6.35
 42
6.35000508
 43
6.35000508
 44
215.9
 45
279.4
 46
0.0
 47
0.0
 48
0.0
 49
0.0
140
0.0
141
0.0
142
1.0
143
1.0
 70
  1712
 72
     1
 73
     0
 74
     0
  7

 75
     0
147
1.0
148
0.0
149
0.0
100
AcDbLayout
  1
Model
 70
     1
 71
     0
 10
0.0
 20
0.0
 11
20000.0
 21
10000.0
 12
0.0
 22
0.0
 32
0.0
 14
0.0
 24
0.0
 34
0.0
 15
20000.0
 25
10000.0
 35
0.0
146
0.0
 13
0.0
 23
0.0
 33
0.0
 16
1.0
 26
0.0
 36
0.0
 17
0.0
 27
1.0
 37
0.0
 76
     0
330
1F
331
29
  0
MLINESTYLE
  5
18
102
{ACAD_REACTORS
330
17
102
}
330
17
100
AcDbMlineStyle
  2
Standard
 70
     0
  3

 62
   256
 51
90.0
 52
90.0
 71
     2
 49
0.5
 62
   256
  6
BYLAYER
 49
-0.5
 62
   256
  6
BYLAYER
  0
ACDBPLACEHOLDER
  5
F
102
{ACAD_REACTORS
330
E
102
}
330
E
  0
SCALE
  5
48
102
{ACAD_REACTORS
330
47
102
}
330
47
100
AcDbScale
 70
     0
300
1:1
140
1.0
141
1.0
290
     1
  0
SCALE
  5
49
102
{ACAD_REACTORS
330
47
102
}
330
47
100
AcDbScale
 70
     0
300
1:2
140
1.0
141
2.0
290
     0
  0
SCALE
  5
4A
102
{ACAD_REACTORS
330
47
102
}
330
47
100
AcDbScale
 70
     0
300
1:4
140
1.0
141
4.0
290
     0
  0
SCALE
  5
4B
102
{ACAD_REACTORS
330
47
102
}
330
47
100
AcDbScale
 70
     0
300
1:5
140
1.0
141
5.0
290
     0
  0
SCALE
  5
4C
102
{ACAD_REACTORS
330
47
102
}
330
47
100
AcDbScale
 70
     0
300
1:8
140
1.0
141
8.0
290
     0
  0
SCALE
  5
4D
102
{ACAD_REACTORS
330
47
102
}
330
47
100
AcDbScale
 70
     0
300
1:10
140
1.0
141
10.0
290
     0
  0
SCALE
  5
4E
102
{ACAD_REACTORS
330
47
102
}
330
47
100
AcDbScale
 70
     0
300
1:16
140
1.0
141
16.0
290
     0
  0
SCALE
  5
4F
102
{ACAD_REACTORS
330
47
102
}
330
47
100
AcDbScale
 70
     0
300
1:20
140
1.0
141
20.0
290
     0
  0
SCALE
  5
50
102
{ACAD_REACTORS
330
47
102
}
330
47
100
AcDbScale
 70
     0
300
1:30
140
1.0
141
30.0
290
     0
  0
SCALE
  5
51
102
{ACAD_REACTORS
330
47
102
}
330
47
100
AcDbScale
 70
     0
300
1:40
140
1.0
141
40.0
290
     0
  0
SCALE
  5
52
102
{ACAD_REACTORS
330
47
102
}
330
47
100
AcDbScale
 70
     0
300
1:50
140
1.0
141
50.0
290
     0
  0
SCALE
  5
53
102
{ACAD_REACTORS
330
47
102
}
330
47
100
AcDbScale
 70
     0
300
1:100
140
1.0
141
100.0
290
     0
  0
SCALE
  5
54
102
{ACAD_REACTORS
330
47
102
}
330
47
100
AcDbScale
 70
     0
300
2:1
140
2.0
141
1.0
290
     0
  0
SCALE
  5
55
102
{ACAD_REACTORS
330
47
102
}
330
47
100
AcDbScale
 70
     0
300
4:1
140
4.0
141
1.0
290
     0
  0
SCALE
  5
56
102
{ACAD_REACTORS
330
47
102
}
330
47
100
AcDbScale
 70
     0
300
8:1
140
8.0
141
1.0
290
     0
  0
SCALE
  5
57
102
{ACAD_REACTORS
330
47
102
}
330
47
100
AcDbScale
 70
     0
300
10:1
140
10.0
141
1.0
290
     0
  0
SCALE
  5
58
102
{ACAD_REACTORS
330
47
102
}
330
47
100
AcDbScale
 70
     0
300
100:1
140
100.0
141
1.0
290
     0
  0
SCALE
  5
59
102
{ACAD_REACTORS
330
47
102
}
330
47
100
AcDbScale
 70
     0
300
1/128" = 1'-0"
140
0.0078125
141
12.0
290
     0
  0
SCALE
  5
5A
102
{ACAD_REACTORS
330
47
102
}
330
47
100
AcDbScale
 70
     0
300
1/64" = 1'-0"
140
0.015625
141
12.0
290
     0
  0
SCALE
  5
5B
102
{ACAD_REACTORS
330
47
102
}
330
47
100
AcDbScale
 70
     0
300
1/32" = 1'-0"
140
0.03125
141
12.0
290
     0
  0
SCALE
  5
5C
102
{ACAD_REACTORS
330
47
102
}
330
47
100
AcDbScale
 70
     0
300
1/16" = 1'-0"
140
0.0625
141
12.0
290
     0
  0
SCALE
  5
5D
102
{ACAD_REACTORS
330
47
102
}
330
47
100
AcDbScale
 70
     0
300
3/32" = 1'-0"
140
0.09375
141
12.0
290
     0
  0
SCALE
  5
5E
102
{ACAD_REACTORS
330
47
102
}
330
47
100
AcDbScale
 70
     0
300
1/8" = 1'-0"
140
0.125
141
12.0
290
     0
  0
SCALE
  5
5F
102
{ACAD_REACTORS
330
47
102
}
330
47
100
AcDbScale
 70
     0
300
3/16" = 1'-0"
140
0.1875
141
12.0
290
     0
  0
SCALE
  5
60
102
{ACAD_REACTORS
330
47
102
}
330
47
100
AcDbScale
 70
     0
300
1/4" = 1'-0"
140
0.25
141
12.0
290
     0
  0
SCALE
  5
61
102
{ACAD_REACTORS
330
47
102
}
330
47
100
AcDbScale
 70
     0
300
3/8" = 1'-0"
140
0.375
141
12.0
290
     0
  0
SCALE
  5
62
102
{ACAD_REACTORS
330
47
102
}
330
47
100
AcDbScale
 70
     0
300
1/2" = 1'-0"
140
0.5
141
12.0
290
     0
  0
SCALE
  5
63
102
{ACAD_REACTORS
330
47
102
}
330
47
100
AcDbScale
 70
     0
300
3/4" = 1'-0"
140
0.75
141
12.0
290
     0
  0
SCALE
  5
64
102
{ACAD_REACTORS
330
47
102
}
330
47
100
AcDbScale
 70
     0
300
1" = 1'-0"
140
1.0
141
12.0
290
     0
  0
SCALE
  5
65
102
{ACAD_REACTORS
330
47
102
}
330
47
100
AcDbScale
 70
     0
300
1-1/2" = 1'-0"
140
1.5
141
12.0
290
     0
  0
SCALE
  5
66
102
{ACAD_REACTORS
330
47
102
}
330
47
100
AcDbScale
 70
     0
300
3" = 1'-0"
140
3.0
141
12.0
290
     0
  0
SCALE
  5
67
102
{ACAD_REACTORS
330
47
102
}
330
47
100
AcDbScale
 70
     0
300
6" = 1'-0"
140
6.0
141
12.0
290
     0
  0
SCALE
  5
68
102
{ACAD_REACTORS
330
47
102
}
330
47
100
AcDbScale
 70
     0
300
1'-0" = 1'-0"
140
12.0
141
12.0
290
     0
  0
ENDSEC
  0
EOF
