  0
SECTION
  2
HEADER
  9
$ACADVER
  1
AC1015
  9
$ACADMAINTVER
 70
     6
  9
$DWGCODEPAGE
  3
ANSI_1250
  9
$INSBASE
 10
0.0
 20
0.0
 30
0.0
  9
$EXTMIN
 10
0.0
 20
0.0
 30
0.0
  9
$EXTMAX
 10
20000.0
 20
10000.0
 30
0.0
  9
$LIMMIN
 10
0.0
 20
0.0
  9
$LIMMAX
 10
20000.0
 20
10000.0
  9
$ORTHOMODE
 70
     0
  9
$REGENMODE
 70
     1
  9
$FILLMODE
 70
     1
  9
$QTEXTMODE
 70
     0
  9
$MIRRTEXT
 70
     1
  9
$LTSCALE
 40
1.0
  9
$ATTMODE
 70
     1
  9
$TEXTSIZE
 40
2.0
  9
$TRACEWID
 40
1.0
  9
$TEXTSTYLE
  7
Standard
  9
$CLAYER
  8
0
  9
$CELTYPE
  6
ByLayer
  9
$CECOLOR
 62
   256
  9
$CELTSCALE
 40
1.0
  9
$DISPSILH
 70
     0
  9
$DIMSCALE
 40
1.0
  9
$DIMASZ
 40
2.0
  9
$DIMEXO
 40
1.0
  9
$DIMDLI
 40
3.75
  9
$DIMRND
 40
0.0
  9
$DIMDLE
 40
0.0
  9
$DIMEXE
 40
1.0
  9
$DIMTP
 40
0.0
  9
$DIMTM
 40
0.0
  9
$DIMTXT
 40
2.0
  9
$DIMCEN
 40
2.5
  9
$DIMTSZ
 40
0.0
  9
$DIMTOL
 70
     0
  9
$DIMLIM
 70
     0
  9
$DIMTIH
 70
     1
  9
$DIMTOH
 70
     1
  9
$DIMSE1
 70
     0
  9
$DIMSE2
 70
     0
  9
$DIMTAD
 70
     1
  9
$DIMZIN
 70
     0
  9
$DIMBLK
  1

  9
$DIMASO
 70
     1
  9
$DIMSHO
 70
     1
  9
$DIMPOST
  1

  9
$DIMAPOST
  1

  9
$DIMALT
 70
     0
  9
$DIMALTD
 70
     3
  9
$DIMALTF
 40
0.0393700787
  9
$DIMLFAC
 40
1.0
  9
$DIMTOFL
 70
     1
  9
$DIMTVP
 40
0.0
  9
$DIMTIX
 70
     0
  9
$DIMSOXD
 70
     0
  9
$DIMSAH
 70
     0
  9
$DIMBLK1
  1

  9
$DIMBLK2
  1

  9
$DIMSTYLE
  2
ISO-25
  9
$DIMCLRD
 70
     0
  9
$DIMCLRE
 70
     0
  9
$DIMCLRT
 70
     0
  9
$DIMTFAC
 40
1.0
  9
$DIMGAP
 40
1.524
  9
$DIMJUST
 70
     0
  9
$DIMSD1
 70
     0
  9
$DIMSD2
 70
     0
  9
$DIMTOLJ
 70
     0
  9
$DIMTZIN
 70
     0
  9
$DIMALTZ
 70
     0
  9
$DIMALTTZ
 70
     0
  9
$DIMUPT
 70
     0
  9
$DIMDEC
 70
     2
  9
$DIMTDEC
 70
     0
  9
$DIMALTU
 70
     2
  9
$DIMALTTD
 70
     3
  9
$DIMTXSTY
  7
Standard
  9
$DIMAUNIT
 70
     0
  9
$DIMADEC
 70
     2
  9
$DIMALTRND
 40
0.0
  9
$DIMAZIN
 70
     0
  9
$DIMDSEP
 70
    44
  9
$DIMATFIT
 70
     3
  9
$DIMFRAC
 70
     0
  9
$DIMLDRBLK
  1

  9
$DIMLUNIT
 70
     2
  9
$DIMLWD
 70
    -2
  9
$DIMLWE
 70
    -2
  9
$DIMTMOVE
 70
     0
  9
$LUNITS
 70
     2
  9
$LUPREC
 70
     3
  9
$SKETCHINC
 40
1.0
  9
$FILLETRAD
 40
10.0
  9
$AUNITS
 70
     0
  9
$AUPREC
 70
     2
  9
$MENU
  1
.
  9
$ELEVATION
 40
0.0
  9
$PELEVATION
 40
0.0
  9
$THICKNESS
 40
0.0
  9
$LIMCHECK
 70
     0
  9
$CHAMFERA
 40
0.0
  9
$CHAMFERB
 40
0.0
  9
$CHAMFERC
 40
0.0
  9
$CHAMFERD
 40
0.0
  9
$SKPOLY
 70
     0
  9
$TDCREATE
 40
2459744.583563206
  9
$TDUCREATE
 40
2459744.500229873
  9
$TDUPDATE
 40
2459744.583563553
  9
$TDUUPDATE
 40
2459744.50023022
  9
$TDINDWG
 40
0.0000000116
  9
$TDUSRTIMER
 40
0.0000000116
  9
$USRTIMER
 70
     1
  9
$ANGBASE
 50
0.0
  9
$ANGDIR
 70
     0
  9
$PDMODE
 70
     0
  9
$PDSIZE
 40
-1.0
  9
$PLINEWID
 40
0.0
  9
$SPLFRAME
 70
     0
  9
$SPLINETYPE
 70
     6
  9
$SPLINESEGS
 70
     8
  9
$HANDSEED
  5
2A5
  9
$SURFTAB1
 70
     6
  9
$SURFTAB2
 70
     6
  9
$SURFTYPE
 70
     6
  9
$SURFU
 70
     6
  9
$SURFV
 70
     6
  9
$UCSBASE
  2

  9
$UCSNAME
  2

  9
$UCSORG
 10
0.0
 20
0.0
 30
0.0
  9
$UCSXDIR
 10
1.0
 20
0.0
 30
0.0
  9
$UCSYDIR
 10
0.0
 20
1.0
 30
0.0
  9
$UCSORTHOREF
  2

  9
$UCSORTHOVIEW
 70
     0
  9
$UCSORGTOP
 10
0.0
 20
0.0
 30
0.0
  9
$UCSORGBOTTOM
 10
0.0
 20
0.0
 30
0.0
  9
$UCSORGLEFT
 10
0.0
 20
0.0
 30
0.0
  9
$UCSORGRIGHT
 10
0.0
 20
0.0
 30
0.0
  9
$UCSORGFRONT
 10
0.0
 20
0.0
 30
0.0
  9
$UCSORGBACK
 10
0.0
 20
0.0
 30
0.0
  9
$PUCSBASE
  2

  9
$PUCSNAME
  2

  9
$PUCSORG
 10
0.0
 20
0.0
 30
0.0
  9
$PUCSXDIR
 10
1.0
 20
0.0
 30
0.0
  9
$PUCSYDIR
 10
0.0
 20
1.0
 30
0.0
  9
$PUCSORTHOREF
  2

  9
$PUCSORTHOVIEW
 70
     0
  9
$PUCSORGTOP
 10
0.0
 20
0.0
 30
0.0
  9
$PUCSORGBOTTOM
 10
0.0
 20
0.0
 30
0.0
  9
$PUCSORGLEFT
 10
0.0
 20
0.0
 30
0.0
  9
$PUCSORGRIGHT
 10
0.0
 20
0.0
 30
0.0
  9
$PUCSORGFRONT
 10
0.0
 20
0.0
 30
0.0
  9
$PUCSORGBACK
 10
0.0
 20
0.0
 30
0.0
  9
$USERI1
 70
     0
  9
$USERI2
 70
     0
  9
$USERI3
 70
     0
  9
$USERI4
 70
     0
  9
$USERI5
 70
     0
  9
$USERR1
 40
0.0
  9
$USERR2
 40
0.0
  9
$USERR3
 40
0.0
  9
$USERR4
 40
0.0
  9
$USERR5
 40
0.0
  9
$WORLDVIEW
 70
     1
  9
$SHADEDGE
 70
     3
  9
$SHADEDIF
 70
    70
  9
$TILEMODE
 70
     1
  9
$MAXACTVP
 70
    64
  9
$PINSBASE
 10
0.0
 20
0.0
 30
0.0
  9
$PLIMCHECK
 70
     0
  9
$PEXTMIN
 10
1.0000000000E+20
 20
1.0000000000E+20
 30
1.0000000000E+20
  9
$PEXTMAX
 10
-1.0000000000E+20
 20
-1.0000000000E+20
 30
-1.0000000000E+20
  9
$PLIMMIN
 10
0.0
 20
0.0
  9
$PLIMMAX
 10
420.0
 20
297.0
  9
$UNITMODE
 70
     0
  9
$VISRETAIN
 70
     1
  9
$PLINEGEN
 70
     0
  9
$PSLTSCALE
 70
     1
  9
$TREEDEPTH
 70
  3020
  9
$CMLSTYLE
  2
Standard
  9
$CMLJUST
 70
     0
  9
$CMLSCALE
 40
20.0
  9
$PROXYGRAPHICS
 70
     1
  9
$MEASUREMENT
 70
     1
  9
$CELWEIGHT
370
    -1
  9
$ENDCAPS
280
     0
  9
$JOINSTYLE
280
     0
  9
$LWDISPLAY
290
     1
  9
$INSUNITS
 70
     4
  9
$HYPERLINKBASE
  1

  9
$STYLESHEET
  1

  9
$XEDIT
290
     1
  9
$CEPSNTYPE
380
     0
  9
$PSTYLEMODE
290
     1
  9
$FINGERPRINTGUID
  2
{eeec4cdf-4e6f-42d4-8a2e-033ae7f3eec7}
  9
$VERSIONGUID
  2
{FAEB1C32-E019-11D5-929B-00C0DF256EC4}
  9
$EXTNAMES
290
     1
  9
$PSVPSCALE
 40
0.0
  9
$OLESTARTUP
290
     0
  0
ENDSEC
  0
SECTION
  2
CLASSES
  0
CLASS
  1
ACDBDICTIONARYWDFLT
  2
AcDbDictionaryWithDefault
  3
ObjectDBX Classes
 90
        0
280
     0
281
     0
  0
CLASS
  1
VISUALSTYLE
  2
AcDbVisualStyle
  3
ObjectDBX Classes
 90
     4095
280
     0
281
     0
  0
CLASS
  1
MATERIAL
  2
AcDbMaterial
  3
ObjectDBX Classes
 90
     1153
280
     0
281
     0
  0
CLASS
  1
SCALE
  2
AcDbScale
  3
ObjectDBX Classes
 90
     1153
280
     0
281
     0
  0
CLASS
  1
TABLESTYLE
  2
AcDbTableStyle
  3
ObjectDBX Classes
 90
     4095
280
     0
281
     0
  0
CLASS
  1
MLEADERSTYLE
  2
AcDbMLeaderStyle
  3
ACDB_MLEADERSTYLE_CLASS
 90
     4095
280
     0
281
     0
  0
CLASS
  1
SUN
  2
AcDbSun
  3
SCENEOE
 90
     1153
280
     0
281
     0
  0
CLASS
  1
ACDBPLACEHOLDER
  2
AcDbPlaceHolder
  3
ObjectDBX Classes
 90
        0
280
     0
281
     0
  0
CLASS
  1
LAYOUT
  2
AcDbLayout
  3
ObjectDBX Classes
 90
        0
280
     0
281
     0
  0
ENDSEC
  0
SECTION
  2
TABLES
  0
TABLE
  2
VPORT
  5
8
330
0
100
AcDbSymbolTable
 70
     1
  0
VPORT
  5
29
330
8
100
AcDbSymbolTableRecord
100
AcDbViewportTableRecord
  2
*Active
 70
     0
 10
0.0
 20
0.0
 11
1.0
 21
1.0
 12
10000.0
 22
5000.0
 13
0.0
 23
0.0
 14
10.0
 24
10.0
 15
10.0
 25
10.0
 16
0.0
 26
0.0
 36
1.0
 17
0.0
 27
0.0
 37
0.0
 40
10000.0
 41
2.0
 42
50.0
 43
0.0
 44
0.0
 50
0.0
 51
0.0
 71
     0
 72
  2000
 73
     1
 74
     3
 75
     0
 76
     0
 77
     0
 78
     0
281
     0
 65
     1
110
0.0
120
0.0
130
0.0
111
1.0
121
0.0
131
0.0
112
0.0
122
1.0
132
0.0
 79
     0
146
0.0
  0
ENDTAB
  0
TABLE
  2
LTYPE
  5
5
330
0
100
AcDbSymbolTable
 70
     6
  0
LTYPE
  5
14
330
5
100
AcDbSymbolTableRecord
100
AcDbLinetypeTableRecord
  2
ByBlock
 70
     0
  3

 72
    65
 73
     0
 40
0.0
  0
LTYPE
  5
15
330
5
100
AcDbSymbolTableRecord
100
AcDbLinetypeTableRecord
  2
ByLayer
 70
     0
  3

 72
    65
 73
     0
 40
0.0
  0
LTYPE
  5
16
330
5
100
AcDbSymbolTableRecord
100
AcDbLinetypeTableRecord
  2
Continuous
 70
     0
  3
Solid line
 72
    65
 73
     0
 40
0.0
  0
LTYPE
  5
6E
330
5
100
AcDbSymbolTableRecord
100
AcDbLinetypeTableRecord
  2
HIDDEN
 70
     0
  3
Hidden __ __ __ __ __ __ __ __ __ __ __ __ __ __
 72
    65
 73
     2
 40
1.905
 49
1.27
 74
     0
 49
-0.635
 74
     0
  0
LTYPE
  5
6F
330
5
100
AcDbSymbolTableRecord
100
AcDbLinetypeTableRecord
  2
PHANTOM
 70
     0
  3
Phantom ______  __  __  ______  __  __  ______
 72
    65
 73
     6
 40
12.7
 49
6.35
 74
     0
 49
-1.27
 74
     0
 49
1.27
 74
     0
 49
-1.27
 74
     0
 49
1.27
 74
     0
 49
-1.27
 74
     0
  0
LTYPE
  5
70
330
5
100
AcDbSymbolTableRecord
100
AcDbLinetypeTableRecord
  2
CENTER
 70
     0
  3
Center ____ _ ____ _ ____ _ ____ _ ____ _ ____
 72
    65
 73
     4
 40
10.16
 49
6.35
 74
     0
 49
-1.27
 74
     0
 49
1.27
 74
     0
 49
-1.27
 74
     0
  0
LTYPE
  5
71
330
5
100
AcDbSymbolTableRecord
100
AcDbLinetypeTableRecord
  2
CENTERX2
 70
     0
  3
Center (2x) ________  __  ________  __  _____
 72
    65
 73
     4
 40
20.32
 49
12.7
 74
     0
 49
-2.54
 74
     0
 49
2.54
 74
     0
 49
-2.54
 74
     0
  0
LTYPE
  5
72
330
5
100
AcDbSymbolTableRecord
100
AcDbLinetypeTableRecord
  2
DOT2
 70
     0
  3
Dot (.5x) ........................................
 72
    65
 73
     2
 40
0.635
 49
0.0
 74
     0
 49
-0.635
 74
     0
  0
ENDTAB
  0
TABLE
  2
LAYER
  5
2
330
0
100
AcDbSymbolTable
 70
    13
  0
LAYER
  5
10
330
2
100
AcDbSymbolTableRecord
100
AcDbLayerTableRecord
  2
0
 70
     0
 62
     7
  6
Continuous
370
    -3
390
F
  0
LAYER
  5
73
330
2
100
AcDbSymbolTableRecord
100
AcDbLayerTableRecord
  2
FORMAT
 70
     0
 62
     7
  6
Continuous
370
    -3
390
F
  0
LAYER
  5
74
330
2
100
AcDbSymbolTableRecord
100
AcDbLayerTableRecord
  2
OSA
 70
     0
 62
     7
  6
CENTER
370
    -3
390
F
  0
LAYER
  5
75
330
2
100
AcDbSymbolTableRecord
100
AcDbLayerTableRecord
  2
0_35
 70
     0
 62
     7
  6
Continuous
370
    35
390
F
  0
LAYER
  5
76
330
2
100
AcDbSymbolTableRecord
100
AcDbLayerTableRecord
  2
0_5
 70
     0
 62
     7
  6
Continuous
370
    50
390
F
  0
LAYER
  5
77
330
2
100
AcDbSymbolTableRecord
100
AcDbLayerTableRecord
  2
0_25
 70
     0
 62
     7
  6
Continuous
370
    25
390
F
  0
LAYER
  5
78
330
2
100
AcDbSymbolTableRecord
100
AcDbLayerTableRecord
  2
0_18
 70
     0
 62
     7
  6
Continuous
370
    -3
390
F
  0
LAYER
  5
79
330
2
100
AcDbSymbolTableRecord
100
AcDbLayerTableRecord
  2
SLD-0
 70
     0
 62
   179
  6
Continuous
370
    -3
390
F
  0
LAYER
  5
7A
330
2
100
AcDbSymbolTableRecord
100
AcDbLayerTableRecord
  2
KOTY
 70
     0
 62
     7
  6
Continuous
370
    -3
390
F
  0
LAYER
  5
7B
330
2
100
AcDbSymbolTableRecord
100
AcDbLayerTableRecord
  2
SILNA
 70
     0
 62
   179
  6
Continuous
370
    -3
390
F
  0
LAYER
  5
7C
330
2
100
AcDbSymbolTableRecord
100
AcDbLayerTableRecord
  2
0_18_1
 70
     0
 62
   179
  6
Continuous
370
    -3
390
F
  0
LAYER
  5
7D
330
2
100
AcDbSymbolTableRecord
100
AcDbLayerTableRecord
  2
0_35_1
 70
     0
 62
   179
  6
Continuous
370
    35
390
F
  0
LAYER
  5
7E
330
2
100
AcDbSymbolTableRecord
100
AcDbLayerTableRecord
  2
0_5_1
 70
     0
 62
   179
  6
Continuous
370
    50
390
F
  0
ENDTAB
  0
TABLE
  2
STYLE
  5
3
330
0
100
AcDbSymbolTable
 70
     1
  0
STYLE
  5
11
330
3
100
AcDbSymbolTableRecord
100
AcDbTextStyleTableRecord
  2
Standard
 70
     0
 40
0.0
 41
1.0
 50
0.0
 71
     0
 42
2.0
  3
txt
  4

  0
ENDTAB
  0
TABLE
  2
VIEW
  5
6
330
0
100
AcDbSymbolTable
 70
     0
  0
ENDTAB
  0
TABLE
  2
UCS
  5
7
330
0
100
AcDbSymbolTable
 70
     0
  0
ENDTAB
  0
TABLE
  2
APPID
  5
9
330
0
100
AcDbSymbolTable
 70
     1
  0
APPID
  5
12
330
9
100
AcDbSymbolTableRecord
100
AcDbRegAppTableRecord
  2
ACAD
 70
     0
  0
ENDTAB
  0
TABLE
  2
DIMSTYLE
  5
A
330
0
100
AcDbSymbolTable
 70
     1
100
AcDbDimStyleTable
  0
DIMSTYLE
105
27
330
A
100
AcDbSymbolTableRecord
100
AcDbDimStyleTableRecord
  2
ISO-25
 70
     0
 41
2.5
 42
0.625
 43
3.75
 44
1.25
 73
     0
 74
     0
 77
     1
 78
     8
140
2.5
141
2.5
143
0.0393700787
147
0.625
171
     3
172
     1
178
     0
271
     2
272
     2
274
     3
278
    44
283
     0
284
     8
340
11
  0
ENDTAB
  0
TABLE
  2
BLOCK_RECORD
  5
1
330
0
100
AcDbSymbolTable
 70
     1
  0
BLOCK_RECORD
  5
1F
330
1
100
AcDbSymbolTableRecord
100
AcDbBlockTableRecord
  2
*Model_Space
340
22
  0
BLOCK_RECORD
  5
1B
330
1
100
AcDbSymbolTableRecord
100
AcDbBlockTableRecord
  2
*Paper_Space
340
1E
  0
BLOCK_RECORD
  5
23
330
1
100
AcDbSymbolTableRecord
100
AcDbBlockTableRecord
  2
*Paper_Space0
340
26
  0
ENDTAB
  0
ENDSEC
  0
SECTION
  2
BLOCKS
  0
BLOCK
  5
20
330
1F
100
AcDbEntity
  8
0
100
AcDbBlockBegin
  2
*Model_Space
 70
     0
 10
0.0
 20
0.0
 30
0.0
  3
*Model_Space
  1

  0
ENDBLK
  5
21
330
1F
100
AcDbEntity
  8
0
100
AcDbBlockEnd
  0
BLOCK
  5
1C
330
1B
100
AcDbEntity
 67
     1
  8
0
100
AcDbBlockBegin
  2
*Paper_Space
 70
     0
 10
0.0
 20
0.0
 30
0.0
  3
*Paper_Space
  1

  0
ENDBLK
  5
1D
330
1B
100
AcDbEntity
 67
     1
  8
0
100
AcDbBlockEnd
  0
BLOCK
  5
24
330
23
100
AcDbEntity
  8
0
100
AcDbBlockBegin
  2
*Paper_Space0
 70
     0
 10
0.0
 20
0.0
 30
0.0
  3
*Paper_Space0
  1

  0
ENDBLK
  5
25
330
23
100
AcDbEntity
  8
0
100
AcDbBlockEnd
  0
ENDSEC
  0
SECTION
  2
ENTITIES
  0
LINE
  5
7F
330
1F
100
AcDbEntity
  8
0
  6
Continuous
 62
     7
370
    25
100
AcDbLine
 10
6382.5308902996
 20
5738.9090754651
 30
0.0
 11
6165.5066203725
 21
5738.9090754651
 31
0.0
  0
LINE
  5
80
330
1F
100
AcDbEntity
  8
0
  6
Continuous
 62
     7
370
    25
100
AcDbLine
 10
6165.5066203725
 20
5738.9090754651
 30
0.0
 11
6165.5066274747
 21
5738.109068363
 31
0.0
  0
LINE
  5
81
330
1F
100
AcDbEntity
  8
0
  6
Continuous
 62
     7
370
    25
100
AcDbLine
 10
6384.0379970808
 20
4694.5898337204
 30
0.0
 11
6384.0379970808
 21
5737.4019686839
 31
0.0
  0
LINE
  5
82
330
1F
100
AcDbEntity
  8
0
  6
Continuous
 62
     7
370
    25
100
AcDbLine
 10
6384.0379970808
 20
5737.4019686839
 30
0.0
 11
6383.2379899787
 21
5737.4019615818
 31
0.0
  0
LINE
  5
83
330
1F
100
AcDbEntity
  8
0
  6
Continuous
 62
     7
370
    25
100
AcDbLine
 10
6163.9995135914
 20
5737.4019686839
 30
0.0
 11
6163.9995135914
 21
4694.5898337204
 31
0.0
  0
LINE
  5
84
330
1F
100
AcDbEntity
  8
0
  6
Continuous
 62
     7
370
    25
100
AcDbLine
 10
6382.5308831975
 20
5738.109068363
 30
0.0
 11
6382.5308902996
 21
5738.9090754651
 31
0.0
  0
LINE
  5
85
330
1F
100
AcDbEntity
  8
0
  6
Continuous
 62
     7
370
    25
100
AcDbLine
 10
6164.7995206935
 20
5737.4019615818
 30
0.0
 11
6163.9995135914
 21
5737.4019686839
 31
0.0
  0
LINE
  5
86
330
1F
100
AcDbEntity
  8
0
  6
Continuous
 62
     7
370
    25
100
AcDbLine
 10
6259.1187553361
 20
5633.1697669994
 30
0.0
 11
6259.1187553361
 21
5605.8899667802
 31
0.0
  0
LINE
  5
87
330
1F
100
AcDbEntity
  8
0
  6
Continuous
 62
     7
370
    25
100
AcDbLine
 10
6288.9187553361
 20
5605.8899667802
 30
0.0
 11
6288.9187553361
 21
5633.1697669994
 31
0.0
  0
LINE
  5
88
330
1F
100
AcDbEntity
  8
0
  6
Continuous
 62
     7
370
    25
100
AcDbLine
 10
6259.1187553361
 20
5649.1912369695
 30
0.0
 11
6259.1187553361
 21
5633.6027797013
 31
0.0
  0
LINE
  5
89
330
1F
100
AcDbEntity
  8
0
  6
Continuous
 62
     7
370
    25
100
AcDbLine
 10
6288.9187553361
 20
5633.6027797013
 30
0.0
 11
6288.9187553361
 21
5649.1912369695
 31
0.0
  0
ARC
  5
8A
330
1F
100
AcDbEntity
  8
0
  6
Continuous
 62
     7
370
    25
100
AcDbCircle
 10
6179.4294696218
 20
4690.9898337203
 30
0.0
 40
2.660714285714675
100
AcDbArc
 50
180.0
 51
249.9840403971
  0
ARC
  5
8B
330
1F
100
AcDbEntity
  8
0
  6
Continuous
 62
     7
370
    25
100
AcDbCircle
 10
6183.6080410504
 20
4690.9898337203
 30
0.0
 40
2.660714285714419
100
AcDbArc
 50
290.0159596029
 51
0.0
  0
ARC
  5
8C
330
1F
100
AcDbEntity
  8
0
  6
Continuous
 62
     7
370
    25
100
AcDbCircle
 10
6364.4294696218
 20
4690.9898337203
 30
0.0
 40
2.660714285715274
100
AcDbArc
 50
180.0
 51
249.9840403971
  0
ARC
  5
8D
330
1F
100
AcDbEntity
  8
0
  6
Continuous
 62
     7
370
    25
100
AcDbCircle
 10
6368.6080410504
 20
4690.9898337203
 30
0.0
 40
2.660714285714962
100
AcDbArc
 50
290.0159596029
 51
0.0
  0
ARC
  5
8E
330
1F
100
AcDbEntity
  8
0
  6
Continuous
 62
     7
370
    25
100
AcDbCircle
 10
6216.9294696218
 20
4690.9898337203
 30
0.0
 40
2.660714285714419
100
AcDbArc
 50
180.0
 51
249.9840403971
  0
ARC
  5
8F
330
1F
100
AcDbEntity
  8
0
  6
Continuous
 62
     7
370
    25
100
AcDbCircle
 10
6221.1080410504
 20
4690.9898337203
 30
0.0
 40
2.660714285714675
100
AcDbArc
 50
290.0159596029
 51
0.0
  0
ARC
  5
90
330
1F
100
AcDbEntity
  8
0
  6
Continuous
 62
     7
370
    25
100
AcDbCircle
 10
6326.9294696218
 20
4690.9898337203
 30
0.0
 40
2.660714285714675
100
AcDbArc
 50
180.0
 51
249.9840403971
  0
ARC
  5
91
330
1F
100
AcDbEntity
  8
0
  6
Continuous
 62
     7
370
    25
100
AcDbCircle
 10
6331.1080410504
 20
4690.9898337203
 30
0.0
 40
2.660714285714419
100
AcDbArc
 50
290.0159596029
 51
0.0
  0
CIRCLE
  5
92
330
1F
100
AcDbEntity
  8
0
  6
Continuous
 62
     7
370
    25
100
AcDbCircle
 10
6274.0187553361
 20
4937.9898337204
 30
0.0
 40
27.99999999999958
  0
CIRCLE
  5
93
330
1F
100
AcDbEntity
  8
0
  6
Continuous
 62
     7
370
    25
100
AcDbCircle
 10
6274.0187553361
 20
4937.9898337204
 30
0.0
 40
29.99999999999937
  0
CIRCLE
  5
94
330
1F
100
AcDbEntity
  8
0
  6
Continuous
 62
     7
370
    25
100
AcDbCircle
 10
6274.0187553361
 20
4937.9898337204
 30
0.0
 40
24.5
  0
LINE
  5
95
330
1F
100
AcDbEntity
  8
0
  6
Continuous
 62
     7
370
    25
100
AcDbLine
 10
6344.3201585852
 20
5699.1912369695
 30
0.0
 11
6344.3494556867
 21
5699.9276408522
 31
0.0
  0
LINE
  5
96
330
1F
100
AcDbEntity
  8
0
  6
Continuous
 62
     7
370
    25
100
AcDbLine
 10
6344.3201585852
 20
5699.1912369695
 30
0.0
 11
6344.3494556867
 21
5700.664044735
 31
0.0
  0
LINE
  5
97
330
1F
100
AcDbEntity
  8
0
  6
Continuous
 62
     7
370
    25
100
AcDbLine
 10
6344.3494556867
 20
5700.664044735
 30
0.0
 11
6344.3494556867
 21
5699.9276408522
 31
0.0
  0
LINE
  5
98
330
1F
100
AcDbEntity
  8
0
  6
Continuous
 62
     7
370
    25
100
AcDbLine
 10
6203.717352087
 20
4694.5898337204
 30
0.0
 11
6203.717352087
 21
5699.1912369695
 31
0.0
  0
LINE
  5
99
330
1F
100
AcDbEntity
  8
0
  6
Continuous
 62
     7
370
    25
100
AcDbLine
 10
6202.2445443215
 20
4694.5898337204
 30
0.0
 11
6203.717352087
 21
4694.5898337204
 31
0.0
  0
LINE
  5
9A
330
1F
100
AcDbEntity
  8
0
  6
Continuous
 62
     7
370
    25
100
AcDbLine
 10
6202.2445443215
 20
4694.5898337204
 30
0.0
 11
6202.2445443215
 21
5699.2205340711
 31
0.0
  0
LINE
  5
9B
330
1F
100
AcDbEntity
  8
0
  6
Continuous
 62
     7
370
    25
100
AcDbLine
 10
6203.717352087
 20
5699.1912369695
 30
0.0
 11
6202.2445443215
 21
5699.2205340711
 31
0.0
  0
LINE
  5
9C
330
1F
100
AcDbEntity
  8
0
  6
Continuous
 62
     7
370
    25
100
AcDbLine
 10
6204.246860536
 20
4692.9898337204
 30
0.0
 11
6343.7906501362
 21
4692.9898337204
 31
0.0
  0
ARC
  5
9D
330
1F
100
AcDbEntity
  8
0
  6
Continuous
 62
     7
370
    25
100
AcDbCircle
 10
6206.8748420911
 20
4694.7471637428
 30
0.0
 40
3.161407259712895
100
AcDbArc
 50
182.8525496923
 51
213.7706279469
  0
LINE
  5
9E
330
1F
100
AcDbEntity
  8
0
  6
Continuous
 62
     7
370
    25
100
AcDbLine
 10
6203.717352087
 20
4694.5898337204
 30
0.0
 11
6344.3201585852
 21
4694.5898337204
 31
0.0
  0
ARC
  5
9F
330
1F
100
AcDbEntity
  8
0
  6
Continuous
 62
     7
370
    25
100
AcDbCircle
 10
6341.1626685812
 20
4694.7471637428
 30
0.0
 40
3.161407259678349
100
AcDbArc
 50
326.2293720529
 51
357.1474503079
  0
LINE
  5
A0
330
1F
100
AcDbEntity
  8
0
  6
Continuous
 62
     7
370
    25
100
AcDbLine
 10
6203.6880549854
 20
5699.9276408522
 30
0.0
 11
6203.717352087
 21
5699.1912369695
 31
0.0
  0
LINE
  5
A1
330
1F
100
AcDbEntity
  8
0
  6
Continuous
 62
     7
370
    25
100
AcDbLine
 10
6203.6880549854
 20
5700.664044735
 30
0.0
 11
6203.6880549854
 21
5699.9276408522
 31
0.0
  0
LINE
  5
A2
330
1F
100
AcDbEntity
  8
0
  6
Continuous
 62
     7
370
    25
100
AcDbLine
 10
6203.6880549854
 20
5700.664044735
 30
0.0
 11
6203.717352087
 21
5699.1912369695
 31
0.0
  0
LINE
  5
A3
330
1F
100
AcDbEntity
  8
0
  6
Continuous
 62
     7
370
    25
100
AcDbLine
 10
6203.717352087
 20
5699.1912369695
 30
0.0
 11
6202.9809482042
 21
5699.2205340711
 31
0.0
  0
LINE
  5
A4
330
1F
100
AcDbEntity
  8
0
  6
Continuous
 62
     7
370
    25
100
AcDbLine
 10
6202.2445443215
 20
5699.2205340711
 30
0.0
 11
6202.9809482042
 21
5699.2205340711
 31
0.0
  0
LINE
  5
A5
330
1F
100
AcDbEntity
  8
0
  6
Continuous
 62
     7
370
    25
100
AcDbLine
 10
6344.3201585852
 20
5699.1912369695
 30
0.0
 11
6344.3201585852
 21
4694.5898337204
 31
0.0
  0
LINE
  5
A6
330
1F
100
AcDbEntity
  8
0
  6
Continuous
 62
     7
370
    25
100
AcDbLine
 10
6345.7929663507
 20
5699.220534071
 30
0.0
 11
6344.3201585852
 21
5699.1912369695
 31
0.0
  0
LINE
  5
A7
330
1F
100
AcDbEntity
  8
0
  6
Continuous
 62
     7
370
    25
100
AcDbLine
 10
6345.7929663507
 20
5699.220534071
 30
0.0
 11
6345.7929663507
 21
4694.5898337204
 31
0.0
  0
LINE
  5
A8
330
1F
100
AcDbEntity
  8
0
  6
Continuous
 62
     7
370
    25
100
AcDbLine
 10
6344.3201585852
 20
4694.5898337204
 30
0.0
 11
6345.7929663507
 21
4694.5898337204
 31
0.0
  0
LINE
  5
A9
330
1F
100
AcDbEntity
  8
0
  6
Continuous
 62
     7
370
    25
100
AcDbLine
 10
6203.717352087
 20
5699.1912369695
 30
0.0
 11
6344.3201585852
 21
5699.1912369695
 31
0.0
  0
CIRCLE
  5
AA
330
1F
100
AcDbEntity
  8
0
  6
Continuous
 62
     7
370
    25
100
AcDbCircle
 10
6274.0187553361
 20
5142.9898337204
 30
0.0
 40
11.34999999999764
  0
CIRCLE
  5
AB
330
1F
100
AcDbEntity
  8
0
  6
Continuous
 62
     7
370
    25
100
AcDbCircle
 10
6274.0187553361
 20
5042.9898337204
 30
0.0
 40
15.10000000000036
  0
LINE
  5
AC
330
1F
100
AcDbEntity
  8
0
  6
Continuous
 62
     7
370
    25
100
AcDbLine
 10
6345.056562468
 20
5699.220534071
 30
0.0
 11
6344.3201585852
 21
5699.1912369695
 31
0.0
  0
LINE
  5
AD
330
1F
100
AcDbEntity
  8
0
  6
Continuous
 62
     7
370
    25
100
AcDbLine
 10
6345.7929663507
 20
5699.220534071
 30
0.0
 11
6345.056562468
 21
5699.220534071
 31
0.0
  0
LINE
  5
AE
330
1F
100
AcDbEntity
  8
0
  6
Continuous
 62
     7
370
    25
100
AcDbLine
 10
6203.6880549854
 20
5700.664044735
 30
0.0
 11
6344.3494556867
 21
5700.664044735
 31
0.0
  0
ARC
  5
AF
330
1F
100
AcDbEntity
  8
0
  6
Continuous
 62
     7
370
    25
100
AcDbCircle
 10
6344.4205128732
 20
4694.3749204492
 30
0.0
 40
1.389178268646092
100
AcDbArc
 50
274.3985413903
 51
8.8997062935
  0
LINE
  5
B0
330
1F
100
AcDbEntity
  8
0
  6
Continuous
 62
     7
370
    25
100
AcDbLine
 10
6344.527054019
 20
4693.7898337204
 30
0.0
 11
6344.527054019
 21
4692.9898337204
 31
0.0
  0
ARC
  5
B1
330
1F
100
AcDbEntity
  8
0
  6
Continuous
 62
     7
370
    25
100
AcDbCircle
 10
6344.4487618483
 20
4694.4168911761
 30
0.0
 40
0.6319261957316891
100
AcDbArc
 50
277.1169181862
 51
15.8830818139
  0
ARC
  5
B2
330
1F
100
AcDbEntity
  8
0
  6
Continuous
 62
     7
370
    25
100
AcDbCircle
 10
6382.2604493553
 20
4694.6403526362
 30
0.0
 40
1.651128525489653
100
AcDbArc
 50
271.5569923623
 51
358.2466704285
  0
LINE
  5
B3
330
1F
100
AcDbEntity
  8
0
  6
Continuous
 62
     7
370
    25
100
AcDbLine
 10
6344.527054019
 20
4692.9898337204
 30
0.0
 11
6382.3053126617
 21
4692.9898337204
 31
0.0
  0
LINE
  5
B4
330
1F
100
AcDbEntity
  8
0
  6
Continuous
 62
     7
370
    25
100
AcDbLine
 10
6345.7929663507
 20
4694.5898337204
 30
0.0
 11
6383.9108048464
 21
4694.5898337204
 31
0.0
  0
LINE
  5
B5
330
1F
100
AcDbEntity
  8
0
  6
Continuous
 62
     7
370
    25
100
AcDbLine
 10
6383.9108048464
 20
5737.3383725667
 30
0.0
 11
6383.9108048464
 21
4694.5898337204
 31
0.0
  0
LINE
  5
B6
330
1F
100
AcDbEntity
  8
0
  6
Continuous
 62
     7
370
    25
100
AcDbLine
 10
6383.9108048464
 20
5737.3383725667
 30
0.0
 11
6345.7929663507
 21
5699.220534071
 31
0.0
  0
LINE
  5
B7
330
1F
100
AcDbEntity
  8
0
  6
Continuous
 62
     7
370
    25
100
AcDbLine
 10
6165.5702164898
 20
5738.7818832306
 30
0.0
 11
6203.6880549854
 21
5700.664044735
 31
0.0
  0
LINE
  5
B8
330
1F
100
AcDbEntity
  8
0
  6
Continuous
 62
     7
370
    25
100
AcDbLine
 10
6165.5702164898
 20
5738.7818832306
 30
0.0
 11
6382.4672941824
 21
5738.7818832306
 31
0.0
  0
LINE
  5
B9
330
1F
100
AcDbEntity
  8
0
  6
Continuous
 62
     7
370
    25
100
AcDbLine
 10
6344.3494556867
 20
5700.664044735
 30
0.0
 11
6382.4672941824
 21
5738.7818832306
 31
0.0
  0
LINE
  5
BA
330
1F
100
AcDbEntity
  8
0
  6
Continuous
 62
     7
370
    25
100
AcDbLine
 10
6344.3494556867
 20
5699.9276408522
 30
0.0
 11
6382.4672941824
 21
5738.0454793479
 31
0.0
  0
LINE
  5
BB
330
1F
100
AcDbEntity
  8
0
  6
Continuous
 62
     7
370
    25
100
AcDbLine
 10
6382.4672941824
 20
5738.7818832306
 30
0.0
 11
6382.4672941824
 21
5738.0454793479
 31
0.0
  0
ARC
  5
BC
330
1F
100
AcDbEntity
  8
0
  6
Continuous
 62
     7
370
    25
100
AcDbCircle
 10
6203.616997799
 20
4694.3749204492
 30
0.0
 40
1.389178268650552
100
AcDbArc
 50
171.1002937067
 51
265.6014586095
  0
LINE
  5
BD
330
1F
100
AcDbEntity
  8
0
  6
Continuous
 62
     7
370
    25
100
AcDbLine
 10
6165.7321980105
 20
4692.9898337204
 30
0.0
 11
6203.5104566532
 21
4692.9898337204
 31
0.0
  0
ARC
  5
BE
330
1F
100
AcDbEntity
  8
0
  6
Continuous
 62
     7
370
    25
100
AcDbCircle
 10
6165.7770613169
 20
4694.6403526362
 30
0.0
 40
1.651128525493373
100
AcDbArc
 50
181.7533295715
 51
268.4430076377
  0
LINE
  5
BF
330
1F
100
AcDbEntity
  8
0
  6
Continuous
 62
     7
370
    25
100
AcDbLine
 10
6164.1267058258
 20
4694.5898337204
 30
0.0
 11
6202.2445443215
 21
4694.5898337204
 31
0.0
  0
ARC
  5
C0
330
1F
100
AcDbEntity
  8
0
  6
Continuous
 62
     7
370
    25
100
AcDbCircle
 10
6203.5887488239
 20
4694.4168911761
 30
0.0
 40
0.6319261957314402
100
AcDbArc
 50
164.1169181862
 51
262.8830818137
  0
LINE
  5
C1
330
1F
100
AcDbEntity
  8
0
  6
Continuous
 62
     7
370
    25
100
AcDbLine
 10
6203.5104566532
 20
4693.7898337204
 30
0.0
 11
6203.5104566532
 21
4692.9898337204
 31
0.0
  0
LINE
  5
C2
330
1F
100
AcDbEntity
  8
0
  6
Continuous
 62
     7
370
    25
100
AcDbLine
 10
6202.9809482042
 20
5699.2205340711
 30
0.0
 11
6164.8631097086
 21
5737.3383725667
 31
0.0
  0
LINE
  5
C3
330
1F
100
AcDbEntity
  8
0
  6
Continuous
 62
     7
370
    25
100
AcDbLine
 10
6202.2445443215
 20
5699.2205340711
 30
0.0
 11
6164.1267058258
 21
5737.3383725667
 31
0.0
  0
LINE
  5
C4
330
1F
100
AcDbEntity
  8
0
  6
Continuous
 62
     7
370
    25
100
AcDbLine
 10
6164.1267058258
 20
5737.3383725667
 30
0.0
 11
6164.8631097086
 21
5737.3383725667
 31
0.0
  0
LINE
  5
C5
330
1F
100
AcDbEntity
  8
0
  6
Continuous
 62
     7
370
    25
100
AcDbLine
 10
6164.1267058258
 20
4694.5898337204
 30
0.0
 11
6164.1267058258
 21
5737.3383725667
 31
0.0
  0
LINE
  5
C6
330
1F
100
AcDbEntity
  8
0
  6
Continuous
 62
     7
370
    25
100
AcDbLine
 10
6165.5702164898
 20
5738.0454793479
 30
0.0
 11
6203.6880549854
 21
5699.9276408522
 31
0.0
  0
LINE
  5
C7
330
1F
100
AcDbEntity
  8
0
  6
Continuous
 62
     7
370
    25
100
AcDbLine
 10
6165.5702164898
 20
5738.7818832306
 30
0.0
 11
6165.5702164898
 21
5738.0454793479
 31
0.0
  0
LINE
  5
C8
330
1F
100
AcDbEntity
  8
0
  6
Continuous
 62
     7
370
    25
100
AcDbLine
 10
6383.1744009636
 20
5737.3383725667
 30
0.0
 11
6345.056562468
 21
5699.220534071
 31
0.0
  0
LINE
  5
C9
330
1F
100
AcDbEntity
  8
0
  6
Continuous
 62
     7
370
    25
100
AcDbLine
 10
6383.9108048464
 20
5737.3383725667
 30
0.0
 11
6383.1744009636
 21
5737.3383725667
 31
0.0
  0
LINE
  5
CA
330
1F
100
AcDbEntity
  8
0
  6
Continuous
 62
     7
370
    25
100
AcDbLine
 10
6344.1399118344
 20
4693.7898337204
 30
0.0
 11
6344.527054019
 21
4693.7898337204
 31
0.0
  0
LINE
  5
CB
330
1F
100
AcDbEntity
  8
0
  6
Continuous
 62
     7
370
    25
100
AcDbLine
 10
6343.7906501362
 20
4692.9898337204
 30
0.0
 11
6344.527054019
 21
4692.9898337204
 31
0.0
  0
LINE
  5
CC
330
1F
100
AcDbEntity
  8
0
  6
Continuous
 62
     7
370
    25
100
AcDbLine
 10
6203.5104566532
 20
4692.9898337204
 30
0.0
 11
6204.246860536
 21
4692.9898337204
 31
0.0
  0
LINE
  5
CD
330
1F
100
AcDbEntity
  8
0
  6
Continuous
 62
     7
370
    25
100
AcDbLine
 10
6203.5104566532
 20
4693.7898337204
 30
0.0
 11
6203.8975988378
 21
4693.7898337204
 31
0.0
  0
LINE
  5
CE
330
1F
100
AcDbEntity
  8
0
  6
Continuous
 62
     7
370
    25
100
AcDbLine
 10
6382.5308902996
 20
5738.9090754651
 30
0.0
 11
6382.4672941824
 21
5738.7818832306
 31
0.0
  0
LINE
  5
CF
330
1F
100
AcDbEntity
  8
0
  6
Continuous
 62
     7
370
    25
100
AcDbLine
 10
6165.5702164898
 20
5738.7818832306
 30
0.0
 11
6165.5066203725
 21
5738.9090754651
 31
0.0
  0
LINE
  5
D0
330
1F
100
AcDbEntity
  8
0
  6
Continuous
 62
     7
370
    25
100
AcDbLine
 10
6165.5702164898
 20
5738.0454793479
 30
0.0
 11
6165.506627647
 21
5738.1090681907
 31
0.0
  0
LINE
  5
D1
330
1F
100
AcDbEntity
  8
0
  6
Continuous
 62
     7
370
    25
100
AcDbLine
 10
6383.9108048464
 20
5737.3383725667
 30
0.0
 11
6384.0379970808
 21
5737.4019686839
 31
0.0
  0
LINE
  5
D2
330
1F
100
AcDbEntity
  8
0
  6
Continuous
 62
     7
370
    25
100
AcDbLine
 10
6384.0379970808
 20
4694.5898337204
 30
0.0
 11
6383.9108048464
 21
4694.5898337204
 31
0.0
  0
LINE
  5
D3
330
1F
100
AcDbEntity
  8
0
  6
Continuous
 62
     7
370
    25
100
AcDbLine
 10
6383.1744009636
 20
5737.3383725667
 30
0.0
 11
6383.2379898064
 21
5737.4019614095
 31
0.0
  0
LINE
  5
D4
330
1F
100
AcDbEntity
  8
0
  6
Continuous
 62
     7
370
    25
100
AcDbLine
 10
6163.9995135914
 20
5737.4019686839
 30
0.0
 11
6164.1267058258
 21
5737.3383725667
 31
0.0
  0
LINE
  5
D5
330
1F
100
AcDbEntity
  8
0
  6
Continuous
 62
     7
370
    25
100
AcDbLine
 10
6164.1267058258
 20
4694.5898337204
 30
0.0
 11
6163.9995135914
 21
4694.5898337204
 31
0.0
  0
LINE
  5
D6
330
1F
100
AcDbEntity
  8
0
  6
Continuous
 62
     7
370
    25
100
AcDbLine
 10
6382.5308886874
 20
5738.1090738528
 30
0.0
 11
6382.4672941824
 21
5738.0454793479
 31
0.0
  0
LINE
  5
D7
330
1F
100
AcDbEntity
  8
0
  6
Continuous
 62
     7
370
    25
100
AcDbLine
 10
6164.7995152036
 20
5737.4019670716
 30
0.0
 11
6164.8631097086
 21
5737.3383725667
 31
0.0
  0
LWPOLYLINE
  5
D8
330
1F
100
AcDbEntity
  8
0
  6
Continuous
 62
     7
370
    25
100
AcDbPolyline
 90
       26
 70
   128
 43
0.0
 10
6268.3687553361
 20
5604.4031719504
 10
6268.5462604757
 20
5603.7006230191
 10
6269.0676225939
 20
5603.042217821
 10
6269.9000825912
 20
5602.4693263761
 10
6270.9913339445
 20
5602.0179455608
 10
6272.2728093179
 20
5601.7164372918
 10
6273.6639889008
 20
5601.5837464426
 10
6275.0774597635
 20
5601.6282104671
 10
6276.4244083334
 20
5601.8470355272
 10
6277.6202008782
 20
5602.2264720395
 10
6278.5897013543
 20
5602.7426786127
 10
6279.2719924814
 20
5603.363220089
 10
6279.6242033985
 20
5604.0491055656
 10
6279.6242033985
 20
5604.7572383352
 10
6279.2719924814
 20
5605.4431238117
 10
6278.5897013543
 20
5606.0636652881
 10
6277.6202008782
 20
5606.5798718612
 10
6276.4244083334
 20
5606.9593083736
 10
6275.0774597635
 20
5607.1781334337
 10
6273.6639889008
 20
5607.2225974582
 10
6272.2728093179
 20
5607.0899066089
 10
6270.9913339445
 20
5606.7883983399
 10
6269.9000825912
 20
5606.3370175246
 10
6269.0676225939
 20
5605.7641260797
 10
6268.5462604757
 20
5605.1057208816
 10
6268.3687553361
 20
5604.4031719504
  0
LWPOLYLINE
  5
D9
330
1F
100
AcDbEntity
  8
0
  6
Continuous
 62
     7
370
    25
100
AcDbPolyline
 90
       41
 70
   128
 43
0.0
 10
6274.0187553361
 20
5613.3399667802
 10
6276.3496288652
 20
5613.2482449177
 10
6278.6231085523
 20
5612.9753378266
 10
6280.7832137822
 20
5612.5279653854
 10
6282.7767555953
 20
5611.9171433883
 10
6284.5546463758
 20
5611.1579123001
 10
6286.0731085523
 20
5610.2689669098
 10
6287.2947525465
 20
5609.2721960033
 10
6288.1894974289
 20
5608.1921433883
 10
6288.735311611
 20
5607.0554035448
 10
6288.9187553361
 20
5605.8899667802
 10
6288.735311611
 20
5604.7245300157
 10
6288.1894974289
 20
5603.5877901721
 10
6287.2947525465
 20
5602.5077375572
 10
6286.0731085523
 20
5601.5109666507
 10
6284.5546463758
 20
5600.6220212604
 10
6282.7767555953
 20
5599.8627901721
 10
6280.7832137822
 20
5599.251968175
 10
6278.6231085523
 20
5598.8045957338
 10
6276.3496288652
 20
5598.5316886428
 10
6274.0187553361
 20
5598.4399667802
 10
6271.687881807
 20
5598.5316886428
 10
6269.4144021199
 20
5598.8045957338
 10
6267.25429689
 20
5599.251968175
 10
6265.2607550769
 20
5599.8627901721
 10
6263.4828642964
 20
5600.6220212604
 10
6261.9644021199
 20
5601.5109666507
 10
6260.7427581257
 20
5602.5077375572
 10
6259.8480132433
 20
5603.5877901721
 10
6259.3021990612
 20
5604.7245300157
 10
6259.1187553361
 20
5605.8899667802
 10
6259.3021990612
 20
5607.0554035448
 10
6259.8480132433
 20
5608.1921433883
 10
6260.7427581257
 20
5609.2721960033
 10
6261.9644021199
 20
5610.2689669098
 10
6263.4828642964
 20
5611.1579123001
 10
6265.2607550769
 20
5611.9171433883
 10
6267.25429689
 20
5612.5279653854
 10
6269.4144021199
 20
5612.9753378266
 10
6271.687881807
 20
5613.2482449177
 10
6274.0187553361
 20
5613.3399667802
  0
LWPOLYLINE
  5
DA
330
1F
100
AcDbEntity
  8
0
  6
Continuous
 62
     7
370
    25
100
AcDbPolyline
 90
       21
 70
   128
 43
0.0
 10
6259.1187553361
 20
5633.1697669994
 10
6259.3021990612
 20
5634.335203764
 10
6259.8480132433
 20
5635.4719436075
 10
6260.7427581257
 20
5636.5519962225
 10
6261.9644021199
 20
5637.548767129
 10
6263.4828642964
 20
5638.4377125193
 10
6265.2607550769
 20
5639.1969436075
 10
6267.25429689
 20
5639.8077656047
 10
6269.4144021199
 20
5640.2551380458
 10
6271.687881807
 20
5640.5280451369
 10
6274.0187553361
 20
5640.6197669994
 10
6276.3496288652
 20
5640.5280451369
 10
6278.6231085523
 20
5640.2551380458
 10
6280.7832137822
 20
5639.8077656047
 10
6282.7767555953
 20
5639.1969436075
 10
6284.5546463758
 20
5638.4377125193
 10
6286.0731085523
 20
5637.548767129
 10
6287.2947525465
 20
5636.5519962225
 10
6288.1894974289
 20
5635.4719436075
 10
6288.735311611
 20
5634.335203764
 10
6288.9187553361
 20
5633.1697669994
  0
LWPOLYLINE
  5
DB
330
1F
100
AcDbEntity
  8
0
  6
Continuous
 62
     7
370
    25
100
AcDbPolyline
 90
       23
 70
   128
 43
0.0
 10
6259.1250486114
 20
5633.3862733506
 10
6259.1187553361
 20
5633.6027797013
 10
6259.3021990612
 20
5634.7682164659
 10
6259.8480132433
 20
5635.9049563094
 10
6260.7427581257
 20
5636.9850089244
 10
6261.9644021199
 20
5637.9817798309
 10
6263.4828642964
 20
5638.8707252212
 10
6265.2607550769
 20
5639.6299563094
 10
6267.25429689
 20
5640.2407783065
 10
6269.4144021199
 20
5640.6881507477
 10
6271.687881807
 20
5640.9610578388
 10
6274.0187553361
 20
5641.0527797013
 10
6276.3496288652
 20
5640.9610578388
 10
6278.6231085523
 20
5640.6881507477
 10
6280.7832137822
 20
5640.2407783065
 10
6282.7767555953
 20
5639.6299563094
 10
6284.5546463758
 20
5638.8707252212
 10
6286.0731085523
 20
5637.9817798309
 10
6287.2947525465
 20
5636.9850089244
 10
6288.1894974289
 20
5635.9049563094
 10
6288.735311611
 20
5634.7682164659
 10
6288.9187553361
 20
5633.6027797013
 10
6288.9124620608
 20
5633.3862733506
  0
ARC
  5
DC
330
1F
100
AcDbEntity
  8
0
  6
Continuous
 62
     7
370
    25
100
AcDbCircle
 10
6274.0187553361
 20
5649.1912369695
 30
0.0
 40
14.89999999999964
100
AcDbArc
 50
90.0
 51
180.0
  0
ARC
  5
DD
330
1F
100
AcDbEntity
  8
0
  6
Continuous
 62
     7
370
    25
100
AcDbCircle
 10
6274.0187553361
 20
5649.1912369695
 30
0.0
 40
14.90000000000055
100
AcDbArc
 50
0.0
 51
90.0
  0
LINE
  5
DE
330
1F
100
AcDbEntity
  8
0
  6
Continuous
 62
     7
370
    25
100
AcDbLine
 10
6178.5187553361
 20
4688.4898337203
 30
0.0
 11
6184.5187553361
 21
4688.4898337203
 31
0.0
  0
LINE
  5
DF
330
1F
100
AcDbEntity
  8
0
  6
Continuous
 62
     7
370
    25
100
AcDbLine
 10
6363.5187553361
 20
4688.4898337203
 30
0.0
 11
6369.5187553361
 21
4688.4898337203
 31
0.0
  0
LINE
  5
E0
330
1F
100
AcDbEntity
  8
0
  6
Continuous
 62
     7
370
    25
100
AcDbLine
 10
6216.0187553361
 20
4688.4898337203
 30
0.0
 11
6222.0187553361
 21
4688.4898337203
 31
0.0
  0
LINE
  5
E1
330
1F
100
AcDbEntity
  8
0
  6
Continuous
 62
     7
370
    25
100
AcDbLine
 10
6326.0187553361
 20
4688.4898337203
 30
0.0
 11
6332.0187553361
 21
4688.4898337203
 31
0.0
  0
LINE
  5
E2
330
1F
100
AcDbEntity
  8
0
  6
Continuous
 62
     7
370
    25
100
AcDbLine
 10
6349.0187553361
 20
5703.1827269392
 30
0.0
 11
6349.0187553361
 21
5704.5969405016
 31
0.0
  0
LINE
  5
E3
330
1F
100
AcDbEntity
  8
0
  6
Continuous
 62
     7
370
    25
100
AcDbLine
 10
6199.0187553361
 20
5703.1827269392
 30
0.0
 11
6199.0187553361
 21
5704.5969405016
 31
0.0
  0
LINE
  5
E4
330
1F
100
AcDbEntity
  8
0
  6
Continuous
 62
     7
370
    25
100
AcDbLine
 10
6203.1950818736
 20
4690.9898337203
 30
0.0
 11
6203.1950818736
 21
4692.9898337203
 31
0.0
  0
LINE
  5
E5
330
1F
100
AcDbEntity
  8
0
  6
Continuous
 62
     7
370
    25
100
AcDbLine
 10
6209.6386158478
 20
4692.9898337203
 30
0.0
 11
6209.6386158478
 21
4690.9898337203
 31
0.0
  0
LINE
  5
E6
330
1F
100
AcDbEntity
  8
0
  6
Continuous
 62
     7
370
    25
100
AcDbLine
 10
6209.6386158478
 20
4690.9898337203
 30
0.0
 11
6203.1950818736
 21
4690.9898337203
 31
0.0
  0
LINE
  5
E7
330
1F
100
AcDbEntity
  8
0
  6
Continuous
 62
     7
370
    25
100
AcDbLine
 10
6338.3988948244
 20
4690.9898337203
 30
0.0
 11
6338.3988948244
 21
4692.9898337203
 31
0.0
  0
LINE
  5
E8
330
1F
100
AcDbEntity
  8
0
  6
Continuous
 62
     7
370
    25
100
AcDbLine
 10
6209.6386158478
 20
4690.9898337203
 30
0.0
 11
6338.3988948244
 21
4690.9898337203
 31
0.0
  0
LINE
  5
E9
330
1F
100
AcDbEntity
  8
0
  6
Continuous
 62
     7
370
    25
100
AcDbLine
 10
6344.8424287986
 20
4692.9898337203
 30
0.0
 11
6344.8424287986
 21
4690.9898337203
 31
0.0
  0
LINE
  5
EA
330
1F
100
AcDbEntity
  8
0
  6
Continuous
 62
     7
370
    25
100
AcDbLine
 10
6344.8424287986
 20
4690.9898337203
 30
0.0
 11
6338.3988948244
 21
4690.9898337203
 31
0.0
  0
LINE
  5
EB
330
1F
100
AcDbEntity
  8
0
  6
Continuous
 62
     7
370
    25
100
AcDbLine
 10
6174.5752213619
 20
4692.9898337203
 30
0.0
 11
6174.5752213619
 21
4690.9898337203
 31
0.0
  0
LINE
  5
EC
330
1F
100
AcDbEntity
  8
0
  6
Continuous
 62
     7
370
    25
100
AcDbLine
 10
6174.5752213619
 20
4690.9898337203
 30
0.0
 11
6203.1950818736
 21
4690.9898337203
 31
0.0
  0
LINE
  5
ED
330
1F
100
AcDbEntity
  8
0
  6
Continuous
 62
     7
370
    25
100
AcDbLine
 10
6373.4622893103
 20
4690.9898337203
 30
0.0
 11
6373.4622893103
 21
4692.9898337203
 31
0.0
  0
LINE
  5
EE
330
1F
100
AcDbEntity
  8
0
  6
Continuous
 62
     7
370
    25
100
AcDbLine
 10
6344.8424287986
 20
4690.9898337203
 30
0.0
 11
6373.4622893103
 21
4690.9898337203
 31
0.0
  0
LINE
  5
EF
330
1F
100
AcDbEntity
  8
0
  6
Continuous
 62
     7
370
    25
100
AcDbLine
 10
6174.0187553361
 20
4690.9898337203
 30
0.0
 11
6174.0187553361
 21
4692.9898337203
 31
0.0
  0
LINE
  5
F0
330
1F
100
AcDbEntity
  8
0
  6
Continuous
 62
     7
370
    25
100
AcDbLine
 10
6174.5752213619
 20
4690.9898337203
 30
0.0
 11
6174.0187553361
 21
4690.9898337203
 31
0.0
  0
LINE
  5
F1
330
1F
100
AcDbEntity
  8
0
  6
Continuous
 62
     7
370
    25
100
AcDbLine
 10
6374.0187553361
 20
4692.9898337203
 30
0.0
 11
6374.0187553361
 21
4690.9898337203
 31
0.0
  0
LINE
  5
F2
330
1F
100
AcDbEntity
  8
0
  6
Continuous
 62
     7
370
    25
100
AcDbLine
 10
6374.0187553361
 20
4690.9898337203
 30
0.0
 11
6373.4622893103
 21
4690.9898337203
 31
0.0
  0
CIRCLE
  5
F3
330
1F
100
AcDbEntity
  8
0
  6
Continuous
 62
     7
370
    25
100
AcDbCircle
 10
6274.0187553361
 20
4832.9898337204
 30
0.0
 40
12.5
  0
CIRCLE
  5
F4
330
1F
100
AcDbEntity
  8
0
  6
Continuous
 62
     7
370
    25
100
AcDbCircle
 10
6274.0187553361
 20
4832.9898337204
 30
0.0
 40
14.0
  0
CIRCLE
  5
F5
330
1F
100
AcDbEntity
  8
0
  6
Continuous
 62
     7
370
    25
100
AcDbCircle
 10
6274.0187553361
 20
5042.9898337204
 30
0.0
 40
14.89999999999964
  0
CIRCLE
  5
F6
330
1F
100
AcDbEntity
  8
0
  6
Continuous
 62
     7
370
    25
100
AcDbCircle
 10
6274.0187553361
 20
5142.9898337203
 30
0.0
 40
11.24999999999909
  0
ARC
  5
F7
330
1F
100
AcDbEntity
  8
0
  6
Continuous
 62
     7
370
    25
100
AcDbCircle
 10
6274.0187553361
 20
5649.1912369695
 30
0.0
 40
27.49999999999975
100
AcDbArc
 50
302.807496337
 51
237.192503663
  0
LINE
  5
F8
330
1F
100
AcDbEntity
  8
0
  6
Continuous
 62
     8
370
    25
100
AcDbLine
 10
6344.9072842888
 20
4693.9898337203
 30
0.0
 11
6344.190439311
 21
4693.9898337203
 31
0.0
  0
LINE
  5
F9
330
1F
100
AcDbEntity
  8
0
  6
Continuous
 62
     8
370
    25
100
AcDbLine
 10
6203.8470713612
 20
4693.9898337203
 30
0.0
 11
6203.1302263834
 21
4693.9898337203
 31
0.0
  0
ARC
  5
FA
330
1F
100
AcDbEntity
  8
0
  6
Continuous
 62
     8
370
    25
100
AcDbCircle
 10
6274.0187553361
 20
5649.1912369695
 30
0.0
 40
27.00000000000046
100
AcDbArc
 50
303.4941507302
 51
236.5058492698
  0
LINE
  5
FB
330
1F
100
AcDbEntity
  8
0
  6
Continuous
 62
     7
370
    25
100
AcDbLine
 10
6674.4189385834
 20
4907.9898337204
 30
0.0
 11
6677.4189385834
 21
4907.9898337204
 31
0.0
  0
LINE
  5
FC
330
1F
100
AcDbEntity
  8
0
  6
Continuous
 62
     7
370
    25
100
AcDbLine
 10
6677.4189385834
 20
4967.9898337204
 30
0.0
 11
6674.4189385834
 21
4967.9898337204
 31
0.0
  0
ARC
  5
FD
330
1F
100
AcDbEntity
  8
0
  6
Continuous
 62
     7
370
    25
100
AcDbCircle
 10
6677.4189385834
 20
4965.9898337204
 30
0.0
 40
2.0
100
AcDbArc
 50
0.0
 51
90.0
  0
ARC
  5
FE
330
1F
100
AcDbEntity
  8
0
  6
Continuous
 62
     7
370
    25
100
AcDbCircle
 10
6677.4189385834
 20
4909.9898337204
 30
0.0
 40
2.0
100
AcDbArc
 50
270.0
 51
0.0
  0
LINE
  5
FF
330
1F
100
AcDbEntity
  8
0
  6
Continuous
 62
     7
370
    25
100
AcDbLine
 10
6707.4189385834
 20
4913.4898337204
 30
0.0
 11
6709.4189385834
 21
4913.4898337204
 31
0.0
  0
LINE
  5
100
330
1F
100
AcDbEntity
  8
0
  6
Continuous
 62
     7
370
    25
100
AcDbLine
 10
6709.4189385834
 20
4962.4898337204
 30
0.0
 11
6707.4189385834
 21
4962.4898337204
 31
0.0
  0
LINE
  5
101
330
1F
100
AcDbEntity
  8
0
  6
Continuous
 62
     7
370
    25
100
AcDbLine
 10
6709.5689385834
 20
4913.4898337204
 30
0.0
 11
6731.9189385834
 21
4913.4898337204
 31
0.0
  0
LINE
  5
102
330
1F
100
AcDbEntity
  8
0
  6
Continuous
 62
     7
370
    25
100
AcDbLine
 10
6731.9189385834
 20
4962.4898337204
 30
0.0
 11
6709.5689385834
 21
4962.4898337204
 31
0.0
  0
ARC
  5
103
330
1F
100
AcDbEntity
  8
0
  6
Continuous
 62
     7
370
    25
100
AcDbCircle
 10
6711.5711124964
 20
4937.9898337204
 30
0.0
 40
31.8478260869575
100
AcDbArc
 50
309.7104287386
 51
50.2895712614
  0
LINE
  5
104
330
1F
100
AcDbEntity
  8
0
  6
Continuous
 62
     7
370
    25
100
AcDbLine
 10
6679.4189385834
 20
4913.9898337204
 30
0.0
 11
6679.9189385834
 21
4913.9898337204
 31
0.0
  0
LINE
  5
105
330
1F
100
AcDbEntity
  8
0
  6
Continuous
 62
     7
370
    25
100
AcDbLine
 10
6679.9189385834
 20
4961.9898337204
 30
0.0
 11
6679.4189385834
 21
4961.9898337204
 31
0.0
  0
LINE
  5
106
330
1F
100
AcDbEntity
  8
0
  6
Continuous
 62
     7
370
    25
100
AcDbLine
 10
6679.9189385834
 20
4913.9898337204
 30
0.0
 11
6680.9189385834
 21
4914.9898337204
 31
0.0
  0
LINE
  5
107
330
1F
100
AcDbEntity
  8
0
  6
Continuous
 62
     7
370
    25
100
AcDbLine
 10
6680.9189385834
 20
4960.9898337204
 30
0.0
 11
6679.9189385834
 21
4961.9898337204
 31
0.0
  0
LINE
  5
108
330
1F
100
AcDbEntity
  8
0
  6
Continuous
 62
     7
370
    25
100
AcDbLine
 10
6709.4189385834
 20
4914.1648453391
 30
0.0
 11
6709.5689385834
 21
4914.1648453391
 31
0.0
  0
LINE
  5
109
330
1F
100
AcDbEntity
  8
0
  6
Continuous
 62
     7
370
    25
100
AcDbLine
 10
6709.5689385834
 20
4961.8148221016
 30
0.0
 11
6709.4189385834
 21
4961.8148221016
 31
0.0
  0
LINE
  5
10A
330
1F
100
AcDbEntity
  8
0
  6
Continuous
 62
     7
370
    25
100
AcDbLine
 10
6680.9189385834
 20
4914.9898337204
 30
0.0
 11
6707.4189385834
 21
4914.9898337204
 31
0.0
  0
LINE
  5
10B
330
1F
100
AcDbEntity
  8
0
  6
Continuous
 62
     7
370
    25
100
AcDbLine
 10
6707.4189385834
 20
4960.9898337204
 30
0.0
 11
6680.9189385834
 21
4960.9898337204
 31
0.0
  0
LINE
  5
10C
330
1F
100
AcDbEntity
  8
0
  6
Continuous
 62
     7
370
    25
100
AcDbLine
 10
6684.4189385834
 20
5634.2912369695
 30
0.0
 11
6689.8164195725
 21
5634.2912369695
 31
0.0
  0
LINE
  5
10D
330
1F
100
AcDbEntity
  8
0
  6
Continuous
 62
     7
370
    25
100
AcDbLine
 10
6707.0214575943
 20
5664.0912369695
 30
0.0
 11
6684.4189385834
 21
5664.0912369695
 31
0.0
  0
LINE
  5
10E
330
1F
100
AcDbEntity
  8
0
  6
Continuous
 62
     7
370
    25
100
AcDbLine
 10
6689.8164195725
 20
5634.2912369695
 30
0.0
 11
6694.515160067
 21
5626.1527797013
 31
0.0
  0
LINE
  5
10F
330
1F
100
AcDbEntity
  8
0
  6
Continuous
 62
     7
370
    25
100
AcDbLine
 10
6720.3227170998
 20
5641.0527797013
 30
0.0
 11
6707.0214575943
 21
5664.0912369695
 31
0.0
  0
LINE
  5
110
330
1F
100
AcDbEntity
  8
0
  6
Continuous
 62
     7
370
    25
100
AcDbLine
 10
6694.765160067
 20
5625.7197669994
 30
0.0
 11
6710.515160067
 21
5598.4399667802
 31
0.0
  0
LINE
  5
111
330
1F
100
AcDbEntity
  8
0
  6
Continuous
 62
     7
370
    25
100
AcDbLine
 10
6736.3227170998
 20
5613.3399667802
 30
0.0
 11
6720.5727170998
 21
5640.6197669994
 31
0.0
  0
ARC
  5
112
330
1F
100
AcDbEntity
  8
0
  6
Continuous
 62
     7
370
    25
100
AcDbCircle
 10
6696.1676885834
 20
5653.09051635
 30
0.0
 40
56.50250000000096
100
AcDbArc
 50
305.7389156903
 51
315.2900265433
  0
ARC
  5
113
330
1F
100
AcDbEntity
  8
0
  6
Continuous
 62
     7
370
    25
100
AcDbCircle
 10
6696.1676885834
 20
5653.09051635
 30
0.0
 40
56.50250000000054
100
AcDbArc
 50
284.7099734567
 51
294.2610843097
  0
LINE
  5
114
330
1F
100
AcDbEntity
  8
0
  6
Continuous
 62
     7
370
    25
100
AcDbLine
 10
6682.4189385834
 20
5664.0912369695
 30
0.0
 11
6676.4189385834
 21
5664.0912369695
 31
0.0
  0
LINE
  5
115
330
1F
100
AcDbEntity
  8
0
  6
Continuous
 62
     7
370
    25
100
AcDbLine
 10
6676.4189385834
 20
5634.2912369695
 30
0.0
 11
6682.4189385834
 21
5634.2912369695
 31
0.0
  0
LINE
  5
116
330
1F
100
AcDbEntity
  8
0
  6
Continuous
 62
     7
370
    25
100
AcDbLine
 10
6696.2472108746
 20
5627.1527797013
 30
0.0
 11
6696.4972108746
 21
5626.7197669994
 31
0.0
  0
LINE
  5
117
330
1F
100
AcDbEntity
  8
0
  6
Continuous
 62
     7
370
    25
100
AcDbLine
 10
6718.8406662922
 20
5639.6197669994
 30
0.0
 11
6718.5906662922
 21
5640.0527797013
 31
0.0
  0
LINE
  5
118
330
1F
100
AcDbEntity
  8
0
  6
Continuous
 62
     7
370
    25
100
AcDbLine
 10
6684.4189385834
 20
5658.6912369695
 30
0.0
 11
6682.4189385834
 21
5658.6912369695
 31
0.0
  0
LINE
  5
119
330
1F
100
AcDbEntity
  8
0
  6
Continuous
 62
     7
370
    25
100
AcDbLine
 10
6682.4189385834
 20
5639.6912369695
 30
0.0
 11
6684.4189385834
 21
5639.6912369695
 31
0.0
  0
ARC
  5
11A
330
1F
100
AcDbEntity
  8
0
  6
Continuous
 62
     7
370
    25
100
AcDbCircle
 10
6594.329652869
 20
4690.9898337203
 30
0.0
 40
2.660714285714675
100
AcDbArc
 50
180.0
 51
249.9840403971
  0
ARC
  5
11B
330
1F
100
AcDbEntity
  8
0
  6
Continuous
 62
     7
370
    25
100
AcDbCircle
 10
6598.5082242976
 20
4690.9898337203
 30
0.0
 40
2.660714285714419
100
AcDbArc
 50
290.0159596029
 51
0.0
  0
ARC
  5
11C
330
1F
100
AcDbEntity
  8
0
  6
Continuous
 62
     7
370
    25
100
AcDbCircle
 10
6659.329652869
 20
4690.9898337203
 30
0.0
 40
2.660714285714675
100
AcDbArc
 50
180.0
 51
249.9840403971
  0
ARC
  5
11D
330
1F
100
AcDbEntity
  8
0
  6
Continuous
 62
     7
370
    25
100
AcDbCircle
 10
6663.5082242976
 20
4690.9898337203
 30
0.0
 40
2.660714285714108
100
AcDbArc
 50
290.0159596029
 51
0.0
  0
LWPOLYLINE
  5
11E
330
1F
100
AcDbEntity
  8
0
  6
Continuous
 62
     7
370
    25
100
AcDbPolyline
 90
        3
 70
   128
 43
0.0
 10
6572.4874187153
 20
4753.0038193393
 10
6572.7938535355
 20
4753.5338000769
 10
6573.0908638004
 20
4754.0473841787
  0
LWPOLYLINE
  5
11F
330
1F
100
AcDbEntity
  8
0
  6
Continuous
 62
     7
370
    25
100
AcDbPolyline
 90
        3
 70
   128
 43
0.0
 10
6574.4412648691
 20
4753.0038193393
 10
6574.7478748876
 20
4753.5341089001
 10
6575.0447100053
 20
4754.0473844413
  0
LWPOLYLINE
  5
120
330
1F
100
AcDbEntity
  8
0
  6
Continuous
 62
     7
370
    25
100
AcDbPolyline
 90
        3
 70
   128
 43
0.0
 10
6576.395111023
 20
4753.0038193393
 10
6576.701896279
 20
4753.5344208515
 10
6576.9985562181
 20
4754.0473848086
  0
LWPOLYLINE
  5
121
330
1F
100
AcDbEntity
  8
0
  6
Continuous
 62
     7
370
    25
100
AcDbPolyline
 90
        3
 70
   128
 43
0.0
 10
6578.3489571768
 20
4753.0038193393
 10
6578.6559177098
 20
4753.5347359316
 10
6578.9524024387
 20
4754.0473852804
  0
LWPOLYLINE
  5
122
330
1F
100
AcDbEntity
  8
0
  6
Continuous
 62
     7
370
    25
100
AcDbPolyline
 90
        3
 70
   128
 43
0.0
 10
6572.1230161907
 20
4771.9165901489
 10
6571.8169305214
 20
4772.4458672535
 10
6571.5104957509
 20
4772.9758479065
  0
LWPOLYLINE
  5
123
330
1F
100
AcDbEntity
  8
0
  6
Continuous
 62
     7
370
    25
100
AcDbPolyline
 90
        3
 70
   128
 43
0.0
 10
6574.0768623445
 20
4771.9165901489
 10
6573.7709518736
 20
4772.4455584291
 10
6573.4643419048
 20
4772.9758479065
  0
LWPOLYLINE
  5
124
330
1F
100
AcDbEntity
  8
0
  6
Continuous
 62
     7
370
    25
100
AcDbPolyline
 90
        3
 70
   128
 43
0.0
 10
6576.0307084984
 20
4771.9165901489
 10
6575.724973265
 20
4772.4452464766
 10
6575.4181880586
 20
4772.9758479065
  0
LWPOLYLINE
  5
125
330
1F
100
AcDbEntity
  8
0
  6
Continuous
 62
     7
370
    25
100
AcDbPolyline
 90
        3
 70
   128
 43
0.0
 10
6577.9845546522
 20
4771.9165901489
 10
6577.6789946958
 20
4772.4449313954
 10
6577.3720342125
 20
4772.9758479065
  0
LINE
  5
126
330
1F
100
AcDbEntity
  8
0
  6
Continuous
 62
     7
370
    25
100
AcDbLine
 10
6570.1691700368
 20
4771.9165901489
 30
0.0
 11
6569.9667162381
 21
4772.2666709951
 31
0.0
  0
LWPOLYLINE
  5
127
330
1F
100
AcDbEntity
  8
0
  6
Continuous
 62
     7
370
    25
100
AcDbPolyline
 90
        3
 70
   128
 43
0.0
 10
6570.5335725614
 20
4753.0038193393
 10
6570.8398322228
 20
4753.5334943813
 10
6571.1460931007
 20
4754.0630772693
  0
LWPOLYLINE
  5
128
330
1F
100
AcDbEntity
  8
0
  6
Continuous
 62
     7
370
    25
100
AcDbPolyline
 90
        3
 70
   128
 43
0.0
 10
6573.5027133981
 20
4754.261324642
 10
6573.8085946023
 20
4753.7413374541
 10
6574.1141099231
 20
4753.2234453074
  0
LWPOLYLINE
  5
129
330
1F
100
AcDbEntity
  8
0
  6
Continuous
 62
     7
370
    25
100
AcDbPolyline
 90
        3
 70
   128
 43
0.0
 10
6575.456559552
 20
4754.261324642
 10
6575.7626236437
 20
4753.7401521641
 10
6576.067956077
 20
4753.2234453074
  0
LWPOLYLINE
  5
12A
330
1F
100
AcDbEntity
  8
0
  6
Continuous
 62
     7
370
    25
100
AcDbPolyline
 90
        3
 70
   128
 43
0.0
 10
6577.4104057058
 20
4754.261324642
 10
6577.7166526696
 20
4753.7389700326
 10
6578.0218022308
 20
4753.2234453074
  0
LWPOLYLINE
  5
12B
330
1F
100
AcDbEntity
  8
0
  6
Continuous
 62
     7
370
    25
100
AcDbPolyline
 90
        3
 70
   128
 43
0.0
 10
6579.3642518597
 20
4754.261324642
 10
6579.6706816797
 20
4753.7377910598
 10
6579.9756483847
 20
4753.2234453074
  0
LWPOLYLINE
  5
12C
330
1F
100
AcDbEntity
  8
0
  6
Continuous
 62
     7
370
    25
100
AcDbPolyline
 90
        3
 70
   128
 43
0.0
 10
6573.1881949183
 20
4772.9761051863
 10
6572.8821329945
 20
4772.4467695007
 10
6572.5757197469
 20
4771.9169251715
  0
LWPOLYLINE
  5
12D
330
1F
100
AcDbEntity
  8
0
  6
Continuous
 62
     7
370
    25
100
AcDbPolyline
 90
        3
 70
   128
 43
0.0
 10
6575.1420410722
 20
4772.9761051863
 10
6574.836154189
 20
4772.4470658748
 10
6574.5295659008
 20
4771.9169251715
  0
LWPOLYLINE
  5
12E
330
1F
100
AcDbEntity
  8
0
  6
Continuous
 62
     7
370
    25
100
AcDbPolyline
 90
        3
 70
   128
 43
0.0
 10
6577.095887226
 20
4772.9761051863
 10
6576.7901753437
 20
4772.4473591236
 10
6576.4834120546
 20
4771.9169251715
  0
LWPOLYLINE
  5
12F
330
1F
100
AcDbEntity
  8
0
  6
Continuous
 62
     7
370
    25
100
AcDbPolyline
 90
        3
 70
   128
 43
0.0
 10
6579.0497333798
 20
4772.9761051863
 10
6578.7441964587
 20
4772.4476492474
 10
6578.4372582085
 20
4771.9169251715
  0
LWPOLYLINE
  5
130
330
1F
100
AcDbEntity
  8
0
  6
Continuous
 62
     7
370
    25
100
AcDbPolyline
 90
        3
 70
   128
 43
0.0
 10
6571.2343487645
 20
4772.9761051863
 10
6570.9281117604
 20
4772.4464700006
 10
6570.6218735931
 20
4771.9169251715
  0
LWPOLYLINE
  5
131
330
1F
100
AcDbEntity
  8
0
  6
Continuous
 62
     7
370
    25
100
AcDbPolyline
 90
        3
 70
   128
 43
0.0
 10
6571.5488672443
 20
4754.261324642
 10
6571.8545655454
 20
4753.7425259021
 10
6572.1602637693
 20
4753.2234453074
  0
LINE
  5
132
330
1F
100
AcDbEntity
  8
0
  6
Continuous
 62
     7
370
    25
100
AcDbLine
 10
6580.0422953064
 20
4752.9898337204
 30
0.0
 11
6581.0636937635
 21
4752.9898337204
 31
0.0
  0
LINE
  5
133
330
1F
100
AcDbEntity
  8
0
  6
Continuous
 62
     7
370
    25
100
AcDbLine
 10
6578.0884491525
 20
4752.9898337204
 30
0.0
 11
6578.3328741922
 21
4752.9898337204
 31
0.0
  0
LINE
  5
134
330
1F
100
AcDbEntity
  8
0
  6
Continuous
 62
     7
370
    25
100
AcDbLine
 10
6576.1346029987
 20
4752.9898337204
 30
0.0
 11
6576.3790280383
 21
4752.9898337204
 31
0.0
  0
LINE
  5
135
330
1F
100
AcDbEntity
  8
0
  6
Continuous
 62
     7
370
    25
100
AcDbLine
 10
6574.1807568449
 20
4752.9898337204
 30
0.0
 11
6574.4251818845
 21
4752.9898337204
 31
0.0
  0
LINE
  5
136
330
1F
100
AcDbEntity
  8
0
  6
Continuous
 62
     7
370
    25
100
AcDbLine
 10
6572.226910691
 20
4752.9898337204
 30
0.0
 11
6572.4713357306
 21
4752.9898337204
 31
0.0
  0
LINE
  5
137
330
1F
100
AcDbEntity
  8
0
  6
Continuous
 62
     7
370
    25
100
AcDbLine
 10
6571.494681698
 20
4772.9898337203
 30
0.0
 11
6571.2503813784
 21
4772.9898337203
 31
0.0
  0
LINE
  5
138
330
1F
100
AcDbEntity
  8
0
  6
Continuous
 62
     7
370
    25
100
AcDbLine
 10
6573.4485278518
 20
4772.9898337203
 30
0.0
 11
6573.2042275322
 21
4772.9898337203
 31
0.0
  0
LINE
  5
139
330
1F
100
AcDbEntity
  8
0
  6
Continuous
 62
     7
370
    25
100
AcDbLine
 10
6575.4023740057
 20
4772.9898337203
 30
0.0
 11
6575.1580736861
 21
4772.9898337203
 31
0.0
  0
LINE
  5
13A
330
1F
100
AcDbEntity
  8
0
  6
Continuous
 62
     7
370
    25
100
AcDbLine
 10
6577.3562201595
 20
4772.9898337203
 30
0.0
 11
6577.1119198399
 21
4772.9898337203
 31
0.0
  0
LINE
  5
13B
330
1F
100
AcDbEntity
  8
0
  6
Continuous
 62
     7
370
    25
100
AcDbLine
 10
6581.0636937635
 20
4772.9898337203
 30
0.0
 11
6579.0657659938
 21
4772.9898337203
 31
0.0
  0
LINE
  5
13C
330
1F
100
AcDbEntity
  8
0
  6
Continuous
 62
     7
370
    25
100
AcDbLine
 10
6581.0636937635
 20
4752.7898337203
 30
0.0
 11
6581.4189385834
 21
4752.7898337203
 31
0.0
  0
LINE
  5
13D
330
1F
100
AcDbEntity
  8
0
  6
Continuous
 62
     7
370
    25
100
AcDbLine
 10
6581.4189385834
 20
4773.1898337204
 30
0.0
 11
6581.0636937635
 21
4773.1898337204
 31
0.0
  0
LINE
  5
13E
330
1F
100
AcDbEntity
  8
0
  6
Continuous
 62
     7
370
    25
100
AcDbLine
 10
6569.9006611992
 20
4772.3268011561
 30
0.0
 11
6569.0636937635
 21
4771.4898337203
 31
0.0
  0
LINE
  5
13F
330
1F
100
AcDbEntity
  8
0
  6
Continuous
 62
     7
370
    25
100
AcDbLine
 10
6569.876636374
 20
4753.6768911098
 30
0.0
 11
6570.4945099675
 21
4753.0590175163
 31
0.0
  0
LINE
  5
140
330
1F
100
AcDbEntity
  8
0
  6
Continuous
 62
     7
370
    25
100
AcDbLine
 10
6569.0636937635
 20
4754.4898337204
 30
0.0
 11
6569.5061435154
 21
4754.0473839684
 31
0.0
  0
LWPOLYLINE
  5
141
330
1F
100
AcDbEntity
  8
0
  6
Continuous
 62
     7
370
    25
100
AcDbPolyline
 90
        3
 70
   128
 43
0.0
 10
6571.1281168377
 20
4754.0473839684
 10
6571.3725185173
 20
4754.0473854129
 10
6571.6165783762
 20
4754.0473839684
  0
LWPOLYLINE
  5
142
330
1F
100
AcDbEntity
  8
0
  6
Continuous
 62
     7
370
    25
100
AcDbPolyline
 90
        3
 70
   128
 43
0.0
 10
6573.0819629916
 20
4754.0473839684
 10
6573.3265356284
 20
4754.0473897469
 10
6573.5704245301
 20
4754.0473839684
  0
LWPOLYLINE
  5
143
330
1F
100
AcDbEntity
  8
0
  6
Continuous
 62
     7
370
    25
100
AcDbPolyline
 90
        3
 70
   128
 43
0.0
 10
6575.0358091454
 20
4754.0473839684
 10
6575.2805527862
 20
4754.0473969712
 10
6575.5242706839
 20
4754.0473839684
  0
LWPOLYLINE
  5
144
330
1F
100
AcDbEntity
  8
0
  6
Continuous
 62
     7
370
    25
100
AcDbPolyline
 90
        3
 70
   128
 43
0.0
 10
6576.9896552993
 20
4754.0473839684
 10
6577.2345699908
 20
4754.0474070865
 10
6577.4781168377
 20
4754.0473839684
  0
LWPOLYLINE
  5
145
330
1F
100
AcDbEntity
  8
0
  6
Continuous
 62
     7
370
    25
100
AcDbPolyline
 90
        3
 70
   128
 43
0.0
 10
6578.9435014531
 20
4754.0473839684
 10
6579.188587242
 20
4754.0474200936
 10
6579.4319629916
 20
4754.0473839684
  0
LWPOLYLINE
  5
146
330
1F
100
AcDbEntity
  8
0
  6
Continuous
 62
     7
370
    25
100
AcDbPolyline
 90
        3
 70
   128
 43
0.0
 10
6573.0524166512
 20
4754.089331633
 10
6573.2968251479
 20
4754.0888350008
 10
6573.5408781897
 20
4754.089331633
  0
LWPOLYLINE
  5
147
330
1F
100
AcDbEntity
  8
0
  6
Continuous
 62
     7
370
    25
100
AcDbPolyline
 90
        3
 70
   128
 43
0.0
 10
6575.0062628051
 20
4754.089331633
 10
6575.2508489954
 20
4754.0883413502
 10
6575.4947243435
 20
4754.089331633
  0
LWPOLYLINE
  5
148
330
1F
100
AcDbEntity
  8
0
  6
Continuous
 62
     7
370
    25
100
AcDbPolyline
 90
        3
 70
   128
 43
0.0
 10
6576.9601089589
 20
4754.089331633
 10
6577.2048728089
 20
4754.0878506808
 10
6577.4485704974
 20
4754.089331633
  0
LWPOLYLINE
  5
149
330
1F
100
AcDbEntity
  8
0
  6
Continuous
 62
     7
370
    25
100
AcDbPolyline
 90
        3
 70
   128
 43
0.0
 10
6578.9139551127
 20
4754.089331633
 10
6579.1588965885
 20
4754.0873629924
 10
6579.4024166512
 20
4754.089331633
  0
LWPOLYLINE
  5
14A
330
1F
100
AcDbEntity
  8
0
  6
Continuous
 62
     7
370
    25
100
AcDbPolyline
 90
        3
 70
   128
 43
0.0
 10
6572.5935023545
 20
4771.9322834722
 10
6572.3494424959
 20
4771.9322820125
 10
6572.1139406326
 20
4771.9322834191
  0
LWPOLYLINE
  5
14B
330
1F
100
AcDbEntity
  8
0
  6
Continuous
 62
     7
370
    25
100
AcDbPolyline
 90
        3
 70
   128
 43
0.0
 10
6574.5473485083
 20
4771.9322834722
 10
6574.3034596072
 20
4771.9322776633
 10
6574.0677867771
 20
4771.9322832608
  0
LWPOLYLINE
  5
14C
330
1F
100
AcDbEntity
  8
0
  6
Continuous
 62
     7
370
    25
100
AcDbPolyline
 90
        3
 70
   128
 43
0.0
 10
6576.5011946622
 20
4771.9322834722
 10
6576.2574767653
 20
4771.9322704238
 10
6576.0216329297
 20
4771.9322829977
  0
LWPOLYLINE
  5
14D
330
1F
100
AcDbEntity
  8
0
  6
Continuous
 62
     7
370
    25
100
AcDbPolyline
 90
        3
 70
   128
 43
0.0
 10
6578.455040816
 20
4771.9322834722
 10
6578.2114939701
 20
4771.9322602932
 10
6577.97547909
 20
4771.9322826299
  0
LINE
  5
14E
330
1F
100
AcDbEntity
  8
0
  6
Continuous
 62
     7
370
    25
100
AcDbLine
 10
6570.6396562007
 20
4771.9322834722
 30
0.0
 11
6570.1600944962
 21
4771.9322834722
 31
0.0
  0
LINE
  5
14F
330
1F
100
AcDbEntity
  8
0
  6
Continuous
 62
     7
370
    25
100
AcDbLine
 10
6571.0985704974
 20
4754.089331633
 30
0.0
 11
6571.5870320358
 21
4754.089331633
 31
0.0
  0
LINE
  5
150
330
1F
100
AcDbEntity
  8
0
  6
Continuous
 62
     7
370
    25
100
AcDbLine
 10
6674.4189385834
 20
4818.9898337204
 30
0.0
 11
6674.9189385834
 21
4818.9898337204
 31
0.0
  0
LINE
  5
151
330
1F
100
AcDbEntity
  8
0
  6
Continuous
 62
     7
370
    25
100
AcDbLine
 10
6674.9189385834
 20
4846.9898337204
 30
0.0
 11
6674.4189385834
 21
4846.9898337204
 31
0.0
  0
LINE
  5
152
330
1F
100
AcDbEntity
  8
0
  6
Continuous
 62
     7
370
    25
100
AcDbLine
 10
6674.9189385834
 20
4818.9898337204
 30
0.0
 11
6676.4189385834
 21
4820.4898337204
 31
0.0
  0
LINE
  5
153
330
1F
100
AcDbEntity
  8
0
  6
Continuous
 62
     7
370
    25
100
AcDbLine
 10
6676.4189385834
 20
4845.4898337204
 30
0.0
 11
6674.9189385834
 21
4846.9898337204
 31
0.0
  0
LINE
  5
154
330
1F
100
AcDbEntity
  8
0
  6
Continuous
 62
     7
370
    25
100
AcDbLine
 10
6674.8189385834
 20
5057.8898337204
 30
0.0
 11
6674.4189385834
 21
5057.8898337204
 31
0.0
  0
LINE
  5
155
330
1F
100
AcDbEntity
  8
0
  6
Continuous
 62
     7
370
    25
100
AcDbLine
 10
6674.4189385834
 20
5028.0898337204
 30
0.0
 11
6674.8189385834
 21
5028.0898337204
 31
0.0
  0
ARC
  5
156
330
1F
100
AcDbEntity
  8
0
  6
Continuous
 62
     7
370
    25
100
AcDbCircle
 10
6674.9189385834
 20
5676.1912369695
 30
0.0
 40
0.5
100
AcDbArc
 50
90.0
 51
180.0
  0
ARC
  5
157
330
1F
100
AcDbEntity
  8
0
  6
Continuous
 62
     7
370
    25
100
AcDbCircle
 10
6674.9189385834
 20
5622.1912369695
 30
0.0
 40
0.5
100
AcDbArc
 50
180.0
 51
270.0
  0
LINE
  5
158
330
1F
100
AcDbEntity
  8
0
  6
Continuous
 62
     7
370
    25
100
AcDbLine
 10
6674.9189385834
 20
5621.6912369695
 30
0.0
 11
6675.9189385834
 21
5621.6912369695
 31
0.0
  0
LINE
  5
159
330
1F
100
AcDbEntity
  8
0
  6
Continuous
 62
     7
370
    25
100
AcDbLine
 10
6675.9189385834
 20
5676.6912369695
 30
0.0
 11
6674.9189385834
 21
5676.6912369695
 31
0.0
  0
ARC
  5
15A
330
1F
100
AcDbEntity
  8
0
  6
Continuous
 62
     7
370
    25
100
AcDbCircle
 10
6675.9189385834
 20
5676.1912369695
 30
0.0
 40
0.5
100
AcDbArc
 50
0.0
 51
90.0
  0
ARC
  5
15B
330
1F
100
AcDbEntity
  8
0
  6
Continuous
 62
     7
370
    25
100
AcDbCircle
 10
6675.9189385834
 20
5622.1912369695
 30
0.0
 40
0.5
100
AcDbArc
 50
270.0
 51
0.0
  0
LINE
  5
15C
330
1F
100
AcDbEntity
  8
0
  6
Continuous
 62
     7
370
    25
100
AcDbLine
 10
6679.4189385834
 20
4918.6033948744
 30
0.0
 11
6679.4189385834
 21
4909.9898337204
 31
0.0
  0
LINE
  5
15D
330
1F
100
AcDbEntity
  8
0
  6
Continuous
 62
     7
370
    25
100
AcDbLine
 10
6679.4189385834
 20
4965.9898337204
 30
0.0
 11
6679.4189385834
 21
4918.6033948744
 31
0.0
  0
LINE
  5
15E
330
1F
100
AcDbEntity
  8
0
  6
Continuous
 62
     7
370
    25
100
AcDbLine
 10
6709.4189385834
 20
4913.4898337204
 30
0.0
 11
6709.4189385834
 21
4962.4898337204
 31
0.0
  0
LINE
  5
15F
330
1F
100
AcDbEntity
  8
0
  6
Continuous
 62
     7
370
    25
100
AcDbLine
 10
6707.4189385834
 20
4913.4898337204
 30
0.0
 11
6707.4189385834
 21
4962.4898337204
 31
0.0
  0
LINE
  5
160
330
1F
100
AcDbEntity
  8
0
  6
Continuous
 62
     7
370
    25
100
AcDbLine
 10
6709.5689385834
 20
4962.4898337204
 30
0.0
 11
6709.5689385834
 21
4913.4898337204
 31
0.0
  0
LINE
  5
161
330
1F
100
AcDbEntity
  8
0
  6
Continuous
 62
     7
370
    25
100
AcDbLine
 10
6731.9189385834
 20
4913.4898337204
 30
0.0
 11
6731.9189385834
 21
4962.4898337204
 31
0.0
  0
LINE
  5
162
330
1F
100
AcDbEntity
  8
0
  6
Continuous
 62
     7
370
    25
100
AcDbLine
 10
6679.9189385834
 20
4913.9898337204
 30
0.0
 11
6679.9189385834
 21
4961.9898337204
 31
0.0
  0
LINE
  5
163
330
1F
100
AcDbEntity
  8
0
  6
Continuous
 62
     7
370
    25
100
AcDbLine
 10
6680.9189385834
 20
4914.9898337204
 30
0.0
 11
6680.9189385834
 21
4960.9898337204
 31
0.0
  0
LINE
  5
164
330
1F
100
AcDbEntity
  8
0
  6
Continuous
 62
     7
370
    25
100
AcDbLine
 10
6583.644108389
 20
4694.5898337204
 30
0.0
 11
6583.644108389
 21
5737.3383725667
 31
0.0
  0
LINE
  5
165
330
1F
100
AcDbEntity
  8
0
  6
Continuous
 62
     7
370
    25
100
AcDbLine
 10
6581.4189385834
 20
4694.5898337204
 30
0.0
 11
6581.4189385834
 21
5736.6019686839
 31
0.0
  0
LINE
  5
166
330
1F
100
AcDbEntity
  8
0
  6
Continuous
 62
     7
370
    25
100
AcDbLine
 10
6583.644108389
 20
4694.5898337204
 30
0.0
 11
6581.4189385834
 21
4694.5898337204
 31
0.0
  0
ELLIPSE
  5
167
330
1F
100
AcDbEntity
  8
0
  6
Continuous
 62
     7
370
    25
100
AcDbEllipse
 10
6583.0189385834
 20
5736.6019686839
 30
0.0
 11
1.600000000000364
 21
0.0
 31
0.0
210
0.0
220
0.0
230
1.0
 40
0.5
 41
1.16937059883602
 42
3.141592653590958
  0
LINE
  5
168
330
1F
100
AcDbEntity
  8
0
  6
Continuous
 62
     7
370
    25
100
AcDbLine
 10
6673.444108389
 20
4694.5898337204
 30
0.0
 11
6673.444108389
 21
5699.2205340711
 31
0.0
  0
LINE
  5
169
330
1F
100
AcDbEntity
  8
0
  6
Continuous
 62
     7
370
    25
100
AcDbLine
 10
6583.644108389
 20
4694.5898337204
 30
0.0
 11
6673.444108389
 21
4694.5898337204
 31
0.0
  0
LINE
  5
16A
330
1F
100
AcDbEntity
  8
0
  6
Continuous
 62
     7
370
    25
100
AcDbLine
 10
6673.444108389
 20
5699.2205340711
 30
0.0
 11
6583.644108389
 21
5737.3383725667
 31
0.0
  0
LWPOLYLINE
  5
16B
330
1F
100
AcDbEntity
  8
0
  6
Continuous
 62
     7
370
    25
100
AcDbPolyline
 90
        5
 70
   128
 43
0.0
 10
6583.3315234862
 20
4692.9898337204
 10
6583.4926193875
 20
4693.1116264683
 10
6583.6172928437
 20
4693.4584628705
 10
6583.6746663968
 20
4693.9775402286
 10
6583.644108389
 20
4694.5898337204
  0
LINE
  5
16C
330
1F
100
AcDbEntity
  8
0
  6
Continuous
 62
     7
370
    25
100
AcDbLine
 10
6583.3315234862
 20
4693.7898337204
 30
0.0
 11
6583.3315234862
 21
4692.9898337204
 31
0.0
  0
ARC
  5
16D
330
1F
100
AcDbEntity
  8
0
  6
Continuous
 62
     7
370
    25
100
AcDbCircle
 10
6582.3725586111
 20
4694.1898337204
 30
0.0
 40
1.039044576376576
100
AcDbArc
 50
337.3581813449
 51
22.6418186551
  0
LWPOLYLINE
  5
16E
330
1F
100
AcDbEntity
  8
0
  6
Continuous
 62
     7
370
    25
100
AcDbPolyline
 90
        5
 70
   128
 43
0.0
 10
6673.444108389
 20
4694.5898337204
 10
6673.2746663968
 20
4693.9775402286
 10
6673.0172928437
 20
4693.4584628705
 10
6672.6926193875
 20
4693.1116264683
 10
6672.3315234862
 20
4692.9898337204
  0
LINE
  5
16F
330
1F
100
AcDbEntity
  8
0
  6
Continuous
 62
     7
370
    25
100
AcDbLine
 10
6583.3315234862
 20
4692.9898337204
 30
0.0
 11
6672.3315234862
 21
4692.9898337204
 31
0.0
  0
ARC
  5
170
330
1F
100
AcDbEntity
  8
0
  6
Continuous
 62
     7
370
    25
100
AcDbCircle
 10
6583.0189385834
 20
5737.3090754651
 30
0.0
 40
0.8000000000000802
100
AcDbArc
 50
67.0
 51
180.0000000001
  0
LINE
  5
171
330
1F
100
AcDbEntity
  8
0
  6
Continuous
 62
     7
370
    25
100
AcDbLine
 10
6581.4189385834
 20
5737.3090754651
 30
0.0
 11
6582.2189385834
 21
5737.3090754651
 31
0.0
  0
LINE
  5
172
330
1F
100
AcDbEntity
  8
0
  6
Continuous
 62
     7
370
    25
100
AcDbLine
 10
6583.644108389
 20
5738.7818832306
 30
0.0
 11
6583.3315234862
 21
5738.0454793479
 31
0.0
  0
ARC
  5
173
330
1F
100
AcDbEntity
  8
0
  6
Continuous
 62
     7
370
    25
100
AcDbCircle
 10
6583.0189385834
 20
5737.3090754651
 30
0.0
 40
1.60000000000016
100
AcDbArc
 50
67.0
 51
180.0000000001
  0
LINE
  5
174
330
1F
100
AcDbEntity
  8
0
  6
Continuous
 62
     7
370
    25
100
AcDbLine
 10
6583.3315234862
 20
5738.0454793479
 30
0.0
 11
6673.1315234862
 21
5699.9276408522
 31
0.0
  0
LINE
  5
175
330
1F
100
AcDbEntity
  8
0
  6
Continuous
 62
     7
370
    25
100
AcDbLine
 10
6583.644108389
 20
5738.7818832306
 30
0.0
 11
6673.444108389
 21
5700.664044735
 31
0.0
  0
LINE
  5
176
330
1F
100
AcDbEntity
  8
0
  6
Continuous
 62
     7
370
    25
100
AcDbLine
 10
6673.444108389
 20
5700.664044735
 30
0.0
 11
6673.1315234862
 21
5699.9276408522
 31
0.0
  0
LINE
  5
177
330
1F
100
AcDbEntity
  8
0
  6
Continuous
 62
     7
370
    25
100
AcDbLine
 10
6582.2189385834
 20
5737.3090754651
 30
0.0
 11
6582.2189385834
 21
5737.294789007
 31
0.0
  0
LINE
  5
178
330
1F
100
AcDbEntity
  8
0
  6
Continuous
 62
     7
370
    25
100
AcDbLine
 10
6581.4189385834
 20
5737.3090754651
 30
0.0
 11
6581.4189385834
 21
5736.6019686839
 31
0.0
  0
LINE
  5
179
330
1F
100
AcDbEntity
  8
0
  6
Continuous
 62
     7
370
    25
100
AcDbLine
 10
6674.4189385834
 20
4694.5898337204
 30
0.0
 11
6674.4189385834
 21
5699.1912369695
 31
0.0
  0
ELLIPSE
  5
17A
330
1F
100
AcDbEntity
  8
0
  6
Continuous
 62
     7
370
    25
100
AcDbEllipse
 10
6672.8189385834
 20
5699.1912369695
 30
0.0
 11
1.599999999999454
 21
0.0
 31
0.0
210
0.0
220
0.0
230
1.0
 40
0.0198920065
 41
0.0
 42
1.16937059884435
  0
LINE
  5
17B
330
1F
100
AcDbEntity
  8
0
  6
Continuous
 62
     7
370
    25
100
AcDbLine
 10
6673.444108389
 20
4694.5898337204
 30
0.0
 11
6674.4189385834
 21
4694.5898337204
 31
0.0
  0
ARC
  5
17C
330
1F
100
AcDbEntity
  8
0
  6
Continuous
 62
     7
370
    25
100
AcDbCircle
 10
6672.8189385834
 20
5699.1912369695
 30
0.0
 40
0.8000000000005619
100
AcDbArc
 50
0.0
 51
67.0
  0
ARC
  5
17D
330
1F
100
AcDbEntity
  8
0
  6
Continuous
 62
     7
370
    25
100
AcDbCircle
 10
6672.8189385834
 20
5699.1912369695
 30
0.0
 40
1.600000000000287
100
AcDbArc
 50
0.0
 51
67.0
  0
LINE
  5
17E
330
1F
100
AcDbEntity
  8
0
  6
Continuous
 62
     7
370
    25
100
AcDbLine
 10
6672.8189385834
 20
4693.2465684988
 30
0.0
 11
6672.8189385834
 21
4692.9898337204
 31
0.0
  0
ARC
  5
17F
330
1F
100
AcDbEntity
  8
0
  6
Continuous
 62
     7
370
    25
100
AcDbCircle
 10
6672.8189385834
 20
4694.5898337204
 30
0.0
 40
1.600000000004002
100
AcDbArc
 50
270.0000000003
 51
359.9999999999
  0
ARC
  5
180
330
1F
100
AcDbEntity
  8
0
  6
Continuous
 62
     7
370
    25
100
AcDbCircle
 10
6672.9097486267
 20
4694.5578122469
 30
0.0
 40
0.7099125083406886
100
AcDbArc
 50
299.0763116732
 51
2.5852734895
  0
LINE
  5
181
330
1F
100
AcDbEntity
  8
0
  6
Continuous
 62
     7
370
    25
100
AcDbLine
 10
6672.3315234862
 20
4692.9898337204
 30
0.0
 11
6672.8189385834
 21
4692.9898337204
 31
0.0
  0
LINE
  5
182
330
1F
100
AcDbEntity
  8
0
  6
Continuous
 62
     7
370
    25
100
AcDbLine
 10
6684.4189385834
 20
5649.1912369695
 30
0.0
 11
6684.4189385834
 21
5664.0912369695
 31
0.0
  0
LINE
  5
183
330
1F
100
AcDbEntity
  8
0
  6
Continuous
 62
     7
370
    25
100
AcDbLine
 10
6684.4189385834
 20
5634.2912369695
 30
0.0
 11
6684.4189385834
 21
5649.1912369695
 31
0.0
  0
LINE
  5
184
330
1F
100
AcDbEntity
  8
0
  6
Continuous
 62
     7
370
    25
100
AcDbLine
 10
6707.0214575943
 20
5664.0912369695
 30
0.0
 11
6689.8164195725
 21
5634.2912369695
 31
0.0
  0
LINE
  5
185
330
1F
100
AcDbEntity
  8
0
  6
Continuous
 62
     7
370
    25
100
AcDbLine
 10
6707.4189385834
 20
5633.6027797013
 30
0.0
 11
6720.3227170998
 21
5641.0527797013
 31
0.0
  0
LINE
  5
186
330
1F
100
AcDbEntity
  8
0
  6
Continuous
 62
     7
370
    25
100
AcDbLine
 10
6694.515160067
 20
5626.1527797013
 30
0.0
 11
6707.4189385834
 21
5633.6027797013
 31
0.0
  0
LINE
  5
187
330
1F
100
AcDbEntity
  8
0
  6
Continuous
 62
     7
370
    25
100
AcDbLine
 10
6710.515160067
 20
5598.4399667802
 30
0.0
 11
6736.3227170998
 21
5613.3399667802
 31
0.0
  0
LINE
  5
188
330
1F
100
AcDbEntity
  8
0
  6
Continuous
 62
     7
370
    25
100
AcDbLine
 10
6707.6689385834
 20
5633.1697669994
 30
0.0
 11
6720.5727170998
 21
5640.6197669994
 31
0.0
  0
LINE
  5
189
330
1F
100
AcDbEntity
  8
0
  6
Continuous
 62
     7
370
    25
100
AcDbLine
 10
6694.765160067
 20
5625.7197669994
 30
0.0
 11
6707.6689385834
 21
5633.1697669994
 31
0.0
  0
LINE
  5
18A
330
1F
100
AcDbEntity
  8
0
  6
Continuous
 62
     7
370
    25
100
AcDbLine
 10
6724.2773399786
 20
5604.4031719504
 30
0.0
 11
6719.3842964473
 21
5601.5781719504
 31
0.0
  0
LINE
  5
18B
330
1F
100
AcDbEntity
  8
0
  6
Continuous
 62
     7
370
    25
100
AcDbLine
 10
6729.17038351
 20
5607.2281719504
 30
0.0
 11
6724.2773399786
 21
5604.4031719504
 31
0.0
  0
LINE
  5
18C
330
1F
100
AcDbEntity
  8
0
  6
Continuous
 62
     7
370
    25
100
AcDbLine
 10
6676.4189385834
 20
5654.2912369695
 30
0.0
 11
6682.4189385834
 21
5654.2912369695
 31
0.0
  0
LINE
  5
18D
330
1F
100
AcDbEntity
  8
0
  6
Continuous
 62
     7
370
    25
100
AcDbLine
 10
6682.4189385834
 20
5654.2912369695
 30
0.0
 11
6682.4189385834
 21
5664.0912369695
 31
0.0
  0
LINE
  5
18E
330
1F
100
AcDbEntity
  8
0
  6
Continuous
 62
     7
370
    25
100
AcDbLine
 10
6676.4189385834
 20
5644.0912369695
 30
0.0
 11
6682.4189385834
 21
5644.0912369695
 31
0.0
  0
LINE
  5
18F
330
1F
100
AcDbEntity
  8
0
  6
Continuous
 62
     7
370
    25
100
AcDbLine
 10
6682.4189385834
 20
5644.0912369695
 30
0.0
 11
6682.4189385834
 21
5654.2912369695
 31
0.0
  0
LINE
  5
190
330
1F
100
AcDbEntity
  8
0
  6
Continuous
 62
     7
370
    25
100
AcDbLine
 10
6682.4189385834
 20
5634.2912369695
 30
0.0
 11
6682.4189385834
 21
5644.0912369695
 31
0.0
  0
LINE
  5
191
330
1F
100
AcDbEntity
  8
0
  6
Continuous
 62
     7
370
    25
100
AcDbLine
 10
6593.4189385833
 20
4688.4898337203
 30
0.0
 11
6599.4189385833
 21
4688.4898337203
 31
0.0
  0
LINE
  5
192
330
1F
100
AcDbEntity
  8
0
  6
Continuous
 62
     7
370
    25
100
AcDbLine
 10
6658.4189385833
 20
4688.4898337203
 30
0.0
 11
6664.4189385833
 21
4688.4898337203
 31
0.0
  0
LINE
  5
193
330
1F
100
AcDbEntity
  8
0
  6
Continuous
 62
     7
370
    25
100
AcDbLine
 10
6584.9189385834
 20
5736.7972392542
 30
0.0
 11
6584.9189385834
 21
5737.3716616162
 31
0.0
  0
LINE
  5
194
330
1F
100
AcDbEntity
  8
0
  6
Continuous
 62
     7
370
    25
100
AcDbLine
 10
6582.9189385834
 20
5737.4004046551
 30
0.0
 11
6582.9189385834
 21
5738.075542345
 31
0.0
  0
LINE
  5
195
330
1F
100
AcDbEntity
  8
0
  6
Continuous
 62
     7
370
    25
100
AcDbLine
 10
6583.2481295998
 20
5738.075542345
 30
0.0
 11
6582.9189385834
 21
5738.075542345
 31
0.0
  0
LINE
  5
196
330
1F
100
AcDbEntity
  8
0
  6
Continuous
 62
     7
370
    25
100
AcDbLine
 10
6583.4189385833
 20
4693.9898337203
 30
0.0
 11
6581.4189385833
 21
4693.9898337203
 31
0.0
  0
LINE
  5
197
330
1F
100
AcDbEntity
  8
0
  6
Continuous
 62
     7
370
    25
100
AcDbLine
 10
6581.4189385833
 20
4693.9898337203
 30
0.0
 11
6581.4189385833
 21
4694.5898337204
 31
0.0
  0
LINE
  5
198
330
1F
100
AcDbEntity
  8
0
  6
Continuous
 62
     7
370
    25
100
AcDbLine
 10
6584.4189385833
 20
4692.9898337203
 30
0.0
 11
6584.4189385833
 21
4690.9898337203
 31
0.0
  0
ARC
  5
199
330
1F
100
AcDbEntity
  8
0
  6
Continuous
 62
     7
370
    25
100
AcDbCircle
 10
6584.4189385833
 20
4693.9898337203
 30
0.0
 40
3.0
100
AcDbArc
 50
180.0
 51
270.0
  0
LINE
  5
19A
330
1F
100
AcDbEntity
  8
0
  6
Continuous
 62
     7
370
    25
100
AcDbLine
 10
6594.9947724874
 20
4690.9898337203
 30
0.0
 11
6594.9947724874
 21
4692.9898337203
 31
0.0
  0
LINE
  5
19B
330
1F
100
AcDbEntity
  8
0
  6
Continuous
 62
     7
370
    25
100
AcDbLine
 10
6584.4189385833
 20
4690.9898337203
 30
0.0
 11
6594.9947724874
 21
4690.9898337203
 31
0.0
  0
LINE
  5
19C
330
1F
100
AcDbEntity
  8
0
  6
Continuous
 62
     7
370
    25
100
AcDbLine
 10
6597.7298903868
 20
4692.9898337203
 30
0.0
 11
6597.7298903868
 21
4690.9898337203
 31
0.0
  0
LINE
  5
19D
330
1F
100
AcDbEntity
  8
0
  6
Continuous
 62
     7
370
    25
100
AcDbLine
 10
6597.7298903868
 20
4690.9898337203
 30
0.0
 11
6594.9947724874
 21
4690.9898337203
 31
0.0
  0
LINE
  5
19E
330
1F
100
AcDbEntity
  8
0
  6
Continuous
 62
     7
370
    25
100
AcDbLine
 10
6665.1540564827
 20
4690.9898337203
 30
0.0
 11
6665.1540564827
 21
4692.9898337203
 31
0.0
  0
LINE
  5
19F
330
1F
100
AcDbEntity
  8
0
  6
Continuous
 62
     7
370
    25
100
AcDbLine
 10
6597.7298903868
 20
4690.9898337203
 30
0.0
 11
6665.1540564827
 21
4690.9898337203
 31
0.0
  0
LINE
  5
1A0
330
1F
100
AcDbEntity
  8
0
  6
Continuous
 62
     7
370
    25
100
AcDbLine
 10
6669.4189385833
 20
4692.9898337203
 30
0.0
 11
6669.4189385833
 21
4690.9898337203
 31
0.0
  0
LINE
  5
1A1
330
1F
100
AcDbEntity
  8
0
  6
Continuous
 62
     7
370
    25
100
AcDbLine
 10
6669.4189385833
 20
4690.9898337203
 30
0.0
 11
6665.1540564827
 21
4690.9898337203
 31
0.0
  0
LWPOLYLINE
  5
1A2
330
1F
100
AcDbEntity
  8
0
  6
Continuous
 62
     7
370
    25
100
AcDbPolyline
 90
       11
 70
   128
 43
0.0
 10
6570.5344402934
 20
4753.0989478421
 10
6570.5137894314
 20
4753.096280052
 10
6570.4466093857
 20
4754.0638653504
 10
6570.3804446724
 20
4756.0321802493
 10
6570.3126684008
 20
4758.7676900678
 10
6570.2463926677
 20
4761.9447941478
 10
6570.1787988233
 20
4765.1948234219
 10
6570.112258239
 20
4768.1552296187
 10
6570.0450262155
 20
4770.4800329921
 10
6569.9780670491
 20
4771.9281649621
 10
6569.9151885905
 20
4772.3122737648
  0
LWPOLYLINE
  5
1A3
330
1F
100
AcDbEntity
  8
0
  6
Continuous
 62
     7
370
    25
100
AcDbPolyline
 90
       11
 70
   128
 43
0.0
 10
6570.1695994521
 20
4771.7944317341
 10
6570.2152393616
 20
4771.7404089688
 10
6570.3209646883
 20
4770.6405705106
 10
6570.4238296502
 20
4768.7028520467
 10
6570.5290118126
 20
4766.1144865347
 10
6570.6324738726
 20
4763.1929708138
 10
6570.7368442595
 20
4760.240702692
 10
6570.8411370839
 20
4757.5950423201
 10
6570.9446583146
 20
4755.55369635
 10
6571.0497841719
 20
4754.3317977829
 10
6571.1280158632
 20
4754.1377319336
  0
LWPOLYLINE
  5
1A4
330
1F
100
AcDbEntity
  8
0
  6
Continuous
 62
     7
370
    25
100
AcDbPolyline
 90
       11
 70
   128
 43
0.0
 10
6572.1234546284
 20
4771.7944210545
 10
6572.1690855154
 20
4771.7404089688
 10
6572.2748108422
 20
4770.6405705106
 10
6572.377675804
 20
4768.7028520467
 10
6572.4828579665
 20
4766.1144865347
 10
6572.5863200265
 20
4763.1929708138
 10
6572.6906904133
 20
4760.240702692
 10
6572.7949832377
 20
4757.5950423201
 10
6572.8985044684
 20
4755.55369635
 10
6573.0036303258
 20
4754.3317977829
 10
6573.0817189
 20
4754.1380869576
  0
LWPOLYLINE
  5
1A5
330
1F
100
AcDbEntity
  8
0
  6
Continuous
 62
     7
370
    25
100
AcDbPolyline
 90
       11
 70
   128
 43
0.0
 10
6574.0773098077
 20
4771.7944103713
 10
6574.1229316693
 20
4771.7404089688
 10
6574.228656996
 20
4770.6405705106
 10
6574.3315219579
 20
4768.7028520467
 10
6574.4367041203
 20
4766.1144865347
 10
6574.5401661803
 20
4763.1929708138
 10
6574.6445365672
 20
4760.240702692
 10
6574.7488293916
 20
4757.5950423201
 10
6574.8523506223
 20
4755.55369635
 10
6574.9574764796
 20
4754.3317977829
 10
6575.0355656702
 20
4754.1380854287
  0
LWPOLYLINE
  5
1A6
330
1F
100
AcDbEntity
  8
0
  6
Continuous
 62
     7
370
    25
100
AcDbPolyline
 90
       11
 70
   128
 43
0.0
 10
6576.03116499
 20
4771.7943996845
 10
6576.0767778231
 20
4771.7404089688
 10
6576.1825031498
 20
4770.6405705106
 10
6576.2853681117
 20
4768.7028520467
 10
6576.3905502742
 20
4766.1144865347
 10
6576.4940123342
 20
4763.1929708138
 10
6576.598382721
 20
4760.240702692
 10
6576.7026755454
 20
4757.5950423201
 10
6576.8061967761
 20
4755.55369635
 10
6576.9113226335
 20
4754.3317977829
 10
6576.9894126831
 20
4754.1380832978
  0
LWPOLYLINE
  5
1A7
330
1F
100
AcDbEntity
  8
0
  6
Continuous
 62
     7
370
    25
100
AcDbPolyline
 90
       11
 70
   128
 43
0.0
 10
6577.9850201757
 20
4771.7943889938
 10
6578.0306239769
 20
4771.7404089688
 10
6578.1363493037
 20
4770.6405705106
 10
6578.2392142656
 20
4768.7028520467
 10
6578.344396428
 20
4766.1144865347
 10
6578.447858488
 20
4763.1929708138
 10
6578.5522288748
 20
4760.240702692
 10
6578.6565216993
 20
4757.5950423201
 10
6578.76004293
 20
4755.55369635
 10
6578.8651687873
 20
4754.3317977829
 10
6578.943259941
 20
4754.1380805589
  0
LWPOLYLINE
  5
1A8
330
1F
100
AcDbEntity
  8
0
  6
Continuous
 62
     7
370
    25
100
AcDbPolyline
 90
       11
 70
   128
 43
0.0
 10
6571.5114681435
 20
4772.860083273
 10
6571.5844317929
 20
4772.5730553606
 10
6571.6888405095
 20
4771.099635872
 10
6571.7930949163
 20
4768.7246232849
 10
6571.8966463162
 20
4765.7189570043
 10
6572.0017433496
 20
4762.3945632883
 10
6572.104668711
 20
4759.1581694603
 10
6572.2103421108
 20
4756.3224914575
 10
6572.3128796865
 20
4754.2513338043
 10
6572.4170860912
 20
4753.1451338902
 10
6572.4713357306
 20
4753.1222322192
  0
LWPOLYLINE
  5
1A9
330
1F
100
AcDbEntity
  8
0
  6
Continuous
 62
     7
370
    25
100
AcDbPolyline
 90
       11
 70
   128
 43
0.0
 10
6573.4653421385
 20
4772.8599737501
 10
6573.5382779467
 20
4772.5730553606
 10
6573.6426866634
 20
4771.099635872
 10
6573.7469410701
 20
4768.7246232849
 10
6573.85049247
 20
4765.7189570043
 10
6573.9555895034
 20
4762.3945632883
 10
6574.0585148649
 20
4759.1581694603
 10
6574.1641882646
 20
4756.3224914575
 10
6574.2667258404
 20
4754.2513338043
 10
6574.3709322451
 20
4753.1451338902
 10
6574.4251818845
 20
4753.1222322192
  0
LWPOLYLINE
  5
1AA
330
1F
100
AcDbEntity
  8
0
  6
Continuous
 62
     7
370
    25
100
AcDbPolyline
 90
       11
 70
   128
 43
0.0
 10
6575.4192161534
 20
4772.859864149
 10
6575.4921241006
 20
4772.5730553606
 10
6575.5965328172
 20
4771.099635872
 10
6575.700787224
 20
4768.7246232849
 10
6575.8043386239
 20
4765.7189570043
 10
6575.9094356573
 20
4762.3945632883
 10
6576.0123610187
 20
4759.1581694603
 10
6576.1180344185
 20
4756.3224914575
 10
6576.2205719942
 20
4754.2513338043
 10
6576.3247783989
 20
4753.1451338902
 10
6576.3790280383
 20
4753.1222322192
  0
LWPOLYLINE
  5
1AB
330
1F
100
AcDbEntity
  8
0
  6
Continuous
 62
     7
370
    25
100
AcDbPolyline
 90
       11
 70
   128
 43
0.0
 10
6577.3730901879
 20
4772.8597544708
 10
6577.4459702544
 20
4772.5730553606
 10
6577.5503789711
 20
4771.099635872
 10
6577.6546333778
 20
4768.7246232849
 10
6577.7581847777
 20
4765.7189570043
 10
6577.8632818111
 20
4762.3945632883
 10
6577.9662071726
 20
4759.1581694603
 10
6578.0718805723
 20
4756.3224914575
 10
6578.1744181481
 20
4754.2513338043
 10
6578.2786245528
 20
4753.1451338902
 10
6578.3328741922
 20
4753.1222322192
  0
LWPOLYLINE
  5
1AC
330
1F
100
AcDbEntity
  8
0
  6
Continuous
 62
     7
370
    25
100
AcDbPolyline
 90
       11
 70
   128
 43
0.0
 10
6571.2503813784
 20
4772.8598447623
 10
6571.3142778048
 20
4772.7752678945
 10
6571.4200031305
 20
4771.5453607336
 10
6571.5228680901
 20
4769.3784843668
 10
6571.6280502521
 20
4766.4840142145
 10
6571.7315123094
 20
4763.2169948732
 10
6571.8358826963
 20
4759.9155861914
 10
6571.9401755175
 20
4756.9570451903
 10
6572.0436967481
 20
4754.6742857865
 10
6572.1488226024
 20
4753.307883051
 10
6572.226910691
 20
4753.0912647518
  0
LWPOLYLINE
  5
1AD
330
1F
100
AcDbEntity
  8
0
  6
Continuous
 62
     7
370
    25
100
AcDbPolyline
 90
       11
 70
   128
 43
0.0
 10
6573.2042275322
 20
4772.8598447623
 10
6573.2681239586
 20
4772.7752678945
 10
6573.3738492843
 20
4771.5453607336
 10
6573.476714244
 20
4769.3784843668
 10
6573.5818964059
 20
4766.4840142145
 10
6573.6853584632
 20
4763.2169948732
 10
6573.7897288501
 20
4759.9155861914
 10
6573.8940216713
 20
4756.9570451903
 10
6573.9975429019
 20
4754.6742857865
 10
6574.1026687562
 20
4753.307883051
 10
6574.1807568449
 20
4753.0912647518
  0
LWPOLYLINE
  5
1AE
330
1F
100
AcDbEntity
  8
0
  6
Continuous
 62
     7
370
    25
100
AcDbPolyline
 90
       11
 70
   128
 43
0.0
 10
6575.1580736861
 20
4772.8598447623
 10
6575.2219701124
 20
4772.7752678945
 10
6575.3276954382
 20
4771.5453607336
 10
6575.4305603978
 20
4769.3784843668
 10
6575.5357425598
 20
4766.4840142145
 10
6575.639204617
 20
4763.2169948732
 10
6575.743575004
 20
4759.9155861914
 10
6575.8478678252
 20
4756.9570451903
 10
6575.9513890558
 20
4754.6742857865
 10
6576.0565149101
 20
4753.307883051
 10
6576.1346029987
 20
4753.0912647518
  0
LWPOLYLINE
  5
1AF
330
1F
100
AcDbEntity
  8
0
  6
Continuous
 62
     7
370
    25
100
AcDbPolyline
 90
       11
 70
   128
 43
0.0
 10
6577.1119198399
 20
4772.8598447623
 10
6577.1758162663
 20
4772.7752678945
 10
6577.281541592
 20
4771.5453607336
 10
6577.3844065517
 20
4769.3784843668
 10
6577.4895887136
 20
4766.4840142145
 10
6577.5930507709
 20
4763.2169948732
 10
6577.6974211578
 20
4759.9155861914
 10
6577.801713979
 20
4756.9570451903
 10
6577.9052352096
 20
4754.6742857865
 10
6578.0103610639
 20
4753.307883051
 10
6578.0884491525
 20
4753.0912647518
  0
LWPOLYLINE
  5
1B0
330
1F
100
AcDbEntity
  8
0
  6
Continuous
 62
     7
370
    25
100
AcDbPolyline
 90
       11
 70
   128
 43
0.0
 10
6579.0657659938
 20
4772.8598447623
 10
6579.1296624201
 20
4772.7752678945
 10
6579.2353877458
 20
4771.5453607336
 10
6579.3382527055
 20
4769.3784843668
 10
6579.4434348675
 20
4766.4840142145
 10
6579.5468969247
 20
4763.2169948732
 10
6579.6512673117
 20
4759.9155861914
 10
6579.7555601328
 20
4756.9570451903
 10
6579.8590813634
 20
4754.6742857865
 10
6579.9642072178
 20
4753.307883051
 10
6580.0422953064
 20
4753.0912647518
  0
LWPOLYLINE
  5
1B1
330
1F
100
AcDbEntity
  8
0
  6
Continuous
 62
     7
370
    25
100
AcDbPolyline
 90
       11
 70
   128
 43
0.0
 10
6570.6397272515
 20
4771.8161328869
 10
6570.7037008843
 20
4771.7404090607
 10
6570.8094262101
 20
4770.640570762
 10
6570.9122911697
 20
4768.7028524592
 10
6571.0174733317
 20
4766.1144870696
 10
6571.1209353889
 20
4763.1929714398
 10
6571.2253057759
 20
4760.2407033151
 10
6571.329598597
 20
4757.5950428909
 10
6571.4331198277
 20
4755.5536967645
 10
6571.538245682
 20
4754.3317979842
 10
6571.5485419122
 20
4754.2944139494
  0
LWPOLYLINE
  5
1B2
330
1F
100
AcDbEntity
  8
0
  6
Continuous
 62
     7
370
    25
100
AcDbPolyline
 90
       11
 70
   128
 43
0.0
 10
6572.5936203866
 20
4771.8160772765
 10
6572.6575470382
 20
4771.7404090607
 10
6572.7632723639
 20
4770.640570762
 10
6572.8661373236
 20
4768.7028524592
 10
6572.9713194855
 20
4766.1144870696
 10
6573.0747815428
 20
4763.1929714398
 10
6573.1791519297
 20
4760.2407033151
 10
6573.2834447509
 20
4757.5950428909
 10
6573.3869659815
 20
4755.5536967645
 10
6573.4920918358
 20
4754.3317979842
 10
6573.5024108985
 20
4754.2943310481
  0
LWPOLYLINE
  5
1B3
330
1F
100
AcDbEntity
  8
0
  6
Continuous
 62
     7
370
    25
100
AcDbPolyline
 90
       11
 70
   128
 43
0.0
 10
6574.5475134547
 20
4771.8160217454
 10
6574.611393192
 20
4771.7404090607
 10
6574.7171185177
 20
4770.640570762
 10
6574.8199834774
 20
4768.7028524592
 10
6574.9251656394
 20
4766.1144870696
 10
6575.0286276966
 20
4763.1929714398
 10
6575.1329980836
 20
4760.2407033151
 10
6575.2372909047
 20
4757.5950428909
 10
6575.3408121353
 20
4755.5536967645
 10
6575.4459379897
 20
4754.3317979842
 10
6575.4562798512
 20
4754.2942482689
  0
LWPOLYLINE
  5
1B4
330
1F
100
AcDbEntity
  8
0
  6
Continuous
 62
     7
370
    25
100
AcDbPolyline
 90
       11
 70
   128
 43
0.0
 10
6576.5014064572
 20
4771.8159662919
 10
6576.5652393459
 20
4771.7404090607
 10
6576.6709646716
 20
4770.640570762
 10
6576.7738296313
 20
4768.7028524592
 10
6576.8790117932
 20
4766.1144870696
 10
6576.9824738505
 20
4763.1929714398
 10
6577.0868442374
 20
4760.2407033151
 10
6577.1911370586
 20
4757.5950428909
 10
6577.2946582892
 20
4755.5536967645
 10
6577.3997841435
 20
4754.3317979842
 10
6577.4101487707
 20
4754.2941656105
  0
LWPOLYLINE
  5
1B5
330
1F
100
AcDbEntity
  8
0
  6
Continuous
 62
     7
370
    25
100
AcDbPolyline
 90
       11
 70
   128
 43
0.0
 10
6578.4552993957
 20
4771.8159109143
 10
6578.5190854997
 20
4771.7404090607
 10
6578.6248108254
 20
4770.640570762
 10
6578.7276757851
 20
4768.7028524592
 10
6578.832857947
 20
4766.1144870696
 10
6578.9363200043
 20
4763.1929714398
 10
6579.0406903913
 20
4760.2407033151
 10
6579.1449832124
 20
4757.5950428909
 10
6579.248504443
 20
4755.5536967645
 10
6579.3536302974
 20
4754.3317979842
 10
6579.3640176572
 20
4754.2940830714
  0
LINE
  5
1B6
330
1F
100
AcDbEntity
  8
0
  6
Continuous
 62
     7
370
    25
100
AcDbLine
 10
6581.0636937635
 20
4762.9898337203
 30
0.0
 11
6581.0636937635
 21
4773.1898337204
 31
0.0
  0
LINE
  5
1B7
330
1F
100
AcDbEntity
  8
0
  6
Continuous
 62
     7
370
    25
100
AcDbLine
 10
6581.0636937635
 20
4752.7898337203
 30
0.0
 11
6581.0636937635
 21
4762.9898337203
 31
0.0
  0
LINE
  5
1B8
330
1F
100
AcDbEntity
  8
0
  6
Continuous
 62
     7
370
    25
100
AcDbLine
 10
6569.876636374
 20
4753.6768911098
 30
0.0
 11
6569.5061435154
 21
4754.0473839684
 31
0.0
  0
LINE
  5
1B9
330
1F
100
AcDbEntity
  8
0
  6
Continuous
 62
     7
370
    25
100
AcDbLine
 10
6569.0636937635
 20
4754.4898337204
 30
0.0
 11
6569.0636937635
 21
4771.4898337203
 31
0.0
  0
LINE
  5
1BA
330
1F
100
AcDbEntity
  8
0
  6
Continuous
 62
     7
370
    25
100
AcDbLine
 10
6674.9189385834
 20
4818.9898337204
 30
0.0
 11
6674.9189385834
 21
4846.9898337204
 31
0.0
  0
LINE
  5
1BB
330
1F
100
AcDbEntity
  8
0
  6
Continuous
 62
     7
370
    25
100
AcDbLine
 10
6676.4189385834
 20
4845.4898337204
 30
0.0
 11
6676.4189385834
 21
4820.4898337204
 31
0.0
  0
LINE
  5
1BC
330
1F
100
AcDbEntity
  8
0
  6
Continuous
 62
     7
370
    25
100
AcDbLine
 10
6674.8189385834
 20
5057.8898337204
 30
0.0
 11
6674.8189385834
 21
5028.0898337204
 31
0.0
  0
LINE
  5
1BD
330
1F
100
AcDbEntity
  8
0
  6
Continuous
 62
     7
370
    25
100
AcDbLine
 10
6676.4189385834
 20
5676.1912368477
 30
0.0
 11
6676.4189385834
 21
5622.1912369695
 31
0.0
  0
LINE
  5
1BE
330
1F
100
AcDbEntity
  8
0
  6
Continuous
 62
     8
370
    25
100
AcDbLine
 10
6677.4189385834
 20
4917.2186492426
 30
0.0
 11
6677.4189385834
 21
4967.9898337204
 31
0.0
  0
LINE
  5
1BF
330
1F
100
AcDbEntity
  8
0
  6
Continuous
 62
     8
370
    25
100
AcDbLine
 10
6677.4189385834
 20
4907.9898337204
 30
0.0
 11
6677.4189385834
 21
4917.2186492426
 31
0.0
  0
LINE
  5
1C0
330
1F
100
AcDbEntity
  8
0
  6
Continuous
 62
     8
370
    25
100
AcDbLine
 10
6674.9189385834
 20
5676.6912369695
 30
0.0
 11
6674.9189385834
 21
5621.6912369695
 31
0.0
  0
LINE
  5
1C1
330
1F
100
AcDbEntity
  8
0
  6
Continuous
 62
     8
370
    25
100
AcDbLine
 10
6675.9189385834
 20
5621.6912369695
 30
0.0
 11
6675.9189385834
 21
5676.6912369695
 31
0.0
  0
ARC
  5
1C2
330
1F
100
AcDbEntity
  8
0
  6
Continuous
 62
     7
370
    25
100
AcDbCircle
 10
6302.0187553361
 20
4394.8421713217
 30
0.0
 40
2.0
100
AcDbArc
 50
270.0
 51
0.0
  0
ARC
  5
1C3
330
1F
100
AcDbEntity
  8
0
  6
Continuous
 62
     7
370
    25
100
AcDbCircle
 10
6246.0187553361
 20
4394.8421713217
 30
0.0
 40
1.999999999999091
100
AcDbArc
 50
180.0
 51
270.0
  0
LINE
  5
1C4
330
1F
100
AcDbEntity
  8
0
  6
Continuous
 62
     7
370
    25
100
AcDbLine
 10
6244.0187553361
 20
4397.8421713217
 30
0.0
 11
6244.0187553361
 21
4394.8421713217
 31
0.0
  0
LINE
  5
1C5
330
1F
100
AcDbEntity
  8
0
  6
Continuous
 62
     7
370
    25
100
AcDbLine
 10
6304.0187553361
 20
4394.8421713217
 30
0.0
 11
6304.0187553361
 21
4397.8421713217
 31
0.0
  0
LINE
  5
1C6
330
1F
100
AcDbEntity
  8
0
  6
Continuous
 62
     7
370
    25
100
AcDbLine
 10
6249.5187553361
 20
4362.6921713217
 30
0.0
 11
6249.5187553361
 21
4340.3421713217
 31
0.0
  0
LINE
  5
1C7
330
1F
100
AcDbEntity
  8
0
  6
Continuous
 62
     7
370
    25
100
AcDbLine
 10
6298.5187553361
 20
4340.3421713217
 30
0.0
 11
6298.5187553361
 21
4362.6921713217
 31
0.0
  0
LINE
  5
1C8
330
1F
100
AcDbEntity
  8
0
  6
Continuous
 62
     7
370
    25
100
AcDbLine
 10
6249.5187553361
 20
4364.8421713217
 30
0.0
 11
6249.5187553361
 21
4362.8421713217
 31
0.0
  0
LINE
  5
1C9
330
1F
100
AcDbEntity
  8
0
  6
Continuous
 62
     7
370
    25
100
AcDbLine
 10
6298.5187553361
 20
4362.8421713217
 30
0.0
 11
6298.5187553361
 21
4364.8421713217
 31
0.0
  0
ARC
  5
1CA
330
1F
100
AcDbEntity
  8
0
  6
Continuous
 62
     7
370
    25
100
AcDbCircle
 10
6274.0187553361
 20
4360.6899974087
 30
0.0
 40
31.84782608695808
100
AcDbArc
 50
219.7104287386
 51
320.2895712614
  0
LINE
  5
1CB
330
1F
100
AcDbEntity
  8
0
  6
Continuous
 62
     7
370
    25
100
AcDbLine
 10
6250.0187553361
 20
4392.8421713217
 30
0.0
 11
6250.0187553361
 21
4392.3421713217
 31
0.0
  0
LINE
  5
1CC
330
1F
100
AcDbEntity
  8
0
  6
Continuous
 62
     7
370
    25
100
AcDbLine
 10
6298.0187553361
 20
4392.3421713217
 30
0.0
 11
6298.0187553361
 21
4392.8421713217
 31
0.0
  0
LINE
  5
1CD
330
1F
100
AcDbEntity
  8
0
  6
Continuous
 62
     7
370
    25
100
AcDbLine
 10
6250.0187553361
 20
4392.3421713217
 30
0.0
 11
6251.0187553361
 21
4391.3421713217
 31
0.0
  0
LINE
  5
1CE
330
1F
100
AcDbEntity
  8
0
  6
Continuous
 62
     7
370
    25
100
AcDbLine
 10
6297.0187553361
 20
4391.3421713217
 30
0.0
 11
6298.0187553361
 21
4392.3421713217
 31
0.0
  0
LINE
  5
1CF
330
1F
100
AcDbEntity
  8
0
  6
Continuous
 62
     7
370
    25
100
AcDbLine
 10
6250.1937669549
 20
4362.8421713217
 30
0.0
 11
6250.1937669549
 21
4362.6921713217
 31
0.0
  0
LINE
  5
1D0
330
1F
100
AcDbEntity
  8
0
  6
Continuous
 62
     7
370
    25
100
AcDbLine
 10
6297.8437437173
 20
4362.6921713217
 30
0.0
 11
6297.8437437173
 21
4362.8421713217
 31
0.0
  0
LINE
  5
1D1
330
1F
100
AcDbEntity
  8
0
  6
Continuous
 62
     7
370
    25
100
AcDbLine
 10
6251.0187553361
 20
4391.3421713217
 30
0.0
 11
6251.0187553361
 21
4364.8421713217
 31
0.0
  0
LINE
  5
1D2
330
1F
100
AcDbEntity
  8
0
  6
Continuous
 62
     7
370
    25
100
AcDbLine
 10
6297.0187553361
 20
4364.8421713217
 30
0.0
 11
6297.0187553361
 21
4391.3421713217
 31
0.0
  0
LINE
  5
1D3
330
1F
100
AcDbEntity
  8
0
  6
Continuous
 62
     7
370
    25
100
AcDbLine
 10
6259.1187553361
 20
4387.8421713217
 30
0.0
 11
6259.1187553361
 21
4373.8421713217
 31
0.0
  0
LINE
  5
1D4
330
1F
100
AcDbEntity
  8
0
  6
Continuous
 62
     7
370
    25
100
AcDbLine
 10
6288.9187553361
 20
4373.8421713217
 30
0.0
 11
6288.9187553361
 21
4387.8421713217
 31
0.0
  0
LINE
  5
1D5
330
1F
100
AcDbEntity
  8
0
  6
Continuous
 62
     7
370
    25
100
AcDbLine
 10
6259.1187553361
 20
4373.8421713217
 30
0.0
 11
6259.1187553361
 21
4364.8421713217
 31
0.0
  0
LINE
  5
1D6
330
1F
100
AcDbEntity
  8
0
  6
Continuous
 62
     7
370
    25
100
AcDbLine
 10
6288.9187553361
 20
4364.8421713217
 30
0.0
 11
6288.9187553361
 21
4373.8421713217
 31
0.0
  0
LINE
  5
1D7
330
1F
100
AcDbEntity
  8
0
  6
Continuous
 62
     7
370
    25
100
AcDbLine
 10
6283.5187553361
 20
4387.8421713217
 30
0.0
 11
6283.5187553361
 21
4389.8421713217
 31
0.0
  0
LINE
  5
1D8
330
1F
100
AcDbEntity
  8
0
  6
Continuous
 62
     7
370
    25
100
AcDbLine
 10
6264.5187553361
 20
4389.8421713217
 30
0.0
 11
6264.5187553361
 21
4387.8421713217
 31
0.0
  0
LINE
  5
1D9
330
1F
100
AcDbEntity
  8
0
  6
Continuous
 62
     7
370
    25
100
AcDbLine
 10
6259.1187553361
 20
4364.5921713217
 30
0.0
 11
6259.1187553361
 21
4348.8421713217
 31
0.0
  0
LINE
  5
1DA
330
1F
100
AcDbEntity
  8
0
  6
Continuous
 62
     7
370
    25
100
AcDbLine
 10
6288.9187553361
 20
4348.8421713217
 30
0.0
 11
6288.9187553361
 21
4364.5921713217
 31
0.0
  0
LINE
  5
1DB
330
1F
100
AcDbEntity
  8
0
  6
Continuous
 62
     7
370
    25
100
AcDbLine
 10
6208.8187553361
 20
4491.1974161416
 30
0.0
 11
6208.8187553361
 21
4490.8421713217
 31
0.0
  0
LINE
  5
1DC
330
1F
100
AcDbEntity
  8
0
  6
Continuous
 62
     7
370
    25
100
AcDbLine
 10
6229.2187553361
 20
4490.8421713217
 30
0.0
 11
6229.2187553361
 21
4491.1974161416
 31
0.0
  0
LWPOLYLINE
  5
1DD
330
1F
100
AcDbEntity
  8
0
  6
Continuous
 62
     7
370
    25
100
AcDbPolyline
 90
        3
 70
   128
 43
0.0
 10
6209.032932709
 20
4500.261357202
 10
6209.5629884342
 20
4499.9548422677
 10
6210.0763056437
 20
4499.6579590222
  0
LWPOLYLINE
  5
1DE
330
1F
100
AcDbEntity
  8
0
  6
Continuous
 62
     7
370
    25
100
AcDbPolyline
 90
        3
 70
   128
 43
0.0
 10
6209.032932709
 20
4498.3075110482
 10
6209.5633049153
 20
4498.0008123806
 10
6210.0763058228
 20
4497.7041127437
  0
LWPOLYLINE
  5
1DF
330
1F
100
AcDbEntity
  8
0
  6
Continuous
 62
     7
370
    25
100
AcDbPolyline
 90
        3
 70
   128
 43
0.0
 10
6209.032932709
 20
4496.3536648943
 10
6209.5636245952
 20
4496.0467825028
 10
6210.0763061214
 20
4495.7502664526
  0
LWPOLYLINE
  5
1E0
330
1F
100
AcDbEntity
  8
0
  6
Continuous
 62
     7
370
    25
100
AcDbPolyline
 90
        3
 70
   128
 43
0.0
 10
6209.032932709
 20
4494.3998187405
 10
6209.5639474737
 20
4494.0927526343
 10
6210.0763065391
 20
4493.7964201489
  0
LWPOLYLINE
  5
1E1
330
1F
100
AcDbEntity
  8
0
  6
Continuous
 62
     7
370
    25
100
AcDbPolyline
 90
        3
 70
   128
 43
0.0
 10
6227.9451822965
 20
4500.6256150973
 10
6228.4745171119
 20
4500.9317623537
 10
6229.0045730868
 20
4501.2382773872
  0
LWPOLYLINE
  5
1E2
330
1F
100
AcDbEntity
  8
0
  6
Continuous
 62
     7
370
    25
100
AcDbPolyline
 90
        3
 70
   128
 43
0.0
 10
6227.9451822965
 20
4498.6717689435
 10
6228.4742005788
 20
4498.9777324668
 10
6229.0045730868
 20
4499.2844312333
  0
LWPOLYLINE
  5
1E3
330
1F
100
AcDbEntity
  8
0
  6
Continuous
 62
     7
370
    25
100
AcDbPolyline
 90
        3
 70
   128
 43
0.0
 10
6227.9451822965
 20
4496.7179227896
 10
6228.4738808468
 20
4497.0237025891
 10
6229.0045730868
 20
4497.3305850795
  0
LWPOLYLINE
  5
1E4
330
1F
100
AcDbEntity
  8
0
  6
Continuous
 62
     7
370
    25
100
AcDbPolyline
 90
        3
 70
   128
 43
0.0
 10
6227.9451822965
 20
4494.7640766358
 10
6228.4735579162
 20
4495.0696727208
 10
6229.0045730868
 20
4495.3767389256
  0
LWPOLYLINE
  5
1E5
330
1F
100
AcDbEntity
  8
0
  6
Continuous
 62
     7
370
    25
100
AcDbPolyline
 90
        3
 70
   128
 43
0.0
 10
6209.4161203832
 20
4501.9936195685
 10
6209.5626751525
 20
4501.9088721639
 10
6210.0763055842
 20
4501.6118052876
  0
LWPOLYLINE
  5
1E6
330
1F
100
AcDbEntity
  8
0
  6
Continuous
 62
     7
370
    25
100
AcDbPolyline
 90
        3
 70
   128
 43
0.0
 10
6210.0939767341
 20
4499.1990116357
 10
6209.5640099729
 20
4498.8924996211
 10
6209.034591564
 20
4498.5863547063
  0
LWPOLYLINE
  5
1E7
330
1F
100
AcDbEntity
  8
0
  6
Continuous
 62
     7
370
    25
100
AcDbPolyline
 90
        3
 70
   128
 43
0.0
 10
6210.0939767341
 20
4497.2451654818
 10
6209.5636864792
 20
4496.9384697546
 10
6209.034591564
 20
4496.6325085525
  0
LWPOLYLINE
  5
1E8
330
1F
100
AcDbEntity
  8
0
  6
Continuous
 62
     7
370
    25
100
AcDbPolyline
 90
        3
 70
   128
 43
0.0
 10
6210.0939767341
 20
4495.291319328
 10
6209.563366184
 20
4494.9844398788
 10
6209.034591564
 20
4494.6786623986
  0
LWPOLYLINE
  5
1E9
330
1F
100
AcDbEntity
  8
0
  6
Continuous
 62
     7
370
    25
100
AcDbPolyline
 90
        3
 70
   128
 43
0.0
 10
6210.0939767341
 20
4493.3374731741
 10
6209.5630490877
 20
4493.0304099936
 10
6209.034591564
 20
4492.7248162448
  0
LWPOLYLINE
  5
1EA
330
1F
100
AcDbEntity
  8
0
  6
Continuous
 62
     7
370
    25
100
AcDbPolyline
 90
        3
 70
   128
 43
0.0
 10
6229.0029227082
 20
4499.5632757632
 10
6228.4735040756
 20
4499.86942079
 10
6227.9612050282
 20
4500.1657144998
  0
LWPOLYLINE
  5
1EB
330
1F
100
AcDbEntity
  8
0
  6
Continuous
 62
     7
370
    25
100
AcDbPolyline
 90
        3
 70
   128
 43
0.0
 10
6229.0029227082
 20
4497.6094296094
 10
6228.4738275361
 20
4497.9153909234
 10
6227.9612048482
 20
4498.2118685622
  0
LWPOLYLINE
  5
1EC
330
1F
100
AcDbEntity
  8
0
  6
Continuous
 62
     7
370
    25
100
AcDbPolyline
 90
        3
 70
   128
 43
0.0
 10
6229.0029227082
 20
4495.6555834555
 10
6228.4741477981
 20
4495.9613610475
 10
6227.9612045478
 20
4496.2580226321
  0
LWPOLYLINE
  5
1ED
330
1F
100
AcDbEntity
  8
0
  6
Continuous
 62
     7
370
    25
100
AcDbPolyline
 90
        3
 70
   128
 43
0.0
 10
6229.0029227082
 20
4493.7017373017
 10
6228.4744648612
 20
4494.0073311622
 10
6227.9612041267
 20
4494.3041767099
  0
LWPOLYLINE
  5
1EE
330
1F
100
AcDbEntity
  8
0
  6
Continuous
 62
     7
370
    25
100
AcDbPolyline
 90
        3
 70
   128
 43
0.0
 10
6229.0029227082
 20
4501.5171219171
 10
6228.4731774169
 20
4501.8234506471
 10
6227.961205088
 20
4502.1195604448
  0
LWPOLYLINE
  5
1EF
330
1F
100
AcDbEntity
  8
0
  6
Continuous
 62
     7
370
    25
100
AcDbPolyline
 90
        3
 70
   128
 43
0.0
 10
6210.0939767341
 20
4501.1528577895
 10
6209.5643366648
 20
4500.8465294781
 10
6209.034591564
 20
4500.5402008602
  0
LINE
  5
1F0
330
1F
100
AcDbEntity
  8
0
  6
Continuous
 62
     7
370
    25
100
AcDbLine
 10
6209.0187553361
 20
4492.7071928822
 30
0.0
 11
6209.0187553361
 21
4491.1974161416
 31
0.0
  0
LINE
  5
1F1
330
1F
100
AcDbEntity
  8
0
  6
Continuous
 62
     7
370
    25
100
AcDbLine
 10
6209.0187553361
 20
4494.6610390361
 30
0.0
 11
6209.0187553361
 21
4494.4163662183
 31
0.0
  0
LINE
  5
1F2
330
1F
100
AcDbEntity
  8
0
  6
Continuous
 62
     7
370
    25
100
AcDbLine
 10
6209.0187553361
 20
4496.6148851899
 30
0.0
 11
6209.0187553361
 21
4496.3702123721
 31
0.0
  0
LINE
  5
1F3
330
1F
100
AcDbEntity
  8
0
  6
Continuous
 62
     7
370
    25
100
AcDbLine
 10
6209.0187553361
 20
4498.5687313438
 30
0.0
 11
6209.0187553361
 21
4498.324058526
 31
0.0
  0
LINE
  5
1F4
330
1F
100
AcDbEntity
  8
0
  6
Continuous
 62
     7
370
    25
100
AcDbLine
 10
6209.0187553361
 20
4500.5225774976
 30
0.0
 11
6209.0187553361
 21
4500.2779046798
 31
0.0
  0
LINE
  5
1F5
330
1F
100
AcDbEntity
  8
0
  6
Continuous
 62
     7
370
    25
100
AcDbLine
 10
6229.0187553361
 20
4501.2551893822
 30
0.0
 11
6229.0187553361
 21
4501.4990964191
 31
0.0
  0
LINE
  5
1F6
330
1F
100
AcDbEntity
  8
0
  6
Continuous
 62
     7
370
    25
100
AcDbLine
 10
6229.0187553361
 20
4499.3013432284
 30
0.0
 11
6229.0187553361
 21
4499.5452502652
 31
0.0
  0
LINE
  5
1F7
330
1F
100
AcDbEntity
  8
0
  6
Continuous
 62
     7
370
    25
100
AcDbLine
 10
6229.0187553361
 20
4497.3474970745
 30
0.0
 11
6229.0187553361
 21
4497.5914041114
 31
0.0
  0
LINE
  5
1F8
330
1F
100
AcDbEntity
  8
0
  6
Continuous
 62
     7
370
    25
100
AcDbLine
 10
6229.0187553361
 20
4495.3936509207
 30
0.0
 11
6229.0187553361
 21
4495.6375579576
 31
0.0
  0
LINE
  5
1F9
330
1F
100
AcDbEntity
  8
0
  6
Continuous
 62
     7
370
    25
100
AcDbLine
 10
6229.0187553361
 20
4491.1974161416
 30
0.0
 11
6229.0187553361
 21
4493.6837118037
 31
0.0
  0
LINE
  5
1FA
330
1F
100
AcDbEntity
  8
0
  6
Continuous
 62
     7
370
    25
100
AcDbLine
 10
6227.9961286396
 20
4502.7200428381
 30
0.0
 11
6227.5187553361
 21
4503.1974161416
 31
0.0
  0
LINE
  5
1FB
330
1F
100
AcDbEntity
  8
0
  6
Continuous
 62
     7
370
    25
100
AcDbLine
 10
6210.5187553361
 20
4503.1974161416
 30
0.0
 11
6209.4179843963
 21
4502.0966452018
 31
0.0
  0
LWPOLYLINE
  5
1FC
330
1F
100
AcDbEntity
  8
0
  6
Continuous
 62
     7
370
    25
100
AcDbPolyline
 90
        3
 70
   128
 43
0.0
 10
6210.0763055842
 20
4499.6676091272
 10
6210.0763070908
 20
4499.4231941695
 10
6210.0763056437
 20
4499.1887913692
  0
LWPOLYLINE
  5
1FD
330
1F
100
AcDbEntity
  8
0
  6
Continuous
 62
     7
370
    25
100
AcDbPolyline
 90
        3
 70
   128
 43
0.0
 10
6210.0763055842
 20
4497.7137629734
 10
6210.0763116329
 20
4497.4691638273
 10
6210.0763058234
 20
4497.2349454321
  0
LWPOLYLINE
  5
1FE
330
1F
100
AcDbEntity
  8
0
  6
Continuous
 62
     7
370
    25
100
AcDbPolyline
 90
        3
 70
   128
 43
0.0
 10
6210.0763055842
 20
4495.7599168196
 10
6210.0763192104
 20
4495.5151334852
 10
6210.0763061235
 20
4495.2810995025
  0
LWPOLYLINE
  5
1FF
330
1F
100
AcDbEntity
  8
0
  6
Continuous
 62
     7
370
    25
100
AcDbPolyline
 90
        3
 70
   128
 43
0.0
 10
6210.0763055842
 20
4493.8060706657
 10
6210.0763298234
 20
4493.5611031434
 10
6210.0763065443
 20
4493.3272535807
  0
LWPOLYLINE
  5
200
330
1F
100
AcDbEntity
  8
0
  6
Continuous
 62
     7
370
    25
100
AcDbPolyline
 90
        3
 70
   128
 43
0.0
 10
6227.961205088
 20
4500.1560702155
 10
6227.961203574
 20
4500.4001167963
 10
6227.9612050282
 20
4500.63488204
  0
LWPOLYLINE
  5
201
330
1F
100
AcDbEntity
  8
0
  6
Continuous
 62
     7
370
    25
100
AcDbPolyline
 90
        3
 70
   128
 43
0.0
 10
6227.961205088
 20
4498.2022240617
 10
6227.9611990245
 20
4498.446086454
 10
6227.9612048488
 20
4498.6810357623
  0
LWPOLYLINE
  5
202
330
1F
100
AcDbEntity
  8
0
  6
Continuous
 62
     7
370
    25
100
AcDbPolyline
 90
        3
 70
   128
 43
0.0
 10
6227.961205088
 20
4496.2483779078
 10
6227.9611914396
 20
4496.4920561119
 10
6227.96120455
 20
4496.7271894719
  0
LWPOLYLINE
  5
203
330
1F
100
AcDbEntity
  8
0
  6
Continuous
 62
     7
370
    25
100
AcDbPolyline
 90
        3
 70
   128
 43
0.0
 10
6227.961205088
 20
4494.294531754
 10
6227.9611808191
 20
4494.5380257701
 10
6227.961204132
 20
4494.773343169
  0
LINE
  5
204
330
1F
100
AcDbEntity
  8
0
  6
Continuous
 62
     7
370
    25
100
AcDbLine
 10
6227.961205088
 20
4502.1099163694
 30
0.0
 11
6227.961205088
 21
4502.5983779078
 31
0.0
  0
LINE
  5
205
330
1F
100
AcDbEntity
  8
0
  6
Continuous
 62
     7
370
    25
100
AcDbLine
 10
6210.0763055842
 20
4501.6214552811
 30
0.0
 11
6210.0763055842
 21
4501.1426373137
 31
0.0
  0
LINE
  5
206
330
1F
100
AcDbEntity
  8
0
  6
Continuous
 62
     7
370
    25
100
AcDbLine
 10
6318.8187553361
 20
4491.1974161416
 30
0.0
 11
6318.8187553361
 21
4490.8421713217
 31
0.0
  0
LINE
  5
207
330
1F
100
AcDbEntity
  8
0
  6
Continuous
 62
     7
370
    25
100
AcDbLine
 10
6339.2187553361
 20
4490.8421713217
 30
0.0
 11
6339.2187553361
 21
4491.1974161416
 31
0.0
  0
LWPOLYLINE
  5
208
330
1F
100
AcDbEntity
  8
0
  6
Continuous
 62
     7
370
    25
100
AcDbPolyline
 90
        3
 70
   128
 43
0.0
 10
6319.032932709
 20
4500.261357202
 10
6319.5629884343
 20
4499.9548422677
 10
6320.0763056437
 20
4499.6579590222
  0
LWPOLYLINE
  5
209
330
1F
100
AcDbEntity
  8
0
  6
Continuous
 62
     7
370
    25
100
AcDbPolyline
 90
        3
 70
   128
 43
0.0
 10
6319.032932709
 20
4498.3075110482
 10
6319.5633049153
 20
4498.0008123806
 10
6320.0763058228
 20
4497.7041127437
  0
LWPOLYLINE
  5
20A
330
1F
100
AcDbEntity
  8
0
  6
Continuous
 62
     7
370
    25
100
AcDbPolyline
 90
        3
 70
   128
 43
0.0
 10
6319.032932709
 20
4496.3536648943
 10
6319.5636245952
 20
4496.0467825028
 10
6320.0763061214
 20
4495.7502664526
  0
LWPOLYLINE
  5
20B
330
1F
100
AcDbEntity
  8
0
  6
Continuous
 62
     7
370
    25
100
AcDbPolyline
 90
        3
 70
   128
 43
0.0
 10
6319.032932709
 20
4494.3998187405
 10
6319.5639474737
 20
4494.0927526343
 10
6320.0763065391
 20
4493.7964201489
  0
LWPOLYLINE
  5
20C
330
1F
100
AcDbEntity
  8
0
  6
Continuous
 62
     7
370
    25
100
AcDbPolyline
 90
        3
 70
   128
 43
0.0
 10
6337.9451822965
 20
4500.6256150973
 10
6338.4745171119
 20
4500.9317623537
 10
6339.0045730868
 20
4501.2382773872
  0
LWPOLYLINE
  5
20D
330
1F
100
AcDbEntity
  8
0
  6
Continuous
 62
     7
370
    25
100
AcDbPolyline
 90
        3
 70
   128
 43
0.0
 10
6337.9451822965
 20
4498.6717689435
 10
6338.4742005788
 20
4498.9777324668
 10
6339.0045730868
 20
4499.2844312333
  0
LWPOLYLINE
  5
20E
330
1F
100
AcDbEntity
  8
0
  6
Continuous
 62
     7
370
    25
100
AcDbPolyline
 90
        3
 70
   128
 43
0.0
 10
6337.9451822965
 20
4496.7179227896
 10
6338.4738808468
 20
4497.0237025891
 10
6339.0045730868
 20
4497.3305850795
  0
LWPOLYLINE
  5
20F
330
1F
100
AcDbEntity
  8
0
  6
Continuous
 62
     7
370
    25
100
AcDbPolyline
 90
        3
 70
   128
 43
0.0
 10
6337.9451822965
 20
4494.7640766358
 10
6338.4735579162
 20
4495.0696727208
 10
6339.0045730868
 20
4495.3767389256
  0
LWPOLYLINE
  5
210
330
1F
100
AcDbEntity
  8
0
  6
Continuous
 62
     7
370
    25
100
AcDbPolyline
 90
        3
 70
   128
 43
0.0
 10
6319.4161203832
 20
4501.9936195685
 10
6319.5626751525
 20
4501.9088721639
 10
6320.0763055842
 20
4501.6118052876
  0
LWPOLYLINE
  5
211
330
1F
100
AcDbEntity
  8
0
  6
Continuous
 62
     7
370
    25
100
AcDbPolyline
 90
        3
 70
   128
 43
0.0
 10
6320.0939767341
 20
4499.1990116357
 10
6319.5640099729
 20
4498.8924996211
 10
6319.034591564
 20
4498.5863547063
  0
LWPOLYLINE
  5
212
330
1F
100
AcDbEntity
  8
0
  6
Continuous
 62
     7
370
    25
100
AcDbPolyline
 90
        3
 70
   128
 43
0.0
 10
6320.0939767341
 20
4497.2451654818
 10
6319.5636864792
 20
4496.9384697546
 10
6319.034591564
 20
4496.6325085525
  0
LWPOLYLINE
  5
213
330
1F
100
AcDbEntity
  8
0
  6
Continuous
 62
     7
370
    25
100
AcDbPolyline
 90
        3
 70
   128
 43
0.0
 10
6320.0939767341
 20
4495.291319328
 10
6319.563366184
 20
4494.9844398788
 10
6319.034591564
 20
4494.6786623986
  0
LWPOLYLINE
  5
214
330
1F
100
AcDbEntity
  8
0
  6
Continuous
 62
     7
370
    25
100
AcDbPolyline
 90
        3
 70
   128
 43
0.0
 10
6320.0939767341
 20
4493.3374731741
 10
6319.5630490877
 20
4493.0304099936
 10
6319.034591564
 20
4492.7248162448
  0
LWPOLYLINE
  5
215
330
1F
100
AcDbEntity
  8
0
  6
Continuous
 62
     7
370
    25
100
AcDbPolyline
 90
        3
 70
   128
 43
0.0
 10
6339.0029227082
 20
4499.5632757632
 10
6338.4735040756
 20
4499.86942079
 10
6337.9612050282
 20
4500.1657144998
  0
LWPOLYLINE
  5
216
330
1F
100
AcDbEntity
  8
0
  6
Continuous
 62
     7
370
    25
100
AcDbPolyline
 90
        3
 70
   128
 43
0.0
 10
6339.0029227082
 20
4497.6094296094
 10
6338.4738275361
 20
4497.9153909234
 10
6337.9612048482
 20
4498.2118685622
  0
LWPOLYLINE
  5
217
330
1F
100
AcDbEntity
  8
0
  6
Continuous
 62
     7
370
    25
100
AcDbPolyline
 90
        3
 70
   128
 43
0.0
 10
6339.0029227082
 20
4495.6555834555
 10
6338.4741477981
 20
4495.9613610475
 10
6337.9612045478
 20
4496.2580226321
  0
LWPOLYLINE
  5
218
330
1F
100
AcDbEntity
  8
0
  6
Continuous
 62
     7
370
    25
100
AcDbPolyline
 90
        3
 70
   128
 43
0.0
 10
6339.0029227082
 20
4493.7017373017
 10
6338.4744648612
 20
4494.0073311622
 10
6337.9612041267
 20
4494.3041767099
  0
LWPOLYLINE
  5
219
330
1F
100
AcDbEntity
  8
0
  6
Continuous
 62
     7
370
    25
100
AcDbPolyline
 90
        3
 70
   128
 43
0.0
 10
6339.0029227082
 20
4501.5171219171
 10
6338.4731774169
 20
4501.8234506471
 10
6337.961205088
 20
4502.1195604448
  0
LWPOLYLINE
  5
21A
330
1F
100
AcDbEntity
  8
0
  6
Continuous
 62
     7
370
    25
100
AcDbPolyline
 90
        3
 70
   128
 43
0.0
 10
6320.0939767341
 20
4501.1528577895
 10
6319.5643366648
 20
4500.8465294781
 10
6319.034591564
 20
4500.5402008602
  0
LINE
  5
21B
330
1F
100
AcDbEntity
  8
0
  6
Continuous
 62
     7
370
    25
100
AcDbLine
 10
6319.0187553361
 20
4492.7071928822
 30
0.0
 11
6319.0187553361
 21
4491.1974161416
 31
0.0
  0
LINE
  5
21C
330
1F
100
AcDbEntity
  8
0
  6
Continuous
 62
     7
370
    25
100
AcDbLine
 10
6319.0187553361
 20
4494.6610390361
 30
0.0
 11
6319.0187553361
 21
4494.4163662183
 31
0.0
  0
LINE
  5
21D
330
1F
100
AcDbEntity
  8
0
  6
Continuous
 62
     7
370
    25
100
AcDbLine
 10
6319.0187553361
 20
4496.6148851899
 30
0.0
 11
6319.0187553361
 21
4496.3702123721
 31
0.0
  0
LINE
  5
21E
330
1F
100
AcDbEntity
  8
0
  6
Continuous
 62
     7
370
    25
100
AcDbLine
 10
6319.0187553361
 20
4498.5687313438
 30
0.0
 11
6319.0187553361
 21
4498.324058526
 31
0.0
  0
LINE
  5
21F
330
1F
100
AcDbEntity
  8
0
  6
Continuous
 62
     7
370
    25
100
AcDbLine
 10
6319.0187553361
 20
4500.5225774976
 30
0.0
 11
6319.0187553361
 21
4500.2779046798
 31
0.0
  0
LINE
  5
220
330
1F
100
AcDbEntity
  8
0
  6
Continuous
 62
     7
370
    25
100
AcDbLine
 10
6339.0187553361
 20
4501.2551893822
 30
0.0
 11
6339.0187553361
 21
4501.4990964191
 31
0.0
  0
LINE
  5
221
330
1F
100
AcDbEntity
  8
0
  6
Continuous
 62
     7
370
    25
100
AcDbLine
 10
6339.0187553361
 20
4499.3013432284
 30
0.0
 11
6339.0187553361
 21
4499.5452502652
 31
0.0
  0
LINE
  5
222
330
1F
100
AcDbEntity
  8
0
  6
Continuous
 62
     7
370
    25
100
AcDbLine
 10
6339.0187553361
 20
4497.3474970745
 30
0.0
 11
6339.0187553361
 21
4497.5914041114
 31
0.0
  0
LINE
  5
223
330
1F
100
AcDbEntity
  8
0
  6
Continuous
 62
     7
370
    25
100
AcDbLine
 10
6339.0187553361
 20
4495.3936509207
 30
0.0
 11
6339.0187553361
 21
4495.6375579576
 31
0.0
  0
LINE
  5
224
330
1F
100
AcDbEntity
  8
0
  6
Continuous
 62
     7
370
    25
100
AcDbLine
 10
6339.0187553361
 20
4491.1974161416
 30
0.0
 11
6339.0187553361
 21
4493.6837118037
 31
0.0
  0
LINE
  5
225
330
1F
100
AcDbEntity
  8
0
  6
Continuous
 62
     7
370
    25
100
AcDbLine
 10
6337.9961286396
 20
4502.7200428381
 30
0.0
 11
6337.5187553361
 21
4503.1974161416
 31
0.0
  0
LINE
  5
226
330
1F
100
AcDbEntity
  8
0
  6
Continuous
 62
     7
370
    25
100
AcDbLine
 10
6320.5187553361
 20
4503.1974161416
 30
0.0
 11
6319.4179843963
 21
4502.0966452018
 31
0.0
  0
LWPOLYLINE
  5
227
330
1F
100
AcDbEntity
  8
0
  6
Continuous
 62
     7
370
    25
100
AcDbPolyline
 90
        3
 70
   128
 43
0.0
 10
6320.0763055842
 20
4499.6676091272
 10
6320.0763070908
 20
4499.4231941695
 10
6320.0763056437
 20
4499.1887913692
  0
LWPOLYLINE
  5
228
330
1F
100
AcDbEntity
  8
0
  6
Continuous
 62
     7
370
    25
100
AcDbPolyline
 90
        3
 70
   128
 43
0.0
 10
6320.0763055842
 20
4497.7137629734
 10
6320.0763116329
 20
4497.4691638273
 10
6320.0763058234
 20
4497.2349454321
  0
LWPOLYLINE
  5
229
330
1F
100
AcDbEntity
  8
0
  6
Continuous
 62
     7
370
    25
100
AcDbPolyline
 90
        3
 70
   128
 43
0.0
 10
6320.0763055842
 20
4495.7599168196
 10
6320.0763192104
 20
4495.5151334852
 10
6320.0763061235
 20
4495.2810995025
  0
LWPOLYLINE
  5
22A
330
1F
100
AcDbEntity
  8
0
  6
Continuous
 62
     7
370
    25
100
AcDbPolyline
 90
        3
 70
   128
 43
0.0
 10
6320.0763055842
 20
4493.8060706657
 10
6320.0763298234
 20
4493.5611031434
 10
6320.0763065443
 20
4493.3272535807
  0
LWPOLYLINE
  5
22B
330
1F
100
AcDbEntity
  8
0
  6
Continuous
 62
     7
370
    25
100
AcDbPolyline
 90
        3
 70
   128
 43
0.0
 10
6337.961205088
 20
4500.1560702155
 10
6337.961203574
 20
4500.4001167963
 10
6337.9612050282
 20
4500.63488204
  0
LWPOLYLINE
  5
22C
330
1F
100
AcDbEntity
  8
0
  6
Continuous
 62
     7
370
    25
100
AcDbPolyline
 90
        3
 70
   128
 43
0.0
 10
6337.961205088
 20
4498.2022240617
 10
6337.9611990245
 20
4498.446086454
 10
6337.9612048488
 20
4498.6810357623
  0
LWPOLYLINE
  5
22D
330
1F
100
AcDbEntity
  8
0
  6
Continuous
 62
     7
370
    25
100
AcDbPolyline
 90
        3
 70
   128
 43
0.0
 10
6337.961205088
 20
4496.2483779078
 10
6337.9611914396
 20
4496.4920561119
 10
6337.96120455
 20
4496.7271894719
  0
LWPOLYLINE
  5
22E
330
1F
100
AcDbEntity
  8
0
  6
Continuous
 62
     7
370
    25
100
AcDbPolyline
 90
        3
 70
   128
 43
0.0
 10
6337.961205088
 20
4494.294531754
 10
6337.9611808191
 20
4494.5380257701
 10
6337.961204132
 20
4494.7733431689
  0
LINE
  5
22F
330
1F
100
AcDbEntity
  8
0
  6
Continuous
 62
     7
370
    25
100
AcDbLine
 10
6337.961205088
 20
4502.1099163694
 30
0.0
 11
6337.961205088
 21
4502.5983779078
 31
0.0
  0
LINE
  5
230
330
1F
100
AcDbEntity
  8
0
  6
Continuous
 62
     7
370
    25
100
AcDbLine
 10
6320.0763055842
 20
4501.6214552811
 30
0.0
 11
6320.0763055842
 21
4501.1426373137
 31
0.0
  0
ARC
  5
231
330
1F
100
AcDbEntity
  8
0
  6
Continuous
 62
     7
370
    25
100
AcDbCircle
 10
6301.0187553361
 20
4397.3421713217
 30
0.0
 40
0.5000000000009095
100
AcDbArc
 50
0.0
 51
90.0
  0
ARC
  5
232
330
1F
100
AcDbEntity
  8
0
  6
Continuous
 62
     7
370
    25
100
AcDbCircle
 10
6247.0187553361
 20
4397.3421713217
 30
0.0
 40
0.5000000000009095
100
AcDbArc
 50
90.0
 51
180.0
  0
LINE
  5
233
330
1F
100
AcDbEntity
  8
0
  6
Continuous
 62
     7
370
    25
100
AcDbLine
 10
6246.5187553361
 20
4397.3421713217
 30
0.0
 11
6246.5187553361
 21
4396.3421713217
 31
0.0
  0
LINE
  5
234
330
1F
100
AcDbEntity
  8
0
  6
Continuous
 62
     7
370
    25
100
AcDbLine
 10
6301.5187553361
 20
4396.3421713217
 30
0.0
 11
6301.5187553361
 21
4397.3421713217
 31
0.0
  0
ARC
  5
235
330
1F
100
AcDbEntity
  8
0
  6
Continuous
 62
     7
370
    25
100
AcDbCircle
 10
6301.0187553361
 20
4396.3421713217
 30
0.0
 40
0.5000000000009095
100
AcDbArc
 50
270.0
 51
0.0
  0
ARC
  5
236
330
1F
100
AcDbEntity
  8
0
  6
Continuous
 62
     7
370
    25
100
AcDbCircle
 10
6247.0187553361
 20
4396.3421713217
 30
0.0
 40
0.5000000000009095
100
AcDbArc
 50
180.0
 51
270.0
  0
LINE
  5
237
330
1F
100
AcDbEntity
  8
0
  6
Continuous
 62
     7
370
    25
100
AcDbLine
 10
6302.0187553361
 20
4392.8421713217
 30
0.0
 11
6288.0187553361
 21
4392.8421713217
 31
0.0
  0
LINE
  5
238
330
1F
100
AcDbEntity
  8
0
  6
Continuous
 62
     7
370
    25
100
AcDbLine
 10
6260.0187553361
 20
4392.8421713217
 30
0.0
 11
6246.0187553361
 21
4392.8421713217
 31
0.0
  0
LINE
  5
239
330
1F
100
AcDbEntity
  8
0
  6
Continuous
 62
     7
370
    25
100
AcDbLine
 10
6298.5187553361
 20
4362.6921713217
 30
0.0
 11
6288.9187553361
 21
4362.6921713217
 31
0.0
  0
LINE
  5
23A
330
1F
100
AcDbEntity
  8
0
  6
Continuous
 62
     7
370
    25
100
AcDbLine
 10
6259.1187553361
 20
4362.6921713217
 30
0.0
 11
6249.5187553361
 21
4362.6921713217
 31
0.0
  0
LINE
  5
23B
330
1F
100
AcDbEntity
  8
0
  6
Continuous
 62
     7
370
    25
100
AcDbLine
 10
6249.5187553361
 20
4340.3421713217
 30
0.0
 11
6262.8081948387
 21
4340.3421713217
 31
0.0
  0
LINE
  5
23C
330
1F
100
AcDbEntity
  8
0
  6
Continuous
 62
     7
370
    25
100
AcDbLine
 10
6285.2293158335
 20
4340.3421713217
 30
0.0
 11
6298.5187553361
 21
4340.3421713217
 31
0.0
  0
LINE
  5
23D
330
1F
100
AcDbEntity
  8
0
  6
Continuous
 62
     7
370
    25
100
AcDbLine
 10
6249.5187553361
 20
4364.8421713217
 30
0.0
 11
6259.1215520191
 21
4364.8421713217
 31
0.0
  0
LINE
  5
23E
330
1F
100
AcDbEntity
  8
0
  6
Continuous
 62
     7
370
    25
100
AcDbLine
 10
6288.9159586531
 20
4364.8421713217
 30
0.0
 11
6298.5187553361
 21
4364.8421713217
 31
0.0
  0
LINE
  5
23F
330
1F
100
AcDbEntity
  8
0
  6
Continuous
 62
     7
370
    25
100
AcDbLine
 10
6288.9187553361
 20
4362.8421713217
 30
0.0
 11
6298.5187553361
 21
4362.8421713217
 31
0.0
  0
LINE
  5
240
330
1F
100
AcDbEntity
  8
0
  6
Continuous
 62
     7
370
    25
100
AcDbLine
 10
6249.5187553361
 20
4362.8421713217
 30
0.0
 11
6259.1187553361
 21
4362.8421713217
 31
0.0
  0
LINE
  5
241
330
1F
100
AcDbEntity
  8
0
  6
Continuous
 62
     7
370
    25
100
AcDbLine
 10
6250.0187553361
 20
4392.3421713217
 30
0.0
 11
6260.0187553361
 21
4392.3421713217
 31
0.0
  0
LINE
  5
242
330
1F
100
AcDbEntity
  8
0
  6
Continuous
 62
     7
370
    25
100
AcDbLine
 10
6288.0187553361
 20
4392.3421713217
 30
0.0
 11
6298.0187553361
 21
4392.3421713217
 31
0.0
  0
LINE
  5
243
330
1F
100
AcDbEntity
  8
0
  6
Continuous
 62
     7
370
    25
100
AcDbLine
 10
6251.0187553361
 20
4391.3421713217
 30
0.0
 11
6260.0187553361
 21
4391.3421713217
 31
0.0
  0
LINE
  5
244
330
1F
100
AcDbEntity
  8
0
  6
Continuous
 62
     7
370
    25
100
AcDbLine
 10
6288.0187553361
 20
4391.3421713217
 30
0.0
 11
6297.0187553361
 21
4391.3421713217
 31
0.0
  0
ELLIPSE
  5
245
330
1F
100
AcDbEntity
  8
0
  6
Continuous
 62
     7
370
    25
100
AcDbEllipse
 10
6381.7308902996
 20
4489.2421713217
 30
0.0
 11
0.0
 21
1.599999999999454
 31
0.0
210
0.0
220
0.0
230
1.0
 40
0.5
 41
4.31096325242529
 42
6.283185307179586
  0
LINE
  5
246
330
1F
100
AcDbEntity
  8
0
  6
Continuous
 62
     7
370
    25
100
AcDbLine
 10
6165.5702164898
 20
4488.6170015161
 30
0.0
 11
6382.4672941824
 21
4488.6170015161
 31
0.0
  0
LINE
  5
247
330
1F
100
AcDbEntity
  8
0
  6
Continuous
 62
     7
370
    25
100
AcDbLine
 10
6166.3066203725
 20
4490.8421713217
 30
0.0
 11
6381.7308902997
 21
4490.8421713217
 31
0.0
  0
ELLIPSE
  5
248
330
1F
100
AcDbEntity
  8
0
  6
Continuous
 62
     7
370
    25
100
AcDbEllipse
 10
6166.3066203725
 20
4489.2421713217
 30
0.0
 11
0.0
 21
1.599999999999454
 31
0.0
210
0.0
220
0.0
230
1.0
 40
0.5
 41
0.0
 42
1.972222054751721
  0
LINE
  5
249
330
1F
100
AcDbEntity
  8
0
  6
Continuous
 62
     7
370
    25
100
AcDbLine
 10
6203.6880549854
 20
4398.8170015161
 30
0.0
 11
6344.3494556867
 21
4398.8170015161
 31
0.0
  0
LINE
  5
24A
330
1F
100
AcDbEntity
  8
0
  6
Continuous
 62
     7
370
    25
100
AcDbLine
 10
6165.5702164898
 20
4488.6170015161
 30
0.0
 11
6203.6880549854
 21
4398.8170015161
 31
0.0
  0
LINE
  5
24B
330
1F
100
AcDbEntity
  8
0
  6
Continuous
 62
     7
370
    25
100
AcDbLine
 10
6344.3494556867
 20
4398.8170015161
 30
0.0
 11
6382.4672941824
 21
4488.6170015161
 31
0.0
  0
ARC
  5
24C
330
1F
100
AcDbEntity
  8
0
  6
Continuous
 62
     7
370
    25
100
AcDbCircle
 10
6165.5995135914
 20
4489.2421713217
 30
0.0
 40
0.8000000000001819
100
AcDbArc
 50
90.0
 51
203.0
  0
LINE
  5
24D
330
1F
100
AcDbEntity
  8
0
  6
Continuous
 62
     7
370
    25
100
AcDbLine
 10
6164.1267058258
 20
4488.6170015161
 30
0.0
 11
6164.8631097086
 21
4488.9295864189
 31
0.0
  0
ARC
  5
24E
330
1F
100
AcDbEntity
  8
0
  6
Continuous
 62
     7
370
    25
100
AcDbCircle
 10
6165.5995135914
 20
4489.2421713217
 30
0.0
 40
1.599999999999454
100
AcDbArc
 50
90.0
 51
203.0
  0
LINE
  5
24F
330
1F
100
AcDbEntity
  8
0
  6
Continuous
 62
     7
370
    25
100
AcDbLine
 10
6165.5995135914
 20
4490.8421713217
 30
0.0
 11
6165.5995135914
 21
4490.0421713217
 31
0.0
  0
LINE
  5
250
330
1F
100
AcDbEntity
  8
0
  6
Continuous
 62
     7
370
    25
100
AcDbLine
 10
6383.9108048464
 20
4488.6170015161
 30
0.0
 11
6383.1744009636
 21
4488.9295864189
 31
0.0
  0
ARC
  5
251
330
1F
100
AcDbEntity
  8
0
  6
Continuous
 62
     7
370
    25
100
AcDbCircle
 10
6382.4379970808
 20
4489.2421713217
 30
0.0
 40
0.8000000000001819
100
AcDbArc
 50
337.0
 51
90.0
  0
LINE
  5
252
330
1F
100
AcDbEntity
  8
0
  6
Continuous
 62
     7
370
    25
100
AcDbLine
 10
6382.4379970808
 20
4490.8421713217
 30
0.0
 11
6382.4379970808
 21
4490.0421713217
 31
0.0
  0
ARC
  5
253
330
1F
100
AcDbEntity
  8
0
  6
Continuous
 62
     7
370
    25
100
AcDbCircle
 10
6382.4379970808
 20
4489.2421713217
 30
0.0
 40
1.599999999999454
100
AcDbArc
 50
337.0
 51
90.0
  0
LINE
  5
254
330
1F
100
AcDbEntity
  8
0
  6
Continuous
 62
     7
370
    25
100
AcDbLine
 10
6202.9809482042
 20
4399.1295864189
 30
0.0
 11
6164.8631097086
 21
4488.9295864189
 31
0.0
  0
LINE
  5
255
330
1F
100
AcDbEntity
  8
0
  6
Continuous
 62
     7
370
    25
100
AcDbLine
 10
6202.2445443215
 20
4398.8170015161
 30
0.0
 11
6202.9809482042
 21
4399.1295864189
 31
0.0
  0
LINE
  5
256
330
1F
100
AcDbEntity
  8
0
  6
Continuous
 62
     7
370
    25
100
AcDbLine
 10
6202.2445443215
 20
4398.8170015161
 30
0.0
 11
6164.1267058258
 21
4488.6170015161
 31
0.0
  0
LINE
  5
257
330
1F
100
AcDbEntity
  8
0
  6
Continuous
 62
     7
370
    25
100
AcDbLine
 10
6383.1744009636
 20
4488.9295864189
 30
0.0
 11
6345.056562468
 21
4399.1295864189
 31
0.0
  0
LINE
  5
258
330
1F
100
AcDbEntity
  8
0
  6
Continuous
 62
     7
370
    25
100
AcDbLine
 10
6383.9108048464
 20
4488.6170015161
 30
0.0
 11
6345.7929663507
 21
4398.8170015161
 31
0.0
  0
LINE
  5
259
330
1F
100
AcDbEntity
  8
0
  6
Continuous
 62
     7
370
    25
100
AcDbLine
 10
6345.7929663507
 20
4398.8170015161
 30
0.0
 11
6345.056562468
 21
4399.1295864189
 31
0.0
  0
LINE
  5
25A
330
1F
100
AcDbEntity
  8
0
  6
Continuous
 62
     7
370
    25
100
AcDbLine
 10
6166.3066203725
 20
4490.8421713217
 30
0.0
 11
6165.5995135914
 21
4490.8421713217
 31
0.0
  0
LINE
  5
25B
330
1F
100
AcDbEntity
  8
0
  6
Continuous
 62
     7
370
    25
100
AcDbLine
 10
6165.6138000495
 20
4490.0421713217
 30
0.0
 11
6165.5995135914
 21
4490.0421713217
 31
0.0
  0
LINE
  5
25C
330
1F
100
AcDbEntity
  8
0
  6
Continuous
 62
     7
370
    25
100
AcDbLine
 10
6382.4379970808
 20
4490.0421713217
 30
0.0
 11
6382.4237106227
 21
4490.0421713217
 31
0.0
  0
LINE
  5
25D
330
1F
100
AcDbEntity
  8
0
  6
Continuous
 62
     7
370
    25
100
AcDbLine
 10
6382.4379970808
 20
4490.8421713217
 30
0.0
 11
6381.7308902996
 21
4490.8421713217
 31
0.0
  0
LINE
  5
25E
330
1F
100
AcDbEntity
  8
0
  6
Continuous
 62
     7
370
    25
100
AcDbLine
 10
6203.717352087
 20
4397.8421713217
 30
0.0
 11
6344.3201585852
 21
4397.8421713217
 31
0.0
  0
ELLIPSE
  5
25F
330
1F
100
AcDbEntity
  8
0
  6
Continuous
 62
     7
370
    25
100
AcDbEllipse
 10
6203.717352087
 20
4399.4421713217
 30
0.0
 11
0.0
 21
1.600000000000364
 31
0.0
210
0.0
220
0.0
230
1.0
 40
0.0198920064
 41
1.972222054756497
 42
3.141592653589787
  0
ELLIPSE
  5
260
330
1F
100
AcDbEntity
  8
0
  6
Continuous
 62
     7
370
    25
100
AcDbEllipse
 10
6344.3201585852
 20
4399.4421713217
 30
0.0
 11
0.0
 21
1.600000000000364
 31
0.0
210
0.0
220
0.0
230
1.0
 40
0.0198920064
 41
3.141592653561211
 42
4.310963252420152
  0
ARC
  5
261
330
1F
100
AcDbEntity
  8
0
  6
Continuous
 62
     7
370
    25
100
AcDbCircle
 10
6203.717352087
 20
4399.4421713217
 30
0.0
 40
0.8000000000001819
100
AcDbArc
 50
203.0
 51
270.0
  0
ARC
  5
262
330
1F
100
AcDbEntity
  8
0
  6
Continuous
 62
     7
370
    25
100
AcDbCircle
 10
6203.717352087
 20
4399.4421713217
 30
0.0
 40
1.600000000000364
100
AcDbArc
 50
203.0
 51
269.9999999999
  0
ARC
  5
263
330
1F
100
AcDbEntity
  8
0
  6
Continuous
 62
     7
370
    25
100
AcDbCircle
 10
6344.3201585852
 20
4399.4421713217
 30
0.0
 40
1.600000000000364
100
AcDbArc
 50
270.0
 51
337.0
  0
ARC
  5
264
330
1F
100
AcDbEntity
  8
0
  6
Continuous
 62
     7
370
    25
100
AcDbCircle
 10
6344.3201585852
 20
4399.4421713217
 30
0.0
 40
0.8000000000001819
100
AcDbArc
 50
270.0000000001
 51
337.0
  0
ARC
  5
265
330
1F
100
AcDbEntity
  8
0
  6
Continuous
 62
     7
370
    25
100
AcDbCircle
 10
6344.153894872
 20
4399.0115060298
 30
0.0
 40
0.9103580433410594
100
AcDbArc
 50
7.4526980151
 51
50.6667874865
  0
ARC
  5
266
330
1F
100
AcDbEntity
  8
0
  6
Continuous
 62
     7
370
    25
100
AcDbCircle
 10
6382.7398568126
 20
4490.2438109784
 30
0.0
 40
1.384201868210065
100
AcDbArc
 50
251.7036967379
 51
288.296303262
  0
ARC
  5
267
330
1F
100
AcDbEntity
  8
0
  6
Continuous
 62
     7
370
    25
100
AcDbCircle
 10
6165.2976538596
 20
4490.2438109784
 30
0.0
 40
1.384201868213805
100
AcDbArc
 50
251.703696738
 51
288.296303262
  0
ARC
  5
268
330
1F
100
AcDbEntity
  8
0
  6
Continuous
 62
     7
370
    25
100
AcDbCircle
 10
6203.8836158002
 20
4399.0115060298
 30
0.0
 40
0.9103580433406295
100
AcDbArc
 50
129.3332125148
 51
172.5473019846
  0
LINE
  5
269
330
1F
100
AcDbEntity
  8
0
  6
Continuous
 62
     7
370
    25
100
AcDbLine
 10
6259.1187553361
 20
4387.8421713217
 30
0.0
 11
6288.9187553361
 21
4387.8421713217
 31
0.0
  0
ELLIPSE
  5
26A
330
1F
100
AcDbEntity
  8
0
  6
Continuous
 62
     7
370
    25
100
AcDbEllipse
 10
6274.0187553361
 20
4373.8421713217
 30
0.0
 11
14.90000000000055
 21
0.0
 31
0.0
210
0.0
220
0.0
230
1.0
 40
0.5773502692
 41
3.141592653589793
 42
4.712388980384698
  0
ELLIPSE
  5
26B
330
1F
100
AcDbEntity
  8
0
  6
Continuous
 62
     7
370
    25
100
AcDbEllipse
 10
6274.0187553361
 20
4373.8421713217
 30
0.0
 11
14.90000000000055
 21
0.0
 31
0.0
210
0.0
220
0.0
230
1.0
 40
0.5773502692
 41
4.712388980384698
 42
6.283185307179586
  0
LINE
  5
26C
330
1F
100
AcDbEntity
  8
0
  6
Continuous
 62
     7
370
    25
100
AcDbLine
 10
6260.0187553361
 20
4395.8421713217
 30
0.0
 11
6260.0187553361
 21
4389.8421713217
 31
0.0
  0
LINE
  5
26D
330
1F
100
AcDbEntity
  8
0
  6
Continuous
 62
     7
370
    25
100
AcDbLine
 10
6288.0187553361
 20
4395.8421713217
 30
0.0
 11
6288.0187553361
 21
4389.8421713217
 31
0.0
  0
LINE
  5
26E
330
1F
100
AcDbEntity
  8
0
  6
Continuous
 62
     7
370
    25
100
AcDbLine
 10
6260.0187553361
 20
4389.8421713217
 30
0.0
 11
6288.0187553361
 21
4389.8421713217
 31
0.0
  0
LWPOLYLINE
  5
26F
330
1F
100
AcDbEntity
  8
0
  6
Continuous
 62
     7
370
    25
100
AcDbPolyline
 90
       21
 70
   128
 43
0.0
 10
6259.1187553361
 20
4364.8421713217
 10
6259.3021990612
 20
4362.8235756325
 10
6259.8480132433
 20
4360.8546844685
 10
6260.7427581257
 20
4358.9839784645
 10
6261.9644021199
 20
4357.2575206109
 10
6263.4828642964
 20
4355.7178220298
 10
6265.2607550769
 20
4354.4027952103
 10
6267.25429689
 20
4353.3448204769
 10
6269.4144021199
 20
4352.5699486789
 10
6271.687881807
 20
4352.0972597314
 10
6274.0187553361
 20
4351.9383928053
 10
6276.3496288652
 20
4352.0972597314
 10
6278.6231085523
 20
4352.5699486789
 10
6280.7832137822
 20
4353.3448204769
 10
6282.7767555953
 20
4354.4027952103
 10
6284.5546463758
 20
4355.7178220298
 10
6286.0731085523
 20
4357.2575206109
 10
6287.2947525465
 20
4358.9839784645
 10
6288.1894974289
 20
4360.8546844685
 10
6288.735311611
 20
4362.8235756325
 10
6288.9187553361
 20
4364.8421713217
  0
LWPOLYLINE
  5
270
330
1F
100
AcDbEntity
  8
0
  6
Continuous
 62
     7
370
    25
100
AcDbPolyline
 90
       21
 70
   128
 43
0.0
 10
6259.1187553361
 20
4364.5921713217
 10
6259.3021990612
 20
4362.5735756325
 10
6259.8480132433
 20
4360.6046844685
 10
6260.7427581257
 20
4358.7339784645
 10
6261.9644021199
 20
4357.0075206109
 10
6263.4828642964
 20
4355.4678220298
 10
6265.2607550769
 20
4354.1527952103
 10
6267.25429689
 20
4353.0948204769
 10
6269.4144021199
 20
4352.3199486789
 10
6271.687881807
 20
4351.8472597314
 10
6274.0187553361
 20
4351.6883928053
 10
6276.3496288652
 20
4351.8472597314
 10
6278.6231085523
 20
4352.3199486789
 10
6280.7832137822
 20
4353.0948204769
 10
6282.7767555953
 20
4354.1527952103
 10
6284.5546463758
 20
4355.4678220298
 10
6286.0731085523
 20
4357.0075206109
 10
6287.2947525465
 20
4358.7339784645
 10
6288.1894974289
 20
4360.6046844685
 10
6288.735311611
 20
4362.5735756325
 10
6288.9187553361
 20
4364.5921713217
  0
LWPOLYLINE
  5
271
330
1F
100
AcDbEntity
  8
0
  6
Continuous
 62
     7
370
    25
100
AcDbPolyline
 90
       11
 70
   128
 43
0.0
 10
6274.0187553361
 20
4335.9383928053
 10
6276.3496288652
 20
4336.0972597314
 10
6278.6231085523
 20
4336.5699486789
 10
6280.7832137822
 20
4337.3448204769
 10
6282.7767555953
 20
4338.4027952103
 10
6284.5546463758
 20
4339.7178220298
 10
6286.0731085523
 20
4341.2575206109
 10
6287.2947525465
 20
4342.9839784645
 10
6288.1894974289
 20
4344.8546844685
 10
6288.735311611
 20
4346.8235756325
 10
6288.9187553361
 20
4348.8421713217
  0
LWPOLYLINE
  5
272
330
1F
100
AcDbEntity
  8
0
  6
Continuous
 62
     7
370
    25
100
AcDbPolyline
 90
       11
 70
   128
 43
0.0
 10
6259.1187553361
 20
4348.8421713217
 10
6259.3021990612
 20
4346.8235756325
 10
6259.8480132433
 20
4344.8546844685
 10
6260.7427581257
 20
4342.9839784645
 10
6261.9644021199
 20
4341.2575206109
 10
6263.4828642964
 20
4339.7178220298
 10
6265.2607550769
 20
4338.4027952103
 10
6267.25429689
 20
4337.3448204769
 10
6269.4144021199
 20
4336.5699486789
 10
6271.687881807
 20
4336.0972597314
 10
6274.0187553361
 20
4335.9383928053
  0
LINE
  5
273
330
1F
100
AcDbEntity
  8
0
  6
Continuous
 62
     7
370
    25
100
AcDbLine
 10
6208.8187553361
 20
4491.1974161416
 30
0.0
 11
6229.2187553361
 21
4491.1974161416
 31
0.0
  0
LWPOLYLINE
  5
274
330
1F
100
AcDbEntity
  8
0
  6
Continuous
 62
     7
370
    25
100
AcDbPolyline
 90
       11
 70
   128
 43
0.0
 10
6209.4782547288
 20
4502.0363748694
 10
6209.6598950568
 20
4502.0823110818
 10
6210.9879540837
 20
4502.1488516661
 10
6213.2056167745
 20
4502.2160836896
 10
6216.0629713499
 20
4502.283042856
 10
6219.2014124321
 20
4502.349757434
 10
6222.2909471401
 20
4502.4172092141
 10
6224.9489365093
 20
4502.4835473611
 10
6226.9051896983
 20
4502.5512862339
 10
6227.9322082447
 20
4502.6174902774
 10
6227.9319353133
 20
4502.6558495118
  0
LWPOLYLINE
  5
275
330
1F
100
AcDbEntity
  8
0
  6
Continuous
 62
     7
370
    25
100
AcDbPolyline
 90
       12
 70
   128
 43
0.0
 10
6227.854238797
 20
4502.5982509247
 10
6227.8915303821
 20
4502.5589905178
 10
6227.1164985154
 20
4502.4627522011
 10
6225.406932112
 20
4502.356762587
 10
6223.0097696458
 20
4502.2543724263
 10
6220.1397488368
 20
4502.1483771782
 10
6217.1762460723
 20
4502.0458705435
 10
6214.3891080351
 20
4501.9401452168
 10
6212.1391602049
 20
4501.8372802549
 10
6210.6399754514
 20
4501.7320980924
 10
6210.0786131176
 20
4501.6286360325
 10
6210.1080182769
 20
4501.6215112533
  0
LWPOLYLINE
  5
276
330
1F
100
AcDbEntity
  8
0
  6
Continuous
 62
     7
370
    25
100
AcDbPolyline
 90
       12
 70
   128
 43
0.0
 10
6227.8722067766
 20
4500.6254881658
 10
6227.8915303821
 20
4500.605144364
 10
6227.1164985154
 20
4500.5089060473
 10
6225.406932112
 20
4500.4029164331
 10
6223.0097696458
 20
4500.3005262724
 10
6220.1397488368
 20
4500.1945310244
 10
6217.1762460723
 20
4500.0920243897
 10
6214.3891080351
 20
4499.9862990629
 10
6212.1391602049
 20
4499.8834341011
 10
6210.6399754514
 20
4499.7782519386
 10
6210.0786131176
 20
4499.6747898786
 10
6210.1082801168
 20
4499.6676016564
  0
LWPOLYLINE
  5
277
330
1F
100
AcDbEntity
  8
0
  6
Continuous
 62
     7
370
    25
100
AcDbPolyline
 90
       12
 70
   128
 43
0.0
 10
6227.8722232141
 20
4498.6716247066
 10
6227.8915303821
 20
4498.6512982101
 10
6227.1164985154
 20
4498.5550598934
 10
6225.406932112
 20
4498.4490702793
 10
6223.0097696458
 20
4498.3466801186
 10
6220.1397488368
 20
4498.2406848705
 10
6217.1762460723
 20
4498.1381782358
 10
6214.3891080351
 20
4498.0324529091
 10
6212.1391602049
 20
4497.9295879472
 10
6210.6399754514
 20
4497.8244057848
 10
6210.0786131176
 20
4497.7209437248
 10
6210.1085416655
 20
4497.7136921301
  0
LWPOLYLINE
  5
278
330
1F
100
AcDbEntity
  8
0
  6
Continuous
 62
     7
370
    25
100
AcDbPolyline
 90
       12
 70
   128
 43
0.0
 10
6227.8722396768
 20
4496.7177612209
 10
6227.8915303821
 20
4496.6974520563
 10
6227.1164985154
 20
4496.6012137396
 10
6225.406932112
 20
4496.4952241254
 10
6223.0097696458
 20
4496.3928339647
 10
6220.1397488368
 20
4496.2868387167
 10
6217.1762460723
 20
4496.184332082
 10
6214.3891080351
 20
4496.0786067552
 10
6212.1391602049
 20
4495.9757417934
 10
6210.6399754514
 20
4495.8705596309
 10
6210.0786131176
 20
4495.7670975709
 10
6210.1088029179
 20
4495.7597826756
  0
LWPOLYLINE
  5
279
330
1F
100
AcDbEntity
  8
0
  6
Continuous
 62
     7
370
    25
100
AcDbPolyline
 90
       12
 70
   128
 43
0.0
 10
6227.8722561651
 20
4494.7638977082
 10
6227.8915303821
 20
4494.7436059024
 10
6227.1164985154
 20
4494.6473675858
 10
6225.406932112
 20
4494.5413779716
 10
6223.0097696458
 20
4494.4389878109
 10
6220.1397488368
 20
4494.3329925628
 10
6217.1762460723
 20
4494.2304859281
 10
6214.3891080351
 20
4494.1247606014
 10
6212.1391602049
 20
4494.0218956395
 10
6210.6399754514
 20
4493.9167134771
 10
6210.0786131176
 20
4493.8132514171
 10
6210.1090638689
 20
4493.8058732942
  0
LWPOLYLINE
  5
27A
330
1F
100
AcDbEntity
  8
0
  6
Continuous
 62
     7
370
    25
100
AcDbPolyline
 90
       11
 70
   128
 43
0.0
 10
6228.8690304889
 20
4501.238186262
 10
6228.8448432001
 20
4501.1964052917
 10
6227.6970664485
 20
4501.0939081637
 10
6225.5685174846
 20
4500.9881664396
 10
6222.7333118383
 20
4500.8853208144
 10
6219.4633569244
 20
4500.7801111715
 10
6216.161857894
 20
4500.6766781122
 10
6213.1680195651
 20
4500.5722693956
 10
6210.826552418
 20
4500.4680149888
 10
6209.3983662535
 20
4500.3644635889
 10
6209.1003202392
 20
4500.2779046798
  0
LWPOLYLINE
  5
27B
330
1F
100
AcDbEntity
  8
0
  6
Continuous
 62
     7
370
    25
100
AcDbPolyline
 90
       11
 70
   128
 43
0.0
 10
6228.8690111843
 20
4499.2843067614
 10
6228.8448432001
 20
4499.2425591378
 10
6227.6970664485
 20
4499.1400620098
 10
6225.5685174846
 20
4499.0343202857
 10
6222.7333118383
 20
4498.9314746605
 10
6219.4633569244
 20
4498.8262650176
 10
6216.161857894
 20
4498.7228319583
 10
6213.1680195651
 20
4498.6184232417
 10
6210.826552418
 20
4498.514168835
 10
6209.3983662535
 20
4498.4106174351
 10
6209.1003202392
 20
4498.324058526
  0
LWPOLYLINE
  5
27C
330
1F
100
AcDbEntity
  8
0
  6
Continuous
 62
     7
370
    25
100
AcDbPolyline
 90
       11
 70
   128
 43
0.0
 10
6228.8689918894
 20
4497.3304272776
 10
6228.8448432001
 20
4497.288712984
 10
6227.6970664485
 20
4497.186215856
 10
6225.5685174846
 20
4497.0804741319
 10
6222.7333118383
 20
4496.9776285067
 10
6219.4633569244
 20
4496.8724188638
 10
6216.161857894
 20
4496.7689858045
 10
6213.1680195651
 20
4496.6645770879
 10
6210.826552418
 20
4496.5603226811
 10
6209.3983662535
 20
4496.4567712812
 10
6209.1003202392
 20
4496.3702123721
  0
LWPOLYLINE
  5
27D
330
1F
100
AcDbEntity
  8
0
  6
Continuous
 62
     7
370
    25
100
AcDbPolyline
 90
       11
 70
   128
 43
0.0
 10
6228.8689726042
 20
4495.3765478107
 10
6228.8448432001
 20
4495.3348668301
 10
6227.6970664485
 20
4495.2323697021
 10
6225.5685174846
 20
4495.126627978
 10
6222.7333118383
 20
4495.0237823528
 10
6219.4633569244
 20
4494.91857271
 10
6216.161857894
 20
4494.8151396507
 10
6213.1680195651
 20
4494.710730934
 10
6210.826552418
 20
4494.6064765273
 10
6209.3983662535
 20
4494.5029251274
 10
6209.1003202392
 20
4494.4163662183
  0
LWPOLYLINE
  5
27E
330
1F
100
AcDbEntity
  8
0
  6
Continuous
 62
     7
370
    25
100
AcDbPolyline
 90
       12
 70
   128
 43
0.0
 10
6228.897768299
 20
4501.4990964191
 10
6228.96376327
 20
4501.4662302951
 10
6228.0741523657
 20
4501.3637137515
 10
6226.1624096714
 20
4501.257724139
 10
6223.4817545578
 20
4501.1553339798
 10
6220.2723199942
 20
4501.0493387332
 10
6216.9583480893
 20
4500.9468321003
 10
6213.8415980538
 20
4500.8411067746
 10
6211.3255672507
 20
4500.738241815
 10
6209.6490860423
 20
4500.633059653
 10
6209.0213357785
 20
4500.5295975957
 10
6209.0537352991
 20
4500.5225774976
  0
LWPOLYLINE
  5
27F
330
1F
100
AcDbEntity
  8
0
  6
Continuous
 62
     7
370
    25
100
AcDbPolyline
 90
       12
 70
   128
 43
0.0
 10
6228.897768299
 20
4499.5452502652
 10
6228.96376327
 20
4499.5123841412
 10
6228.0741523657
 20
4499.4098675977
 10
6226.1624096714
 20
4499.3038779852
 10
6223.4817545578
 20
4499.201487826
 10
6220.2723199942
 20
4499.0954925794
 10
6216.9583480893
 20
4498.9929859465
 10
6213.8415980538
 20
4498.8872606208
 10
6211.3255672507
 20
4498.7843956611
 10
6209.6490860423
 20
4498.6792134992
 10
6209.0213357785
 20
4498.5757514419
 10
6209.0537352991
 20
4498.5687313438
  0
LWPOLYLINE
  5
280
330
1F
100
AcDbEntity
  8
0
  6
Continuous
 62
     7
370
    25
100
AcDbPolyline
 90
       12
 70
   128
 43
0.0
 10
6228.897768299
 20
4497.5914041114
 10
6228.96376327
 20
4497.5585379874
 10
6228.0741523657
 20
4497.4560214438
 10
6226.1624096714
 20
4497.3500318313
 10
6223.4817545578
 20
4497.2476416721
 10
6220.2723199942
 20
4497.1416464255
 10
6216.9583480893
 20
4497.0391397926
 10
6213.8415980538
 20
4496.9334144669
 10
6211.3255672507
 20
4496.8305495073
 10
6209.6490860423
 20
4496.7253673453
 10
6209.0213357785
 20
4496.621905288
 10
6209.0537352991
 20
4496.6148851899
  0
LWPOLYLINE
  5
281
330
1F
100
AcDbEntity
  8
0
  6
Continuous
 62
     7
370
    25
100
AcDbPolyline
 90
       12
 70
   128
 43
0.0
 10
6228.897768299
 20
4495.6375579576
 10
6228.96376327
 20
4495.6046918335
 10
6228.0741523657
 20
4495.50217529
 10
6226.1624096714
 20
4495.3961856775
 10
6223.4817545578
 20
4495.2937955183
 10
6220.2723199942
 20
4495.1878002717
 10
6216.9583480893
 20
4495.0852936388
 10
6213.8415980538
 20
4494.9795683131
 10
6211.3255672507
 20
4494.8767033534
 10
6209.6490860423
 20
4494.7715211915
 10
6209.0213357785
 20
4494.6680591342
 10
6209.0537352991
 20
4494.6610390361
  0
LWPOLYLINE
  5
282
330
1F
100
AcDbEntity
  8
0
  6
Continuous
 62
     7
370
    25
100
AcDbPolyline
 90
       12
 70
   128
 43
0.0
 10
6228.897768299
 20
4493.6837118037
 10
6228.96376327
 20
4493.6508456797
 10
6228.0741523657
 20
4493.5483291361
 10
6226.1624096714
 20
4493.4423395236
 10
6223.4817545578
 20
4493.3399493644
 10
6220.2723199942
 20
4493.2339541178
 10
6216.9583480893
 20
4493.131447485
 10
6213.8415980538
 20
4493.0257221592
 10
6211.3255672507
 20
4492.9228571996
 10
6209.6490860423
 20
4492.8176750376
 10
6209.0213357785
 20
4492.7142129804
 10
6209.0537352991
 20
4492.7071928822
  0
LWPOLYLINE
  5
283
330
1F
100
AcDbEntity
  8
0
  6
Continuous
 62
     7
370
    25
100
AcDbPolyline
 90
       11
 70
   128
 43
0.0
 10
6227.8528589002
 20
4502.1097591796
 10
6227.9120287092
 20
4502.0768072155
 10
6227.1164986282
 20
4501.9742906719
 10
6225.4069323299
 20
4501.8683010594
 10
6223.0097699643
 20
4501.7659109002
 10
6220.1397492327
 20
4501.6599156536
 10
6217.1762465088
 20
4501.5574090208
 10
6214.3891084506
 20
4501.451683695
 10
6212.1391605475
 20
4501.3488187354
 10
6210.6399756509
 20
4501.2436365734
 10
6210.1434602755
 20
4501.1521261849
  0
LWPOLYLINE
  5
284
330
1F
100
AcDbEntity
  8
0
  6
Continuous
 62
     7
370
    25
100
AcDbPolyline
 90
       11
 70
   128
 43
0.0
 10
6227.8529513886
 20
4500.1558615185
 10
6227.9120287092
 20
4500.1229610616
 10
6227.1164986282
 20
4500.0204445181
 10
6225.4069323299
 20
4499.9144549056
 10
6223.0097699643
 20
4499.8120647464
 10
6220.1397492327
 20
4499.7060694998
 10
6217.1762465088
 20
4499.6035628669
 10
6214.3891084506
 20
4499.4978375412
 10
6212.1391605475
 20
4499.3949725815
 10
6210.6399756509
 20
4499.2897904196
 10
6210.1433476208
 20
4499.1982592682
  0
LWPOLYLINE
  5
285
330
1F
100
AcDbEntity
  8
0
  6
Continuous
 62
     7
370
    25
100
AcDbPolyline
 90
       11
 70
   128
 43
0.0
 10
6227.8530121182
 20
4498.2019815441
 10
6227.9120287092
 20
4498.1691149078
 10
6227.1164986282
 20
4498.0665983642
 10
6225.4069323299
 20
4497.9606087517
 10
6223.0097699643
 20
4497.8582185925
 10
6220.1397492327
 20
4497.7522233459
 10
6217.1762465088
 20
4497.6497167131
 10
6214.3891084506
 20
4497.5439913873
 10
6212.1391605475
 20
4497.4411264277
 10
6210.6399756509
 20
4497.3359442657
 10
6210.1432347068
 20
4497.2443923037
  0
LWPOLYLINE
  5
286
330
1F
100
AcDbEntity
  8
0
  6
Continuous
 62
     7
370
    25
100
AcDbPolyline
 90
       11
 70
   128
 43
0.0
 10
6227.8530124622
 20
4496.2481351986
 10
6227.9120287092
 20
4496.2152687539
 10
6227.1164986282
 20
4496.1127522104
 10
6225.4069323299
 20
4496.0067625979
 10
6223.0097699643
 20
4495.9043724387
 10
6220.1397492327
 20
4495.7983771921
 10
6217.1762465088
 20
4495.6958705592
 10
6214.3891084506
 20
4495.5901452335
 10
6212.1391605475
 20
4495.4872802738
 10
6210.6399756509
 20
4495.3820981119
 10
6210.1431215312
 20
4495.290525291
  0
LWPOLYLINE
  5
287
330
1F
100
AcDbEntity
  8
0
  6
Continuous
 62
     7
370
    25
100
AcDbPolyline
 90
       11
 70
   128
 43
0.0
 10
6227.8530132152
 20
4494.2942886255
 10
6227.9120287092
 20
4494.2614226001
 10
6227.1164986282
 20
4494.1589060565
 10
6225.4069323299
 20
4494.052916444
 10
6223.0097699643
 20
4493.9505262849
 10
6220.1397492327
 20
4493.8445310382
 10
6217.1762465088
 20
4493.7420244054
 10
6214.3891084506
 20
4493.6362990797
 10
6212.1391605475
 20
4493.53343412
 10
6210.6399756509
 20
4493.428251958
 10
6210.1430080917
 20
4493.3366582297
  0
LINE
  5
288
330
1F
100
AcDbEntity
  8
0
  6
Continuous
 62
     7
370
    25
100
AcDbLine
 10
6210.5187553361
 20
4503.1974161416
 30
0.0
 11
6227.5187553361
 21
4503.1974161416
 31
0.0
  0
LINE
  5
289
330
1F
100
AcDbEntity
  8
0
  6
Continuous
 62
     7
370
    25
100
AcDbLine
 10
6318.8187553361
 20
4491.1974161416
 30
0.0
 11
6339.2187553361
 21
4491.1974161416
 31
0.0
  0
LWPOLYLINE
  5
28A
330
1F
100
AcDbEntity
  8
0
  6
Continuous
 62
     7
370
    25
100
AcDbPolyline
 90
       11
 70
   128
 43
0.0
 10
6319.4782547288
 20
4502.0363748694
 10
6319.6598950568
 20
4502.0823110818
 10
6320.9879540837
 20
4502.1488516661
 10
6323.2056167745
 20
4502.2160836896
 10
6326.0629713499
 20
4502.283042856
 10
6329.2014124321
 20
4502.349757434
 10
6332.2909471401
 20
4502.4172092141
 10
6334.9489365093
 20
4502.4835473611
 10
6336.9051896983
 20
4502.5512862339
 10
6337.9322082447
 20
4502.6174902773
 10
6337.9319353133
 20
4502.6558495118
  0
LWPOLYLINE
  5
28B
330
1F
100
AcDbEntity
  8
0
  6
Continuous
 62
     7
370
    25
100
AcDbPolyline
 90
       12
 70
   128
 43
0.0
 10
6337.854238797
 20
4502.5982509247
 10
6337.8915303821
 20
4502.5589905178
 10
6337.1164985154
 20
4502.4627522011
 10
6335.406932112
 20
4502.356762587
 10
6333.0097696458
 20
4502.2543724263
 10
6330.1397488368
 20
4502.1483771782
 10
6327.1762460723
 20
4502.0458705435
 10
6324.3891080351
 20
4501.9401452168
 10
6322.1391602049
 20
4501.8372802549
 10
6320.6399754514
 20
4501.7320980924
 10
6320.0786131176
 20
4501.6286360325
 10
6320.1080182769
 20
4501.6215112533
  0
LWPOLYLINE
  5
28C
330
1F
100
AcDbEntity
  8
0
  6
Continuous
 62
     7
370
    25
100
AcDbPolyline
 90
       12
 70
   128
 43
0.0
 10
6337.8722067766
 20
4500.6254881658
 10
6337.8915303821
 20
4500.605144364
 10
6337.1164985154
 20
4500.5089060473
 10
6335.406932112
 20
4500.4029164331
 10
6333.0097696458
 20
4500.3005262724
 10
6330.1397488368
 20
4500.1945310244
 10
6327.1762460723
 20
4500.0920243897
 10
6324.3891080351
 20
4499.9862990629
 10
6322.1391602049
 20
4499.8834341011
 10
6320.6399754514
 20
4499.7782519386
 10
6320.0786131176
 20
4499.6747898786
 10
6320.1082801168
 20
4499.6676016564
  0
LWPOLYLINE
  5
28D
330
1F
100
AcDbEntity
  8
0
  6
Continuous
 62
     7
370
    25
100
AcDbPolyline
 90
       12
 70
   128
 43
0.0
 10
6337.8722232141
 20
4498.6716247066
 10
6337.8915303821
 20
4498.6512982101
 10
6337.1164985154
 20
4498.5550598934
 10
6335.406932112
 20
4498.4490702793
 10
6333.0097696458
 20
4498.3466801186
 10
6330.1397488368
 20
4498.2406848705
 10
6327.1762460723
 20
4498.1381782358
 10
6324.3891080351
 20
4498.0324529091
 10
6322.1391602049
 20
4497.9295879472
 10
6320.6399754514
 20
4497.8244057848
 10
6320.0786131176
 20
4497.7209437248
 10
6320.1085416655
 20
4497.7136921301
  0
LWPOLYLINE
  5
28E
330
1F
100
AcDbEntity
  8
0
  6
Continuous
 62
     7
370
    25
100
AcDbPolyline
 90
       12
 70
   128
 43
0.0
 10
6337.8722396768
 20
4496.7177612209
 10
6337.8915303821
 20
4496.6974520563
 10
6337.1164985154
 20
4496.6012137396
 10
6335.406932112
 20
4496.4952241254
 10
6333.0097696458
 20
4496.3928339647
 10
6330.1397488368
 20
4496.2868387167
 10
6327.1762460723
 20
4496.184332082
 10
6324.3891080351
 20
4496.0786067552
 10
6322.1391602049
 20
4495.9757417934
 10
6320.6399754514
 20
4495.8705596309
 10
6320.0786131176
 20
4495.7670975709
 10
6320.1088029179
 20
4495.7597826756
  0
LWPOLYLINE
  5
28F
330
1F
100
AcDbEntity
  8
0
  6
Continuous
 62
     7
370
    25
100
AcDbPolyline
 90
       12
 70
   128
 43
0.0
 10
6337.8722561651
 20
4494.7638977082
 10
6337.8915303821
 20
4494.7436059024
 10
6337.1164985154
 20
4494.6473675858
 10
6335.406932112
 20
4494.5413779716
 10
6333.0097696458
 20
4494.4389878109
 10
6330.1397488368
 20
4494.3329925628
 10
6327.1762460723
 20
4494.2304859281
 10
6324.3891080351
 20
4494.1247606014
 10
6322.1391602049
 20
4494.0218956395
 10
6320.6399754514
 20
4493.9167134771
 10
6320.0786131176
 20
4493.8132514171
 10
6320.1090638689
 20
4493.8058732942
  0
LWPOLYLINE
  5
290
330
1F
100
AcDbEntity
  8
0
  6
Continuous
 62
     7
370
    25
100
AcDbPolyline
 90
       11
 70
   128
 43
0.0
 10
6338.8690304889
 20
4501.238186262
 10
6338.8448432001
 20
4501.1964052917
 10
6337.6970664485
 20
4501.0939081637
 10
6335.5685174846
 20
4500.9881664396
 10
6332.7333118383
 20
4500.8853208144
 10
6329.4633569244
 20
4500.7801111715
 10
6326.161857894
 20
4500.6766781122
 10
6323.1680195651
 20
4500.5722693956
 10
6320.826552418
 20
4500.4680149888
 10
6319.3983662535
 20
4500.3644635889
 10
6319.1003202392
 20
4500.2779046798
  0
LWPOLYLINE
  5
291
330
1F
100
AcDbEntity
  8
0
  6
Continuous
 62
     7
370
    25
100
AcDbPolyline
 90
       11
 70
   128
 43
0.0
 10
6338.8690111843
 20
4499.2843067614
 10
6338.8448432001
 20
4499.2425591378
 10
6337.6970664485
 20
4499.1400620098
 10
6335.5685174846
 20
4499.0343202857
 10
6332.7333118383
 20
4498.9314746605
 10
6329.4633569244
 20
4498.8262650176
 10
6326.161857894
 20
4498.7228319583
 10
6323.1680195651
 20
4498.6184232417
 10
6320.826552418
 20
4498.514168835
 10
6319.3983662535
 20
4498.4106174351
 10
6319.1003202392
 20
4498.324058526
  0
LWPOLYLINE
  5
292
330
1F
100
AcDbEntity
  8
0
  6
Continuous
 62
     7
370
    25
100
AcDbPolyline
 90
       11
 70
   128
 43
0.0
 10
6338.8689918894
 20
4497.3304272776
 10
6338.8448432001
 20
4497.288712984
 10
6337.6970664485
 20
4497.186215856
 10
6335.5685174846
 20
4497.0804741319
 10
6332.7333118383
 20
4496.9776285067
 10
6329.4633569244
 20
4496.8724188638
 10
6326.161857894
 20
4496.7689858045
 10
6323.1680195651
 20
4496.6645770879
 10
6320.826552418
 20
4496.5603226811
 10
6319.3983662535
 20
4496.4567712812
 10
6319.1003202392
 20
4496.3702123721
  0
LWPOLYLINE
  5
293
330
1F
100
AcDbEntity
  8
0
  6
Continuous
 62
     7
370
    25
100
AcDbPolyline
 90
       11
 70
   128
 43
0.0
 10
6338.8689726042
 20
4495.3765478107
 10
6338.8448432001
 20
4495.3348668301
 10
6337.6970664485
 20
4495.2323697021
 10
6335.5685174846
 20
4495.126627978
 10
6332.7333118383
 20
4495.0237823528
 10
6329.4633569244
 20
4494.91857271
 10
6326.161857894
 20
4494.8151396507
 10
6323.1680195651
 20
4494.710730934
 10
6320.826552418
 20
4494.6064765273
 10
6319.3983662535
 20
4494.5029251274
 10
6319.1003202392
 20
4494.4163662183
  0
LWPOLYLINE
  5
294
330
1F
100
AcDbEntity
  8
0
  6
Continuous
 62
     7
370
    25
100
AcDbPolyline
 90
       12
 70
   128
 43
0.0
 10
6338.897768299
 20
4501.4990964191
 10
6338.96376327
 20
4501.4662302951
 10
6338.0741523657
 20
4501.3637137515
 10
6336.1624096714
 20
4501.257724139
 10
6333.4817545578
 20
4501.1553339798
 10
6330.2723199942
 20
4501.0493387332
 10
6326.9583480893
 20
4500.9468321003
 10
6323.8415980538
 20
4500.8411067746
 10
6321.3255672507
 20
4500.738241815
 10
6319.6490860423
 20
4500.633059653
 10
6319.0213357785
 20
4500.5295975957
 10
6319.0537352991
 20
4500.5225774976
  0
LWPOLYLINE
  5
295
330
1F
100
AcDbEntity
  8
0
  6
Continuous
 62
     7
370
    25
100
AcDbPolyline
 90
       12
 70
   128
 43
0.0
 10
6338.897768299
 20
4499.5452502652
 10
6338.96376327
 20
4499.5123841412
 10
6338.0741523657
 20
4499.4098675977
 10
6336.1624096714
 20
4499.3038779852
 10
6333.4817545578
 20
4499.201487826
 10
6330.2723199942
 20
4499.0954925794
 10
6326.9583480893
 20
4498.9929859465
 10
6323.8415980538
 20
4498.8872606208
 10
6321.3255672507
 20
4498.7843956611
 10
6319.6490860423
 20
4498.6792134992
 10
6319.0213357785
 20
4498.5757514419
 10
6319.0537352991
 20
4498.5687313438
  0
LWPOLYLINE
  5
296
330
1F
100
AcDbEntity
  8
0
  6
Continuous
 62
     7
370
    25
100
AcDbPolyline
 90
       12
 70
   128
 43
0.0
 10
6338.897768299
 20
4497.5914041114
 10
6338.96376327
 20
4497.5585379874
 10
6338.0741523657
 20
4497.4560214438
 10
6336.1624096714
 20
4497.3500318313
 10
6333.4817545578
 20
4497.2476416721
 10
6330.2723199942
 20
4497.1416464255
 10
6326.9583480893
 20
4497.0391397926
 10
6323.8415980538
 20
4496.9334144669
 10
6321.3255672507
 20
4496.8305495073
 10
6319.6490860423
 20
4496.7253673453
 10
6319.0213357785
 20
4496.621905288
 10
6319.0537352991
 20
4496.6148851899
  0
LWPOLYLINE
  5
297
330
1F
100
AcDbEntity
  8
0
  6
Continuous
 62
     7
370
    25
100
AcDbPolyline
 90
       12
 70
   128
 43
0.0
 10
6338.897768299
 20
4495.6375579576
 10
6338.96376327
 20
4495.6046918335
 10
6338.0741523657
 20
4495.50217529
 10
6336.1624096714
 20
4495.3961856775
 10
6333.4817545578
 20
4495.2937955183
 10
6330.2723199942
 20
4495.1878002717
 10
6326.9583480893
 20
4495.0852936388
 10
6323.8415980538
 20
4494.9795683131
 10
6321.3255672507
 20
4494.8767033534
 10
6319.6490860423
 20
4494.7715211915
 10
6319.0213357785
 20
4494.6680591342
 10
6319.0537352991
 20
4494.6610390361
  0
LWPOLYLINE
  5
298
330
1F
100
AcDbEntity
  8
0
  6
Continuous
 62
     7
370
    25
100
AcDbPolyline
 90
       12
 70
   128
 43
0.0
 10
6338.897768299
 20
4493.6837118037
 10
6338.96376327
 20
4493.6508456797
 10
6338.0741523657
 20
4493.5483291361
 10
6336.1624096714
 20
4493.4423395236
 10
6333.4817545578
 20
4493.3399493644
 10
6330.2723199942
 20
4493.2339541178
 10
6326.9583480893
 20
4493.131447485
 10
6323.8415980538
 20
4493.0257221592
 10
6321.3255672507
 20
4492.9228571996
 10
6319.6490860423
 20
4492.8176750376
 10
6319.0213357785
 20
4492.7142129804
 10
6319.0537352991
 20
4492.7071928822
  0
LWPOLYLINE
  5
299
330
1F
100
AcDbEntity
  8
0
  6
Continuous
 62
     7
370
    25
100
AcDbPolyline
 90
       11
 70
   128
 43
0.0
 10
6337.8528589002
 20
4502.1097591796
 10
6337.9120287092
 20
4502.0768072155
 10
6337.1164986282
 20
4501.9742906719
 10
6335.4069323299
 20
4501.8683010594
 10
6333.0097699643
 20
4501.7659109002
 10
6330.1397492327
 20
4501.6599156536
 10
6327.1762465088
 20
4501.5574090208
 10
6324.3891084506
 20
4501.451683695
 10
6322.1391605475
 20
4501.3488187354
 10
6320.6399756509
 20
4501.2436365734
 10
6320.1434602755
 20
4501.1521261849
  0
LWPOLYLINE
  5
29A
330
1F
100
AcDbEntity
  8
0
  6
Continuous
 62
     7
370
    25
100
AcDbPolyline
 90
       11
 70
   128
 43
0.0
 10
6337.8529513886
 20
4500.1558615185
 10
6337.9120287092
 20
4500.1229610616
 10
6337.1164986282
 20
4500.0204445181
 10
6335.4069323299
 20
4499.9144549056
 10
6333.0097699643
 20
4499.8120647464
 10
6330.1397492327
 20
4499.7060694998
 10
6327.1762465088
 20
4499.6035628669
 10
6324.3891084506
 20
4499.4978375412
 10
6322.1391605475
 20
4499.3949725815
 10
6320.6399756509
 20
4499.2897904196
 10
6320.1433476208
 20
4499.1982592682
  0
LWPOLYLINE
  5
29B
330
1F
100
AcDbEntity
  8
0
  6
Continuous
 62
     7
370
    25
100
AcDbPolyline
 90
       11
 70
   128
 43
0.0
 10
6337.8530121182
 20
4498.2019815441
 10
6337.9120287092
 20
4498.1691149078
 10
6337.1164986282
 20
4498.0665983642
 10
6335.4069323299
 20
4497.9606087517
 10
6333.0097699643
 20
4497.8582185925
 10
6330.1397492327
 20
4497.7522233459
 10
6327.1762465088
 20
4497.6497167131
 10
6324.3891084506
 20
4497.5439913873
 10
6322.1391605475
 20
4497.4411264277
 10
6320.6399756509
 20
4497.3359442657
 10
6320.1432347068
 20
4497.2443923037
  0
LWPOLYLINE
  5
29C
330
1F
100
AcDbEntity
  8
0
  6
Continuous
 62
     7
370
    25
100
AcDbPolyline
 90
       11
 70
   128
 43
0.0
 10
6337.8530124622
 20
4496.2481351986
 10
6337.9120287092
 20
4496.2152687539
 10
6337.1164986282
 20
4496.1127522104
 10
6335.4069323299
 20
4496.0067625979
 10
6333.0097699643
 20
4495.9043724387
 10
6330.1397492327
 20
4495.7983771921
 10
6327.1762465088
 20
4495.6958705592
 10
6324.3891084506
 20
4495.5901452335
 10
6322.1391605475
 20
4495.4872802738
 10
6320.6399756509
 20
4495.3820981119
 10
6320.1431215312
 20
4495.290525291
  0
LWPOLYLINE
  5
29D
330
1F
100
AcDbEntity
  8
0
  6
Continuous
 62
     7
370
    25
100
AcDbPolyline
 90
       11
 70
   128
 43
0.0
 10
6337.8530132152
 20
4494.2942886255
 10
6337.9120287092
 20
4494.2614226001
 10
6337.1164986282
 20
4494.1589060565
 10
6335.4069323299
 20
4494.052916444
 10
6333.0097699643
 20
4493.9505262849
 10
6330.1397492327
 20
4493.8445310382
 10
6327.1762465088
 20
4493.7420244054
 10
6324.3891084506
 20
4493.6362990797
 10
6322.1391605475
 20
4493.53343412
 10
6320.6399756509
 20
4493.428251958
 10
6320.1430080917
 20
4493.3366582297
  0
LINE
  5
29E
330
1F
100
AcDbEntity
  8
0
  6
Continuous
 62
     7
370
    25
100
AcDbLine
 10
6320.5187553361
 20
4503.1974161416
 30
0.0
 11
6337.5187553361
 21
4503.1974161416
 31
0.0
  0
LINE
  5
29F
330
1F
100
AcDbEntity
  8
0
  6
Continuous
 62
     7
370
    25
100
AcDbLine
 10
6301.0187553361
 20
4395.8421713217
 30
0.0
 11
6247.0187553361
 21
4395.8421713217
 31
0.0
  0
LINE
  5
2A0
330
1F
100
AcDbEntity
  8
0
  6
Continuous
 62
     8
370
    25
100
AcDbLine
 10
6244.0187553361
 20
4394.8421713217
 30
0.0
 11
6260.0187553361
 21
4394.8421713217
 31
0.0
  0
LINE
  5
2A1
330
1F
100
AcDbEntity
  8
0
  6
Continuous
 62
     8
370
    25
100
AcDbLine
 10
6288.0187553361
 20
4394.8421713217
 30
0.0
 11
6304.0187553361
 21
4394.8421713217
 31
0.0
  0
LINE
  5
2A2
330
1F
100
AcDbEntity
  8
0
  6
Continuous
 62
     8
370
    25
100
AcDbLine
 10
6301.5187553361
 20
4397.3421713217
 30
0.0
 11
6246.5187553361
 21
4397.3421713217
 31
0.0
  0
LINE
  5
2A3
330
1F
100
AcDbEntity
  8
0
  6
Continuous
 62
     8
370
    25
100
AcDbLine
 10
6246.5187553361
 20
4396.3421713217
 30
0.0
 11
6301.5187553361
 21
4396.3421713217
 31
0.0
  0
ENDSEC
  0
SECTION
  2
OBJECTS
  0
DICTIONARY
  5
C
330
0
100
AcDbDictionary
281
     1
  3
ACAD_GROUP
350
D
  3
ACAD_LAYOUT
350
1A
  3
ACAD_MLINESTYLE
350
17
  3
ACAD_PLOTSETTINGS
350
19
  3
ACAD_PLOTSTYLENAME
350
E
  3
ACAD_SCALELIST
350
47
  3
DWGPROPS
350
2A4
  0
DICTIONARY
  5
D
102
{ACAD_REACTORS
330
C
102
}
330
C
100
AcDbDictionary
281
     1
  0
DICTIONARY
  5
1A
102
{ACAD_REACTORS
330
C
102
}
330
C
100
AcDbDictionary
281
     1
  3
Layout1
350
1E
  3
Layout2
350
26
  3
Model
350
22
  0
DICTIONARY
  5
17
102
{ACAD_REACTORS
330
C
102
}
330
C
100
AcDbDictionary
281
     1
  3
Standard
350
18
  0
DICTIONARY
  5
19
102
{ACAD_REACTORS
330
C
102
}
330
C
100
AcDbDictionary
281
     1
  0
ACDBDICTIONARYWDFLT
  5
E
102
{ACAD_REACTORS
330
C
102
}
330
C
100
AcDbDictionary
281
     1
  3
Normal
350
F
100
AcDbDictionaryWithDefault
340
F
  0
DICTIONARY
  5
47
102
{ACAD_REACTORS
330
C
102
}
330
C
100
AcDbDictionary
281
     1
  3
A0
350
48
  3
A1
350
49
  3
A2
350
4A
  3
A3
350
4B
  3
A4
350
4C
  3
A5
350
4D
  3
A6
350
4E
  3
A7
350
4F
  3
A8
350
50
  3
A9
350
51
  3
B0
350
52
  3
B1
350
53
  3
B2
350
54
  3
B3
350
55
  3
B4
350
56
  3
B5
350
57
  3
B6
350
58
  3
B7
350
59
  3
B8
350
5A
  3
B9
350
5B
  3
C0
350
5C
  3
C1
350
5D
  3
C2
350
5E
  3
C3
350
5F
  3
C4
350
60
  3
C5
350
61
  3
C6
350
62
  3
C7
350
63
  3
C8
350
64
  3
C9
350
65
  3
D0
350
66
  3
D1
350
67
  3
D2
350
68
  0
XRECORD
  5
2A4
102
{ACAD_REACTORS
330
C
102
}
330
C
100
AcDbXrecord
280
     1
  1
DWGPROPS COOKIE
  2

  3

  4

  6

  7

  8
radek.stransky
  9

300
=
301
=
302
=
303
=
304
=
305
=
306
=
307
=
308
=
309
=
 40
0.0
 41
2459744.500229873
 42
2459744.50023022
  1

 90
        0
  0
LAYOUT
  5
1E
102
{ACAD_REACTORS
330
1A
102
}
330
1A
100
AcDbPlotSettings
  1

  2
none_device
  4

  6

 40
0.0
 41
0.0
 42
0.0
 43
0.0
 44
0.0
 45
0.0
 46
0.0
 47
0.0
 48
0.0
 49
0.0
140
0.0
141
0.0
142
1.0
143
1.0
 70
   688
 72
     1
 73
     0
 74
     5
  7

 75
    16
147
1.0
148
0.0
149
0.0
100
AcDbLayout
  1
Layout1
 70
     1
 71
     1
 10
0.0
 20
0.0
 11
420.0
 21
297.0
 12
0.0
 22
0.0
 32
0.0
 14
1.0000000000E+20
 24
1.0000000000E+20
 34
1.0000000000E+20
 15
-1.0000000000E+20
 25
-1.0000000000E+20
 35
-1.0000000000E+20
146
0.0
 13
0.0
 23
0.0
 33
0.0
 16
1.0
 26
0.0
 36
0.0
 17
0.0
 27
1.0
 37
0.0
 76
     0
330
1B
  0
LAYOUT
  5
26
102
{ACAD_REACTORS
330
1A
102
}
330
1A
100
AcDbPlotSettings
  1

  2
none_device
  4

  6

 40
0.0
 41
0.0
 42
0.0
 43
0.0
 44
0.0
 45
0.0
 46
0.0
 47
0.0
 48
0.0
 49
0.0
140
0.0
141
0.0
142
1.0
143
1.0
 70
   688
 72
     1
 73
     0
 74
     5
  7

 75
    16
147
1.0
148
0.0
149
0.0
100
AcDbLayout
  1
Layout2
 70
     1
 71
     2
 10
0.0
 20
0.0
 11
0.0
 21
0.0
 12
0.0
 22
0.0
 32
0.0
 14
0.0
 24
0.0
 34
0.0
 15
0.0
 25
0.0
 35
0.0
146
0.0
 13
0.0
 23
0.0
 33
0.0
 16
1.0
 26
0.0
 36
0.0
 17
0.0
 27
1.0
 37
0.0
 76
     0
330
23
  0
LAYOUT
  5
22
102
{ACAD_REACTORS
330
1A
102
}
330
1A
100
AcDbPlotSettings
  1

  2
none_device
  4
Letter_(8.50_x_11.00_Inches)
  6

 40
6.35
 41
6.35
 42
6.35000508
 43
6.35000508
 44
215.9
 45
279.4
 46
0.0
 47
0.0
 48
0.0
 49
0.0
140
0.0
141
0.0
142
1.0
143
1.0
 70
  1712
 72
     1
 73
     0
 74
     0
  7

 75
     0
147
1.0
148
0.0
149
0.0
100
AcDbLayout
  1
Model
 70
     1
 71
     0
 10
0.0
 20
0.0
 11
20000.0
 21
10000.0
 12
0.0
 22
0.0
 32
0.0
 14
0.0
 24
0.0
 34
0.0
 15
20000.0
 25
10000.0
 35
0.0
146
0.0
 13
0.0
 23
0.0
 33
0.0
 16
1.0
 26
0.0
 36
0.0
 17
0.0
 27
1.0
 37
0.0
 76
     0
330
1F
331
29
  0
MLINESTYLE
  5
18
102
{ACAD_REACTORS
330
17
102
}
330
17
100
AcDbMlineStyle
  2
Standard
 70
     0
  3

 62
   256
 51
90.0
 52
90.0
 71
     2
 49
0.5
 62
   256
  6
BYLAYER
 49
-0.5
 62
   256
  6
BYLAYER
  0
ACDBPLACEHOLDER
  5
F
102
{ACAD_REACTORS
330
E
102
}
330
E
  0
SCALE
  5
48
102
{ACAD_REACTORS
330
47
102
}
330
47
100
AcDbScale
 70
     0
300
1:1
140
1.0
141
1.0
290
     1
  0
SCALE
  5
49
102
{ACAD_REACTORS
330
47
102
}
330
47
100
AcDbScale
 70
     0
300
1:2
140
1.0
141
2.0
290
     0
  0
SCALE
  5
4A
102
{ACAD_REACTORS
330
47
102
}
330
47
100
AcDbScale
 70
     0
300
1:4
140
1.0
141
4.0
290
     0
  0
SCALE
  5
4B
102
{ACAD_REACTORS
330
47
102
}
330
47
100
AcDbScale
 70
     0
300
1:5
140
1.0
141
5.0
290
     0
  0
SCALE
  5
4C
102
{ACAD_REACTORS
330
47
102
}
330
47
100
AcDbScale
 70
     0
300
1:8
140
1.0
141
8.0
290
     0
  0
SCALE
  5
4D
102
{ACAD_REACTORS
330
47
102
}
330
47
100
AcDbScale
 70
     0
300
1:10
140
1.0
141
10.0
290
     0
  0
SCALE
  5
4E
102
{ACAD_REACTORS
330
47
102
}
330
47
100
AcDbScale
 70
     0
300
1:16
140
1.0
141
16.0
290
     0
  0
SCALE
  5
4F
102
{ACAD_REACTORS
330
47
102
}
330
47
100
AcDbScale
 70
     0
300
1:20
140
1.0
141
20.0
290
     0
  0
SCALE
  5
50
102
{ACAD_REACTORS
330
47
102
}
330
47
100
AcDbScale
 70
     0
300
1:30
140
1.0
141
30.0
290
     0
  0
SCALE
  5
51
102
{ACAD_REACTORS
330
47
102
}
330
47
100
AcDbScale
 70
     0
300
1:40
140
1.0
141
40.0
290
     0
  0
SCALE
  5
52
102
{ACAD_REACTORS
330
47
102
}
330
47
100
AcDbScale
 70
     0
300
1:50
140
1.0
141
50.0
290
     0
  0
SCALE
  5
53
102
{ACAD_REACTORS
330
47
102
}
330
47
100
AcDbScale
 70
     0
300
1:100
140
1.0
141
100.0
290
     0
  0
SCALE
  5
54
102
{ACAD_REACTORS
330
47
102
}
330
47
100
AcDbScale
 70
     0
300
2:1
140
2.0
141
1.0
290
     0
  0
SCALE
  5
55
102
{ACAD_REACTORS
330
47
102
}
330
47
100
AcDbScale
 70
     0
300
4:1
140
4.0
141
1.0
290
     0
  0
SCALE
  5
56
102
{ACAD_REACTORS
330
47
102
}
330
47
100
AcDbScale
 70
     0
300
8:1
140
8.0
141
1.0
290
     0
  0
SCALE
  5
57
102
{ACAD_REACTORS
330
47
102
}
330
47
100
AcDbScale
 70
     0
300
10:1
140
10.0
141
1.0
290
     0
  0
SCALE
  5
58
102
{ACAD_REACTORS
330
47
102
}
330
47
100
AcDbScale
 70
     0
300
100:1
140
100.0
141
1.0
290
     0
  0
SCALE
  5
59
102
{ACAD_REACTORS
330
47
102
}
330
47
100
AcDbScale
 70
     0
300
1/128" = 1'-0"
140
0.0078125
141
12.0
290
     0
  0
SCALE
  5
5A
102
{ACAD_REACTORS
330
47
102
}
330
47
100
AcDbScale
 70
     0
300
1/64" = 1'-0"
140
0.015625
141
12.0
290
     0
  0
SCALE
  5
5B
102
{ACAD_REACTORS
330
47
102
}
330
47
100
AcDbScale
 70
     0
300
1/32" = 1'-0"
140
0.03125
141
12.0
290
     0
  0
SCALE
  5
5C
102
{ACAD_REACTORS
330
47
102
}
330
47
100
AcDbScale
 70
     0
300
1/16" = 1'-0"
140
0.0625
141
12.0
290
     0
  0
SCALE
  5
5D
102
{ACAD_REACTORS
330
47
102
}
330
47
100
AcDbScale
 70
     0
300
3/32" = 1'-0"
140
0.09375
141
12.0
290
     0
  0
SCALE
  5
5E
102
{ACAD_REACTORS
330
47
102
}
330
47
100
AcDbScale
 70
     0
300
1/8" = 1'-0"
140
0.125
141
12.0
290
     0
  0
SCALE
  5
5F
102
{ACAD_REACTORS
330
47
102
}
330
47
100
AcDbScale
 70
     0
300
3/16" = 1'-0"
140
0.1875
141
12.0
290
     0
  0
SCALE
  5
60
102
{ACAD_REACTORS
330
47
102
}
330
47
100
AcDbScale
 70
     0
300
1/4" = 1'-0"
140
0.25
141
12.0
290
     0
  0
SCALE
  5
61
102
{ACAD_REACTORS
330
47
102
}
330
47
100
AcDbScale
 70
     0
300
3/8" = 1'-0"
140
0.375
141
12.0
290
     0
  0
SCALE
  5
62
102
{ACAD_REACTORS
330
47
102
}
330
47
100
AcDbScale
 70
     0
300
1/2" = 1'-0"
140
0.5
141
12.0
290
     0
  0
SCALE
  5
63
102
{ACAD_REACTORS
330
47
102
}
330
47
100
AcDbScale
 70
     0
300
3/4" = 1'-0"
140
0.75
141
12.0
290
     0
  0
SCALE
  5
64
102
{ACAD_REACTORS
330
47
102
}
330
47
100
AcDbScale
 70
     0
300
1" = 1'-0"
140
1.0
141
12.0
290
     0
  0
SCALE
  5
65
102
{ACAD_REACTORS
330
47
102
}
330
47
100
AcDbScale
 70
     0
300
1-1/2" = 1'-0"
140
1.5
141
12.0
290
     0
  0
SCALE
  5
66
102
{ACAD_REACTORS
330
47
102
}
330
47
100
AcDbScale
 70
     0
300
3" = 1'-0"
140
3.0
141
12.0
290
     0
  0
SCALE
  5
67
102
{ACAD_REACTORS
330
47
102
}
330
47
100
AcDbScale
 70
     0
300
6" = 1'-0"
140
6.0
141
12.0
290
     0
  0
SCALE
  5
68
102
{ACAD_REACTORS
330
47
102
}
330
47
100
AcDbScale
 70
     0
300
1'-0" = 1'-0"
140
12.0
141
12.0
290
     0
  0
ENDSEC
  0
EOF
