  0
SECTION
  2
HEADER
  9
$ACADVER
  1
AC1015
  9
$ACADMAINTVER
 70
     6
  9
$DWGCODEPAGE
  3
ANSI_1250
  9
$INSBASE
 10
0.0
 20
0.0
 30
0.0
  9
$EXTMIN
 10
5074.0187076524
 20
4158.7893872812
 30
0.0
  9
$EXTMAX
 10
8132.9599797883
 20
5614.1826664671
 30
0.0
  9
$LIMMIN
 10
0.0
 20
0.0
  9
$LIMMAX
 10
420.0
 20
297.0
  9
$ORTHOMODE
 70
     0
  9
$REGENMODE
 70
     1
  9
$FILLMODE
 70
     1
  9
$QTEXTMODE
 70
     0
  9
$MIRRTEXT
 70
     1
  9
$LTSCALE
 40
1.0
  9
$ATTMODE
 70
     1
  9
$TEXTSIZE
 40
3.5
  9
$TRACEWID
 40
1.0
  9
$TEXTSTYLE
  7
Standard
  9
$CLAYER
  8
0
  9
$CELTYPE
  6
ByLayer
  9
$CECOLOR
 62
   256
  9
$CELTSCALE
 40
1.0
  9
$DISPSILH
 70
     0
  9
$DIMSCALE
 40
1.0
  9
$DIMASZ
 40
3.302
  9
$DIMEXO
 40
0.0
  9
$DIMDLI
 40
3.75
  9
$DIMRND
 40
0.0
  9
$DIMDLE
 40
0.0
  9
$DIMEXE
 40
1.0
  9
$DIMTP
 40
0.0
  9
$DIMTM
 40
0.0
  9
$DIMTXT
 40
3.5
  9
$DIMCEN
 40
2.5
  9
$DIMTSZ
 40
0.0
  9
$DIMTOL
 70
     0
  9
$DIMLIM
 70
     0
  9
$DIMTIH
 70
     1
  9
$DIMTOH
 70
     1
  9
$DIMSE1
 70
     0
  9
$DIMSE2
 70
     0
  9
$DIMTAD
 70
     1
  9
$DIMZIN
 70
     0
  9
$DIMBLK
  1

  9
$DIMASO
 70
     1
  9
$DIMSHO
 70
     1
  9
$DIMPOST
  1

  9
$DIMAPOST
  1

  9
$DIMALT
 70
     0
  9
$DIMALTD
 70
     3
  9
$DIMALTF
 40
0.0393700787
  9
$DIMLFAC
 40
1.0
  9
$DIMTOFL
 70
     1
  9
$DIMTVP
 40
0.0
  9
$DIMTIX
 70
     0
  9
$DIMSOXD
 70
     0
  9
$DIMSAH
 70
     0
  9
$DIMBLK1
  1

  9
$DIMBLK2
  1

  9
$DIMSTYLE
  2
ISO-25
  9
$DIMCLRD
 70
     0
  9
$DIMCLRE
 70
     0
  9
$DIMCLRT
 70
     0
  9
$DIMTFAC
 40
1.0
  9
$DIMGAP
 40
1.524
  9
$DIMJUST
 70
     0
  9
$DIMSD1
 70
     0
  9
$DIMSD2
 70
     0
  9
$DIMTOLJ
 70
     0
  9
$DIMTZIN
 70
     0
  9
$DIMALTZ
 70
     0
  9
$DIMALTTZ
 70
     0
  9
$DIMUPT
 70
     0
  9
$DIMDEC
 70
     2
  9
$DIMTDEC
 70
     2
  9
$DIMALTU
 70
     2
  9
$DIMALTTD
 70
     3
  9
$DIMTXSTY
  7
Standard
  9
$DIMAUNIT
 70
     0
  9
$DIMADEC
 70
     2
  9
$DIMALTRND
 40
0.0
  9
$DIMAZIN
 70
     0
  9
$DIMDSEP
 70
    44
  9
$DIMATFIT
 70
     3
  9
$DIMFRAC
 70
     0
  9
$DIMLDRBLK
  1

  9
$DIMLUNIT
 70
     2
  9
$DIMLWD
 70
    -2
  9
$DIMLWE
 70
    -2
  9
$DIMTMOVE
 70
     0
  9
$LUNITS
 70
     2
  9
$LUPREC
 70
     2
  9
$SKETCHINC
 40
1.0
  9
$FILLETRAD
 40
10.0
  9
$AUNITS
 70
     0
  9
$AUPREC
 70
     2
  9
$MENU
  1
.
  9
$ELEVATION
 40
0.0
  9
$PELEVATION
 40
0.0
  9
$THICKNESS
 40
0.0
  9
$LIMCHECK
 70
     0
  9
$CHAMFERA
 40
0.0
  9
$CHAMFERB
 40
0.0
  9
$CHAMFERC
 40
0.0
  9
$CHAMFERD
 40
0.0
  9
$SKPOLY
 70
     0
  9
$TDCREATE
 40
2459094.359393958
  9
$TDUCREATE
 40
2459094.276060625
  9
$TDUPDATE
 40
2459094.359422477
  9
$TDUUPDATE
 40
2459094.276089143
  9
$TDINDWG
 40
0.0000000116
  9
$TDUSRTIMER
 40
0.0000000116
  9
$USRTIMER
 70
     1
  9
$ANGBASE
 50
0.0
  9
$ANGDIR
 70
     0
  9
$PDMODE
 70
     0
  9
$PDSIZE
 40
-1.0
  9
$PLINEWID
 40
0.0
  9
$SPLFRAME
 70
     0
  9
$SPLINETYPE
 70
     6
  9
$SPLINESEGS
 70
     8
  9
$HANDSEED
  5
2DA
  9
$SURFTAB1
 70
     6
  9
$SURFTAB2
 70
     6
  9
$SURFTYPE
 70
     6
  9
$SURFU
 70
     6
  9
$SURFV
 70
     6
  9
$UCSBASE
  2

  9
$UCSNAME
  2

  9
$UCSORG
 10
0.0
 20
0.0
 30
0.0
  9
$UCSXDIR
 10
1.0
 20
0.0
 30
0.0
  9
$UCSYDIR
 10
0.0
 20
1.0
 30
0.0
  9
$UCSORTHOREF
  2

  9
$UCSORTHOVIEW
 70
     0
  9
$UCSORGTOP
 10
0.0
 20
0.0
 30
0.0
  9
$UCSORGBOTTOM
 10
0.0
 20
0.0
 30
0.0
  9
$UCSORGLEFT
 10
0.0
 20
0.0
 30
0.0
  9
$UCSORGRIGHT
 10
0.0
 20
0.0
 30
0.0
  9
$UCSORGFRONT
 10
0.0
 20
0.0
 30
0.0
  9
$UCSORGBACK
 10
0.0
 20
0.0
 30
0.0
  9
$PUCSBASE
  2

  9
$PUCSNAME
  2

  9
$PUCSORG
 10
0.0
 20
0.0
 30
0.0
  9
$PUCSXDIR
 10
1.0
 20
0.0
 30
0.0
  9
$PUCSYDIR
 10
0.0
 20
1.0
 30
0.0
  9
$PUCSORTHOREF
  2

  9
$PUCSORTHOVIEW
 70
     0
  9
$PUCSORGTOP
 10
0.0
 20
0.0
 30
0.0
  9
$PUCSORGBOTTOM
 10
0.0
 20
0.0
 30
0.0
  9
$PUCSORGLEFT
 10
0.0
 20
0.0
 30
0.0
  9
$PUCSORGRIGHT
 10
0.0
 20
0.0
 30
0.0
  9
$PUCSORGFRONT
 10
0.0
 20
0.0
 30
0.0
  9
$PUCSORGBACK
 10
0.0
 20
0.0
 30
0.0
  9
$USERI1
 70
     0
  9
$USERI2
 70
     0
  9
$USERI3
 70
     0
  9
$USERI4
 70
     0
  9
$USERI5
 70
     0
  9
$USERR1
 40
0.0
  9
$USERR2
 40
0.0
  9
$USERR3
 40
0.0
  9
$USERR4
 40
0.0
  9
$USERR5
 40
0.0
  9
$WORLDVIEW
 70
     1
  9
$SHADEDGE
 70
     3
  9
$SHADEDIF
 70
    70
  9
$TILEMODE
 70
     1
  9
$MAXACTVP
 70
    64
  9
$PINSBASE
 10
0.0
 20
0.0
 30
0.0
  9
$PLIMCHECK
 70
     0
  9
$PEXTMIN
 10
1.0000000000E+20
 20
1.0000000000E+20
 30
1.0000000000E+20
  9
$PEXTMAX
 10
-1.0000000000E+20
 20
-1.0000000000E+20
 30
-1.0000000000E+20
  9
$PLIMMIN
 10
0.0
 20
0.0
  9
$PLIMMAX
 10
420.0
 20
297.0
  9
$UNITMODE
 70
     0
  9
$VISRETAIN
 70
     1
  9
$PLINEGEN
 70
     0
  9
$PSLTSCALE
 70
     1
  9
$TREEDEPTH
 70
  3020
  9
$CMLSTYLE
  2
Standard
  9
$CMLJUST
 70
     0
  9
$CMLSCALE
 40
20.0
  9
$PROXYGRAPHICS
 70
     1
  9
$MEASUREMENT
 70
     1
  9
$CELWEIGHT
370
    -1
  9
$ENDCAPS
280
     0
  9
$JOINSTYLE
280
     0
  9
$LWDISPLAY
290
     1
  9
$INSUNITS
 70
     4
  9
$HYPERLINKBASE
  1

  9
$STYLESHEET
  1

  9
$XEDIT
290
     1
  9
$CEPSNTYPE
380
     0
  9
$PSTYLEMODE
290
     1
  9
$FINGERPRINTGUID
  2
{05648c45-c6d8-4e00-b3f4-b41735ccb281}
  9
$VERSIONGUID
  2
{FAEB1C32-E019-11D5-929B-00C0DF256EC4}
  9
$EXTNAMES
290
     1
  9
$PSVPSCALE
 40
0.0
  9
$OLESTARTUP
290
     0
  0
ENDSEC
  0
SECTION
  2
CLASSES
  0
CLASS
  1
ACDBDICTIONARYWDFLT
  2
AcDbDictionaryWithDefault
  3
ObjectDBX Classes
 90
        0
280
     0
281
     0
  0
CLASS
  1
VISUALSTYLE
  2
AcDbVisualStyle
  3
ObjectDBX Classes
 90
     4095
280
     0
281
     0
  0
CLASS
  1
MATERIAL
  2
AcDbMaterial
  3
ObjectDBX Classes
 90
     1153
280
     0
281
     0
  0
CLASS
  1
SCALE
  2
AcDbScale
  3
ObjectDBX Classes
 90
     1153
280
     0
281
     0
  0
CLASS
  1
TABLESTYLE
  2
AcDbTableStyle
  3
ObjectDBX Classes
 90
     4095
280
     0
281
     0
  0
CLASS
  1
MLEADERSTYLE
  2
AcDbMLeaderStyle
  3
ACDB_MLEADERSTYLE_CLASS
 90
     4095
280
     0
281
     0
  0
CLASS
  1
SUN
  2
AcDbSun
  3
SCENEOE
 90
     1153
280
     0
281
     0
  0
CLASS
  1
ACDBPLACEHOLDER
  2
AcDbPlaceHolder
  3
ObjectDBX Classes
 90
        0
280
     0
281
     0
  0
CLASS
  1
LAYOUT
  2
AcDbLayout
  3
ObjectDBX Classes
 90
        0
280
     0
281
     0
  0
ENDSEC
  0
SECTION
  2
TABLES
  0
TABLE
  2
VPORT
  5
8
330
0
100
AcDbSymbolTable
 70
     1
  0
VPORT
  5
29
330
8
100
AcDbSymbolTableRecord
100
AcDbViewportTableRecord
  2
*Active
 70
     0
 10
0.0
 20
0.0
 11
1.0
 21
1.0
 12
6603.4893437204
 22
4886.4860268742
 13
0.0
 23
0.0
 14
10.0
 24
10.0
 15
10.0
 25
10.0
 16
0.0
 26
0.0
 36
1.0
 17
0.0
 27
0.0
 37
0.0
 40
1484.5011447696
 41
2.1017970303
 42
50.0
 43
0.0
 44
0.0
 50
0.0
 51
0.0
 71
     0
 72
   100
 73
     1
 74
     3
 75
     0
 76
     0
 77
     0
 78
     0
281
     0
 65
     1
110
0.0
120
0.0
130
0.0
111
1.0
121
0.0
131
0.0
112
0.0
122
1.0
132
0.0
 79
     0
146
0.0
  0
ENDTAB
  0
TABLE
  2
LTYPE
  5
5
330
0
100
AcDbSymbolTable
 70
     6
  0
LTYPE
  5
14
330
5
100
AcDbSymbolTableRecord
100
AcDbLinetypeTableRecord
  2
ByBlock
 70
     0
  3

 72
    65
 73
     0
 40
0.0
  0
LTYPE
  5
15
330
5
100
AcDbSymbolTableRecord
100
AcDbLinetypeTableRecord
  2
ByLayer
 70
     0
  3

 72
    65
 73
     0
 40
0.0
  0
LTYPE
  5
16
330
5
100
AcDbSymbolTableRecord
100
AcDbLinetypeTableRecord
  2
Continuous
 70
     0
  3
Solid line
 72
    65
 73
     0
 40
0.0
  0
LTYPE
  5
6E
330
5
100
AcDbSymbolTableRecord
100
AcDbLinetypeTableRecord
  2
HIDDEN
 70
     0
  3
Hidden __ __ __ __ __ __ __ __ __ __ __ __ __ __
 72
    65
 73
     2
 40
1.905
 49
1.27
 74
     0
 49
-0.635
 74
     0
  0
LTYPE
  5
6F
330
5
100
AcDbSymbolTableRecord
100
AcDbLinetypeTableRecord
  2
PHANTOM
 70
     0
  3
Phantom ______  __  __  ______  __  __  ______
 72
    65
 73
     6
 40
12.7
 49
6.35
 74
     0
 49
-1.27
 74
     0
 49
1.27
 74
     0
 49
-1.27
 74
     0
 49
1.27
 74
     0
 49
-1.27
 74
     0
  0
LTYPE
  5
70
330
5
100
AcDbSymbolTableRecord
100
AcDbLinetypeTableRecord
  2
CENTER
 70
     0
  3
Center ____ _ ____ _ ____ _ ____ _ ____ _ ____
 72
    65
 73
     4
 40
10.16
 49
6.35
 74
     0
 49
-1.27
 74
     0
 49
1.27
 74
     0
 49
-1.27
 74
     0
  0
LTYPE
  5
71
330
5
100
AcDbSymbolTableRecord
100
AcDbLinetypeTableRecord
  2
CENTERX2
 70
     0
  3
Center (2x) ________  __  ________  __  _____
 72
    65
 73
     4
 40
20.32
 49
12.7
 74
     0
 49
-2.54
 74
     0
 49
2.54
 74
     0
 49
-2.54
 74
     0
  0
LTYPE
  5
72
330
5
100
AcDbSymbolTableRecord
100
AcDbLinetypeTableRecord
  2
DOT2
 70
     0
  3
Dot (.5x) ........................................
 72
    65
 73
     2
 40
0.635
 49
0.0
 74
     0
 49
-0.635
 74
     0
  0
ENDTAB
  0
TABLE
  2
LAYER
  5
2
330
0
100
AcDbSymbolTable
 70
     1
  0
LAYER
  5
10
330
2
100
AcDbSymbolTableRecord
100
AcDbLayerTableRecord
  2
0
 70
     0
 62
     7
  6
Continuous
370
    -3
390
F
  0
ENDTAB
  0
TABLE
  2
STYLE
  5
3
330
0
100
AcDbSymbolTable
 70
     1
  0
STYLE
  5
11
330
3
100
AcDbSymbolTableRecord
100
AcDbTextStyleTableRecord
  2
Standard
 70
     0
 40
0.0
 41
1.0
 50
0.0
 71
     0
 42
3.5
  3
txt
  4

  0
ENDTAB
  0
TABLE
  2
VIEW
  5
6
330
0
100
AcDbSymbolTable
 70
     0
  0
ENDTAB
  0
TABLE
  2
UCS
  5
7
330
0
100
AcDbSymbolTable
 70
     0
  0
ENDTAB
  0
TABLE
  2
APPID
  5
9
330
0
100
AcDbSymbolTable
 70
     1
  0
APPID
  5
12
330
9
100
AcDbSymbolTableRecord
100
AcDbRegAppTableRecord
  2
ACAD
 70
     0
  0
ENDTAB
  0
TABLE
  2
DIMSTYLE
  5
A
330
0
100
AcDbSymbolTable
 70
     1
100
AcDbDimStyleTable
  0
DIMSTYLE
105
27
330
A
100
AcDbSymbolTableRecord
100
AcDbDimStyleTableRecord
  2
ISO-25
 70
     0
 41
2.5
 42
0.625
 43
3.75
 44
1.25
 73
     0
 74
     0
 77
     1
 78
     8
140
2.5
141
2.5
143
0.0393700787
147
0.625
171
     3
172
     1
178
     0
271
     2
272
     2
274
     3
278
    44
283
     0
284
     8
340
11
  0
ENDTAB
  0
TABLE
  2
BLOCK_RECORD
  5
1
330
0
100
AcDbSymbolTable
 70
     1
  0
BLOCK_RECORD
  5
1F
330
1
100
AcDbSymbolTableRecord
100
AcDbBlockTableRecord
  2
*Model_Space
340
22
  0
BLOCK_RECORD
  5
1B
330
1
100
AcDbSymbolTableRecord
100
AcDbBlockTableRecord
  2
*Paper_Space
340
1E
  0
BLOCK_RECORD
  5
23
330
1
100
AcDbSymbolTableRecord
100
AcDbBlockTableRecord
  2
*Paper_Space0
340
26
  0
ENDTAB
  0
ENDSEC
  0
SECTION
  2
BLOCKS
  0
BLOCK
  5
20
330
1F
100
AcDbEntity
  8
0
100
AcDbBlockBegin
  2
*Model_Space
 70
     0
 10
0.0
 20
0.0
 30
0.0
  3
*Model_Space
  1

  0
ENDBLK
  5
21
330
1F
100
AcDbEntity
  8
0
100
AcDbBlockEnd
  0
BLOCK
  5
1C
330
1B
100
AcDbEntity
 67
     1
  8
0
100
AcDbBlockBegin
  2
*Paper_Space
 70
     0
 10
0.0
 20
0.0
 30
0.0
  3
*Paper_Space
  1

  0
ENDBLK
  5
1D
330
1B
100
AcDbEntity
 67
     1
  8
0
100
AcDbBlockEnd
  0
BLOCK
  5
24
330
23
100
AcDbEntity
  8
0
100
AcDbBlockBegin
  2
*Paper_Space0
 70
     0
 10
0.0
 20
0.0
 30
0.0
  3
*Paper_Space0
  1

  0
ENDBLK
  5
25
330
23
100
AcDbEntity
  8
0
100
AcDbBlockEnd
  0
ENDSEC
  0
SECTION
  2
ENTITIES
  0
CIRCLE
  5
73
330
1F
100
AcDbEntity
  8
0
  6
Continuous
 62
     7
100
AcDbCircle
 10
6406.3187553361
 20
5063.2162663206
 30
0.0
 40
3.0
  0
CIRCLE
  5
74
330
1F
100
AcDbEntity
  8
0
  6
Continuous
 62
     7
100
AcDbCircle
 10
6406.3187553361
 20
4843.2162663206
 30
0.0
 40
3.0
  0
CIRCLE
  5
75
330
1F
100
AcDbEntity
  8
0
  6
Continuous
 62
     7
100
AcDbCircle
 10
6141.7187553361
 20
4843.2162663206
 30
0.0
 40
3.0
  0
CIRCLE
  5
76
330
1F
100
AcDbEntity
  8
0
  6
Continuous
 62
     7
100
AcDbCircle
 10
6141.7187553361
 20
5063.2162663206
 30
0.0
 40
3.0
  0
ARC
  5
77
330
1F
100
AcDbEntity
  8
0
  6
Continuous
 62
     7
100
AcDbCircle
 10
8094.1504775303
 20
5095.1662663076
 30
0.0
 40
1.950000000000012
100
AcDbArc
 50
270.0002666149
 51
314.9999999765
  0
ARC
  5
78
330
1F
100
AcDbEntity
  8
0
  6
Continuous
 62
     7
100
AcDbCircle
 10
8079.9599886098
 20
5486.46670332
 30
0.0
 40
50.0000000000023
100
AcDbArc
 50
0.0000205157
 51
69.9999993492
  0
ARC
  5
79
330
1F
100
AcDbEntity
  8
0
  6
Continuous
 62
     7
100
AcDbCircle
 10
8128.0099886098
 20
5129.025771741
 30
0.0
 40
1.949999999999048
100
AcDbArc
 50
314.9997992694
 51
359.9999198061
  0
ARC
  5
7A
330
1F
100
AcDbEntity
  8
0
  6
Continuous
 62
     7
100
AcDbCircle
 10
7874.909747181
 20
5612.2326655009
 30
0.0
 40
1.950000000001186
100
AcDbArc
 50
70.0000336361
 51
180.000722583
  0
ARC
  5
7B
330
1F
100
AcDbEntity
  8
0
  6
Continuous
 62
     7
100
AcDbCircle
 10
8130.7099847788
 20
5230.9680553109
 30
0.0
 40
0.7499994203072552
100
AcDbArc
 50
0.0002537402
 51
180.0002537403
  0
ARC
  5
7C
330
1F
100
AcDbEntity
  8
0
  6
Continuous
 62
     7
100
AcDbCircle
 10
8130.7099847788
 20
5230.9680553109
 30
0.0
 40
2.249995009502832
100
AcDbArc
 50
0.0000845802
 51
109.4712349103
  0
ARC
  5
7D
330
1F
100
AcDbEntity
  8
0
  6
Continuous
 62
     7
100
AcDbCircle
 10
6274.0187553361
 20
4267.5396191697
 30
0.0
 40
15.00000000000055
100
AcDbArc
 50
270.0
 51
298.0052543395
  0
ARC
  5
7E
330
1F
100
AcDbEntity
  8
0
  6
Continuous
 62
     7
100
AcDbCircle
 10
6274.0187553361
 20
4267.5396191697
 30
0.0
 40
15.00000000000135
100
AcDbArc
 50
335.7391704773
 51
28.0052543395
  0
ARC
  5
7F
330
1F
100
AcDbEntity
  8
0
  6
Continuous
 62
     7
100
AcDbCircle
 10
6274.0187553361
 20
4267.5396191697
 30
0.0
 40
14.99999999999941
100
AcDbArc
 50
61.9947456605
 51
84.2608295227
  0
ARC
  5
80
330
1F
100
AcDbEntity
  8
0
  6
Continuous
 62
     7
100
AcDbCircle
 10
6274.0187553361
 20
4267.5396191697
 30
0.0
 40
14.99999999999941
100
AcDbArc
 50
95.7391704773
 51
118.0052543395
  0
ARC
  5
81
330
1F
100
AcDbEntity
  8
0
  6
Continuous
 62
     7
100
AcDbCircle
 10
6274.0187553361
 20
4267.5396191697
 30
0.0
 40
15.00000000000055
100
AcDbArc
 50
151.9947456605
 51
204.2608295227
  0
ARC
  5
82
330
1F
100
AcDbEntity
  8
0
  6
Continuous
 62
     7
100
AcDbCircle
 10
6274.0187553361
 20
4267.5396191697
 30
0.0
 40
15.00000000000055
100
AcDbArc
 50
241.9947456605
 51
270.0
  0
ARC
  5
83
330
1F
100
AcDbEntity
  8
0
  6
Continuous
 62
     7
100
AcDbCircle
 10
6274.0187553361
 20
4267.5396191697
 30
0.0
 40
5.250000000000289
100
AcDbArc
 50
286.1516182809
 51
89.7251968774
  0
ARC
  5
84
330
1F
100
AcDbEntity
  8
0
  6
Continuous
 62
     7
100
AcDbCircle
 10
6274.0187553361
 20
4267.5396191697
 30
0.0
 40
5.250000000000284
100
AcDbArc
 50
106.1516182809
 51
269.7251968774
  0
ARC
  5
85
330
1F
100
AcDbEntity
  8
0
  6
Continuous
 62
     7
100
AcDbCircle
 10
6274.0187553361
 20
4267.5396191697
 30
0.0
 40
5.250000000000289
100
AcDbArc
 50
89.7251968774
 51
106.1516182809
  0
ARC
  5
86
330
1F
100
AcDbEntity
  8
0
  6
Continuous
 62
     7
100
AcDbCircle
 10
6274.0187553361
 20
4267.5396191697
 30
0.0
 40
5.250000000000284
100
AcDbArc
 50
269.7251968774
 51
286.1516182809
  0
CIRCLE
  5
87
330
1F
100
AcDbEntity
  8
0
  6
Continuous
 62
     7
100
AcDbCircle
 10
6274.0187553361
 20
4267.5396191697
 30
0.0
 40
24.5
  0
CIRCLE
  5
88
330
1F
100
AcDbEntity
  8
0
  6
Continuous
 62
     7
100
AcDbCircle
 10
6274.0187553361
 20
4267.5396191697
 30
0.0
 40
35.0
  0
CIRCLE
  5
89
330
1F
100
AcDbEntity
  8
0
  6
Continuous
 62
     7
100
AcDbCircle
 10
6274.0187553361
 20
4267.5396191697
 30
0.0
 40
22.5
  0
CIRCLE
  5
8A
330
1F
100
AcDbEntity
  8
0
  6
Continuous
 62
     7
100
AcDbCircle
 10
6274.0187553361
 20
4267.5396191697
 30
0.0
 40
21.5
  0
CIRCLE
  5
8B
330
1F
100
AcDbEntity
  8
0
  6
Continuous
 62
     7
100
AcDbCircle
 10
6274.0187553361
 20
4267.5396191697
 30
0.0
 40
19.55298992456301
  0
CIRCLE
  5
8C
330
1F
100
AcDbEntity
  8
0
  6
Continuous
 62
     7
100
AcDbCircle
 10
6274.0187553361
 20
4267.5396191697
 30
0.0
 40
6.182050807568885
  0
ARC
  5
8D
330
1F
100
AcDbEntity
  8
0
  6
Continuous
 62
     7
100
AcDbCircle
 10
6274.0187553361
 20
4267.5396191697
 30
0.0
 40
19.49999999996032
100
AcDbArc
 50
166.9496950603
 51
193.0503049397
  0
ARC
  5
8E
330
1F
100
AcDbEntity
  8
0
  6
Continuous
 62
     7
100
AcDbCircle
 10
6258.9190864656
 20
4264.0396191697
 30
0.0
 40
3.999999999980276
100
AcDbArc
 50
193.0503049397
 51
13.0503049397
  0
ARC
  5
8F
330
1F
100
AcDbEntity
  8
0
  6
Continuous
 62
     7
100
AcDbCircle
 10
6274.0187553361
 20
4267.5396191697
 30
0.0
 40
11.50000000000004
100
AcDbArc
 50
166.9496950603
 51
193.0503049397
  0
ARC
  5
90
330
1F
100
AcDbEntity
  8
0
  6
Continuous
 62
     7
100
AcDbCircle
 10
6258.9190864656
 20
4271.0396191697
 30
0.0
 40
4.000000000000795
100
AcDbArc
 50
346.9496950603
 51
166.9496950603
  0
ARC
  5
91
330
1F
100
AcDbEntity
  8
0
  6
Continuous
 62
     7
100
AcDbCircle
 10
6274.0187553361
 20
4267.5396191697
 30
0.0
 40
19.50000000005648
100
AcDbArc
 50
256.9496950604
 51
283.0503049396
  0
ARC
  5
92
330
1F
100
AcDbEntity
  8
0
  6
Continuous
 62
     7
100
AcDbCircle
 10
6277.5187553361
 20
4252.4399502991
 30
0.0
 40
4.00000000002812
100
AcDbArc
 50
283.0503049395
 51
103.0503049396
  0
ARC
  5
93
330
1F
100
AcDbEntity
  8
0
  6
Continuous
 62
     7
100
AcDbCircle
 10
6274.0187553361
 20
4267.5396191697
 30
0.0
 40
11.50000000005749
100
AcDbArc
 50
256.9496950604
 51
283.0503049397
  0
ARC
  5
94
330
1F
100
AcDbEntity
  8
0
  6
Continuous
 62
     7
100
AcDbCircle
 10
6270.5187553361
 20
4252.4399502991
 30
0.0
 40
3.999999999999498
100
AcDbArc
 50
76.9496950603
 51
256.9496950603
  0
ARC
  5
95
330
1F
100
AcDbEntity
  8
0
  6
Continuous
 62
     7
100
AcDbCircle
 10
6274.0187553361
 20
4267.5396191697
 30
0.0
 40
19.49999999996032
100
AcDbArc
 50
346.9496950603
 51
13.0503049397
  0
ARC
  5
96
330
1F
100
AcDbEntity
  8
0
  6
Continuous
 62
     7
100
AcDbCircle
 10
6289.1184242066
 20
4271.0396191697
 30
0.0
 40
3.999999999980687
100
AcDbArc
 50
13.0503049397
 51
193.0503049397
  0
ARC
  5
97
330
1F
100
AcDbEntity
  8
0
  6
Continuous
 62
     7
100
AcDbCircle
 10
6274.0187553361
 20
4267.5396191697
 30
0.0
 40
11.50000000000004
100
AcDbArc
 50
346.9496950603
 51
13.0503049397
  0
ARC
  5
98
330
1F
100
AcDbEntity
  8
0
  6
Continuous
 62
     7
100
AcDbCircle
 10
6289.1184242066
 20
4264.0396191697
 30
0.0
 40
4.000000000000384
100
AcDbArc
 50
166.9496950603
 51
346.9496950603
  0
ARC
  5
99
330
1F
100
AcDbEntity
  8
0
  6
Continuous
 62
     7
100
AcDbCircle
 10
6274.0187553361
 20
4267.5396191697
 30
0.0
 40
19.49999999996101
100
AcDbArc
 50
76.9496950603
 51
103.0503049397
  0
ARC
  5
9A
330
1F
100
AcDbEntity
  8
0
  6
Continuous
 62
     7
100
AcDbCircle
 10
6270.5187553361
 20
4282.6392880402
 30
0.0
 40
3.999999999980481
100
AcDbArc
 50
103.0503049397
 51
283.0503049397
  0
ARC
  5
9B
330
1F
100
AcDbEntity
  8
0
  6
Continuous
 62
     7
100
AcDbCircle
 10
6274.0187553361
 20
4267.5396191697
 30
0.0
 40
11.50000000000004
100
AcDbArc
 50
76.9496950603
 51
103.0503049397
  0
ARC
  5
9C
330
1F
100
AcDbEntity
  8
0
  6
Continuous
 62
     7
100
AcDbCircle
 10
6277.5187553361
 20
4282.6392880402
 30
0.0
 40
4.000000000001475
100
AcDbArc
 50
256.9496950603
 51
76.9496950603
  0
CIRCLE
  5
9D
330
1F
100
AcDbEntity
  8
0
  6
Continuous
 62
     7
100
AcDbCircle
 10
6274.0187553361
 20
4267.5396191697
 30
0.0
 40
5.682050807568885
  0
ARC
  5
9E
330
1F
100
AcDbEntity
  8
0
  6
Continuous
 62
     7
100
AcDbCircle
 10
7174.0187612966
 20
4378.7899577599
 30
0.0
 40
27.00000000000145
100
AcDbArc
 50
207.8409954059
 51
332.1590045942
  0
ARC
  5
9F
330
1F
100
AcDbEntity
  8
0
  6
Continuous
 62
     7
100
AcDbCircle
 10
5974.0187434152
 20
4378.7899577599
 30
0.0
 40
27.00000000000145
100
AcDbArc
 50
207.8409954059
 51
332.1590045941
  0
ARC
  5
A0
330
1F
100
AcDbEntity
  8
0
  6
Continuous
 62
     7
100
AcDbCircle
 10
6574.018767257
 20
4378.7899577599
 30
0.0
 40
27.00000000000064
100
AcDbArc
 50
207.8409954059
 51
332.1590045941
  0
ARC
  5
A1
330
1F
100
AcDbEntity
  8
0
  6
Continuous
 62
     7
100
AcDbCircle
 10
5374.0187493756
 20
4378.7899577599
 30
0.0
 40
27.00000000000145
100
AcDbArc
 50
207.8409954059
 51
332.1590045942
  0
ARC
  5
A2
330
1F
100
AcDbEntity
  8
0
  6
Continuous
 62
     7
100
AcDbCircle
 10
5973.9625564584
 20
5533.5205370146
 30
0.0
 40
25.00000000000119
100
AcDbArc
 50
17.2563813775
 51
162.7436186225
  0
ARC
  5
A3
330
1F
100
AcDbEntity
  8
0
  6
Continuous
 62
     7
100
AcDbCircle
 10
5973.9625564584
 20
5533.5205370146
 30
0.0
 40
25.00000000001036
100
AcDbArc
 50
197.2563813776
 51
342.7436186224
  0
ARC
  5
A4
330
1F
100
AcDbEntity
  8
0
  6
Continuous
 62
     7
100
AcDbCircle
 10
6574.2652286235
 20
5533.3517934581
 30
0.0
 40
25.00000000000206
100
AcDbArc
 50
17.2563813775
 51
162.7436186225
  0
ARC
  5
A5
330
1F
100
AcDbEntity
  8
0
  6
Continuous
 62
     7
100
AcDbCircle
 10
6574.2652286235
 20
5533.3517934581
 30
0.0
 40
25.00000000001123
100
AcDbArc
 50
197.2563813776
 51
342.7436186224
  0
ARC
  5
A6
330
1F
100
AcDbEntity
  8
0
  6
Continuous
 62
     7
100
AcDbCircle
 10
7173.6728665768
 20
5533.3402136875
 30
0.0
 40
25.00000000000233
100
AcDbArc
 50
17.2563813775
 51
162.7436186225
  0
ARC
  5
A7
330
1F
100
AcDbEntity
  8
0
  6
Continuous
 62
     7
100
AcDbCircle
 10
7173.6728665768
 20
5533.3402136875
 30
0.0
 40
25.00000000001096
100
AcDbArc
 50
197.2563813776
 51
342.7436186224
  0
ARC
  5
A8
330
1F
100
AcDbEntity
  8
0
  6
Continuous
 62
     7
100
AcDbCircle
 10
5374.0187493756
 20
5533.2162712821
 30
0.0
 40
25.00000000000146
100
AcDbArc
 50
17.2563813775
 51
162.7436186225
  0
ARC
  5
A9
330
1F
100
AcDbEntity
  8
0
  6
Continuous
 62
     7
100
AcDbCircle
 10
5374.0187493756
 20
5533.2162712821
 30
0.0
 40
25.0000000000101
100
AcDbArc
 50
197.2563813776
 51
342.7436186224
  0
LINE
  5
AA
330
1F
100
AcDbEntity
  8
0
  6
Continuous
 62
     7
100
AcDbLine
 10
7474.0188030198
 20
5614.1826664671
 30
0.0
 11
7472.5187925294
 21
5614.1826664671
 31
0.0
  0
LINE
  5
AB
330
1F
100
AcDbEntity
  8
0
  6
Continuous
 62
     7
100
AcDbLine
 10
5075.5187181428
 20
5614.1826664671
 30
0.0
 11
5074.0187076524
 21
5614.1826664671
 31
0.0
  0
LINE
  5
AC
330
1F
100
AcDbEntity
  8
0
  6
Continuous
 62
     7
100
AcDbLine
 10
7472.5187925294
 20
5233.2180445656
 30
0.0
 11
5075.5187181428
 21
5233.2180445656
 31
0.0
  0
LINE
  5
AD
330
1F
100
AcDbEntity
  8
0
  6
Continuous
 62
     7
100
AcDbLine
 10
7472.5187925294
 20
5614.1826664671
 30
0.0
 11
5075.5187181428
 21
5614.1826664671
 31
0.0
  0
LINE
  5
AE
330
1F
100
AcDbEntity
  8
0
  6
Continuous
 62
     7
100
AcDbLine
 10
7474.0188030198
 20
5486.4667212233
 30
0.0
 11
7472.5187925294
 21
5486.4667212233
 31
0.0
  0
LINE
  5
AF
330
1F
100
AcDbEntity
  8
0
  6
Continuous
 62
     7
100
AcDbLine
 10
7474.0188030198
 20
5129.0257690117
 30
0.0
 11
7474.0188030198
 21
5486.4667212233
 31
0.0
  0
LINE
  5
B0
330
1F
100
AcDbEntity
  8
0
  6
Continuous
 62
     7
100
AcDbLine
 10
7474.0188030198
 20
5129.0257690117
 30
0.0
 11
7472.5187925294
 21
5129.0257690117
 31
0.0
  0
LINE
  5
B1
330
1F
100
AcDbEntity
  8
0
  6
Continuous
 62
     7
100
AcDbLine
 10
7472.5187925294
 20
5129.0257690117
 30
0.0
 11
7472.5187925294
 21
5217.8180520996
 31
0.0
  0
LINE
  5
B2
330
1F
100
AcDbEntity
  8
0
  6
Continuous
 62
     7
100
AcDbLine
 10
7472.5187925294
 20
5233.2180445656
 30
0.0
 11
7472.5187925294
 21
5486.4667212233
 31
0.0
  0
LINE
  5
B3
330
1F
100
AcDbEntity
  8
0
  6
Continuous
 62
     7
100
AcDbLine
 10
7474.0188030198
 20
5127.646908687
 30
0.0
 11
7472.5187925294
 21
5127.646908687
 31
0.0
  0
LINE
  5
B4
330
1F
100
AcDbEntity
  8
0
  6
Continuous
 62
     7
100
AcDbLine
 10
7472.5187925294
 20
5127.646908687
 30
0.0
 11
7472.5187925294
 21
5129.0257690117
 31
0.0
  0
LINE
  5
B5
330
1F
100
AcDbEntity
  8
0
  6
Continuous
 62
     7
100
AcDbLine
 10
7474.0188030198
 20
5127.646908687
 30
0.0
 11
7474.0188030198
 21
5129.0257690117
 31
0.0
  0
LINE
  5
B6
330
1F
100
AcDbEntity
  8
0
  6
Continuous
 62
     7
100
AcDbLine
 10
7474.0188030198
 20
5533.451334165
 30
0.0
 11
7472.5187925294
 21
5533.451334165
 31
0.0
  0
LINE
  5
B7
330
1F
100
AcDbEntity
  8
0
  6
Continuous
 62
     7
100
AcDbLine
 10
7472.5187925294
 20
5486.4667212233
 30
0.0
 11
7472.5187925294
 21
5533.451334165
 31
0.0
  0
LINE
  5
B8
330
1F
100
AcDbEntity
  8
0
  6
Continuous
 62
     7
100
AcDbLine
 10
7474.0188030198
 20
5486.4667212233
 30
0.0
 11
7474.0188030198
 21
5533.451334165
 31
0.0
  0
LINE
  5
B9
330
1F
100
AcDbEntity
  8
0
  6
Continuous
 62
     7
100
AcDbLine
 10
7474.0188030198
 20
5093.7874080837
 30
0.0
 11
7472.5187925294
 21
5093.7874080837
 31
0.0
  0
LINE
  5
BA
330
1F
100
AcDbEntity
  8
0
  6
Continuous
 62
     7
100
AcDbLine
 10
7472.5187925294
 20
5093.7874080837
 30
0.0
 11
7472.5187925294
 21
5127.646908687
 31
0.0
  0
LINE
  5
BB
330
1F
100
AcDbEntity
  8
0
  6
Continuous
 62
     7
100
AcDbLine
 10
7474.0188030198
 20
5093.7874080837
 30
0.0
 11
7474.0188030198
 21
5127.646908687
 31
0.0
  0
LINE
  5
BC
330
1F
100
AcDbEntity
  8
0
  6
Continuous
 62
     7
100
AcDbLine
 10
7474.0188030198
 20
5614.065066503
 30
0.0
 11
7472.5187925294
 21
5614.065066503
 31
0.0
  0
LINE
  5
BD
330
1F
100
AcDbEntity
  8
0
  6
Continuous
 62
     7
100
AcDbLine
 10
7472.5187925294
 20
5533.451334165
 30
0.0
 11
7472.5187925294
 21
5614.065066503
 31
0.0
  0
LINE
  5
BE
330
1F
100
AcDbEntity
  8
0
  6
Continuous
 62
     7
100
AcDbLine
 10
7474.0188030198
 20
5533.451334165
 30
0.0
 11
7474.0188030198
 21
5614.065066503
 31
0.0
  0
LINE
  5
BF
330
1F
100
AcDbEntity
  8
0
  6
Continuous
 62
     7
100
AcDbLine
 10
7474.0188030198
 20
5093.2162663076
 30
0.0
 11
7472.5187925294
 21
5093.2162663076
 31
0.0
  0
LINE
  5
C0
330
1F
100
AcDbEntity
  8
0
  6
Continuous
 62
     7
100
AcDbLine
 10
7472.5187925294
 20
5093.2162663076
 30
0.0
 11
7472.5187925294
 21
5093.7874080837
 31
0.0
  0
LINE
  5
C1
330
1F
100
AcDbEntity
  8
0
  6
Continuous
 62
     7
100
AcDbLine
 10
7474.0188030198
 20
5093.2162663076
 30
0.0
 11
7474.0188030198
 21
5093.7874080837
 31
0.0
  0
LINE
  5
C2
330
1F
100
AcDbEntity
  8
0
  6
Continuous
 62
     7
100
AcDbLine
 10
7472.5187925294
 20
5614.065066503
 30
0.0
 11
7472.5187925294
 21
5614.1826664671
 31
0.0
  0
LINE
  5
C3
330
1F
100
AcDbEntity
  8
0
  6
Continuous
 62
     7
100
AcDbLine
 10
7474.0188030198
 20
5614.065066503
 30
0.0
 11
7474.0188030198
 21
5614.1826664671
 31
0.0
  0
LINE
  5
C4
330
1F
100
AcDbEntity
  8
0
  6
Continuous
 62
     7
100
AcDbLine
 10
6390.2687562302
 20
4813.2162546381
 30
0.0
 11
6390.2687562302
 21
5093.2162663076
 31
0.0
  0
LINE
  5
C5
330
1F
100
AcDbEntity
  8
0
  6
Continuous
 62
     7
100
AcDbLine
 10
6157.768754442
 20
4813.2162546381
 30
0.0
 11
6390.2687562302
 21
4813.2162546381
 31
0.0
  0
LINE
  5
C6
330
1F
100
AcDbEntity
  8
0
  6
Continuous
 62
     7
100
AcDbLine
 10
6157.768754442
 20
4813.2162546381
 30
0.0
 11
6157.768754442
 21
5093.2162663076
 31
0.0
  0
LINE
  5
C7
330
1F
100
AcDbEntity
  8
0
  6
Continuous
 62
     7
100
AcDbLine
 10
6391.5187550381
 20
4813.2162546381
 30
0.0
 11
6391.5187550381
 21
5093.2162663076
 31
0.0
  0
LINE
  5
C8
330
1F
100
AcDbEntity
  8
0
  6
Continuous
 62
     7
100
AcDbLine
 10
6390.2687562302
 20
4813.2162546381
 30
0.0
 11
6391.5187550381
 21
4813.2162546381
 31
0.0
  0
LINE
  5
C9
330
1F
100
AcDbEntity
  8
0
  6
Continuous
 62
     7
100
AcDbLine
 10
6156.5187556341
 20
4813.2162546381
 30
0.0
 11
6156.5187556341
 21
5093.2162663076
 31
0.0
  0
LINE
  5
CA
330
1F
100
AcDbEntity
  8
0
  6
Continuous
 62
     7
100
AcDbLine
 10
6156.5187556341
 20
4813.2162546381
 30
0.0
 11
6157.768754442
 21
4813.2162546381
 31
0.0
  0
LINE
  5
CB
330
1F
100
AcDbEntity
  8
0
  6
Continuous
 62
     7
100
AcDbLine
 10
6391.968755205
 20
4813.2162546381
 30
0.0
 11
6391.968755205
 21
5093.2162663076
 31
0.0
  0
LINE
  5
CC
330
1F
100
AcDbEntity
  8
0
  6
Continuous
 62
     7
100
AcDbLine
 10
6391.5187550381
 20
4813.2162546381
 30
0.0
 11
6391.968755205
 21
4813.2162546381
 31
0.0
  0
LINE
  5
CD
330
1F
100
AcDbEntity
  8
0
  6
Continuous
 62
     7
100
AcDbLine
 10
6156.0687554672
 20
4813.2162546381
 30
0.0
 11
6156.0687554672
 21
5093.2162663076
 31
0.0
  0
LINE
  5
CE
330
1F
100
AcDbEntity
  8
0
  6
Continuous
 62
     7
100
AcDbLine
 10
6156.0687554672
 20
4813.2162546381
 30
0.0
 11
6156.5187556341
 21
4813.2162546381
 31
0.0
  0
LINE
  5
CF
330
1F
100
AcDbEntity
  8
0
  6
Continuous
 62
     7
100
AcDbLine
 10
6391.968755205
 20
4813.2162546381
 30
0.0
 11
6421.7187521651
 21
4813.2162546381
 31
0.0
  0
LINE
  5
D0
330
1F
100
AcDbEntity
  8
0
  6
Continuous
 62
     7
100
AcDbLine
 10
6421.7187521651
 20
4813.2162546381
 30
0.0
 11
6421.7187521651
 21
5093.2162663076
 31
0.0
  0
LINE
  5
D1
330
1F
100
AcDbEntity
  8
0
  6
Continuous
 62
     7
100
AcDbLine
 10
6126.3187585071
 20
4813.2162546381
 30
0.0
 11
6126.3187585071
 21
5093.2162663076
 31
0.0
  0
LINE
  5
D2
330
1F
100
AcDbEntity
  8
0
  6
Continuous
 62
     7
100
AcDbLine
 10
6126.3187585071
 20
4813.2162546381
 30
0.0
 11
6156.0687554672
 21
4813.2162546381
 31
0.0
  0
LINE
  5
D3
330
1F
100
AcDbEntity
  8
0
  6
Continuous
 62
     7
100
AcDbLine
 10
5074.0187076524
 20
5127.646908687
 30
0.0
 11
5075.5187181428
 21
5127.646908687
 31
0.0
  0
LINE
  5
D4
330
1F
100
AcDbEntity
  8
0
  6
Continuous
 62
     7
100
AcDbLine
 10
5074.0187076524
 20
5127.646908687
 30
0.0
 11
5074.0187076524
 21
5129.0257690117
 31
0.0
  0
LINE
  5
D5
330
1F
100
AcDbEntity
  8
0
  6
Continuous
 62
     7
100
AcDbLine
 10
5074.0187076524
 20
5129.0257690117
 30
0.0
 11
5075.5187181428
 21
5129.0257690117
 31
0.0
  0
LINE
  5
D6
330
1F
100
AcDbEntity
  8
0
  6
Continuous
 62
     7
100
AcDbLine
 10
5075.5187181428
 20
5127.646908687
 30
0.0
 11
5075.5187181428
 21
5129.0257690117
 31
0.0
  0
LINE
  5
D7
330
1F
100
AcDbEntity
  8
0
  6
Continuous
 62
     7
100
AcDbLine
 10
5074.0187076524
 20
5129.0257690117
 30
0.0
 11
5074.0187076524
 21
5486.4667212233
 31
0.0
  0
LINE
  5
D8
330
1F
100
AcDbEntity
  8
0
  6
Continuous
 62
     7
100
AcDbLine
 10
5074.0187076524
 20
5486.4667212233
 30
0.0
 11
5075.5187181428
 21
5486.4667212233
 31
0.0
  0
LINE
  5
D9
330
1F
100
AcDbEntity
  8
0
  6
Continuous
 62
     7
100
AcDbLine
 10
5075.5187181428
 20
5129.0257690117
 30
0.0
 11
5075.5187181428
 21
5217.8180520996
 31
0.0
  0
LINE
  5
DA
330
1F
100
AcDbEntity
  8
0
  6
Continuous
 62
     7
100
AcDbLine
 10
5075.5187181428
 20
5233.2180445656
 30
0.0
 11
5075.5187181428
 21
5486.4667212233
 31
0.0
  0
LINE
  5
DB
330
1F
100
AcDbEntity
  8
0
  6
Continuous
 62
     7
100
AcDbLine
 10
5074.0187076524
 20
5533.451334165
 30
0.0
 11
5075.5187181428
 21
5533.451334165
 31
0.0
  0
LINE
  5
DC
330
1F
100
AcDbEntity
  8
0
  6
Continuous
 62
     7
100
AcDbLine
 10
5074.0187076524
 20
5486.4667212233
 30
0.0
 11
5074.0187076524
 21
5533.451334165
 31
0.0
  0
LINE
  5
DD
330
1F
100
AcDbEntity
  8
0
  6
Continuous
 62
     7
100
AcDbLine
 10
5075.5187181428
 20
5486.4667212233
 30
0.0
 11
5075.5187181428
 21
5533.451334165
 31
0.0
  0
LINE
  5
DE
330
1F
100
AcDbEntity
  8
0
  6
Continuous
 62
     7
100
AcDbLine
 10
5074.0187076524
 20
5093.7874080837
 30
0.0
 11
5075.5187181428
 21
5093.7874080837
 31
0.0
  0
LINE
  5
DF
330
1F
100
AcDbEntity
  8
0
  6
Continuous
 62
     7
100
AcDbLine
 10
5074.0187076524
 20
5093.7874080837
 30
0.0
 11
5074.0187076524
 21
5127.646908687
 31
0.0
  0
LINE
  5
E0
330
1F
100
AcDbEntity
  8
0
  6
Continuous
 62
     7
100
AcDbLine
 10
5075.5187181428
 20
5093.7874080837
 30
0.0
 11
5075.5187181428
 21
5127.646908687
 31
0.0
  0
LINE
  5
E1
330
1F
100
AcDbEntity
  8
0
  6
Continuous
 62
     7
100
AcDbLine
 10
5074.0187076524
 20
5614.065066503
 30
0.0
 11
5075.5187181428
 21
5614.065066503
 31
0.0
  0
LINE
  5
E2
330
1F
100
AcDbEntity
  8
0
  6
Continuous
 62
     7
100
AcDbLine
 10
5074.0187076524
 20
5533.451334165
 30
0.0
 11
5074.0187076524
 21
5614.065066503
 31
0.0
  0
LINE
  5
E3
330
1F
100
AcDbEntity
  8
0
  6
Continuous
 62
     7
100
AcDbLine
 10
5075.5187181428
 20
5533.451334165
 30
0.0
 11
5075.5187181428
 21
5614.065066503
 31
0.0
  0
LINE
  5
E4
330
1F
100
AcDbEntity
  8
0
  6
Continuous
 62
     7
100
AcDbLine
 10
5074.0187076524
 20
5093.2162663076
 30
0.0
 11
5075.5187181428
 21
5093.2162663076
 31
0.0
  0
LINE
  5
E5
330
1F
100
AcDbEntity
  8
0
  6
Continuous
 62
     7
100
AcDbLine
 10
5074.0187076524
 20
5093.2162663076
 30
0.0
 11
5074.0187076524
 21
5093.7874080837
 31
0.0
  0
LINE
  5
E6
330
1F
100
AcDbEntity
  8
0
  6
Continuous
 62
     7
100
AcDbLine
 10
5075.5187181428
 20
5093.2162663076
 30
0.0
 11
5075.5187181428
 21
5093.7874080837
 31
0.0
  0
LINE
  5
E7
330
1F
100
AcDbEntity
  8
0
  6
Continuous
 62
     7
100
AcDbLine
 10
5074.0187076524
 20
5614.065066503
 30
0.0
 11
5074.0187076524
 21
5614.1826664671
 31
0.0
  0
LINE
  5
E8
330
1F
100
AcDbEntity
  8
0
  6
Continuous
 62
     7
100
AcDbLine
 10
5075.5187181428
 20
5614.065066503
 30
0.0
 11
5075.5187181428
 21
5614.1826664671
 31
0.0
  0
LINE
  5
E9
330
1F
100
AcDbEntity
  8
0
  6
Continuous
 62
     7
100
AcDbLine
 10
7472.5187925294
 20
5230.9680586323
 30
0.0
 11
7472.5187925294
 21
5233.2180445656
 31
0.0
  0
LINE
  5
EA
330
1F
100
AcDbEntity
  8
0
  6
Continuous
 62
     7
100
AcDbLine
 10
7472.5187925294
 20
5230.9680586323
 30
0.0
 11
5075.5187181428
 21
5230.9680586323
 31
0.0
  0
LINE
  5
EB
330
1F
100
AcDbEntity
  8
0
  6
Continuous
 62
     7
100
AcDbLine
 10
5075.5187181428
 20
5230.9680586323
 30
0.0
 11
5075.5187181428
 21
5233.2180445656
 31
0.0
  0
LINE
  5
EC
330
1F
100
AcDbEntity
  8
0
  6
Continuous
 62
     7
100
AcDbLine
 10
7472.5187925294
 20
5217.8180520996
 30
0.0
 11
5075.5187181428
 21
5217.8180520996
 31
0.0
  0
LINE
  5
ED
330
1F
100
AcDbEntity
  8
0
  6
Continuous
 62
     7
100
AcDbLine
 10
5075.5187181428
 20
5217.8180520996
 30
0.0
 11
5075.5187181428
 21
5230.9680586323
 31
0.0
  0
LINE
  5
EE
330
1F
100
AcDbEntity
  8
0
  6
Continuous
 62
     7
100
AcDbLine
 10
7472.5187925294
 20
5217.8180520996
 30
0.0
 11
7472.5187925294
 21
5230.9680586323
 31
0.0
  0
LINE
  5
EF
330
1F
100
AcDbEntity
  8
0
  6
Continuous
 62
     7
100
AcDbLine
 10
7472.5187925294
 20
5129.0257690117
 30
0.0
 11
5075.5187181428
 21
5129.0257690117
 31
0.0
  0
LINE
  5
F0
330
1F
100
AcDbEntity
  8
0
  6
Continuous
 62
     7
100
AcDbLine
 10
7472.5187925294
 20
5127.646908687
 30
0.0
 11
5075.5187181428
 21
5127.646908687
 31
0.0
  0
LINE
  5
F1
330
1F
100
AcDbEntity
  8
0
  6
Continuous
 62
     7
100
AcDbLine
 10
7472.5187925294
 20
5093.7874080837
 30
0.0
 11
5075.5187181428
 21
5093.7874080837
 31
0.0
  0
LINE
  5
F2
330
1F
100
AcDbEntity
  8
0
  6
Continuous
 62
     7
100
AcDbLine
 10
7472.5187925294
 20
5093.2162663076
 30
0.0
 11
5075.5187181428
 21
5093.2162663076
 31
0.0
  0
LINE
  5
F3
330
1F
100
AcDbEntity
  8
0
  6
Continuous
 62
     7
100
AcDbLine
 10
7472.5187925294
 20
5596.5456520781
 30
0.0
 11
5075.5187181428
 21
5596.5456520781
 31
0.0
  0
LINE
  5
F4
330
1F
100
AcDbEntity
  8
0
  6
Continuous
 62
     7
100
AcDbLine
 10
7472.5187925294
 20
5598.3780776724
 30
0.0
 11
5075.5187181428
 21
5598.3780776724
 31
0.0
  0
LINE
  5
F5
330
1F
100
AcDbEntity
  8
0
  6
Continuous
 62
     7
100
AcDbLine
 10
7472.5187925294
 20
5614.065066503
 30
0.0
 11
5075.5187181428
 21
5614.065066503
 31
0.0
  0
LINE
  5
F6
330
1F
100
AcDbEntity
  8
0
  6
Continuous
 62
     7
100
AcDbLine
 10
7472.5187925294
 20
5598.3780776724
 30
0.0
 11
7472.5187925294
 21
5614.065066503
 31
0.0
  0
LINE
  5
F7
330
1F
100
AcDbEntity
  8
0
  6
Continuous
 62
     7
100
AcDbLine
 10
5075.5187181428
 20
5598.3780776724
 30
0.0
 11
5075.5187181428
 21
5614.065066503
 31
0.0
  0
LINE
  5
F8
330
1F
100
AcDbEntity
  8
0
  6
Continuous
 62
     7
100
AcDbLine
 10
6262.0187552318
 20
5104.3232991934
 30
0.0
 11
6286.0187554404
 21
5104.3232991934
 31
0.0
  0
LINE
  5
F9
330
1F
100
AcDbEntity
  8
0
  6
Continuous
 62
     7
100
AcDbLine
 10
6262.0187552318
 20
5107.8588334486
 30
0.0
 11
6262.0187552318
 21
5104.3232991934
 31
0.0
  0
LINE
  5
FA
330
1F
100
AcDbEntity
  8
0
  6
Continuous
 62
     7
100
AcDbLine
 10
6286.0187554404
 20
5107.8588334486
 30
0.0
 11
6262.0187552318
 21
5107.8588334486
 31
0.0
  0
LINE
  5
FB
330
1F
100
AcDbEntity
  8
0
  6
Continuous
 62
     7
100
AcDbLine
 10
6286.0187554404
 20
5104.3232991934
 30
0.0
 11
6286.0187554404
 21
5107.8588334486
 31
0.0
  0
LINE
  5
FC
330
1F
100
AcDbEntity
  8
0
  6
Continuous
 62
     7
100
AcDbLine
 10
6266.1377453849
 20
5106.7981725201
 30
0.0
 11
6266.4033706903
 21
5105.3839591905
 31
0.0
  0
LINE
  5
FD
330
1F
100
AcDbEntity
  8
0
  6
Continuous
 62
     7
100
AcDbLine
 10
6266.111703743
 20
5106.7981725201
 30
0.0
 11
6266.1377453849
 21
5106.7981725201
 31
0.0
  0
LINE
  5
FE
330
1F
100
AcDbEntity
  8
0
  6
Continuous
 62
     7
100
AcDbLine
 10
6265.2879861787
 20
5105.6377920896
 30
0.0
 11
6266.111703743
 21
5106.7981725201
 31
0.0
  0
LINE
  5
FF
330
1F
100
AcDbEntity
  8
0
  6
Continuous
 62
     7
100
AcDbLine
 10
6264.4622653395
 20
5106.7981725201
 30
0.0
 11
6265.2879861787
 21
5105.6377920896
 31
0.0
  0
LINE
  5
100
330
1F
100
AcDbEntity
  8
0
  6
Continuous
 62
     7
100
AcDbLine
 10
6264.4366241664
 20
5106.7981725201
 30
0.0
 11
6264.4622653395
 21
5106.7981725201
 31
0.0
  0
LINE
  5
101
330
1F
100
AcDbEntity
  8
0
  6
Continuous
 62
     7
100
AcDbLine
 10
6264.172601667
 20
5105.3839591905
 30
0.0
 11
6264.4366241664
 21
5106.7981725201
 31
0.0
  0
LINE
  5
102
330
1F
100
AcDbEntity
  8
0
  6
Continuous
 62
     7
100
AcDbLine
 10
6268.6762070887
 20
5106.7981725201
 30
0.0
 11
6268.9418323941
 21
5105.3839591905
 31
0.0
  0
LINE
  5
103
330
1F
100
AcDbEntity
  8
0
  6
Continuous
 62
     7
100
AcDbLine
 10
6268.6501654468
 20
5106.7981725201
 30
0.0
 11
6268.6762070887
 21
5106.7981725201
 31
0.0
  0
LINE
  5
104
330
1F
100
AcDbEntity
  8
0
  6
Continuous
 62
     7
100
AcDbLine
 10
6267.8264474168
 20
5105.6377920896
 30
0.0
 11
6268.6501654468
 21
5106.7981725201
 31
0.0
  0
LINE
  5
105
330
1F
100
AcDbEntity
  8
0
  6
Continuous
 62
     7
100
AcDbLine
 10
6267.0007265776
 20
5106.7981725201
 30
0.0
 11
6267.8264474168
 21
5105.6377920896
 31
0.0
  0
LINE
  5
106
330
1F
100
AcDbEntity
  8
0
  6
Continuous
 62
     7
100
AcDbLine
 10
6266.9750854045
 20
5106.7981725201
 30
0.0
 11
6267.0007265776
 21
5106.7981725201
 31
0.0
  0
LINE
  5
107
330
1F
100
AcDbEntity
  8
0
  6
Continuous
 62
     7
100
AcDbLine
 10
6266.7110629052
 20
5105.3839591905
 30
0.0
 11
6266.9750854045
 21
5106.7981725201
 31
0.0
  0
LINE
  5
108
330
1F
100
AcDbEntity
  8
0
  6
Continuous
 62
     7
100
AcDbLine
 10
6269.1982427284
 20
5105.1845192551
 30
0.0
 11
6270.0347808793
 21
5106.8344344958
 31
0.0
  0
LINE
  5
109
330
1F
100
AcDbEntity
  8
0
  6
Continuous
 62
     7
100
AcDbLine
 10
6270.0347808793
 20
5106.8344344958
 30
0.0
 11
6270.2238835998
 21
5106.8344344958
 31
0.0
  0
LINE
  5
10A
330
1F
100
AcDbEntity
  8
0
  6
Continuous
 62
     7
100
AcDbLine
 10
6271.1114458878
 20
5106.0304963603
 30
0.0
 11
6271.8392681934
 21
5105.3839591905
 31
0.0
  0
LINE
  5
10B
330
1F
100
AcDbEntity
  8
0
  6
Continuous
 62
     7
100
AcDbLine
 10
6270.5572169878
 20
5106.7981725201
 30
0.0
 11
6270.957457288
 21
5106.7981725201
 31
0.0
  0
LINE
  5
10C
330
1F
100
AcDbEntity
  8
0
  6
Continuous
 62
     7
100
AcDbLine
 10
6272.8037536515
 20
5106.0304963603
 30
0.0
 11
6273.5315758407
 21
5105.3839591905
 31
0.0
  0
LINE
  5
10D
330
1F
100
AcDbEntity
  8
0
  6
Continuous
 62
     7
100
AcDbLine
 10
6272.2495245187
 20
5106.7981725201
 30
0.0
 11
6272.6497649353
 21
5106.7981725201
 31
0.0
  0
LINE
  5
10E
330
1F
100
AcDbEntity
  8
0
  6
Continuous
 62
     7
100
AcDbLine
 10
6274.53157583
 20
5106.0004109159
 30
0.0
 11
6275.3008066582
 21
5106.0004109159
 31
0.0
  0
LINE
  5
10F
330
1F
100
AcDbEntity
  8
0
  6
Continuous
 62
     7
100
AcDbLine
 10
6276.2367040057
 20
5105.3839591905
 30
0.0
 11
6276.8865478363
 21
5106.1016950398
 31
0.0
  0
LINE
  5
110
330
1F
100
AcDbEntity
  8
0
  6
Continuous
 62
     7
100
AcDbLine
 10
6277.1000793807
 20
5106.1016950398
 30
0.0
 11
6277.7495246053
 21
5105.3839591905
 31
0.0
  0
LINE
  5
111
330
1F
100
AcDbEntity
  8
0
  6
Continuous
 62
     7
100
AcDbLine
 10
6277.5167521693
 20
5106.7981725201
 30
0.0
 11
6277.7238834321
 21
5106.7981725201
 31
0.0
  0
LINE
  5
112
330
1F
100
AcDbEntity
  8
0
  6
Continuous
 62
     7
100
AcDbLine
 10
6276.9931144219
 20
5106.2196824342
 30
0.0
 11
6277.5167521693
 21
5106.7981725201
 31
0.0
  0
LINE
  5
113
330
1F
100
AcDbEntity
  8
0
  6
Continuous
 62
     7
100
AcDbLine
 10
6276.4694764417
 20
5106.7981725201
 30
0.0
 11
6276.9931144219
 21
5106.2196824342
 31
0.0
  0
LINE
  5
114
330
1F
100
AcDbEntity
  8
0
  6
Continuous
 62
     7
100
AcDbLine
 10
6276.2623451788
 20
5106.7981725201
 30
0.0
 11
6276.4694764417
 21
5106.7981725201
 31
0.0
  0
LINE
  5
115
330
1F
100
AcDbEntity
  8
0
  6
Continuous
 62
     7
100
AcDbLine
 10
6277.9290118858
 20
5105.3839591905
 30
0.0
 11
6278.5788557164
 21
5106.1016950398
 31
0.0
  0
LINE
  5
116
330
1F
100
AcDbEntity
  8
0
  6
Continuous
 62
     7
100
AcDbLine
 10
6278.792387028
 20
5106.1016950398
 30
0.0
 11
6279.4418322526
 21
5105.3839591905
 31
0.0
  0
LINE
  5
117
330
1F
100
AcDbEntity
  8
0
  6
Continuous
 62
     7
100
AcDbLine
 10
6279.2090598166
 20
5106.7981725201
 30
0.0
 11
6279.4161910795
 21
5106.7981725201
 31
0.0
  0
LINE
  5
118
330
1F
100
AcDbEntity
  8
0
  6
Continuous
 62
     7
100
AcDbLine
 10
6278.6854218364
 20
5106.2196824342
 30
0.0
 11
6279.2090598166
 21
5106.7981725201
 31
0.0
  0
LINE
  5
119
330
1F
100
AcDbEntity
  8
0
  6
Continuous
 62
     7
100
AcDbLine
 10
6278.1617843218
 20
5106.7981725201
 30
0.0
 11
6278.6854218364
 21
5106.2196824342
 31
0.0
  0
LINE
  5
11A
330
1F
100
AcDbEntity
  8
0
  6
Continuous
 62
     7
100
AcDbLine
 10
6277.9546525933
 20
5106.7981725201
 30
0.0
 11
6278.1617843218
 21
5106.7981725201
 31
0.0
  0
LINE
  5
11B
330
1F
100
AcDbEntity
  8
0
  6
Continuous
 62
     7
100
AcDbLine
 10
6279.6213195331
 20
5105.3839591905
 30
0.0
 11
6280.2711633637
 21
5106.1016950398
 31
0.0
  0
LINE
  5
11C
330
1F
100
AcDbEntity
  8
0
  6
Continuous
 62
     7
100
AcDbLine
 10
6280.4846946754
 20
5106.1016950398
 30
0.0
 11
6281.1341398999
 21
5105.3839591905
 31
0.0
  0
LINE
  5
11D
330
1F
100
AcDbEntity
  8
0
  6
Continuous
 62
     7
100
AcDbLine
 10
6280.9013674639
 20
5106.7981725201
 30
0.0
 11
6281.1084987268
 21
5106.7981725201
 31
0.0
  0
LINE
  5
11E
330
1F
100
AcDbEntity
  8
0
  6
Continuous
 62
     7
100
AcDbLine
 10
6280.3777294837
 20
5106.2196824342
 30
0.0
 11
6280.9013674639
 21
5106.7981725201
 31
0.0
  0
LINE
  5
11F
330
1F
100
AcDbEntity
  8
0
  6
Continuous
 62
     7
100
AcDbLine
 10
6279.8540919691
 20
5106.7981725201
 30
0.0
 11
6280.3777294837
 21
5106.2196824342
 31
0.0
  0
LINE
  5
120
330
1F
100
AcDbEntity
  8
0
  6
Continuous
 62
     7
100
AcDbLine
 10
6279.6469602406
 20
5106.7981725201
 30
0.0
 11
6279.8540919691
 21
5106.7981725201
 31
0.0
  0
LINE
  5
121
330
1F
100
AcDbEntity
  8
0
  6
Continuous
 62
     7
100
AcDbLine
 10
6281.3136271805
 20
5105.3839591905
 30
0.0
 11
6281.9634705454
 21
5106.1016950398
 31
0.0
  0
LINE
  5
122
330
1F
100
AcDbEntity
  8
0
  6
Continuous
 62
     7
100
AcDbLine
 10
6282.1770023227
 20
5106.1016950398
 30
0.0
 11
6282.8264480129
 21
5105.3839591905
 31
0.0
  0
LINE
  5
123
330
1F
100
AcDbEntity
  8
0
  6
Continuous
 62
     7
100
AcDbLine
 10
6282.5936751112
 20
5106.7981725201
 30
0.0
 11
6282.8008068398
 21
5106.7981725201
 31
0.0
  0
LINE
  5
124
330
1F
100
AcDbEntity
  8
0
  6
Continuous
 62
     7
100
AcDbLine
 10
6282.070037131
 20
5106.2196824342
 30
0.0
 11
6282.5936751112
 21
5106.7981725201
 31
0.0
  0
LINE
  5
125
330
1F
100
AcDbEntity
  8
0
  6
Continuous
 62
     7
100
AcDbLine
 10
6281.5463996164
 20
5106.7981725201
 30
0.0
 11
6282.070037131
 21
5106.2196824342
 31
0.0
  0
LINE
  5
126
330
1F
100
AcDbEntity
  8
0
  6
Continuous
 62
     7
100
AcDbLine
 10
6281.3392683536
 20
5106.7981725201
 30
0.0
 11
6281.5463996164
 21
5106.7981725201
 31
0.0
  0
LINE
  5
127
330
1F
100
AcDbEntity
  8
0
  6
Continuous
 62
     7
100
AcDbLine
 10
6283.0059343621
 20
5105.3839591905
 30
0.0
 11
6283.6557786584
 21
5106.1016950398
 31
0.0
  0
LINE
  5
128
330
1F
100
AcDbEntity
  8
0
  6
Continuous
 62
     7
100
AcDbLine
 10
6283.8693104356
 20
5106.1016950398
 30
0.0
 11
6284.5187551945
 21
5105.3839591905
 31
0.0
  0
LINE
  5
129
330
1F
100
AcDbEntity
  8
0
  6
Continuous
 62
     7
100
AcDbLine
 10
6284.2859832242
 20
5106.7981725201
 30
0.0
 11
6284.4931140214
 21
5106.7981725201
 31
0.0
  0
LINE
  5
12A
330
1F
100
AcDbEntity
  8
0
  6
Continuous
 62
     7
100
AcDbLine
 10
6283.762345244
 20
5106.2196824342
 30
0.0
 11
6284.2859832242
 21
5106.7981725201
 31
0.0
  0
LINE
  5
12B
330
1F
100
AcDbEntity
  8
0
  6
Continuous
 62
     7
100
AcDbLine
 10
6283.2387072638
 20
5106.7981725201
 30
0.0
 11
6283.762345244
 21
5106.2196824342
 31
0.0
  0
LINE
  5
12C
330
1F
100
AcDbEntity
  8
0
  6
Continuous
 62
     7
100
AcDbLine
 10
6283.0315755352
 20
5106.7981725201
 30
0.0
 11
6283.2387072638
 21
5106.7981725201
 31
0.0
  0
LINE
  5
12D
330
1F
100
AcDbEntity
  8
0
  6
Continuous
 62
     7
100
AcDbLine
 10
6286.0187554404
 20
5107.8588334486
 30
0.0
 11
6286.0187554404
 21
5107.929544115
 31
0.0
  0
LINE
  5
12E
330
1F
100
AcDbEntity
  8
0
  6
Continuous
 62
     7
100
AcDbLine
 10
6262.0187552318
 20
5107.8588334486
 30
0.0
 11
6262.0187552318
 21
5107.929544115
 31
0.0
  0
LINE
  5
12F
330
1F
100
AcDbEntity
  8
0
  6
Continuous
 62
     7
100
AcDbLine
 10
6286.0187554404
 20
5107.929544115
 30
0.0
 11
6262.0187552318
 21
5107.929544115
 31
0.0
  0
LINE
  5
130
330
1F
100
AcDbEntity
  8
0
  6
Continuous
 62
     7
100
AcDbLine
 10
6270.2238835998
 20
5106.8273638949
 30
0.0
 11
6270.2238835998
 21
5106.8344344958
 31
0.0
  0
LINE
  5
131
330
1F
100
AcDbEntity
  8
0
  6
Continuous
 62
     7
100
AcDbLine
 10
6270.0347808793
 20
5106.8273638949
 30
0.0
 11
6270.2238835998
 21
5106.8273638949
 31
0.0
  0
LINE
  5
132
330
1F
100
AcDbEntity
  8
0
  6
Continuous
 62
     7
100
AcDbLine
 10
6270.0347808793
 20
5106.8273638949
 30
0.0
 11
6270.0347808793
 21
5106.8344344958
 31
0.0
  0
LINE
  5
133
330
1F
100
AcDbEntity
  8
0
  6
Continuous
 62
     7
100
AcDbLine
 10
6270.2238835998
 20
5106.8273638949
 30
0.0
 11
6269.3873449832
 21
5105.1774477228
 31
0.0
  0
LINE
  5
134
330
1F
100
AcDbEntity
  8
0
  6
Continuous
 62
     7
100
AcDbLine
 10
6269.3873449832
 20
5105.1774477228
 30
0.0
 11
6269.1982427284
 21
5105.1774477228
 31
0.0
  0
LINE
  5
135
330
1F
100
AcDbEntity
  8
0
  6
Continuous
 62
     7
100
AcDbLine
 10
6269.1982427284
 20
5105.1774477228
 30
0.0
 11
6270.0347808793
 21
5106.8273638949
 31
0.0
  0
LINE
  5
136
330
1F
100
AcDbEntity
  8
0
  6
Continuous
 62
     7
100
AcDbLine
 10
6269.1982427284
 20
5105.1774477228
 30
0.0
 11
6269.1982427284
 21
5105.1845192551
 31
0.0
  0
LINE
  5
137
330
1F
100
AcDbEntity
  8
0
  6
Continuous
 62
     7
100
AcDbLine
 10
6272.4290117992
 20
5106.1746501937
 30
0.0
 11
6272.795197591
 21
5106.1726664766
 31
0.0
  0
LINE
  5
138
330
1F
100
AcDbEntity
  8
0
  6
Continuous
 62
     7
100
AcDbLine
 10
6272.8040117443
 20
5106.646054016
 30
0.0
 11
6272.4290117992
 21
5106.646054016
 31
0.0
  0
LINE
  5
139
330
1F
100
AcDbEntity
  8
0
  6
Continuous
 62
     7
100
AcDbLine
 10
6272.4290117992
 20
5106.646054016
 30
0.0
 11
6272.4290117992
 21
5106.1746501937
 31
0.0
  0
LINE
  5
13A
330
1F
100
AcDbEntity
  8
0
  6
Continuous
 62
     7
100
AcDbLine
 10
6272.2495245187
 20
5106.7911019191
 30
0.0
 11
6272.6497649353
 21
5106.7911019191
 31
0.0
  0
LINE
  5
13B
330
1F
100
AcDbEntity
  8
0
  6
Continuous
 62
     7
100
AcDbLine
 10
6272.7968001643
 20
5106.0296022907
 30
0.0
 11
6273.5315758407
 21
5105.3768885895
 31
0.0
  0
LINE
  5
13C
330
1F
100
AcDbEntity
  8
0
  6
Continuous
 62
     7
100
AcDbLine
 10
6273.5315758407
 20
5105.3768885895
 30
0.0
 11
6273.3096207164
 21
5105.3768885895
 31
0.0
  0
LINE
  5
13D
330
1F
100
AcDbEntity
  8
0
  6
Continuous
 62
     7
100
AcDbLine
 10
6273.3096207164
 20
5105.3768885895
 30
0.0
 11
6272.57484504
 21
5106.0296022907
 31
0.0
  0
LINE
  5
13E
330
1F
100
AcDbEntity
  8
0
  6
Continuous
 62
     7
100
AcDbLine
 10
6272.57484504
 20
5106.0296022907
 30
0.0
 11
6272.4290117992
 21
5106.0296022907
 31
0.0
  0
LINE
  5
13F
330
1F
100
AcDbEntity
  8
0
  6
Continuous
 62
     7
100
AcDbLine
 10
6272.4290117992
 20
5106.0296022907
 30
0.0
 11
6272.4290117992
 21
5105.3768885895
 31
0.0
  0
LINE
  5
140
330
1F
100
AcDbEntity
  8
0
  6
Continuous
 62
     7
100
AcDbLine
 10
6272.4290117992
 20
5105.3768885895
 30
0.0
 11
6272.2495245187
 21
5105.3768885895
 31
0.0
  0
LINE
  5
141
330
1F
100
AcDbEntity
  8
0
  6
Continuous
 62
     7
100
AcDbLine
 10
6272.2495245187
 20
5105.3768885895
 30
0.0
 11
6272.2495245187
 21
5106.7911019191
 31
0.0
  0
LINE
  5
142
330
1F
100
AcDbEntity
  8
0
  6
Continuous
 62
     7
100
AcDbLine
 10
6266.7110629052
 20
5105.3768885895
 30
0.0
 11
6266.9750854045
 21
5106.7911019191
 31
0.0
  0
LINE
  5
143
330
1F
100
AcDbEntity
  8
0
  6
Continuous
 62
     7
100
AcDbLine
 10
6266.9750854045
 20
5106.7911019191
 30
0.0
 11
6267.0007265776
 21
5106.7911019191
 31
0.0
  0
LINE
  5
144
330
1F
100
AcDbEntity
  8
0
  6
Continuous
 62
     7
100
AcDbLine
 10
6267.0007265776
 20
5106.7911019191
 30
0.0
 11
6267.8264474168
 21
5105.6307214886
 31
0.0
  0
LINE
  5
145
330
1F
100
AcDbEntity
  8
0
  6
Continuous
 62
     7
100
AcDbLine
 10
6267.8264474168
 20
5105.6307214886
 30
0.0
 11
6268.6501654468
 21
5106.7911019191
 31
0.0
  0
LINE
  5
146
330
1F
100
AcDbEntity
  8
0
  6
Continuous
 62
     7
100
AcDbLine
 10
6268.6501654468
 20
5106.7911019191
 30
0.0
 11
6268.6762070887
 21
5106.7911019191
 31
0.0
  0
LINE
  5
147
330
1F
100
AcDbEntity
  8
0
  6
Continuous
 62
     7
100
AcDbLine
 10
6268.6762070887
 20
5106.7911019191
 30
0.0
 11
6268.9418323941
 21
5105.3768885895
 31
0.0
  0
LINE
  5
148
330
1F
100
AcDbEntity
  8
0
  6
Continuous
 62
     7
100
AcDbLine
 10
6268.9418323941
 20
5105.3768885895
 30
0.0
 11
6268.7615437105
 21
5105.3768885895
 31
0.0
  0
LINE
  5
149
330
1F
100
AcDbEntity
  8
0
  6
Continuous
 62
     7
100
AcDbLine
 10
6268.7615437105
 20
5105.3768885895
 30
0.0
 11
6268.5700372465
 21
5106.3944870248
 31
0.0
  0
LINE
  5
14A
330
1F
100
AcDbEntity
  8
0
  6
Continuous
 62
     7
100
AcDbLine
 10
6268.5700372465
 20
5106.3944870248
 30
0.0
 11
6267.8480820402
 21
5105.3768885895
 31
0.0
  0
LINE
  5
14B
330
1F
100
AcDbEntity
  8
0
  6
Continuous
 62
     7
100
AcDbLine
 10
6267.8480820402
 20
5105.3768885895
 30
0.0
 11
6267.8076174714
 21
5105.3768885895
 31
0.0
  0
LINE
  5
14C
330
1F
100
AcDbEntity
  8
0
  6
Continuous
 62
     7
100
AcDbLine
 10
6267.8076174714
 20
5105.3768885895
 30
0.0
 11
6267.0828580528
 21
5106.396753864
 31
0.0
  0
LINE
  5
14D
330
1F
100
AcDbEntity
  8
0
  6
Continuous
 62
     7
100
AcDbLine
 10
6267.0828580528
 20
5106.396753864
 30
0.0
 11
6266.8917520575
 21
5105.3768885895
 31
0.0
  0
LINE
  5
14E
330
1F
100
AcDbEntity
  8
0
  6
Continuous
 62
     7
100
AcDbLine
 10
6266.8917520575
 20
5105.3768885895
 30
0.0
 11
6266.7110629052
 21
5105.3768885895
 31
0.0
  0
LINE
  5
14F
330
1F
100
AcDbEntity
  8
0
  6
Continuous
 62
     7
100
AcDbLine
 10
6273.1028899805
 20
5106.7718375116
 30
0.0
 11
6273.1028899805
 21
5106.7789090439
 31
0.0
  0
LINE
  5
150
330
1F
100
AcDbEntity
  8
0
  6
Continuous
 62
     7
100
AcDbLine
 10
6272.6497649353
 20
5106.7911019191
 30
0.0
 11
6272.6497649353
 21
5106.7981725201
 31
0.0
  0
LINE
  5
151
330
1F
100
AcDbEntity
  8
0
  6
Continuous
 62
     7
100
AcDbLine
 10
6270.957457288
 20
5106.7911019191
 30
0.0
 11
6270.957457288
 21
5106.7981725201
 31
0.0
  0
LINE
  5
152
330
1F
100
AcDbEntity
  8
0
  6
Continuous
 62
     7
100
AcDbLine
 10
6270.5572169878
 20
5106.7911019191
 30
0.0
 11
6270.957457288
 21
5106.7911019191
 31
0.0
  0
LINE
  5
153
330
1F
100
AcDbEntity
  8
0
  6
Continuous
 62
     7
100
AcDbLine
 10
6270.5572169878
 20
5106.7911019191
 30
0.0
 11
6270.5572169878
 21
5106.7981725201
 31
0.0
  0
LINE
  5
154
330
1F
100
AcDbEntity
  8
0
  6
Continuous
 62
     7
100
AcDbLine
 10
6266.1377453849
 20
5106.7911019191
 30
0.0
 11
6266.1377453849
 21
5106.7981725201
 31
0.0
  0
LINE
  5
155
330
1F
100
AcDbEntity
  8
0
  6
Continuous
 62
     7
100
AcDbLine
 10
6266.111703743
 20
5106.7911019191
 30
0.0
 11
6266.1377453849
 21
5106.7911019191
 31
0.0
  0
LINE
  5
156
330
1F
100
AcDbEntity
  8
0
  6
Continuous
 62
     7
100
AcDbLine
 10
6266.111703743
 20
5106.7911019191
 30
0.0
 11
6266.111703743
 21
5106.7981725201
 31
0.0
  0
LINE
  5
157
330
1F
100
AcDbEntity
  8
0
  6
Continuous
 62
     7
100
AcDbLine
 10
6282.5936751112
 20
5106.7911019191
 30
0.0
 11
6282.5936751112
 21
5106.7981725201
 31
0.0
  0
LINE
  5
158
330
1F
100
AcDbEntity
  8
0
  6
Continuous
 62
     7
100
AcDbLine
 10
6282.070037131
 20
5106.2126118332
 30
0.0
 11
6282.5936751112
 21
5106.7911019191
 31
0.0
  0
LINE
  5
159
330
1F
100
AcDbEntity
  8
0
  6
Continuous
 62
     7
100
AcDbLine
 10
6282.070037131
 20
5106.2126118332
 30
0.0
 11
6282.070037131
 21
5106.2196824342
 31
0.0
  0
LINE
  5
15A
330
1F
100
AcDbEntity
  8
0
  6
Continuous
 62
     7
100
AcDbLine
 10
6282.8008068398
 20
5106.7911019191
 30
0.0
 11
6282.8008068398
 21
5106.7981725201
 31
0.0
  0
LINE
  5
15B
330
1F
100
AcDbEntity
  8
0
  6
Continuous
 62
     7
100
AcDbLine
 10
6282.5936751112
 20
5106.7911019191
 30
0.0
 11
6282.8008068398
 21
5106.7911019191
 31
0.0
  0
LINE
  5
15C
330
1F
100
AcDbEntity
  8
0
  6
Continuous
 62
     7
100
AcDbLine
 10
6279.6469602406
 20
5106.7911019191
 30
0.0
 11
6279.8540919691
 21
5106.7911019191
 31
0.0
  0
LINE
  5
15D
330
1F
100
AcDbEntity
  8
0
  6
Continuous
 62
     7
100
AcDbLine
 10
6279.8540919691
 20
5106.7911019191
 30
0.0
 11
6280.3777294837
 21
5106.2126118332
 31
0.0
  0
LINE
  5
15E
330
1F
100
AcDbEntity
  8
0
  6
Continuous
 62
     7
100
AcDbLine
 10
6280.3777294837
 20
5106.2126118332
 30
0.0
 11
6280.9013674639
 21
5106.7911019191
 31
0.0
  0
LINE
  5
15F
330
1F
100
AcDbEntity
  8
0
  6
Continuous
 62
     7
100
AcDbLine
 10
6280.9013674639
 20
5106.7911019191
 30
0.0
 11
6281.1084987268
 21
5106.7911019191
 31
0.0
  0
LINE
  5
160
330
1F
100
AcDbEntity
  8
0
  6
Continuous
 62
     7
100
AcDbLine
 10
6281.1084987268
 20
5106.7911019191
 30
0.0
 11
6280.4814955823
 21
5106.0981597394
 31
0.0
  0
LINE
  5
161
330
1F
100
AcDbEntity
  8
0
  6
Continuous
 62
     7
100
AcDbLine
 10
6280.4814955823
 20
5106.0981597394
 30
0.0
 11
6281.1341398999
 21
5105.3768885895
 31
0.0
  0
LINE
  5
162
330
1F
100
AcDbEntity
  8
0
  6
Continuous
 62
     7
100
AcDbLine
 10
6281.1341398999
 20
5105.3768885895
 30
0.0
 11
6280.927008637
 21
5105.3768885895
 31
0.0
  0
LINE
  5
163
330
1F
100
AcDbEntity
  8
0
  6
Continuous
 62
     7
100
AcDbLine
 10
6280.927008637
 20
5105.3768885895
 30
0.0
 11
6280.3777294837
 21
5105.9837085768
 31
0.0
  0
LINE
  5
164
330
1F
100
AcDbEntity
  8
0
  6
Continuous
 62
     7
100
AcDbLine
 10
6280.3777294837
 20
5105.9837085768
 30
0.0
 11
6279.828450796
 21
5105.3768885895
 31
0.0
  0
LINE
  5
165
330
1F
100
AcDbEntity
  8
0
  6
Continuous
 62
     7
100
AcDbLine
 10
6279.828450796
 20
5105.3768885895
 30
0.0
 11
6279.6213195331
 21
5105.3768885895
 31
0.0
  0
LINE
  5
166
330
1F
100
AcDbEntity
  8
0
  6
Continuous
 62
     7
100
AcDbLine
 10
6279.6213195331
 20
5105.3768885895
 30
0.0
 11
6280.2743643194
 21
5106.0981597394
 31
0.0
  0
LINE
  5
167
330
1F
100
AcDbEntity
  8
0
  6
Continuous
 62
     7
100
AcDbLine
 10
6280.2743643194
 20
5106.0981597394
 30
0.0
 11
6279.6469602406
 21
5106.7911019191
 31
0.0
  0
LINE
  5
168
330
1F
100
AcDbEntity
  8
0
  6
Continuous
 62
     7
100
AcDbLine
 10
6277.9546525933
 20
5106.7911019191
 30
0.0
 11
6278.1617843218
 21
5106.7911019191
 31
0.0
  0
LINE
  5
169
330
1F
100
AcDbEntity
  8
0
  6
Continuous
 62
     7
100
AcDbLine
 10
6278.1617843218
 20
5106.7911019191
 30
0.0
 11
6278.6854218364
 21
5106.2126118332
 31
0.0
  0
LINE
  5
16A
330
1F
100
AcDbEntity
  8
0
  6
Continuous
 62
     7
100
AcDbLine
 10
6278.6854218364
 20
5106.2126118332
 30
0.0
 11
6279.2090598166
 21
5106.7911019191
 31
0.0
  0
LINE
  5
16B
330
1F
100
AcDbEntity
  8
0
  6
Continuous
 62
     7
100
AcDbLine
 10
6279.2090598166
 20
5106.7911019191
 30
0.0
 11
6279.4161910795
 21
5106.7911019191
 31
0.0
  0
LINE
  5
16C
330
1F
100
AcDbEntity
  8
0
  6
Continuous
 62
     7
100
AcDbLine
 10
6279.4161910795
 20
5106.7911019191
 30
0.0
 11
6278.789187935
 21
5106.0981597394
 31
0.0
  0
LINE
  5
16D
330
1F
100
AcDbEntity
  8
0
  6
Continuous
 62
     7
100
AcDbLine
 10
6278.789187935
 20
5106.0981597394
 30
0.0
 11
6279.4418322526
 21
5105.3768885895
 31
0.0
  0
LINE
  5
16E
330
1F
100
AcDbEntity
  8
0
  6
Continuous
 62
     7
100
AcDbLine
 10
6279.4418322526
 20
5105.3768885895
 30
0.0
 11
6279.2347009897
 21
5105.3768885895
 31
0.0
  0
LINE
  5
16F
330
1F
100
AcDbEntity
  8
0
  6
Continuous
 62
     7
100
AcDbLine
 10
6279.2347009897
 20
5105.3768885895
 30
0.0
 11
6278.6854218364
 21
5105.9837085768
 31
0.0
  0
LINE
  5
170
330
1F
100
AcDbEntity
  8
0
  6
Continuous
 62
     7
100
AcDbLine
 10
6278.6854218364
 20
5105.9837085768
 30
0.0
 11
6278.1361431487
 21
5105.3768885895
 31
0.0
  0
LINE
  5
171
330
1F
100
AcDbEntity
  8
0
  6
Continuous
 62
     7
100
AcDbLine
 10
6278.1361431487
 20
5105.3768885895
 30
0.0
 11
6277.9290118858
 21
5105.3768885895
 31
0.0
  0
LINE
  5
172
330
1F
100
AcDbEntity
  8
0
  6
Continuous
 62
     7
100
AcDbLine
 10
6277.9290118858
 20
5105.3768885895
 30
0.0
 11
6278.5820566721
 21
5106.0981597394
 31
0.0
  0
LINE
  5
173
330
1F
100
AcDbEntity
  8
0
  6
Continuous
 62
     7
100
AcDbLine
 10
6278.5820566721
 20
5106.0981597394
 30
0.0
 11
6277.9546525933
 21
5106.7911019191
 31
0.0
  0
LINE
  5
174
330
1F
100
AcDbEntity
  8
0
  6
Continuous
 62
     7
100
AcDbLine
 10
6272.2495245187
 20
5106.7911019191
 30
0.0
 11
6272.2495245187
 21
5106.7981725201
 31
0.0
  0
LINE
  5
175
330
1F
100
AcDbEntity
  8
0
  6
Continuous
 62
     7
100
AcDbLine
 10
6264.172601667
 20
5105.3768885895
 30
0.0
 11
6264.4366241664
 21
5106.7911019191
 31
0.0
  0
LINE
  5
176
330
1F
100
AcDbEntity
  8
0
  6
Continuous
 62
     7
100
AcDbLine
 10
6264.4366241664
 20
5106.7911019191
 30
0.0
 11
6264.4622653395
 21
5106.7911019191
 31
0.0
  0
LINE
  5
177
330
1F
100
AcDbEntity
  8
0
  6
Continuous
 62
     7
100
AcDbLine
 10
6264.4622653395
 20
5106.7911019191
 30
0.0
 11
6265.2879861787
 21
5105.6307214886
 31
0.0
  0
LINE
  5
178
330
1F
100
AcDbEntity
  8
0
  6
Continuous
 62
     7
100
AcDbLine
 10
6265.2879861787
 20
5105.6307214886
 30
0.0
 11
6266.111703743
 21
5106.7911019191
 31
0.0
  0
LINE
  5
179
330
1F
100
AcDbEntity
  8
0
  6
Continuous
 62
     7
100
AcDbLine
 10
6266.1377453849
 20
5106.7911019191
 30
0.0
 11
6266.4033706903
 21
5105.3768885895
 31
0.0
  0
LINE
  5
17A
330
1F
100
AcDbEntity
  8
0
  6
Continuous
 62
     7
100
AcDbLine
 10
6266.4033706903
 20
5105.3768885895
 30
0.0
 11
6266.2230824724
 21
5105.3768885895
 31
0.0
  0
LINE
  5
17B
330
1F
100
AcDbEntity
  8
0
  6
Continuous
 62
     7
100
AcDbLine
 10
6266.2230824724
 20
5105.3768885895
 30
0.0
 11
6266.0315755427
 21
5106.3944870248
 31
0.0
  0
LINE
  5
17C
330
1F
100
AcDbEntity
  8
0
  6
Continuous
 62
     7
100
AcDbLine
 10
6266.0315755427
 20
5106.3944870248
 30
0.0
 11
6265.3096208021
 21
5105.3768885895
 31
0.0
  0
LINE
  5
17D
330
1F
100
AcDbEntity
  8
0
  6
Continuous
 62
     7
100
AcDbLine
 10
6265.3096208021
 20
5105.3768885895
 30
0.0
 11
6265.2691557676
 21
5105.3768885895
 31
0.0
  0
LINE
  5
17E
330
1F
100
AcDbEntity
  8
0
  6
Continuous
 62
     7
100
AcDbLine
 10
6265.2691557676
 20
5105.3768885895
 30
0.0
 11
6264.5443968147
 21
5106.396753864
 31
0.0
  0
LINE
  5
17F
330
1F
100
AcDbEntity
  8
0
  6
Continuous
 62
     7
100
AcDbLine
 10
6264.5443968147
 20
5106.396753864
 30
0.0
 11
6264.3532903537
 21
5105.3768885895
 31
0.0
  0
LINE
  5
180
330
1F
100
AcDbEntity
  8
0
  6
Continuous
 62
     7
100
AcDbLine
 10
6264.3532903537
 20
5105.3768885895
 30
0.0
 11
6264.172601667
 21
5105.3768885895
 31
0.0
  0
LINE
  5
181
330
1F
100
AcDbEntity
  8
0
  6
Continuous
 62
     7
100
AcDbLine
 10
6265.2879861787
 20
5105.6307214886
 30
0.0
 11
6265.2879861787
 21
5105.6377920896
 31
0.0
  0
LINE
  5
182
330
1F
100
AcDbEntity
  8
0
  6
Continuous
 62
     7
100
AcDbLine
 10
6264.4622653395
 20
5106.7911019191
 30
0.0
 11
6264.4622653395
 21
5106.7981725201
 31
0.0
  0
LINE
  5
183
330
1F
100
AcDbEntity
  8
0
  6
Continuous
 62
     7
100
AcDbLine
 10
6268.6501654468
 20
5106.7911019191
 30
0.0
 11
6268.6501654468
 21
5106.7981725201
 31
0.0
  0
LINE
  5
184
330
1F
100
AcDbEntity
  8
0
  6
Continuous
 62
     7
100
AcDbLine
 10
6267.8264474168
 20
5105.6307214886
 30
0.0
 11
6267.8264474168
 21
5105.6377920896
 31
0.0
  0
LINE
  5
185
330
1F
100
AcDbEntity
  8
0
  6
Continuous
 62
     7
100
AcDbLine
 10
6264.4366241664
 20
5106.7911019191
 30
0.0
 11
6264.4366241664
 21
5106.7981725201
 31
0.0
  0
LINE
  5
186
330
1F
100
AcDbEntity
  8
0
  6
Continuous
 62
     7
100
AcDbLine
 10
6276.9931144219
 20
5106.2126118332
 30
0.0
 11
6276.9931144219
 21
5106.2196824342
 31
0.0
  0
LINE
  5
187
330
1F
100
AcDbEntity
  8
0
  6
Continuous
 62
     7
100
AcDbLine
 10
6276.4694764417
 20
5106.7911019191
 30
0.0
 11
6276.9931144219
 21
5106.2126118332
 31
0.0
  0
LINE
  5
188
330
1F
100
AcDbEntity
  8
0
  6
Continuous
 62
     7
100
AcDbLine
 10
6276.4694764417
 20
5106.7911019191
 30
0.0
 11
6276.4694764417
 21
5106.7981725201
 31
0.0
  0
LINE
  5
189
330
1F
100
AcDbEntity
  8
0
  6
Continuous
 62
     7
100
AcDbLine
 10
6270.7367040355
 20
5106.1746501937
 30
0.0
 11
6271.1028900601
 21
5106.1726664766
 31
0.0
  0
LINE
  5
18A
330
1F
100
AcDbEntity
  8
0
  6
Continuous
 62
     7
100
AcDbLine
 10
6271.1117040969
 20
5106.646054016
 30
0.0
 11
6270.7367040355
 21
5106.646054016
 31
0.0
  0
LINE
  5
18B
330
1F
100
AcDbEntity
  8
0
  6
Continuous
 62
     7
100
AcDbLine
 10
6270.7367040355
 20
5106.646054016
 30
0.0
 11
6270.7367040355
 21
5106.1746501937
 31
0.0
  0
LINE
  5
18C
330
1F
100
AcDbEntity
  8
0
  6
Continuous
 62
     7
100
AcDbLine
 10
6271.1044924006
 20
5106.0296022907
 30
0.0
 11
6271.8392681934
 21
5105.3768885895
 31
0.0
  0
LINE
  5
18D
330
1F
100
AcDbEntity
  8
0
  6
Continuous
 62
     7
100
AcDbLine
 10
6271.8392681934
 20
5105.3768885895
 30
0.0
 11
6271.6173130691
 21
5105.3768885895
 31
0.0
  0
LINE
  5
18E
330
1F
100
AcDbEntity
  8
0
  6
Continuous
 62
     7
100
AcDbLine
 10
6271.6173130691
 20
5105.3768885895
 30
0.0
 11
6270.8825372763
 21
5106.0296022907
 31
0.0
  0
LINE
  5
18F
330
1F
100
AcDbEntity
  8
0
  6
Continuous
 62
     7
100
AcDbLine
 10
6270.8825372763
 20
5106.0296022907
 30
0.0
 11
6270.7367040355
 21
5106.0296022907
 31
0.0
  0
LINE
  5
190
330
1F
100
AcDbEntity
  8
0
  6
Continuous
 62
     7
100
AcDbLine
 10
6270.7367040355
 20
5106.0296022907
 30
0.0
 11
6270.7367040355
 21
5105.3768885895
 31
0.0
  0
LINE
  5
191
330
1F
100
AcDbEntity
  8
0
  6
Continuous
 62
     7
100
AcDbLine
 10
6270.7367040355
 20
5105.3768885895
 30
0.0
 11
6270.5572169878
 21
5105.3768885895
 31
0.0
  0
LINE
  5
192
330
1F
100
AcDbEntity
  8
0
  6
Continuous
 62
     7
100
AcDbLine
 10
6270.5572169878
 20
5105.3768885895
 30
0.0
 11
6270.5572169878
 21
5106.7911019191
 31
0.0
  0
LINE
  5
193
330
1F
100
AcDbEntity
  8
0
  6
Continuous
 62
     7
100
AcDbLine
 10
6281.1084987268
 20
5106.7911019191
 30
0.0
 11
6281.1084987268
 21
5106.7981725201
 31
0.0
  0
LINE
  5
194
330
1F
100
AcDbEntity
  8
0
  6
Continuous
 62
     7
100
AcDbLine
 10
6280.9013674639
 20
5106.7911019191
 30
0.0
 11
6280.9013674639
 21
5106.7981725201
 31
0.0
  0
LINE
  5
195
330
1F
100
AcDbEntity
  8
0
  6
Continuous
 62
     7
100
AcDbLine
 10
6267.0007265776
 20
5106.7911019191
 30
0.0
 11
6267.0007265776
 21
5106.7981725201
 31
0.0
  0
LINE
  5
196
330
1F
100
AcDbEntity
  8
0
  6
Continuous
 62
     7
100
AcDbLine
 10
6268.6762070887
 20
5106.7911019191
 30
0.0
 11
6268.6762070887
 21
5106.7981725201
 31
0.0
  0
LINE
  5
197
330
1F
100
AcDbEntity
  8
0
  6
Continuous
 62
     7
100
AcDbLine
 10
6281.3392683536
 20
5106.7911019191
 30
0.0
 11
6281.5463996164
 21
5106.7911019191
 31
0.0
  0
LINE
  5
198
330
1F
100
AcDbEntity
  8
0
  6
Continuous
 62
     7
100
AcDbLine
 10
6281.5463996164
 20
5106.7911019191
 30
0.0
 11
6282.070037131
 21
5106.2126118332
 31
0.0
  0
LINE
  5
199
330
1F
100
AcDbEntity
  8
0
  6
Continuous
 62
     7
100
AcDbLine
 10
6282.8008068398
 20
5106.7911019191
 30
0.0
 11
6282.1738032296
 21
5106.0981597394
 31
0.0
  0
LINE
  5
19A
330
1F
100
AcDbEntity
  8
0
  6
Continuous
 62
     7
100
AcDbLine
 10
6282.1738032296
 20
5106.0981597394
 30
0.0
 11
6282.8264480129
 21
5105.3768885895
 31
0.0
  0
LINE
  5
19B
330
1F
100
AcDbEntity
  8
0
  6
Continuous
 62
     7
100
AcDbLine
 10
6282.8264480129
 20
5105.3768885895
 30
0.0
 11
6282.6193162844
 21
5105.3768885895
 31
0.0
  0
LINE
  5
19C
330
1F
100
AcDbEntity
  8
0
  6
Continuous
 62
     7
100
AcDbLine
 10
6282.6193162844
 20
5105.3768885895
 30
0.0
 11
6282.070037131
 21
5105.9837085768
 31
0.0
  0
LINE
  5
19D
330
1F
100
AcDbEntity
  8
0
  6
Continuous
 62
     7
100
AcDbLine
 10
6282.070037131
 20
5105.9837085768
 30
0.0
 11
6281.5207584433
 21
5105.3768885895
 31
0.0
  0
LINE
  5
19E
330
1F
100
AcDbEntity
  8
0
  6
Continuous
 62
     7
100
AcDbLine
 10
6281.5207584433
 20
5105.3768885895
 30
0.0
 11
6281.3136271805
 21
5105.3768885895
 31
0.0
  0
LINE
  5
19F
330
1F
100
AcDbEntity
  8
0
  6
Continuous
 62
     7
100
AcDbLine
 10
6281.3136271805
 20
5105.3768885895
 30
0.0
 11
6281.9666724324
 21
5106.0981597394
 31
0.0
  0
LINE
  5
1A0
330
1F
100
AcDbEntity
  8
0
  6
Continuous
 62
     7
100
AcDbLine
 10
6281.9666724324
 20
5106.0981597394
 30
0.0
 11
6281.3392683536
 21
5106.7911019191
 31
0.0
  0
LINE
  5
1A1
330
1F
100
AcDbEntity
  8
0
  6
Continuous
 62
     7
100
AcDbLine
 10
6266.9750854045
 20
5106.7911019191
 30
0.0
 11
6266.9750854045
 21
5106.7981725201
 31
0.0
  0
LINE
  5
1A2
330
1F
100
AcDbEntity
  8
0
  6
Continuous
 62
     7
100
AcDbLine
 10
6278.1617843218
 20
5106.7911019191
 30
0.0
 11
6278.1617843218
 21
5106.7981725201
 31
0.0
  0
LINE
  5
1A3
330
1F
100
AcDbEntity
  8
0
  6
Continuous
 62
     7
100
AcDbLine
 10
6277.9546525933
 20
5106.7911019191
 30
0.0
 11
6277.9546525933
 21
5106.7981725201
 31
0.0
  0
LINE
  5
1A4
330
1F
100
AcDbEntity
  8
0
  6
Continuous
 62
     7
100
AcDbLine
 10
6279.2090598166
 20
5106.7911019191
 30
0.0
 11
6279.2090598166
 21
5106.7981725201
 31
0.0
  0
LINE
  5
1A5
330
1F
100
AcDbEntity
  8
0
  6
Continuous
 62
     7
100
AcDbLine
 10
6279.4161910795
 20
5106.7911019191
 30
0.0
 11
6279.4161910795
 21
5106.7981725201
 31
0.0
  0
LINE
  5
1A6
330
1F
100
AcDbEntity
  8
0
  6
Continuous
 62
     7
100
AcDbLine
 10
6279.8540919691
 20
5106.7911019191
 30
0.0
 11
6279.8540919691
 21
5106.7981725201
 31
0.0
  0
LINE
  5
1A7
330
1F
100
AcDbEntity
  8
0
  6
Continuous
 62
     7
100
AcDbLine
 10
6279.6469602406
 20
5106.7911019191
 30
0.0
 11
6279.6469602406
 21
5106.7981725201
 31
0.0
  0
LINE
  5
1A8
330
1F
100
AcDbEntity
  8
0
  6
Continuous
 62
     7
100
AcDbLine
 10
6271.4105822749
 20
5106.7718375116
 30
0.0
 11
6271.4105822749
 21
5106.7789090439
 31
0.0
  0
LINE
  5
1A9
330
1F
100
AcDbEntity
  8
0
  6
Continuous
 62
     7
100
AcDbLine
 10
6281.5463996164
 20
5106.7911019191
 30
0.0
 11
6281.5463996164
 21
5106.7981725201
 31
0.0
  0
LINE
  5
1AA
330
1F
100
AcDbEntity
  8
0
  6
Continuous
 62
     7
100
AcDbLine
 10
6276.2623451788
 20
5106.7911019191
 30
0.0
 11
6276.4694764417
 21
5106.7911019191
 31
0.0
  0
LINE
  5
1AB
330
1F
100
AcDbEntity
  8
0
  6
Continuous
 62
     7
100
AcDbLine
 10
6276.9931144219
 20
5106.2126118332
 30
0.0
 11
6277.5167521693
 21
5106.7911019191
 31
0.0
  0
LINE
  5
1AC
330
1F
100
AcDbEntity
  8
0
  6
Continuous
 62
     7
100
AcDbLine
 10
6277.5167521693
 20
5106.7911019191
 30
0.0
 11
6277.7238834321
 21
5106.7911019191
 31
0.0
  0
LINE
  5
1AD
330
1F
100
AcDbEntity
  8
0
  6
Continuous
 62
     7
100
AcDbLine
 10
6277.0968802877
 20
5106.0981597394
 30
0.0
 11
6277.7495246053
 21
5105.3768885895
 31
0.0
  0
LINE
  5
1AE
330
1F
100
AcDbEntity
  8
0
  6
Continuous
 62
     7
100
AcDbLine
 10
6277.7495246053
 20
5105.3768885895
 30
0.0
 11
6277.5423931096
 21
5105.3768885895
 31
0.0
  0
LINE
  5
1AF
330
1F
100
AcDbEntity
  8
0
  6
Continuous
 62
     7
100
AcDbLine
 10
6277.5423931096
 20
5105.3768885895
 30
0.0
 11
6276.9931144219
 21
5105.9837085768
 31
0.0
  0
LINE
  5
1B0
330
1F
100
AcDbEntity
  8
0
  6
Continuous
 62
     7
100
AcDbLine
 10
6276.9931144219
 20
5105.9837085768
 30
0.0
 11
6276.4438355014
 21
5105.3768885895
 31
0.0
  0
LINE
  5
1B1
330
1F
100
AcDbEntity
  8
0
  6
Continuous
 62
     7
100
AcDbLine
 10
6276.4438355014
 20
5105.3768885895
 30
0.0
 11
6276.2367040057
 21
5105.3768885895
 31
0.0
  0
LINE
  5
1B2
330
1F
100
AcDbEntity
  8
0
  6
Continuous
 62
     7
100
AcDbLine
 10
6276.2367040057
 20
5105.3768885895
 30
0.0
 11
6276.8897490248
 21
5106.0981597394
 31
0.0
  0
LINE
  5
1B3
330
1F
100
AcDbEntity
  8
0
  6
Continuous
 62
     7
100
AcDbLine
 10
6276.8897490248
 20
5106.0981597394
 30
0.0
 11
6276.2623451788
 21
5106.7911019191
 31
0.0
  0
LINE
  5
1B4
330
1F
100
AcDbEntity
  8
0
  6
Continuous
 62
     7
100
AcDbLine
 10
6277.7238834321
 20
5106.7911019191
 30
0.0
 11
6277.0968802877
 21
5106.0981597394
 31
0.0
  0
LINE
  5
1B5
330
1F
100
AcDbEntity
  8
0
  6
Continuous
 62
     7
100
AcDbLine
 10
6276.2623451788
 20
5106.7911019191
 30
0.0
 11
6276.2623451788
 21
5106.7981725201
 31
0.0
  0
LINE
  5
1B6
330
1F
100
AcDbEntity
  8
0
  6
Continuous
 62
     7
100
AcDbLine
 10
6283.0315755352
 20
5106.7911019191
 30
0.0
 11
6283.2387072638
 21
5106.7911019191
 31
0.0
  0
LINE
  5
1B7
330
1F
100
AcDbEntity
  8
0
  6
Continuous
 62
     7
100
AcDbLine
 10
6283.2387072638
 20
5106.7911019191
 30
0.0
 11
6283.762345244
 21
5106.2126118332
 31
0.0
  0
LINE
  5
1B8
330
1F
100
AcDbEntity
  8
0
  6
Continuous
 62
     7
100
AcDbLine
 10
6283.762345244
 20
5106.2126118332
 30
0.0
 11
6284.2859832242
 21
5106.7911019191
 31
0.0
  0
LINE
  5
1B9
330
1F
100
AcDbEntity
  8
0
  6
Continuous
 62
     7
100
AcDbLine
 10
6284.2859832242
 20
5106.7911019191
 30
0.0
 11
6284.4931140214
 21
5106.7911019191
 31
0.0
  0
LINE
  5
1BA
330
1F
100
AcDbEntity
  8
0
  6
Continuous
 62
     7
100
AcDbLine
 10
6284.4931140214
 20
5106.7911019191
 30
0.0
 11
6283.8661113426
 21
5106.0981597394
 31
0.0
  0
LINE
  5
1BB
330
1F
100
AcDbEntity
  8
0
  6
Continuous
 62
     7
100
AcDbLine
 10
6283.8661113426
 20
5106.0981597394
 30
0.0
 11
6284.5187551945
 21
5105.3768885895
 31
0.0
  0
LINE
  5
1BC
330
1F
100
AcDbEntity
  8
0
  6
Continuous
 62
     7
100
AcDbLine
 10
6284.5187551945
 20
5105.3768885895
 30
0.0
 11
6284.311623466
 21
5105.3768885895
 31
0.0
  0
LINE
  5
1BD
330
1F
100
AcDbEntity
  8
0
  6
Continuous
 62
     7
100
AcDbLine
 10
6284.311623466
 20
5105.3768885895
 30
0.0
 11
6283.762345244
 21
5105.9837085768
 31
0.0
  0
LINE
  5
1BE
330
1F
100
AcDbEntity
  8
0
  6
Continuous
 62
     7
100
AcDbLine
 10
6283.762345244
 20
5105.9837085768
 30
0.0
 11
6283.2130660906
 21
5105.3768885895
 31
0.0
  0
LINE
  5
1BF
330
1F
100
AcDbEntity
  8
0
  6
Continuous
 62
     7
100
AcDbLine
 10
6283.2130660906
 20
5105.3768885895
 30
0.0
 11
6283.0059343621
 21
5105.3768885895
 31
0.0
  0
LINE
  5
1C0
330
1F
100
AcDbEntity
  8
0
  6
Continuous
 62
     7
100
AcDbLine
 10
6283.0059343621
 20
5105.3768885895
 30
0.0
 11
6283.6589796141
 21
5106.0981597394
 31
0.0
  0
LINE
  5
1C1
330
1F
100
AcDbEntity
  8
0
  6
Continuous
 62
     7
100
AcDbLine
 10
6283.6589796141
 20
5106.0981597394
 30
0.0
 11
6283.0315755352
 21
5106.7911019191
 31
0.0
  0
LINE
  5
1C2
330
1F
100
AcDbEntity
  8
0
  6
Continuous
 62
     7
100
AcDbLine
 10
6280.3777294837
 20
5106.2126118332
 30
0.0
 11
6280.3777294837
 21
5106.2196824342
 31
0.0
  0
LINE
  5
1C3
330
1F
100
AcDbEntity
  8
0
  6
Continuous
 62
     7
100
AcDbLine
 10
6278.6854218364
 20
5106.2126118332
 30
0.0
 11
6278.6854218364
 21
5106.2196824342
 31
0.0
  0
LINE
  5
1C4
330
1F
100
AcDbEntity
  8
0
  6
Continuous
 62
     7
100
AcDbLine
 10
6283.2387072638
 20
5106.7911019191
 30
0.0
 11
6283.2387072638
 21
5106.7981725201
 31
0.0
  0
LINE
  5
1C5
330
1F
100
AcDbEntity
  8
0
  6
Continuous
 62
     7
100
AcDbLine
 10
6283.0315755352
 20
5106.7911019191
 30
0.0
 11
6283.0315755352
 21
5106.7981725201
 31
0.0
  0
LINE
  5
1C6
330
1F
100
AcDbEntity
  8
0
  6
Continuous
 62
     7
100
AcDbLine
 10
6281.3392683536
 20
5106.7911019191
 30
0.0
 11
6281.3392683536
 21
5106.7981725201
 31
0.0
  0
LINE
  5
1C7
330
1F
100
AcDbEntity
  8
0
  6
Continuous
 62
     7
100
AcDbLine
 10
6284.2859832242
 20
5106.7911019191
 30
0.0
 11
6284.2859832242
 21
5106.7981725201
 31
0.0
  0
LINE
  5
1C8
330
1F
100
AcDbEntity
  8
0
  6
Continuous
 62
     7
100
AcDbLine
 10
6283.762345244
 20
5106.2126118332
 30
0.0
 11
6283.762345244
 21
5106.2196824342
 31
0.0
  0
LINE
  5
1C9
330
1F
100
AcDbEntity
  8
0
  6
Continuous
 62
     7
100
AcDbLine
 10
6284.4931140214
 20
5106.7911019191
 30
0.0
 11
6284.4931140214
 21
5106.7981725201
 31
0.0
  0
LINE
  5
1CA
330
1F
100
AcDbEntity
  8
0
  6
Continuous
 62
     7
100
AcDbLine
 10
6266.4033706903
 20
5105.3768885895
 30
0.0
 11
6266.4033706903
 21
5105.3839591905
 31
0.0
  0
LINE
  5
1CB
330
1F
100
AcDbEntity
  8
0
  6
Continuous
 62
     7
100
AcDbLine
 10
6264.172601667
 20
5105.3768885895
 30
0.0
 11
6264.172601667
 21
5105.3839591905
 31
0.0
  0
LINE
  5
1CC
330
1F
100
AcDbEntity
  8
0
  6
Continuous
 62
     7
100
AcDbLine
 10
6277.5167521693
 20
5106.7911019191
 30
0.0
 11
6277.5167521693
 21
5106.7981725201
 31
0.0
  0
LINE
  5
1CD
330
1F
100
AcDbEntity
  8
0
  6
Continuous
 62
     7
100
AcDbLine
 10
6277.7238834321
 20
5106.7911019191
 30
0.0
 11
6277.7238834321
 21
5106.7981725201
 31
0.0
  0
LINE
  5
1CE
330
1F
100
AcDbEntity
  8
0
  6
Continuous
 62
     7
100
AcDbLine
 10
6268.9418323941
 20
5105.3768885895
 30
0.0
 11
6268.9418323941
 21
5105.3839591905
 31
0.0
  0
LINE
  5
1CF
330
1F
100
AcDbEntity
  8
0
  6
Continuous
 62
     7
100
AcDbLine
 10
6266.7110629052
 20
5105.3768885895
 30
0.0
 11
6266.7110629052
 21
5105.3839591905
 31
0.0
  0
LINE
  5
1D0
330
1F
100
AcDbEntity
  8
0
  6
Continuous
 62
     7
100
AcDbLine
 10
6273.5059348422
 20
5106.4129020661
 30
0.0
 11
6273.5059348422
 21
5106.4199726671
 31
0.0
  0
LINE
  5
1D1
330
1F
100
AcDbEntity
  8
0
  6
Continuous
 62
     7
100
AcDbLine
 10
6271.8136270203
 20
5106.4129020661
 30
0.0
 11
6271.8136270203
 21
5106.4199726671
 31
0.0
  0
LINE
  5
1D2
330
1F
100
AcDbEntity
  8
0
  6
Continuous
 62
     7
100
AcDbLine
 10
6272.4290117992
 20
5106.1817207947
 30
0.0
 11
6272.795197591
 21
5106.179738009
 31
0.0
  0
LINE
  5
1D3
330
1F
100
AcDbEntity
  8
0
  6
Continuous
 62
     7
100
AcDbLine
 10
6270.7367040355
 20
5106.1817207947
 30
0.0
 11
6271.1028900601
 21
5106.179738009
 31
0.0
  0
LINE
  5
1D4
330
1F
100
AcDbEntity
  8
0
  6
Continuous
 62
     7
100
AcDbLine
 10
6272.795197591
 20
5106.1726664766
 30
0.0
 11
6272.795197591
 21
5106.179738009
 31
0.0
  0
LINE
  5
1D5
330
1F
100
AcDbEntity
  8
0
  6
Continuous
 62
     7
100
AcDbLine
 10
6271.1028900601
 20
5106.1726664766
 30
0.0
 11
6271.1028900601
 21
5106.179738009
 31
0.0
  0
LINE
  5
1D6
330
1F
100
AcDbEntity
  8
0
  6
Continuous
 62
     7
100
AcDbLine
 10
6281.1341398999
 20
5105.3768885895
 30
0.0
 11
6281.1341398999
 21
5105.3839591905
 31
0.0
  0
LINE
  5
1D7
330
1F
100
AcDbEntity
  8
0
  6
Continuous
 62
     7
100
AcDbLine
 10
6277.7495246053
 20
5105.3768885895
 30
0.0
 11
6277.7495246053
 21
5105.3839591905
 31
0.0
  0
LINE
  5
1D8
330
1F
100
AcDbEntity
  8
0
  6
Continuous
 62
     7
100
AcDbLine
 10
6284.5187551945
 20
5105.3768885895
 30
0.0
 11
6284.5187551945
 21
5105.3839591905
 31
0.0
  0
LINE
  5
1D9
330
1F
100
AcDbEntity
  8
0
  6
Continuous
 62
     7
100
AcDbLine
 10
6279.4418322526
 20
5105.3768885895
 30
0.0
 11
6279.4418322526
 21
5105.3839591905
 31
0.0
  0
LINE
  5
1DA
330
1F
100
AcDbEntity
  8
0
  6
Continuous
 62
     7
100
AcDbLine
 10
6281.3136271805
 20
5105.3768885895
 30
0.0
 11
6281.3136271805
 21
5105.3839591905
 31
0.0
  0
LINE
  5
1DB
330
1F
100
AcDbEntity
  8
0
  6
Continuous
 62
     7
100
AcDbLine
 10
6282.8264480129
 20
5105.3768885895
 30
0.0
 11
6282.8264480129
 21
5105.3839591905
 31
0.0
  0
LINE
  5
1DC
330
1F
100
AcDbEntity
  8
0
  6
Continuous
 62
     7
100
AcDbLine
 10
6277.9290118858
 20
5105.3768885895
 30
0.0
 11
6277.9290118858
 21
5105.3839591905
 31
0.0
  0
LINE
  5
1DD
330
1F
100
AcDbEntity
  8
0
  6
Continuous
 62
     7
100
AcDbLine
 10
6283.0059343621
 20
5105.3768885895
 30
0.0
 11
6283.0059343621
 21
5105.3839591905
 31
0.0
  0
LINE
  5
1DE
330
1F
100
AcDbEntity
  8
0
  6
Continuous
 62
     7
100
AcDbLine
 10
6276.2367040057
 20
5105.3768885895
 30
0.0
 11
6276.2367040057
 21
5105.3839591905
 31
0.0
  0
LINE
  5
1DF
330
1F
100
AcDbEntity
  8
0
  6
Continuous
 62
     7
100
AcDbLine
 10
6279.6213195331
 20
5105.3768885895
 30
0.0
 11
6279.6213195331
 21
5105.3839591905
 31
0.0
  0
LINE
  5
1E0
330
1F
100
AcDbEntity
  8
0
  6
Continuous
 62
     7
100
AcDbLine
 10
6271.8392681934
 20
5105.3768885895
 30
0.0
 11
6271.8392681934
 21
5105.3839591905
 31
0.0
  0
LINE
  5
1E1
330
1F
100
AcDbEntity
  8
0
  6
Continuous
 62
     7
100
AcDbLine
 10
6273.5315758407
 20
5105.3768885895
 30
0.0
 11
6273.5315758407
 21
5105.3839591905
 31
0.0
  0
LINE
  5
1E2
330
1F
100
AcDbEntity
  8
0
  6
Continuous
 62
     7
100
AcDbLine
 10
6274.53157583
 20
5105.9933403149
 30
0.0
 11
6275.3008066582
 21
5105.9933403149
 31
0.0
  0
LINE
  5
1E3
330
1F
100
AcDbEntity
  8
0
  6
Continuous
 62
     7
100
AcDbLine
 10
6275.3008066582
 20
5105.9933403149
 30
0.0
 11
6275.3008066582
 21
5105.8482924118
 31
0.0
  0
LINE
  5
1E4
330
1F
100
AcDbEntity
  8
0
  6
Continuous
 62
     7
100
AcDbLine
 10
6275.3008066582
 20
5105.8482924118
 30
0.0
 11
6274.53157583
 21
5105.8482924118
 31
0.0
  0
LINE
  5
1E5
330
1F
100
AcDbEntity
  8
0
  6
Continuous
 62
     7
100
AcDbLine
 10
6274.53157583
 20
5105.8482924118
 30
0.0
 11
6274.53157583
 21
5105.9933403149
 31
0.0
  0
LINE
  5
1E6
330
1F
100
AcDbEntity
  8
0
  6
Continuous
 62
     7
100
AcDbLine
 10
6275.3008066582
 20
5105.9933403149
 30
0.0
 11
6275.3008066582
 21
5106.0004109159
 31
0.0
  0
LINE
  5
1E7
330
1F
100
AcDbEntity
  8
0
  6
Continuous
 62
     7
100
AcDbLine
 10
6274.53157583
 20
5105.9933403149
 30
0.0
 11
6274.53157583
 21
5106.0004109159
 31
0.0
  0
LINE
  5
1E8
330
1F
100
AcDbEntity
  8
0
  6
Continuous
 62
     7
100
AcDbLine
 10
7872.9597471812
 20
4962.3039221033
 30
0.0
 11
7872.2625814536
 21
4962.3039221033
 31
0.0
  0
LINE
  5
1E9
330
1F
100
AcDbEntity
  8
0
  6
Continuous
 62
     7
100
AcDbLine
 10
7872.2625814536
 20
4882.3039238915
 30
0.0
 11
7872.9597471812
 21
4882.3039238915
 31
0.0
  0
LINE
  5
1EA
330
1F
100
AcDbEntity
  8
0
  6
Continuous
 62
     7
100
AcDbLine
 10
7872.2625814536
 20
4942.3039262756
 30
0.0
 11
7862.2625798145
 21
4942.3039262756
 31
0.0
  0
LINE
  5
1EB
330
1F
100
AcDbEntity
  8
0
  6
Continuous
 62
     7
100
AcDbLine
 10
7862.2625798145
 20
4902.3039346203
 30
0.0
 11
7872.2625814536
 21
4902.3039346203
 31
0.0
  0
LINE
  5
1EC
330
1F
100
AcDbEntity
  8
0
  6
Continuous
 62
     7
100
AcDbLine
 10
7872.9597471812
 20
4813.2162546381
 30
0.0
 11
7872.9597471812
 21
5093.2162663076
 31
0.0
  0
LINE
  5
1ED
330
1F
100
AcDbEntity
  8
0
  6
Continuous
 62
     7
100
AcDbLine
 10
7872.9597471812
 20
4813.2162546381
 30
0.0
 11
7873.7597495475
 21
4813.2162546381
 31
0.0
  0
LINE
  5
1EE
330
1F
100
AcDbEntity
  8
0
  6
Continuous
 62
     7
100
AcDbLine
 10
7873.7597495475
 20
4813.2162546381
 30
0.0
 11
7873.7597495475
 21
5093.2162663076
 31
0.0
  0
LINE
  5
1EF
330
1F
100
AcDbEntity
  8
0
  6
Continuous
 62
     7
100
AcDbLine
 10
7874.2097497144
 20
4813.2162546381
 30
0.0
 11
7874.2097497144
 21
5093.2162663076
 31
0.0
  0
LINE
  5
1F0
330
1F
100
AcDbEntity
  8
0
  6
Continuous
 62
     7
100
AcDbLine
 10
7873.7597495475
 20
4813.2162546381
 30
0.0
 11
7874.2097497144
 21
4813.2162546381
 31
0.0
  0
LINE
  5
1F1
330
1F
100
AcDbEntity
  8
0
  6
Continuous
 62
     7
100
AcDbLine
 10
8088.7097448268
 20
4813.2162546381
 30
0.0
 11
8088.7097448268
 21
5093.2162663076
 31
0.0
  0
LINE
  5
1F2
330
1F
100
AcDbEntity
  8
0
  6
Continuous
 62
     7
100
AcDbLine
 10
7874.2097497144
 20
4813.2162546381
 30
0.0
 11
8088.7097448268
 21
4813.2162546381
 31
0.0
  0
LINE
  5
1F3
330
1F
100
AcDbEntity
  8
0
  6
Continuous
 62
     7
100
AcDbLine
 10
8089.9597436347
 20
4813.2162546381
 30
0.0
 11
8089.9597436347
 21
5093.2162663076
 31
0.0
  0
LINE
  5
1F4
330
1F
100
AcDbEntity
  8
0
  6
Continuous
 62
     7
100
AcDbLine
 10
8088.7097448268
 20
4813.2162546381
 30
0.0
 11
8089.9597436347
 21
4813.2162546381
 31
0.0
  0
LINE
  5
1F5
330
1F
100
AcDbEntity
  8
0
  6
Continuous
 62
     7
100
AcDbLine
 10
7874.9097466627
 20
5093.2162663076
 30
0.0
 11
7872.9597471812
 21
5093.2162663076
 31
0.0
  0
LINE
  5
1F6
330
1F
100
AcDbEntity
  8
0
  6
Continuous
 62
     7
100
AcDbLine
 10
7872.9597471812
 20
5093.2162663076
 30
0.0
 11
7872.9597471812
 21
5593.2175373301
 31
0.0
  0
LINE
  5
1F7
330
1F
100
AcDbEntity
  8
0
  6
Continuous
 62
     7
100
AcDbLine
 10
7873.0123818078
 20
5593.2175373301
 30
0.0
 11
7874.9097466627
 21
5593.2175373301
 31
0.0
  0
LINE
  5
1F8
330
1F
100
AcDbEntity
  8
0
  6
Continuous
 62
     7
100
AcDbLine
 10
7874.9097466627
 20
5593.2175373301
 30
0.0
 11
7874.9097466627
 21
5093.2162663076
 31
0.0
  0
LINE
  5
1F9
330
1F
100
AcDbEntity
  8
0
  6
Continuous
 62
     7
100
AcDbLine
 10
8095.529335753
 20
5093.7874080837
 30
0.0
 11
8129.3888420024
 21
5127.646908687
 31
0.0
  0
LINE
  5
1FA
330
1F
100
AcDbEntity
  8
0
  6
Continuous
 62
     7
100
AcDbLine
 10
8129.9599886098
 20
5129.0257690117
 30
0.0
 11
8129.9599886098
 21
5486.4667212233
 31
0.0
  0
LINE
  5
1FB
330
1F
100
AcDbEntity
  8
0
  6
Continuous
 62
     7
100
AcDbLine
 10
7874.9097466627
 20
5093.2162663076
 30
0.0
 11
8094.1504866042
 21
5093.2162663076
 31
0.0
  0
LINE
  5
1FC
330
1F
100
AcDbEntity
  8
0
  6
Continuous
 62
     7
100
AcDbLine
 10
7875.9097486892
 20
5593.2175373301
 30
0.0
 11
7874.9097466627
 21
5593.2175373301
 31
0.0
  0
LINE
  5
1FD
330
1F
100
AcDbEntity
  8
0
  6
Continuous
 62
     7
100
AcDbLine
 10
7875.9097486892
 20
5595.2175413832
 30
0.0
 11
7875.9097486892
 21
5593.2175373301
 31
0.0
  0
LINE
  5
1FE
330
1F
100
AcDbEntity
  8
0
  6
Continuous
 62
     7
100
AcDbLine
 10
7872.9597471812
 20
5595.2175413832
 30
0.0
 11
7875.9097486892
 21
5595.2175413832
 31
0.0
  0
LINE
  5
1FF
330
1F
100
AcDbEntity
  8
0
  6
Continuous
 62
     7
100
AcDbLine
 10
7872.9597471812
 20
5612.2326409086
 30
0.0
 11
7872.9597471812
 21
5595.2175413832
 31
0.0
  0
LINE
  5
200
330
1F
100
AcDbEntity
  8
0
  6
Continuous
 62
     7
100
AcDbLine
 10
8097.0609963098
 20
5533.451334165
 30
0.0
 11
7875.5766853848
 21
5614.065066503
 31
0.0
  0
LINE
  5
201
330
1F
100
AcDbEntity
  8
0
  6
Continuous
 62
     7
100
AcDbLine
 10
7872.9597471812
 20
5593.2175373301
 30
0.0
 11
7873.0123818078
 21
5593.2175373301
 31
0.0
  0
LINE
  5
202
330
1F
100
AcDbEntity
  8
0
  6
Continuous
 62
     7
100
AcDbLine
 10
7872.9597471812
 20
5595.2175413832
 30
0.0
 11
7872.9597471812
 21
5593.2175373301
 31
0.0
  0
LINE
  5
203
330
1F
100
AcDbEntity
  8
0
  6
Continuous
 62
     7
100
AcDbLine
 10
7874.4597464958
 20
5595.2175413832
 30
0.0
 11
7874.4597464958
 21
5593.2175373301
 31
0.0
  0
LINE
  5
204
330
1F
100
AcDbEntity
  8
0
  6
Continuous
 62
     7
100
AcDbLine
 10
8131.4599841991
 20
5217.8180520996
 30
0.0
 11
8132.9599797883
 21
5217.8180520996
 31
0.0
  0
LINE
  5
205
330
1F
100
AcDbEntity
  8
0
  6
Continuous
 62
     7
100
AcDbLine
 10
8131.4599841991
 20
5217.8180520996
 30
0.0
 11
8131.4599841991
 21
5230.9680586323
 31
0.0
  0
LINE
  5
206
330
1F
100
AcDbEntity
  8
0
  6
Continuous
 62
     7
100
AcDbLine
 10
8132.9599797883
 20
5230.9680586323
 30
0.0
 11
8131.4599841991
 21
5230.9680586323
 31
0.0
  0
LINE
  5
207
330
1F
100
AcDbEntity
  8
0
  6
Continuous
 62
     7
100
AcDbLine
 10
8132.9599797883
 20
5217.8180520996
 30
0.0
 11
8132.9599797883
 21
5230.9680586323
 31
0.0
  0
LINE
  5
208
330
1F
100
AcDbEntity
  8
0
  6
Continuous
 62
     7
100
AcDbLine
 10
7872.2625814536
 20
4962.3039221033
 30
0.0
 11
7872.2625814536
 21
4882.3039238915
 31
0.0
  0
LINE
  5
209
330
1F
100
AcDbEntity
  8
0
  6
Continuous
 62
     7
100
AcDbLine
 10
7862.2625798145
 20
4942.3039262756
 30
0.0
 11
7862.2625798145
 21
4902.3039346203
 31
0.0
  0
LINE
  5
20A
330
1F
100
AcDbEntity
  8
0
  6
Continuous
 62
     7
100
AcDbLine
 10
8109.742182509
 20
5107.8588334486
 30
0.0
 11
8109.6714764991
 21
5107.929544115
 31
0.0
  0
LINE
  5
20B
330
1F
100
AcDbEntity
  8
0
  6
Continuous
 62
     7
100
AcDbLine
 10
8109.742182509
 20
5107.8588334486
 30
0.0
 11
8106.2066584983
 21
5104.3232991934
 31
0.0
  0
LINE
  5
20C
330
1F
100
AcDbEntity
  8
0
  6
Continuous
 62
     7
100
AcDbLine
 10
8106.2066584983
 20
5104.3232991934
 30
0.0
 11
8106.1359375873
 21
5104.3940098598
 31
0.0
  0
LINE
  5
20D
330
1F
100
AcDbEntity
  8
0
  6
Continuous
 62
     7
100
AcDbLine
 10
8108.6885959068
 20
5106.7911019191
 30
0.0
 11
8108.6815327564
 21
5106.7981725201
 31
0.0
  0
LINE
  5
20E
330
1F
100
AcDbEntity
  8
0
  6
Continuous
 62
     7
100
AcDbLine
 10
8107.2743863025
 20
5105.3768885895
 30
0.0
 11
8107.2673082509
 21
5105.3839591905
 31
0.0
  0
LINE
  5
20F
330
1F
100
AcDbEntity
  8
0
  6
Continuous
 62
     7
100
AcDbLine
 10
8107.2743863025
 20
5105.3768885895
 30
0.0
 11
8108.6885959068
 21
5106.7911019191
 31
0.0
  0
LINE
  5
210
330
1F
100
AcDbEntity
  8
0
  6
Continuous
 62
     7
100
AcDbLine
 10
8108.7248653331
 20
5106.8273638949
 30
0.0
 11
8108.7177872815
 21
5106.8344344958
 31
0.0
  0
LINE
  5
211
330
1F
100
AcDbEntity
  8
0
  6
Continuous
 62
     7
100
AcDbLine
 10
8107.0749491611
 20
5105.1774477228
 30
0.0
 11
8107.2743863025
 21
5105.3768885895
 31
0.0
  0
LINE
  5
212
330
1F
100
AcDbEntity
  8
0
  6
Continuous
 62
     7
100
AcDbLine
 10
8108.6885959068
 20
5106.7911019191
 30
0.0
 11
8108.7248653331
 21
5106.8273638949
 31
0.0
  0
LINE
  5
213
330
1F
100
AcDbEntity
  8
0
  6
Continuous
 62
     7
100
AcDbLine
 10
8107.0749491611
 20
5105.1774477228
 30
0.0
 11
8107.0678711095
 21
5105.1845192551
 31
0.0
  0
LINE
  5
214
330
1F
100
AcDbEntity
  8
0
  6
Continuous
 62
     7
100
AcDbLine
 10
6314.018754442
 20
4418.7896198883
 30
0.0
 11
6314.018754442
 21
4419.4867856159
 31
0.0
  0
LINE
  5
215
330
1F
100
AcDbEntity
  8
0
  6
Continuous
 62
     7
100
AcDbLine
 10
6234.0187562302
 20
4419.4867856159
 30
0.0
 11
6234.0187562302
 21
4418.7896198883
 31
0.0
  0
LINE
  5
216
330
1F
100
AcDbEntity
  8
0
  6
Continuous
 62
     7
100
AcDbLine
 10
6294.0187548891
 20
4419.4867856159
 30
0.0
 11
6294.0187548891
 21
4429.486787255
 31
0.0
  0
LINE
  5
217
330
1F
100
AcDbEntity
  8
0
  6
Continuous
 62
     7
100
AcDbLine
 10
6254.0187557831
 20
4429.486787255
 30
0.0
 11
6254.0187557831
 21
4419.4867856159
 31
0.0
  0
LINE
  5
218
330
1F
100
AcDbEntity
  8
0
  6
Continuous
 62
     7
100
AcDbLine
 10
7149.0187553361
 20
4371.7899530484
 30
0.0
 11
7149.0187553361
 21
4368.5811926435
 31
0.0
  0
LINE
  5
219
330
1F
100
AcDbEntity
  8
0
  6
Continuous
 62
     7
100
AcDbLine
 10
7199.018767257
 20
4368.5811926435
 30
0.0
 11
7199.018767257
 21
4371.7899530484
 31
0.0
  0
LINE
  5
21A
330
1F
100
AcDbEntity
  8
0
  6
Continuous
 62
     7
100
AcDbLine
 10
5949.018767257
 20
4371.7899530484
 30
0.0
 11
5949.018767257
 21
4368.5811926435
 31
0.0
  0
LINE
  5
21B
330
1F
100
AcDbEntity
  8
0
  6
Continuous
 62
     7
100
AcDbLine
 10
5999.0187493756
 20
4368.5811926435
 30
0.0
 11
5999.0187493756
 21
4371.7899530484
 31
0.0
  0
LINE
  5
21C
330
1F
100
AcDbEntity
  8
0
  6
Continuous
 62
     7
100
AcDbLine
 10
6549.0187612966
 20
4371.7899530484
 30
0.0
 11
6549.0187612966
 21
4368.5811926435
 31
0.0
  0
LINE
  5
21D
330
1F
100
AcDbEntity
  8
0
  6
Continuous
 62
     7
100
AcDbLine
 10
6599.0187434152
 20
4368.5811926435
 30
0.0
 11
6599.0187434152
 21
4371.7899530484
 31
0.0
  0
LINE
  5
21E
330
1F
100
AcDbEntity
  8
0
  6
Continuous
 62
     7
100
AcDbLine
 10
5349.0187434152
 20
4371.7899530484
 30
0.0
 11
5349.0187434152
 21
4368.5811926435
 31
0.0
  0
LINE
  5
21F
330
1F
100
AcDbEntity
  8
0
  6
Continuous
 62
     7
100
AcDbLine
 10
5399.0187553361
 20
4368.5811926435
 30
0.0
 11
5399.0187553361
 21
4371.7899530484
 31
0.0
  0
LINE
  5
220
330
1F
100
AcDbEntity
  8
0
  6
Continuous
 62
     7
100
AcDbLine
 10
5824.5187608197
 20
4418.7899514391
 30
0.0
 11
5803.8281706765
 21
4418.7899514391
 31
0.0
  0
LINE
  5
221
330
1F
100
AcDbEntity
  8
0
  6
Continuous
 62
     7
100
AcDbLine
 10
5873.5187558129
 20
4418.7899514391
 30
0.0
 11
5873.5184279874
 21
4418.7896198883
 31
0.0
  0
LINE
  5
222
330
1F
100
AcDbEntity
  8
0
  6
Continuous
 62
     7
100
AcDbLine
 10
5824.5190886453
 20
4418.7896198883
 30
0.0
 11
5824.5187608197
 21
4418.7899514391
 31
0.0
  0
LINE
  5
223
330
1F
100
AcDbEntity
  8
0
  6
Continuous
 62
     7
100
AcDbLine
 10
5803.8281706765
 20
4418.7899514391
 30
0.0
 11
5803.8279620603
 21
4418.7896198883
 31
0.0
  0
LINE
  5
224
330
1F
100
AcDbEntity
  8
0
  6
Continuous
 62
     7
100
AcDbLine
 10
5894.2093459561
 20
4418.7899514391
 30
0.0
 11
5873.5187558129
 21
4418.7899514391
 31
0.0
  0
LINE
  5
225
330
1F
100
AcDbEntity
  8
0
  6
Continuous
 62
     7
100
AcDbLine
 10
5894.2095545724
 20
4418.7896198883
 30
0.0
 11
5894.2093459561
 21
4418.7899514391
 31
0.0
  0
LINE
  5
226
330
1F
100
AcDbEntity
  8
0
  6
Continuous
 62
     7
100
AcDbLine
 10
6744.2095486119
 20
4418.7896198883
 30
0.0
 11
6744.2093399957
 21
4418.7899514391
 31
0.0
  0
LINE
  5
227
330
1F
100
AcDbEntity
  8
0
  6
Continuous
 62
     7
100
AcDbLine
 10
6744.2093399957
 20
4418.7899514391
 30
0.0
 11
6723.5187498525
 21
4418.7899514391
 31
0.0
  0
LINE
  5
228
330
1F
100
AcDbEntity
  8
0
  6
Continuous
 62
     7
100
AcDbLine
 10
6653.8281647161
 20
4418.7899514391
 30
0.0
 11
6653.8279560998
 21
4418.7896198883
 31
0.0
  0
LINE
  5
229
330
1F
100
AcDbEntity
  8
0
  6
Continuous
 62
     7
100
AcDbLine
 10
6674.5187548593
 20
4418.7899514391
 30
0.0
 11
6653.8281647161
 21
4418.7899514391
 31
0.0
  0
LINE
  5
22A
330
1F
100
AcDbEntity
  8
0
  6
Continuous
 62
     7
100
AcDbLine
 10
6674.5190826848
 20
4418.7896198883
 30
0.0
 11
6674.5187548593
 21
4418.7899514391
 31
0.0
  0
LINE
  5
22B
330
1F
100
AcDbEntity
  8
0
  6
Continuous
 62
     7
100
AcDbLine
 10
6723.5187498525
 20
4418.7899514391
 30
0.0
 11
6723.5184220269
 21
4418.7896198883
 31
0.0
  0
LINE
  5
22C
330
1F
100
AcDbEntity
  8
0
  6
Continuous
 62
     7
100
AcDbLine
 10
6419.5187596276
 20
4418.7899514391
 30
0.0
 11
6398.8281545833
 21
4418.7899514391
 31
0.0
  0
LINE
  5
22D
330
1F
100
AcDbEntity
  8
0
  6
Continuous
 62
     7
100
AcDbLine
 10
6489.2095533803
 20
4418.7896198883
 30
0.0
 11
6489.2093596652
 21
4418.7899514391
 31
0.0
  0
LINE
  5
22E
330
1F
100
AcDbEntity
  8
0
  6
Continuous
 62
     7
100
AcDbLine
 10
6468.5187546208
 20
4418.7899514391
 30
0.0
 11
6468.5184267953
 21
4418.7896198883
 31
0.0
  0
LINE
  5
22F
330
1F
100
AcDbEntity
  8
0
  6
Continuous
 62
     7
100
AcDbLine
 10
6419.5190874532
 20
4418.7896198883
 30
0.0
 11
6419.5187596276
 21
4418.7899514391
 31
0.0
  0
LINE
  5
230
330
1F
100
AcDbEntity
  8
0
  6
Continuous
 62
     7
100
AcDbLine
 10
6398.8281545833
 20
4418.7899514391
 30
0.0
 11
6398.8279608682
 21
4418.7896198883
 31
0.0
  0
LINE
  5
231
330
1F
100
AcDbEntity
  8
0
  6
Continuous
 62
     7
100
AcDbLine
 10
6489.2093596652
 20
4418.7899514391
 30
0.0
 11
6468.5187546208
 21
4418.7899514391
 31
0.0
  0
LINE
  5
232
330
1F
100
AcDbEntity
  8
0
  6
Continuous
 62
     7
100
AcDbLine
 10
7269.0191177323
 20
4418.7896198883
 30
0.0
 11
7269.0187601045
 21
4418.7899514391
 31
0.0
  0
LINE
  5
233
330
1F
100
AcDbEntity
  8
0
  6
Continuous
 62
     7
100
AcDbLine
 10
7269.0187601045
 20
4418.7899514391
 30
0.0
 11
7248.3281401589
 21
4418.7899514391
 31
0.0
  0
LINE
  5
234
330
1F
100
AcDbEntity
  8
0
  6
Continuous
 62
     7
100
AcDbLine
 10
7248.3281401589
 20
4418.7899514391
 30
0.0
 11
7248.327961345
 21
4418.7896198883
 31
0.0
  0
LINE
  5
235
330
1F
100
AcDbEntity
  8
0
  6
Continuous
 62
     7
100
AcDbLine
 10
5299.7095493272
 20
4418.7896198883
 30
0.0
 11
5299.7093705133
 21
4418.7899514391
 31
0.0
  0
LINE
  5
236
330
1F
100
AcDbEntity
  8
0
  6
Continuous
 62
     7
100
AcDbLine
 10
5299.7093705133
 20
4418.7899514391
 30
0.0
 11
5279.0187505677
 21
4418.7899514391
 31
0.0
  0
LINE
  5
237
330
1F
100
AcDbEntity
  8
0
  6
Continuous
 62
     7
100
AcDbLine
 10
5279.0187505677
 20
4418.7899514391
 30
0.0
 11
5279.0183929399
 21
4418.7896198883
 31
0.0
  0
LINE
  5
238
330
1F
100
AcDbEntity
  8
0
  6
Continuous
 62
     7
100
AcDbLine
 10
7474.0188030198
 20
4418.7896198883
 30
0.0
 11
7472.5187925294
 21
4418.7896198883
 31
0.0
  0
LINE
  5
239
330
1F
100
AcDbEntity
  8
0
  6
Continuous
 62
     7
100
AcDbLine
 10
7474.0188030198
 20
4416.1726816847
 30
0.0
 11
7472.5187925294
 21
4416.1726816847
 31
0.0
  0
LINE
  5
23A
330
1F
100
AcDbEntity
  8
0
  6
Continuous
 62
     7
100
AcDbLine
 10
7472.5187925294
 20
4416.1726816847
 30
0.0
 11
7472.5187925294
 21
4418.7896198883
 31
0.0
  0
LINE
  5
23B
330
1F
100
AcDbEntity
  8
0
  6
Continuous
 62
     7
100
AcDbLine
 10
7474.0188030198
 20
4416.1726816847
 30
0.0
 11
7474.0188030198
 21
4418.7896198883
 31
0.0
  0
LINE
  5
23C
330
1F
100
AcDbEntity
  8
0
  6
Continuous
 62
     7
100
AcDbLine
 10
7474.0188030198
 20
4194.6883707597
 30
0.0
 11
7472.5187925294
 21
4194.6883707597
 31
0.0
  0
LINE
  5
23D
330
1F
100
AcDbEntity
  8
0
  6
Continuous
 62
     7
100
AcDbLine
 10
7472.5187925294
 20
4194.6883707597
 30
0.0
 11
7472.5187925294
 21
4416.1726816847
 31
0.0
  0
LINE
  5
23E
330
1F
100
AcDbEntity
  8
0
  6
Continuous
 62
     7
100
AcDbLine
 10
7474.0188030198
 20
4194.6883707597
 30
0.0
 11
7474.0188030198
 21
4416.1726816847
 31
0.0
  0
LINE
  5
23F
330
1F
100
AcDbEntity
  8
0
  6
Continuous
 62
     7
100
AcDbLine
 10
7474.0188030198
 20
4161.7893784597
 30
0.0
 11
7472.5187925294
 21
4161.7893784597
 31
0.0
  0
LINE
  5
240
330
1F
100
AcDbEntity
  8
0
  6
Continuous
 62
     7
100
AcDbLine
 10
7472.5187925294
 20
4161.7893784597
 30
0.0
 11
7472.5187925294
 21
4194.6883707597
 31
0.0
  0
LINE
  5
241
330
1F
100
AcDbEntity
  8
0
  6
Continuous
 62
     7
100
AcDbLine
 10
7474.0188030198
 20
4161.7893784597
 30
0.0
 11
7474.0188030198
 21
4194.6883707597
 31
0.0
  0
LINE
  5
242
330
1F
100
AcDbEntity
  8
0
  6
Continuous
 62
     7
100
AcDbLine
 10
5074.0187076524
 20
4416.1726816847
 30
0.0
 11
5075.5187181428
 21
4416.1726816847
 31
0.0
  0
LINE
  5
243
330
1F
100
AcDbEntity
  8
0
  6
Continuous
 62
     7
100
AcDbLine
 10
5074.0187076524
 20
4418.7896198883
 30
0.0
 11
5075.5187181428
 21
4418.7896198883
 31
0.0
  0
LINE
  5
244
330
1F
100
AcDbEntity
  8
0
  6
Continuous
 62
     7
100
AcDbLine
 10
5075.5187181428
 20
4416.1726816847
 30
0.0
 11
5075.5187181428
 21
4418.7896198883
 31
0.0
  0
LINE
  5
245
330
1F
100
AcDbEntity
  8
0
  6
Continuous
 62
     7
100
AcDbLine
 10
5074.0187076524
 20
4416.1726816847
 30
0.0
 11
5074.0187076524
 21
4418.7896198883
 31
0.0
  0
LINE
  5
246
330
1F
100
AcDbEntity
  8
0
  6
Continuous
 62
     7
100
AcDbLine
 10
5074.0187076524
 20
4194.6883707597
 30
0.0
 11
5075.5187181428
 21
4194.6883707597
 31
0.0
  0
LINE
  5
247
330
1F
100
AcDbEntity
  8
0
  6
Continuous
 62
     7
100
AcDbLine
 10
5075.5187181428
 20
4194.6883707597
 30
0.0
 11
5075.5187181428
 21
4416.1726816847
 31
0.0
  0
LINE
  5
248
330
1F
100
AcDbEntity
  8
0
  6
Continuous
 62
     7
100
AcDbLine
 10
5074.0187076524
 20
4194.6883707597
 30
0.0
 11
5074.0187076524
 21
4416.1726816847
 31
0.0
  0
LINE
  5
249
330
1F
100
AcDbEntity
  8
0
  6
Continuous
 62
     7
100
AcDbLine
 10
5074.0187076524
 20
4161.7893784597
 30
0.0
 11
5075.5187181428
 21
4161.7893784597
 31
0.0
  0
LINE
  5
24A
330
1F
100
AcDbEntity
  8
0
  6
Continuous
 62
     7
100
AcDbLine
 10
5075.5187181428
 20
4161.7893784597
 30
0.0
 11
5075.5187181428
 21
4194.6883707597
 31
0.0
  0
LINE
  5
24B
330
1F
100
AcDbEntity
  8
0
  6
Continuous
 62
     7
100
AcDbLine
 10
5074.0187076524
 20
4161.7893784597
 30
0.0
 11
5074.0187076524
 21
4194.6883707597
 31
0.0
  0
LINE
  5
24C
330
1F
100
AcDbEntity
  8
0
  6
Continuous
 62
     7
100
AcDbLine
 10
7472.5187925294
 20
4418.7896198883
 30
0.0
 11
5075.5187181428
 21
4418.7896198883
 31
0.0
  0
LINE
  5
24D
330
1F
100
AcDbEntity
  8
0
  6
Continuous
 62
     7
100
AcDbLine
 10
7472.5187925294
 20
4416.1726816847
 30
0.0
 11
5075.5187181428
 21
4416.1726816847
 31
0.0
  0
LINE
  5
24E
330
1F
100
AcDbEntity
  8
0
  6
Continuous
 62
     7
100
AcDbLine
 10
7472.5187925294
 20
4373.0730138077
 30
0.0
 11
5075.5187181428
 21
4373.0730138077
 31
0.0
  0
LINE
  5
24F
330
1F
100
AcDbEntity
  8
0
  6
Continuous
 62
     7
100
AcDbLine
 10
5075.5187181428
 20
4373.0730138077
 30
0.0
 11
5075.5187181428
 21
4416.1726816847
 31
0.0
  0
LINE
  5
250
330
1F
100
AcDbEntity
  8
0
  6
Continuous
 62
     7
100
AcDbLine
 10
7472.5187925294
 20
4373.0730138077
 30
0.0
 11
7472.5187925294
 21
4416.1726816847
 31
0.0
  0
LINE
  5
251
330
1F
100
AcDbEntity
  8
0
  6
Continuous
 62
     7
100
AcDbLine
 10
7472.5187925294
 20
4371.7899530484
 30
0.0
 11
5075.5187181428
 21
4371.7899530484
 31
0.0
  0
LINE
  5
252
330
1F
100
AcDbEntity
  8
0
  6
Continuous
 62
     7
100
AcDbLine
 10
7472.5187925294
 20
4163.2893889501
 30
0.0
 11
5075.5187181428
 21
4163.2893889501
 31
0.0
  0
LINE
  5
253
330
1F
100
AcDbEntity
  8
0
  6
Continuous
 62
     7
100
AcDbLine
 10
7472.5187925294
 20
4158.7893872812
 30
0.0
 11
5075.5187181428
 21
4158.7893872812
 31
0.0
  0
LINE
  5
254
330
1F
100
AcDbEntity
  8
0
  6
Continuous
 62
     7
100
AcDbLine
 10
5075.5187181428
 20
4158.7893872812
 30
0.0
 11
5075.5187181428
 21
4161.7893784597
 31
0.0
  0
LINE
  5
255
330
1F
100
AcDbEntity
  8
0
  6
Continuous
 62
     7
100
AcDbLine
 10
7472.5187925294
 20
4158.7893872812
 30
0.0
 11
7472.5187925294
 21
4161.7893784597
 31
0.0
  0
LINE
  5
256
330
1F
100
AcDbEntity
  8
0
  6
Continuous
 62
     7
100
AcDbLine
 10
7472.5187925294
 20
4163.4211897208
 30
0.0
 11
5075.5187181428
 21
4163.4211897208
 31
0.0
  0
LINE
  5
257
330
1F
100
AcDbEntity
  8
0
  6
Continuous
 62
     7
100
AcDbLine
 10
7472.5187925294
 20
4337.7986497535
 30
0.0
 11
5075.5187181428
 21
4337.7986497535
 31
0.0
  0
LINE
  5
258
330
1F
100
AcDbEntity
  8
0
  6
Continuous
 62
     7
100
AcDbLine
 10
7472.5187925294
 20
4197.2806810691
 30
0.0
 11
5075.5187181428
 21
4197.2806810691
 31
0.0
  0
LINE
  5
259
330
1F
100
AcDbEntity
  8
0
  6
Continuous
 62
     7
100
AcDbLine
 10
7472.5187925294
 20
4337.4804503574
 30
0.0
 11
5075.5187181428
 21
4337.4804503574
 31
0.0
  0
LINE
  5
25A
330
1F
100
AcDbEntity
  8
0
  6
Continuous
 62
     7
100
AcDbLine
 10
7472.5187925294
 20
4197.5988804652
 30
0.0
 11
5075.5187181428
 21
4197.5988804652
 31
0.0
  0
LINE
  5
25B
330
1F
100
AcDbEntity
  8
0
  6
Continuous
 62
     7
100
AcDbLine
 10
6310.3293349639
 20
4419.4867856159
 30
0.0
 11
6234.0187562302
 21
4419.4867856159
 31
0.0
  0
LINE
  5
25C
330
1F
100
AcDbEntity
  8
0
  6
Continuous
 62
     7
100
AcDbLine
 10
6314.018754442
 20
4419.4867856159
 30
0.0
 11
6310.3293349639
 21
4419.4867856159
 31
0.0
  0
LINE
  5
25D
330
1F
100
AcDbEntity
  8
0
  6
Continuous
 62
     7
100
AcDbLine
 10
6292.17404515
 20
4429.486787255
 30
0.0
 11
6254.0187557831
 21
4429.486787255
 31
0.0
  0
LINE
  5
25E
330
1F
100
AcDbEntity
  8
0
  6
Continuous
 62
     7
100
AcDbLine
 10
6294.0187548891
 20
4429.486787255
 30
0.0
 11
6292.17404515
 21
4429.486787255
 31
0.0
  0
LINE
  5
25F
330
1F
100
AcDbEntity
  8
0
  6
Continuous
 62
     7
100
AcDbLine
 10
6258.1557111487
 20
4260.1131408765
 30
0.0
 11
6262.7012069941
 21
4262.7374812319
 31
0.0
  0
LINE
  5
260
330
1F
100
AcDbEntity
  8
0
  6
Continuous
 62
     7
100
AcDbLine
 10
6285.3363036781
 20
4262.7374812319
 30
0.0
 11
6289.8817995235
 21
4260.1131408765
 31
0.0
  0
LINE
  5
261
330
1F
100
AcDbEntity
  8
0
  6
Continuous
 62
     7
100
AcDbLine
 10
6272.5187553231
 20
4278.9413764431
 30
0.0
 11
6272.5187553231
 21
4286.9818418576
 31
0.0
  0
LINE
  5
262
330
1F
100
AcDbEntity
  8
0
  6
Continuous
 62
     7
100
AcDbLine
 10
6275.5187553491
 20
4286.9818418576
 30
0.0
 11
6275.5187553491
 21
4278.9413764431
 31
0.0
  0
LINE
  5
263
330
1F
100
AcDbEntity
  8
0
  6
Continuous
 62
     7
100
AcDbLine
 10
6275.4792009409
 20
4262.4968422923
 30
0.0
 11
6275.3173496246
 21
4263.6575236275
 31
0.0
  0
LINE
  5
264
330
1F
100
AcDbEntity
  8
0
  6
Continuous
 62
     7
100
AcDbLine
 10
6275.3173496246
 20
4263.6575236275
 30
0.0
 11
6275.1405864626
 21
4264.9251505091
 31
0.0
  0
LINE
  5
265
330
1F
100
AcDbEntity
  8
0
  6
Continuous
 62
     7
100
AcDbLine
 10
6275.1405864626
 20
4264.9251505091
 30
0.0
 11
6274.9536541894
 21
4266.265696223
 31
0.0
  0
LINE
  5
266
330
1F
100
AcDbEntity
  8
0
  6
Continuous
 62
     7
100
AcDbLine
 10
6274.9536541894
 20
4266.265696223
 30
0.0
 11
6274.7615681517
 21
4267.6431968167
 31
0.0
  0
LINE
  5
267
330
1F
100
AcDbEntity
  8
0
  6
Continuous
 62
     7
100
AcDbLine
 10
6274.7615681517
 20
4267.6431968167
 30
0.0
 11
6274.569482114
 21
4269.0207048609
 31
0.0
  0
LINE
  5
268
330
1F
100
AcDbEntity
  8
0
  6
Continuous
 62
     7
100
AcDbLine
 10
6274.569482114
 20
4269.0207048609
 30
0.0
 11
6274.3825498408
 21
4270.3612505748
 31
0.0
  0
LINE
  5
269
330
1F
100
AcDbEntity
  8
0
  6
Continuous
 62
     7
100
AcDbLine
 10
6274.3825498408
 20
4270.3612505748
 30
0.0
 11
6274.2057867224
 21
4271.6288774564
 31
0.0
  0
LINE
  5
26A
330
1F
100
AcDbEntity
  8
0
  6
Continuous
 62
     7
100
AcDbLine
 10
6274.2057867224
 20
4271.6288774564
 30
0.0
 11
6274.0439353908
 21
4272.7895587851
 31
0.0
  0
LINE
  5
26B
330
1F
100
AcDbEntity
  8
0
  6
Continuous
 62
     7
100
AcDbLine
 10
6272.5583097314
 20
4272.5823960471
 30
0.0
 11
6272.7201610476
 21
4271.4217140629
 31
0.0
  0
LINE
  5
26C
330
1F
100
AcDbEntity
  8
0
  6
Continuous
 62
     7
100
AcDbLine
 10
6272.7201610476
 20
4271.4217140629
 30
0.0
 11
6272.8969242096
 21
4270.1540946319
 31
0.0
  0
LINE
  5
26D
330
1F
100
AcDbEntity
  8
0
  6
Continuous
 62
     7
100
AcDbLine
 10
6272.8969242096
 20
4270.1540946319
 30
0.0
 11
6273.0838564828
 21
4268.8135414674
 31
0.0
  0
LINE
  5
26E
330
1F
100
AcDbEntity
  8
0
  6
Continuous
 62
     7
100
AcDbLine
 10
6273.0838564828
 20
4268.8135414674
 30
0.0
 11
6273.2759425205
 21
4267.4360408737
 31
0.0
  0
LINE
  5
26F
330
1F
100
AcDbEntity
  8
0
  6
Continuous
 62
     7
100
AcDbLine
 10
6273.2759425205
 20
4267.4360408737
 30
0.0
 11
6273.4680285582
 21
4266.0585328295
 31
0.0
  0
LINE
  5
270
330
1F
100
AcDbEntity
  8
0
  6
Continuous
 62
     7
100
AcDbLine
 10
6273.4680285582
 20
4266.0585328295
 30
0.0
 11
6273.6549608314
 21
4264.7179871156
 31
0.0
  0
LINE
  5
271
330
1F
100
AcDbEntity
  8
0
  6
Continuous
 62
     7
100
AcDbLine
 10
6273.6549608314
 20
4264.7179871156
 30
0.0
 11
6273.8317239498
 21
4263.450360234
 31
0.0
  0
LINE
  5
272
330
1F
100
AcDbEntity
  8
0
  6
Continuous
 62
     7
100
AcDbLine
 10
6273.8317239498
 20
4263.450360234
 30
0.0
 11
6273.9935752814
 21
4262.2896795543
 31
0.0
  0
LINE
  5
273
330
1F
100
AcDbEntity
  8
0
  6
Continuous
 62
     7
100
AcDbLine
 10
7197.8934315637
 20
4366.1804328031
 30
0.0
 11
7150.1440910295
 21
4366.1804328031
 31
0.0
  0
LINE
  5
274
330
1F
100
AcDbEntity
  8
0
  6
Continuous
 62
     7
100
AcDbLine
 10
5997.8934136823
 20
4366.1804328031
 30
0.0
 11
5950.1440731481
 21
4366.1804328031
 31
0.0
  0
LINE
  5
275
330
1F
100
AcDbEntity
  8
0
  6
Continuous
 62
     7
100
AcDbLine
 10
6597.8934375241
 20
4366.1804328031
 30
0.0
 11
6550.1440969899
 21
4366.1804328031
 31
0.0
  0
LINE
  5
276
330
1F
100
AcDbEntity
  8
0
  6
Continuous
 62
     7
100
AcDbLine
 10
5397.8934196427
 20
4366.1804328031
 30
0.0
 11
5350.1440791085
 21
4366.1804328031
 31
0.0
  0
LINE
  5
277
330
1F
100
AcDbEntity
  8
0
  6
Continuous
 62
     7
100
AcDbLine
 10
7472.5187925294
 20
4371.658151099
 30
0.0
 11
7199.018767257
 21
4371.658151099
 31
0.0
  0
LINE
  5
278
330
1F
100
AcDbEntity
  8
0
  6
Continuous
 62
     7
100
AcDbLine
 10
7149.0187553361
 20
4371.658151099
 30
0.0
 11
6599.0187434152
 21
4371.658151099
 31
0.0
  0
LINE
  5
279
330
1F
100
AcDbEntity
  8
0
  6
Continuous
 62
     7
100
AcDbLine
 10
6549.0187612966
 20
4371.658151099
 30
0.0
 11
5999.0187493756
 21
4371.658151099
 31
0.0
  0
LINE
  5
27A
330
1F
100
AcDbEntity
  8
0
  6
Continuous
 62
     7
100
AcDbLine
 10
5949.018767257
 20
4371.658151099
 30
0.0
 11
5399.0187553361
 21
4371.658151099
 31
0.0
  0
LINE
  5
27B
330
1F
100
AcDbEntity
  8
0
  6
Continuous
 62
     7
100
AcDbLine
 10
5349.0187434152
 20
4371.658151099
 30
0.0
 11
5075.5187181428
 21
4371.658151099
 31
0.0
  0
LINE
  5
27C
330
1F
100
AcDbEntity
  8
0
  6
Continuous
 62
     7
100
AcDbLine
 10
6274.0187553361
 20
4287.0396211102
 30
0.0
 11
6274.0187553361
 21
4279.0396197989
 31
0.0
  0
LINE
  5
27D
330
1F
100
AcDbEntity
  8
0
  6
Continuous
 62
     7
100
AcDbLine
 10
5967.0862682813
 20
5529.0205370146
 30
0.0
 11
5967.142017951
 21
5529.2504414302
 31
0.0
  0
LINE
  5
27E
330
1F
100
AcDbEntity
  8
0
  6
Continuous
 62
     7
100
AcDbLine
 10
5980.6106724326
 20
5529.2504414302
 30
0.0
 11
5980.844276802
 21
5529.0205370146
 31
0.0
  0
LINE
  5
27F
330
1F
100
AcDbEntity
  8
0
  6
Continuous
 62
     7
100
AcDbLine
 10
5981.5125564584
 20
5539.8705370146
 30
0.0
 11
5966.4125564584
 21
5539.8705370146
 31
0.0
  0
LINE
  5
280
330
1F
100
AcDbEntity
  8
0
  6
Continuous
 62
     7
100
AcDbLine
 10
5981.5125564584
 20
5529.2705370146
 30
0.0
 11
5966.4125564584
 21
5529.2705370146
 31
0.0
  0
LINE
  5
281
330
1F
100
AcDbEntity
  8
0
  6
Continuous
 62
     7
100
AcDbLine
 10
5966.0588322448
 20
5529.2504414302
 30
0.0
 11
5981.6764677142
 21
5529.2504414302
 31
0.0
  0
LINE
  5
282
330
1F
100
AcDbEntity
  8
0
  6
Continuous
 62
     7
100
AcDbLine
 10
5974.8831944515
 20
5529.2504414302
 30
0.0
 11
5974.4849883228
 21
5529.0205370146
 31
0.0
  0
LINE
  5
283
330
1F
100
AcDbEntity
  8
0
  6
Continuous
 62
     7
100
AcDbLine
 10
5976.3401245941
 20
5529.0205370146
 30
0.0
 11
5975.9419184654
 21
5529.2504414302
 31
0.0
  0
LINE
  5
284
330
1F
100
AcDbEntity
  8
0
  6
Continuous
 62
     7
100
AcDbLine
 10
5966.4625564584
 20
5540.0205370146
 30
0.0
 11
5981.4625564584
 21
5540.0205370146
 31
0.0
  0
LINE
  5
285
330
1F
100
AcDbEntity
  8
0
  6
Continuous
 62
     7
100
AcDbLine
 10
5981.4625564584
 20
5529.0205370146
 30
0.0
 11
5966.4625564584
 21
5529.0205370146
 31
0.0
  0
LINE
  5
286
330
1F
100
AcDbEntity
  8
0
  6
Continuous
 62
     7
100
AcDbLine
 10
5950.0878836858
 20
5526.1043385275
 30
0.0
 11
5997.8372292311
 21
5526.1043385275
 31
0.0
  0
LINE
  5
287
330
1F
100
AcDbEntity
  8
0
  6
Continuous
 62
     7
100
AcDbLine
 10
5997.8372292311
 20
5540.9367355017
 30
0.0
 11
5950.0878836858
 21
5540.9367355017
 31
0.0
  0
LINE
  5
288
330
1F
100
AcDbEntity
  8
0
  6
Continuous
 62
     7
100
AcDbLine
 10
6567.3889404464
 20
5528.8517934581
 30
0.0
 11
6567.444690116
 21
5529.0816978737
 31
0.0
  0
LINE
  5
289
330
1F
100
AcDbEntity
  8
0
  6
Continuous
 62
     7
100
AcDbLine
 10
6580.9133445976
 20
5529.0816978737
 30
0.0
 11
6581.1469489671
 21
5528.8517934581
 31
0.0
  0
LINE
  5
28A
330
1F
100
AcDbEntity
  8
0
  6
Continuous
 62
     7
100
AcDbLine
 10
6581.8152286235
 20
5539.7017934581
 30
0.0
 11
6566.7152286235
 21
5539.7017934581
 31
0.0
  0
LINE
  5
28B
330
1F
100
AcDbEntity
  8
0
  6
Continuous
 62
     7
100
AcDbLine
 10
6581.8152286235
 20
5529.1017934581
 30
0.0
 11
6566.7152286235
 21
5529.1017934581
 31
0.0
  0
LINE
  5
28C
330
1F
100
AcDbEntity
  8
0
  6
Continuous
 62
     7
100
AcDbLine
 10
6566.3615044099
 20
5529.0816978737
 30
0.0
 11
6581.9791398792
 21
5529.0816978737
 31
0.0
  0
LINE
  5
28D
330
1F
100
AcDbEntity
  8
0
  6
Continuous
 62
     7
100
AcDbLine
 10
6575.1858666165
 20
5529.0816978737
 30
0.0
 11
6574.7876604878
 21
5528.8517934581
 31
0.0
  0
LINE
  5
28E
330
1F
100
AcDbEntity
  8
0
  6
Continuous
 62
     7
100
AcDbLine
 10
6576.6427967591
 20
5528.8517934581
 30
0.0
 11
6576.2445906304
 21
5529.0816978737
 31
0.0
  0
LINE
  5
28F
330
1F
100
AcDbEntity
  8
0
  6
Continuous
 62
     7
100
AcDbLine
 10
6566.7652286235
 20
5539.8517934581
 30
0.0
 11
6581.7652286235
 21
5539.8517934581
 31
0.0
  0
LINE
  5
290
330
1F
100
AcDbEntity
  8
0
  6
Continuous
 62
     7
100
AcDbLine
 10
6581.7652286235
 20
5528.8517934581
 30
0.0
 11
6566.7652286235
 21
5528.8517934581
 31
0.0
  0
LINE
  5
291
330
1F
100
AcDbEntity
  8
0
  6
Continuous
 62
     7
100
AcDbLine
 10
6550.3905558508
 20
5525.935594971
 30
0.0
 11
6598.1399013961
 21
5525.935594971
 31
0.0
  0
LINE
  5
292
330
1F
100
AcDbEntity
  8
0
  6
Continuous
 62
     7
100
AcDbLine
 10
6598.1399013961
 20
5540.7679919452
 30
0.0
 11
6550.3905558508
 21
5540.7679919452
 31
0.0
  0
LINE
  5
293
330
1F
100
AcDbEntity
  8
0
  6
Continuous
 62
     7
100
AcDbLine
 10
7166.7965783997
 20
5528.8402136875
 30
0.0
 11
7166.8523280694
 21
5529.0701181031
 31
0.0
  0
LINE
  5
294
330
1F
100
AcDbEntity
  8
0
  6
Continuous
 62
     7
100
AcDbLine
 10
7180.3209825509
 20
5529.0701181031
 30
0.0
 11
7180.5545869204
 21
5528.8402136875
 31
0.0
  0
LINE
  5
295
330
1F
100
AcDbEntity
  8
0
  6
Continuous
 62
     7
100
AcDbLine
 10
7181.2228665768
 20
5539.6902136875
 30
0.0
 11
7166.1228665768
 21
5539.6902136875
 31
0.0
  0
LINE
  5
296
330
1F
100
AcDbEntity
  8
0
  6
Continuous
 62
     7
100
AcDbLine
 10
7181.2228665768
 20
5529.0902136875
 30
0.0
 11
7166.1228665768
 21
5529.0902136875
 31
0.0
  0
LINE
  5
297
330
1F
100
AcDbEntity
  8
0
  6
Continuous
 62
     7
100
AcDbLine
 10
7165.7691423632
 20
5529.0701181031
 30
0.0
 11
7181.3867778326
 21
5529.0701181031
 31
0.0
  0
LINE
  5
298
330
1F
100
AcDbEntity
  8
0
  6
Continuous
 62
     7
100
AcDbLine
 10
7174.5935045699
 20
5529.0701181031
 30
0.0
 11
7174.1952984411
 21
5528.8402136875
 31
0.0
  0
LINE
  5
299
330
1F
100
AcDbEntity
  8
0
  6
Continuous
 62
     7
100
AcDbLine
 10
7176.0504347125
 20
5528.8402136875
 30
0.0
 11
7175.6522285837
 21
5529.0701181031
 31
0.0
  0
LINE
  5
29A
330
1F
100
AcDbEntity
  8
0
  6
Continuous
 62
     7
100
AcDbLine
 10
7166.1728665768
 20
5539.8402136875
 30
0.0
 11
7181.1728665768
 21
5539.8402136875
 31
0.0
  0
LINE
  5
29B
330
1F
100
AcDbEntity
  8
0
  6
Continuous
 62
     7
100
AcDbLine
 10
7181.1728665768
 20
5528.8402136875
 30
0.0
 11
7166.1728665768
 21
5528.8402136875
 31
0.0
  0
LINE
  5
29C
330
1F
100
AcDbEntity
  8
0
  6
Continuous
 62
     7
100
AcDbLine
 10
7149.7981938042
 20
5525.9240152004
 30
0.0
 11
7197.5475393494
 21
5525.9240152004
 31
0.0
  0
LINE
  5
29D
330
1F
100
AcDbEntity
  8
0
  6
Continuous
 62
     7
100
AcDbLine
 10
7197.5475393494
 20
5540.7564121746
 30
0.0
 11
7149.7981938042
 21
5540.7564121746
 31
0.0
  0
LINE
  5
29E
330
1F
100
AcDbEntity
  8
0
  6
Continuous
 62
     7
100
AcDbLine
 10
5367.1424611985
 20
5528.7162712821
 30
0.0
 11
5367.1982108681
 21
5528.9461756977
 31
0.0
  0
LINE
  5
29F
330
1F
100
AcDbEntity
  8
0
  6
Continuous
 62
     7
100
AcDbLine
 10
5380.6668653497
 20
5528.9461756977
 30
0.0
 11
5380.9004697192
 21
5528.7162712821
 31
0.0
  0
LINE
  5
2A0
330
1F
100
AcDbEntity
  8
0
  6
Continuous
 62
     7
100
AcDbLine
 10
5381.5687493756
 20
5539.5662712821
 30
0.0
 11
5366.4687493756
 21
5539.5662712821
 31
0.0
  0
LINE
  5
2A1
330
1F
100
AcDbEntity
  8
0
  6
Continuous
 62
     7
100
AcDbLine
 10
5381.5687493756
 20
5528.9662712821
 30
0.0
 11
5366.4687493756
 21
5528.9662712821
 31
0.0
  0
LINE
  5
2A2
330
1F
100
AcDbEntity
  8
0
  6
Continuous
 62
     7
100
AcDbLine
 10
5366.115025162
 20
5528.9461756977
 30
0.0
 11
5381.7326606313
 21
5528.9461756977
 31
0.0
  0
LINE
  5
2A3
330
1F
100
AcDbEntity
  8
0
  6
Continuous
 62
     7
100
AcDbLine
 10
5374.9393873687
 20
5528.9461756977
 30
0.0
 11
5374.5411812399
 21
5528.7162712821
 31
0.0
  0
LINE
  5
2A4
330
1F
100
AcDbEntity
  8
0
  6
Continuous
 62
     7
100
AcDbLine
 10
5376.3963175113
 20
5528.7162712821
 30
0.0
 11
5375.9981113825
 21
5528.9461756977
 31
0.0
  0
LINE
  5
2A5
330
1F
100
AcDbEntity
  8
0
  6
Continuous
 62
     7
100
AcDbLine
 10
5366.5187493756
 20
5539.7162712821
 30
0.0
 11
5381.5187493756
 21
5539.7162712821
 31
0.0
  0
LINE
  5
2A6
330
1F
100
AcDbEntity
  8
0
  6
Continuous
 62
     7
100
AcDbLine
 10
5381.5187493756
 20
5528.7162712821
 30
0.0
 11
5366.5187493756
 21
5528.7162712821
 31
0.0
  0
LINE
  5
2A7
330
1F
100
AcDbEntity
  8
0
  6
Continuous
 62
     7
100
AcDbLine
 10
5350.144076603
 20
5525.800072795
 30
0.0
 11
5397.8934221482
 21
5525.800072795
 31
0.0
  0
LINE
  5
2A8
330
1F
100
AcDbEntity
  8
0
  6
Continuous
 62
     7
100
AcDbLine
 10
5397.8934221482
 20
5540.6324697692
 30
0.0
 11
5350.144076603
 21
5540.6324697692
 31
0.0
  0
LWPOLYLINE
  5
2A9
330
1F
100
AcDbEntity
  8
0
  6
Continuous
 62
     7
100
AcDbPolyline
 90
        3
 70
   128
 43
0.0
 10
6271.4080810547
 20
5106.7789090439
 10
6271.7304496601
 20
5106.6272524375
 10
6271.8136270203
 20
5106.4199726671
  0
LWPOLYLINE
  5
2AA
330
1F
100
AcDbEntity
  8
0
  6
Continuous
 62
     7
100
AcDbPolyline
 90
        3
 70
   128
 43
0.0
 10
6270.9541320801
 20
5106.7981725201
 10
6271.2118505576
 20
5106.7943334389
 10
6271.4105822749
 20
5106.7789090439
  0
LWPOLYLINE
  5
2AB
330
1F
100
AcDbEntity
  8
0
  6
Continuous
 62
     7
100
AcDbPolyline
 90
        3
 70
   128
 43
0.0
 10
6273.1018066406
 20
5106.7789090439
 10
6273.4227573756
 20
5106.627252427
 10
6273.5059348422
 20
5106.4199726671
  0
LWPOLYLINE
  5
2AC
330
1F
100
AcDbEntity
  8
0
  6
Continuous
 62
     7
100
AcDbPolyline
 90
        3
 70
   128
 43
0.0
 10
6272.647857666
 20
5106.7981725201
 10
6272.904158238
 20
5106.7943334431
 10
6273.1028899805
 20
5106.7789090439
  0
LWPOLYLINE
  5
2AD
330
1F
100
AcDbEntity
  8
0
  6
Continuous
 62
     7
100
AcDbPolyline
 90
        4
 70
   128
 43
0.0
 10
6272.7928161621
 20
5106.1726664766
 10
6273.1463106989
 20
5106.2100157523
 10
6273.2777686699
 20
5106.2924914407
 10
6273.3264476199
 20
5106.4131851882
  0
LWPOLYLINE
  5
2AE
330
1F
100
AcDbEntity
  8
0
  6
Continuous
 62
     7
100
AcDbPolyline
 90
        4
 70
   128
 43
0.0
 10
6273.323059082
 20
5106.4131851882
 10
6273.277674851
 20
5106.5301009264
 10
6273.1491881053
 20
5106.6116946934
 10
6272.8040117443
 20
5106.646054016
  0
LWPOLYLINE
  5
2AF
330
1F
100
AcDbEntity
  8
0
  6
Continuous
 62
     7
100
AcDbPolyline
 90
        3
 70
   128
 43
0.0
 10
6272.647857666
 20
5106.7911019191
 10
6272.9041582319
 20
5106.7872619112
 10
6273.1028899805
 20
5106.7718375116
  0
LWPOLYLINE
  5
2B0
330
1F
100
AcDbEntity
  8
0
  6
Continuous
 62
     7
100
AcDbPolyline
 90
        3
 70
   128
 43
0.0
 10
6273.1018066406
 20
5106.7718375116
 10
6273.4227530572
 20
5106.6201854784
 10
6273.5059348422
 20
5106.4129020661
  0
LWPOLYLINE
  5
2B1
330
1F
100
AcDbEntity
  8
0
  6
Continuous
 62
     7
100
AcDbPolyline
 90
        4
 70
   128
 43
0.0
 10
6273.5023498535
 20
5106.4129020661
 10
6273.4525070525
 20
5106.2397548129
 10
6273.2850001598
 20
5106.1072536128
 10
6272.7968001643
 20
5106.0296022907
  0
LWPOLYLINE
  5
2B2
330
1F
100
AcDbEntity
  8
0
  6
Continuous
 62
     7
100
AcDbPolyline
 90
        4
 70
   128
 43
0.0
 10
6271.0990905762
 20
5106.1726664766
 10
6271.4540030946
 20
5106.210015747
 10
6271.5854609412
 20
5106.2924914822
 10
6271.6341399725
 20
5106.4131851882
  0
LWPOLYLINE
  5
2B3
330
1F
100
AcDbEntity
  8
0
  6
Continuous
 62
     7
100
AcDbPolyline
 90
        4
 70
   128
 43
0.0
 10
6271.6331481934
 20
5106.4131851882
 10
6271.5853671166
 20
5106.5301008946
 10
6271.4568804073
 20
5106.61169467
 10
6271.1117040969
 20
5106.646054016
  0
LWPOLYLINE
  5
2B4
330
1F
100
AcDbEntity
  8
0
  6
Continuous
 62
     7
100
AcDbPolyline
 90
        3
 70
   128
 43
0.0
 10
6270.9541320801
 20
5106.7911019191
 10
6271.2118505515
 20
5106.7872619071
 10
6271.4105822749
 20
5106.7718375116
  0
LWPOLYLINE
  5
2B5
330
1F
100
AcDbEntity
  8
0
  6
Continuous
 62
     7
100
AcDbPolyline
 90
        3
 70
   128
 43
0.0
 10
6271.4080810547
 20
5106.7718375116
 10
6271.7304453418
 20
5106.6201854889
 10
6271.8136270203
 20
5106.4129020661
  0
LWPOLYLINE
  5
2B6
330
1F
100
AcDbEntity
  8
0
  6
Continuous
 62
     7
100
AcDbPolyline
 90
        4
 70
   128
 43
0.0
 10
6271.8124389648
 20
5106.4129020661
 10
6271.760199288
 20
5106.2397548073
 10
6271.5926923978
 20
5106.1072535989
 10
6271.1044924006
 20
5106.0296022907
  0
LWPOLYLINE
  5
2B7
330
1F
100
AcDbEntity
  8
0
  6
Continuous
 62
     7
100
AcDbPolyline
 90
        4
 70
   128
 43
0.0
 10
6272.7928161621
 20
5106.179738009
 10
6273.1463087421
 20
5106.21708567
 10
6273.2777641365
 20
5106.2995565992
 10
6273.3264476199
 20
5106.4202557891
  0
LWPOLYLINE
  5
2B8
330
1F
100
AcDbEntity
  8
0
  6
Continuous
 62
     7
100
AcDbPolyline
 90
        4
 70
   128
 43
0.0
 10
6271.0990905762
 20
5106.179738009
 10
6271.4540011378
 20
5106.2170856647
 10
6271.5854564078
 20
5106.2995566407
 10
6271.6341399725
 20
5106.4202557891
  0
LWPOLYLINE
  5
2B9
330
1F
100
AcDbEntity
  8
0
  6
Continuous
 62
     7
100
AcDbPolyline
 90
       10
 70
   128
 43
0.0
 10
7150.1426696777
 20
4366.1804328031
 10
7149.0683059165
 20
4368.4705705964
 10
7149.0018735274
 20
4368.6310010682
 10
7149.0003237339
 20
4368.6350393562
 10
7149.0002820204
 20
4368.6351998497
 10
7149.0002859503
 20
4368.6352105422
 10
7149.000305138
 20
4368.6351913124
 10
7149.0006793089
 20
4368.6344357992
 10
7149.001903413
 20
4368.6316849056
 10
7149.0232852891
 20
4368.5811926435
  0
LWPOLYLINE
  5
2BA
330
1F
100
AcDbEntity
  8
0
  6
Continuous
 62
     7
100
AcDbPolyline
 90
        3
 70
   128
 43
0.0
 10
7199.0127563477
 20
4368.5811926435
 10
7198.6431355432
 20
4367.7147529118
 10
7197.8934315637
 20
4366.1804328031
  0
LWPOLYLINE
  5
2BB
330
1F
100
AcDbEntity
  8
0
  6
Continuous
 62
     7
100
AcDbPolyline
 90
       10
 70
   128
 43
0.0
 10
5950.1419067383
 20
4366.1804328031
 10
5949.0682827351
 20
4368.4705703082
 10
5949.0018539965
 20
4368.631000953
 10
5949.0003047102
 20
4368.6350392717
 10
5949.0002630849
 20
4368.6351997707
 10
5949.0002670437
 20
4368.6352104651
 10
5949.0002862695
 20
4368.6351912377
 10
5949.0006606343
 20
4368.6344357368
 10
5949.0018849708
 20
4368.6316848585
 10
5949.0232674077
 20
4368.5811926435
  0
LWPOLYLINE
  5
2BC
330
1F
100
AcDbEntity
  8
0
  6
Continuous
 62
     7
100
AcDbPolyline
 90
        3
 70
   128
 43
0.0
 10
5999.0119934082
 20
4368.5811926435
 10
5998.6431489382
 20
4367.7147512787
 10
5997.8934136823
 20
4366.1804328031
  0
LWPOLYLINE
  5
2BD
330
1F
100
AcDbEntity
  8
0
  6
Continuous
 62
     7
100
AcDbPolyline
 90
       10
 70
   128
 43
0.0
 10
6550.1403808594
 20
4366.1804328031
 10
6549.0682778058
 20
4368.4705700231
 10
6549.0018483203
 20
4368.6310009546
 10
6549.0002989399
 20
4368.6350392895
 10
6549.0002572985
 20
4368.6351997908
 10
6549.000261252
 20
4368.6352104858
 10
6549.0002804708
 20
4368.6351912593
 10
6549.0006548005
 20
4368.6344357624
 10
6549.0018790957
 20
4368.6316848872
 10
6549.0232614472
 20
4368.5811926435
  0
LWPOLYLINE
  5
2BE
330
1F
100
AcDbEntity
  8
0
  6
Continuous
 62
     7
100
AcDbPolyline
 90
        3
 70
   128
 43
0.0
 10
6599.0104675293
 20
4368.5811926435
 10
6598.6431415037
 20
4367.7147529118
 10
6597.8934375241
 20
4366.1804328031
  0
LWPOLYLINE
  5
2BF
330
1F
100
AcDbEntity
  8
0
  6
Continuous
 62
     7
100
AcDbPolyline
 90
       10
 70
   128
 43
0.0
 10
5350.1434326172
 20
4366.1804328031
 10
5349.0682939956
 20
4368.4705705964
 10
5349.0018616065
 20
4368.6310010682
 10
5349.000311813
 20
4368.6350393562
 10
5349.0002700995
 20
4368.6351998497
 10
5349.0002740294
 20
4368.6352105422
 10
5349.0002932171
 20
4368.6351913124
 10
5349.0006673879
 20
4368.6344357992
 10
5349.0018914921
 20
4368.6316849056
 10
5349.0232733682
 20
4368.5811926435
  0
LWPOLYLINE
  5
2C0
330
1F
100
AcDbEntity
  8
0
  6
Continuous
 62
     7
100
AcDbPolyline
 90
        3
 70
   128
 43
0.0
 10
5399.0135192871
 20
4368.5811926435
 10
5398.6431236223
 20
4367.7147529118
 10
5397.8934196427
 20
4366.1804328031
  0
LWPOLYLINE
  5
2C1
330
1F
100
AcDbEntity
  8
0
  6
Continuous
 62
     7
100
AcDbPolyline
 90
        5
 70
   128
 43
0.0
 10
5966.4115905762
 20
5529.2705370146
 10
5962.7155583698
 20
5530.774922941
 10
5961.1130041536
 20
5534.5761272803
 10
5962.7181195801
 20
5538.3704895281
 10
5966.4125564584
 20
5539.8705370146
  0
LWPOLYLINE
  5
2C2
330
1F
100
AcDbEntity
  8
0
  6
Continuous
 62
     7
100
AcDbPolyline
 90
        5
 70
   128
 43
0.0
 10
5981.5101623535
 20
5539.8705370146
 10
5985.2076809028
 20
5538.3700145297
 10
5986.8123485276
 20
5534.5675426252
 10
5985.2082624506
 20
5530.7716097432
 10
5981.5125564584
 20
5529.2705370146
  0
LWPOLYLINE
  5
2C3
330
1F
100
AcDbEntity
  8
0
  6
Continuous
 62
     7
100
AcDbPolyline
 90
        5
 70
   128
 43
0.0
 10
5966.4611816406
 20
5529.0205370146
 10
5962.621869299
 20
5530.5858291495
 10
5960.9630185373
 20
5534.5260474813
 10
5962.6244517307
 20
5538.4597477202
 10
5966.4625564584
 20
5540.0205370146
  0
LWPOLYLINE
  5
2C4
330
1F
100
AcDbEntity
  8
0
  6
Continuous
 62
     7
100
AcDbPolyline
 90
        5
 70
   128
 43
0.0
 10
5981.4605712891
 20
5540.0205370146
 10
5985.3032436178
 20
5538.4552448797
 10
5986.9620943796
 20
5534.5150265478
 10
5985.3006611862
 20
5530.5813263089
 10
5981.4625564584
 20
5529.0205370146
  0
LWPOLYLINE
  5
2C5
330
1F
100
AcDbEntity
  8
0
  6
Continuous
 62
     7
100
AcDbPolyline
 90
        3
 70
   128
 43
0.0
 10
5997.8370666504
 20
5540.9367355017
 10
5998.9434172799
 20
5532.5629168723
 10
5997.8372292311
 20
5526.1043385275
  0
LWPOLYLINE
  5
2C6
330
1F
100
AcDbEntity
  8
0
  6
Continuous
 62
     7
100
AcDbPolyline
 90
        3
 70
   128
 43
0.0
 10
5950.0846862793
 20
5526.1043385275
 10
5948.981695637
 20
5534.4781571568
 10
5950.0878836858
 20
5540.9367355017
  0
LWPOLYLINE
  5
2C7
330
1F
100
AcDbEntity
  8
0
  6
Continuous
 62
     7
100
AcDbPolyline
 90
        5
 70
   128
 43
0.0
 10
6566.7114257812
 20
5529.1017934581
 10
6563.0182305348
 20
5530.6061793845
 10
6561.4156763186
 20
5534.4073837238
 10
6563.0207917451
 20
5538.2017459716
 10
6566.7152286235
 20
5539.7017934581
  0
LWPOLYLINE
  5
2C8
330
1F
100
AcDbEntity
  8
0
  6
Continuous
 62
     7
100
AcDbPolyline
 90
        5
 70
   128
 43
0.0
 10
6581.8138122559
 20
5539.7017934581
 10
6585.5103530678
 20
5538.2012709732
 10
6587.1150206927
 20
5534.3987990687
 10
6585.5109346157
 20
5530.6028661867
 10
6581.8152286235
 20
5529.1017934581
  0
LWPOLYLINE
  5
2C9
330
1F
100
AcDbEntity
  8
0
  6
Continuous
 62
     7
100
AcDbPolyline
 90
        5
 70
   128
 43
0.0
 10
6566.764831543
 20
5528.8517934581
 10
6562.9245414641
 20
5530.417085593
 10
6561.2656907024
 20
5534.3573039248
 10
6562.9271238957
 20
5538.2910041637
 10
6566.7652286235
 20
5539.8517934581
  0
LWPOLYLINE
  5
2CA
330
1F
100
AcDbEntity
  8
0
  6
Continuous
 62
     7
100
AcDbPolyline
 90
        5
 70
   128
 43
0.0
 10
6581.7642211914
 20
5539.8517934581
 10
6585.6059157829
 20
5538.2865013232
 10
6587.2647665446
 20
5534.3462829914
 10
6585.6033333513
 20
5530.4125827525
 10
6581.7652286235
 20
5528.8517934581
  0
LWPOLYLINE
  5
2CB
330
1F
100
AcDbEntity
  8
0
  6
Continuous
 62
     7
100
AcDbPolyline
 90
        3
 70
   128
 43
0.0
 10
6598.1369018555
 20
5540.7679919452
 10
6599.246089445
 20
5532.3941733158
 10
6598.1399013961
 20
5525.935594971
  0
LWPOLYLINE
  5
2CC
330
1F
100
AcDbEntity
  8
0
  6
Continuous
 62
     7
100
AcDbPolyline
 90
        3
 70
   128
 43
0.0
 10
6550.3883361816
 20
5525.935594971
 10
6549.284367802
 20
5534.3094136004
 10
6550.3905558508
 20
5540.7679919452
  0
LWPOLYLINE
  5
2CD
330
1F
100
AcDbEntity
  8
0
  6
Continuous
 62
     7
100
AcDbPolyline
 90
        5
 70
   128
 43
0.0
 10
7166.1224365234
 20
5529.0902136875
 10
7162.4258684882
 20
5530.594599614
 10
7160.8233142719
 20
5534.3958039532
 10
7162.4284296985
 20
5538.190166201
 10
7166.1228665768
 20
5539.6902136875
  0
LWPOLYLINE
  5
2CE
330
1F
100
AcDbEntity
  8
0
  6
Continuous
 62
     7
100
AcDbPolyline
 90
        5
 70
   128
 43
0.0
 10
7181.2210083008
 20
5539.6902136875
 10
7184.9179910211
 20
5538.1896912026
 10
7186.522658646
 20
5534.3872192981
 10
7184.918572569
 20
5530.5912864162
 10
7181.2228665768
 20
5529.0902136875
  0
LWPOLYLINE
  5
2CF
330
1F
100
AcDbEntity
  8
0
  6
Continuous
 62
     7
100
AcDbPolyline
 90
        5
 70
   128
 43
0.0
 10
7166.1720275879
 20
5528.8402136875
 10
7162.3321794174
 20
5530.4055058224
 10
7160.6733286557
 20
5534.3457241542
 10
7162.334761849
 20
5538.2794243932
 10
7166.1728665768
 20
5539.8402136875
  0
LWPOLYLINE
  5
2D0
330
1F
100
AcDbEntity
  8
0
  6
Continuous
 62
     7
100
AcDbPolyline
 90
        5
 70
   128
 43
0.0
 10
7181.1714172363
 20
5539.8402136875
 10
7185.0135537362
 20
5538.2749215526
 10
7186.6724044979
 20
5534.3347032208
 10
7185.0109713046
 20
5530.4010029819
 10
7181.1728665768
 20
5528.8402136875
  0
LWPOLYLINE
  5
2D1
330
1F
100
AcDbEntity
  8
0
  6
Continuous
 62
     7
100
AcDbPolyline
 90
        3
 70
   128
 43
0.0
 10
7197.5440979004
 20
5540.7564121746
 10
7198.6537273983
 20
5532.3825935452
 10
7197.5475393494
 20
5525.9240152004
  0
LWPOLYLINE
  5
2D2
330
1F
100
AcDbEntity
  8
0
  6
Continuous
 62
     7
100
AcDbPolyline
 90
        3
 70
   128
 43
0.0
 10
7149.7955322266
 20
5525.9240152004
 10
7148.6920057553
 20
5534.2978338298
 10
7149.7981938042
 20
5540.7564121746
  0
LWPOLYLINE
  5
2D3
330
1F
100
AcDbEntity
  8
0
  6
Continuous
 62
     7
100
AcDbPolyline
 90
        5
 70
   128
 43
0.0
 10
5366.4665222168
 20
5528.9662712821
 10
5362.771751287
 20
5530.4706572086
 10
5361.1691970707
 20
5534.2718615478
 10
5362.7743124972
 20
5538.0662237956
 10
5366.4687493756
 20
5539.5662712821
  0
LWPOLYLINE
  5
2D4
330
1F
100
AcDbEntity
  8
0
  6
Continuous
 62
     7
100
AcDbPolyline
 90
        5
 70
   128
 43
0.0
 10
5381.5650939941
 20
5539.5662712821
 10
5385.2638738199
 20
5538.0657487972
 10
5386.8685414448
 20
5534.2632768927
 10
5385.2644553678
 20
5530.4673440108
 10
5381.5687493756
 20
5528.9662712821
  0
LWPOLYLINE
  5
2D5
330
1F
100
AcDbEntity
  8
0
  6
Continuous
 62
     7
100
AcDbPolyline
 90
        5
 70
   128
 43
0.0
 10
5366.5161132812
 20
5528.7162712821
 10
5362.6780622162
 20
5530.281563417
 10
5361.0192114545
 20
5534.2217817489
 10
5362.6806446478
 20
5538.1554819878
 10
5366.5187493756
 20
5539.7162712821
  0
LWPOLYLINE
  5
2D6
330
1F
100
AcDbEntity
  8
0
  6
Continuous
 62
     7
100
AcDbPolyline
 90
        5
 70
   128
 43
0.0
 10
5381.5155029297
 20
5539.7162712821
 10
5385.359436535
 20
5538.1509791472
 10
5387.0182872967
 20
5534.2107608154
 10
5385.3568541034
 20
5530.2770605765
 10
5381.5187493756
 20
5528.7162712821
  0
LWPOLYLINE
  5
2D7
330
1F
100
AcDbEntity
  8
0
  6
Continuous
 62
     7
100
AcDbPolyline
 90
        3
 70
   128
 43
0.0
 10
5397.891998291
 20
5540.6324697692
 10
5398.9996101971
 20
5532.2586511398
 10
5397.8934221482
 20
5525.800072795
  0
LWPOLYLINE
  5
2D8
330
1F
100
AcDbEntity
  8
0
  6
Continuous
 62
     7
100
AcDbPolyline
 90
        3
 70
   128
 43
0.0
 10
5350.1434326172
 20
5525.800072795
 10
5349.0378885541
 20
5534.1738914244
 10
5350.144076603
 20
5540.6324697692
  0
ENDSEC
  0
SECTION
  2
OBJECTS
  0
DICTIONARY
  5
C
330
0
100
AcDbDictionary
281
     1
  3
ACAD_GROUP
350
D
  3
ACAD_LAYOUT
350
1A
  3
ACAD_MLINESTYLE
350
17
  3
ACAD_PLOTSETTINGS
350
19
  3
ACAD_PLOTSTYLENAME
350
E
  3
ACAD_SCALELIST
350
47
  3
DWGPROPS
350
2D9
  0
DICTIONARY
  5
D
102
{ACAD_REACTORS
330
C
102
}
330
C
100
AcDbDictionary
281
     1
  0
DICTIONARY
  5
1A
102
{ACAD_REACTORS
330
C
102
}
330
C
100
AcDbDictionary
281
     1
  3
Layout1
350
1E
  3
Layout2
350
26
  3
Model
350
22
  0
DICTIONARY
  5
17
102
{ACAD_REACTORS
330
C
102
}
330
C
100
AcDbDictionary
281
     1
  3
Standard
350
18
  0
DICTIONARY
  5
19
102
{ACAD_REACTORS
330
C
102
}
330
C
100
AcDbDictionary
281
     1
  0
ACDBDICTIONARYWDFLT
  5
E
102
{ACAD_REACTORS
330
C
102
}
330
C
100
AcDbDictionary
281
     1
  3
Normal
350
F
100
AcDbDictionaryWithDefault
340
F
  0
DICTIONARY
  5
47
102
{ACAD_REACTORS
330
C
102
}
330
C
100
AcDbDictionary
281
     1
  3
A0
350
48
  3
A1
350
49
  3
A2
350
4A
  3
A3
350
4B
  3
A4
350
4C
  3
A5
350
4D
  3
A6
350
4E
  3
A7
350
4F
  3
A8
350
50
  3
A9
350
51
  3
B0
350
52
  3
B1
350
53
  3
B2
350
54
  3
B3
350
55
  3
B4
350
56
  3
B5
350
57
  3
B6
350
58
  3
B7
350
59
  3
B8
350
5A
  3
B9
350
5B
  3
C0
350
5C
  3
C1
350
5D
  3
C2
350
5E
  3
C3
350
5F
  3
C4
350
60
  3
C5
350
61
  3
C6
350
62
  3
C7
350
63
  3
C8
350
64
  3
C9
350
65
  3
D0
350
66
  3
D1
350
67
  3
D2
350
68
  0
XRECORD
  5
2D9
102
{ACAD_REACTORS
330
C
102
}
330
C
100
AcDbXrecord
280
     1
  1
DWGPROPS COOKIE
  2

  3

  4

  6

  7

  8
radek.stransky
  9

300
=
301
=
302
=
303
=
304
=
305
=
306
=
307
=
308
=
309
=
 40
0.0
 41
2459094.276060625
 42
2459094.276089143
  1

 90
        0
  0
LAYOUT
  5
1E
102
{ACAD_REACTORS
330
1A
102
}
330
1A
100
AcDbPlotSettings
  1

  2
none_device
  4

  6

 40
0.0
 41
0.0
 42
0.0
 43
0.0
 44
0.0
 45
0.0
 46
0.0
 47
0.0
 48
0.0
 49
0.0
140
0.0
141
0.0
142
1.0
143
1.0
 70
   688
 72
     1
 73
     0
 74
     5
  7

 75
    16
147
1.0
148
0.0
149
0.0
100
AcDbLayout
  1
Layout1
 70
     1
 71
     1
 10
0.0
 20
0.0
 11
420.0
 21
297.0
 12
0.0
 22
0.0
 32
0.0
 14
1.0000000000E+20
 24
1.0000000000E+20
 34
1.0000000000E+20
 15
-1.0000000000E+20
 25
-1.0000000000E+20
 35
-1.0000000000E+20
146
0.0
 13
0.0
 23
0.0
 33
0.0
 16
1.0
 26
0.0
 36
0.0
 17
0.0
 27
1.0
 37
0.0
 76
     0
330
1B
  0
LAYOUT
  5
26
102
{ACAD_REACTORS
330
1A
102
}
330
1A
100
AcDbPlotSettings
  1

  2
none_device
  4

  6

 40
0.0
 41
0.0
 42
0.0
 43
0.0
 44
0.0
 45
0.0
 46
0.0
 47
0.0
 48
0.0
 49
0.0
140
0.0
141
0.0
142
1.0
143
1.0
 70
   688
 72
     1
 73
     0
 74
     5
  7

 75
    16
147
1.0
148
0.0
149
0.0
100
AcDbLayout
  1
Layout2
 70
     1
 71
     2
 10
0.0
 20
0.0
 11
0.0
 21
0.0
 12
0.0
 22
0.0
 32
0.0
 14
0.0
 24
0.0
 34
0.0
 15
0.0
 25
0.0
 35
0.0
146
0.0
 13
0.0
 23
0.0
 33
0.0
 16
1.0
 26
0.0
 36
0.0
 17
0.0
 27
1.0
 37
0.0
 76
     0
330
23
  0
LAYOUT
  5
22
102
{ACAD_REACTORS
330
1A
102
}
330
1A
100
AcDbPlotSettings
  1

  2
none_device
  4
ANSI_A_(11.00_x_8.50_Inches)
  6

 40
6.35
 41
19.05
 42
6.35000508
 43
19.05000254
 44
279.4
 45
215.9
 46
-463.7731935105
 47
-352.9624738391
 48
0.0
 49
0.0
140
0.0
141
0.0
142
0.0035600553
143
1.0
 70
  1696
 72
     0
 73
     0
 74
     0
  7

 75
     0
147
0.0179189148
148
-1300.4909072572
149
0.0
100
AcDbLayout
  1
Model
 70
     1
 71
     0
 10
0.0
 20
0.0
 11
420.0
 21
297.0
 12
0.0
 22
0.0
 32
0.0
 14
5074.0187076524
 24
4158.7893872812
 34
0.0
 15
8132.9599797883
 25
5614.1826664671
 35
0.0
146
0.0
 13
0.0
 23
0.0
 33
0.0
 16
1.0
 26
0.0
 36
0.0
 17
0.0
 27
1.0
 37
0.0
 76
     0
330
1F
331
29
  0
MLINESTYLE
  5
18
102
{ACAD_REACTORS
330
17
102
}
330
17
100
AcDbMlineStyle
  2
Standard
 70
     0
  3

 62
   256
 51
90.0
 52
90.0
 71
     2
 49
0.5
 62
   256
  6
BYLAYER
 49
-0.5
 62
   256
  6
BYLAYER
  0
ACDBPLACEHOLDER
  5
F
102
{ACAD_REACTORS
330
E
102
}
330
E
  0
SCALE
  5
48
102
{ACAD_REACTORS
330
47
102
}
330
47
100
AcDbScale
 70
     0
300
1:1
140
1.0
141
1.0
290
     1
  0
SCALE
  5
49
102
{ACAD_REACTORS
330
47
102
}
330
47
100
AcDbScale
 70
     0
300
1:2
140
1.0
141
2.0
290
     0
  0
SCALE
  5
4A
102
{ACAD_REACTORS
330
47
102
}
330
47
100
AcDbScale
 70
     0
300
1:4
140
1.0
141
4.0
290
     0
  0
SCALE
  5
4B
102
{ACAD_REACTORS
330
47
102
}
330
47
100
AcDbScale
 70
     0
300
1:5
140
1.0
141
5.0
290
     0
  0
SCALE
  5
4C
102
{ACAD_REACTORS
330
47
102
}
330
47
100
AcDbScale
 70
     0
300
1:8
140
1.0
141
8.0
290
     0
  0
SCALE
  5
4D
102
{ACAD_REACTORS
330
47
102
}
330
47
100
AcDbScale
 70
     0
300
1:10
140
1.0
141
10.0
290
     0
  0
SCALE
  5
4E
102
{ACAD_REACTORS
330
47
102
}
330
47
100
AcDbScale
 70
     0
300
1:16
140
1.0
141
16.0
290
     0
  0
SCALE
  5
4F
102
{ACAD_REACTORS
330
47
102
}
330
47
100
AcDbScale
 70
     0
300
1:20
140
1.0
141
20.0
290
     0
  0
SCALE
  5
50
102
{ACAD_REACTORS
330
47
102
}
330
47
100
AcDbScale
 70
     0
300
1:30
140
1.0
141
30.0
290
     0
  0
SCALE
  5
51
102
{ACAD_REACTORS
330
47
102
}
330
47
100
AcDbScale
 70
     0
300
1:40
140
1.0
141
40.0
290
     0
  0
SCALE
  5
52
102
{ACAD_REACTORS
330
47
102
}
330
47
100
AcDbScale
 70
     0
300
1:50
140
1.0
141
50.0
290
     0
  0
SCALE
  5
53
102
{ACAD_REACTORS
330
47
102
}
330
47
100
AcDbScale
 70
     0
300
1:100
140
1.0
141
100.0
290
     0
  0
SCALE
  5
54
102
{ACAD_REACTORS
330
47
102
}
330
47
100
AcDbScale
 70
     0
300
2:1
140
2.0
141
1.0
290
     0
  0
SCALE
  5
55
102
{ACAD_REACTORS
330
47
102
}
330
47
100
AcDbScale
 70
     0
300
4:1
140
4.0
141
1.0
290
     0
  0
SCALE
  5
56
102
{ACAD_REACTORS
330
47
102
}
330
47
100
AcDbScale
 70
     0
300
8:1
140
8.0
141
1.0
290
     0
  0
SCALE
  5
57
102
{ACAD_REACTORS
330
47
102
}
330
47
100
AcDbScale
 70
     0
300
10:1
140
10.0
141
1.0
290
     0
  0
SCALE
  5
58
102
{ACAD_REACTORS
330
47
102
}
330
47
100
AcDbScale
 70
     0
300
100:1
140
100.0
141
1.0
290
     0
  0
SCALE
  5
59
102
{ACAD_REACTORS
330
47
102
}
330
47
100
AcDbScale
 70
     0
300
1/128" = 1'-0"
140
0.0078125
141
12.0
290
     0
  0
SCALE
  5
5A
102
{ACAD_REACTORS
330
47
102
}
330
47
100
AcDbScale
 70
     0
300
1/64" = 1'-0"
140
0.015625
141
12.0
290
     0
  0
SCALE
  5
5B
102
{ACAD_REACTORS
330
47
102
}
330
47
100
AcDbScale
 70
     0
300
1/32" = 1'-0"
140
0.03125
141
12.0
290
     0
  0
SCALE
  5
5C
102
{ACAD_REACTORS
330
47
102
}
330
47
100
AcDbScale
 70
     0
300
1/16" = 1'-0"
140
0.0625
141
12.0
290
     0
  0
SCALE
  5
5D
102
{ACAD_REACTORS
330
47
102
}
330
47
100
AcDbScale
 70
     0
300
3/32" = 1'-0"
140
0.09375
141
12.0
290
     0
  0
SCALE
  5
5E
102
{ACAD_REACTORS
330
47
102
}
330
47
100
AcDbScale
 70
     0
300
1/8" = 1'-0"
140
0.125
141
12.0
290
     0
  0
SCALE
  5
5F
102
{ACAD_REACTORS
330
47
102
}
330
47
100
AcDbScale
 70
     0
300
3/16" = 1'-0"
140
0.1875
141
12.0
290
     0
  0
SCALE
  5
60
102
{ACAD_REACTORS
330
47
102
}
330
47
100
AcDbScale
 70
     0
300
1/4" = 1'-0"
140
0.25
141
12.0
290
     0
  0
SCALE
  5
61
102
{ACAD_REACTORS
330
47
102
}
330
47
100
AcDbScale
 70
     0
300
3/8" = 1'-0"
140
0.375
141
12.0
290
     0
  0
SCALE
  5
62
102
{ACAD_REACTORS
330
47
102
}
330
47
100
AcDbScale
 70
     0
300
1/2" = 1'-0"
140
0.5
141
12.0
290
     0
  0
SCALE
  5
63
102
{ACAD_REACTORS
330
47
102
}
330
47
100
AcDbScale
 70
     0
300
3/4" = 1'-0"
140
0.75
141
12.0
290
     0
  0
SCALE
  5
64
102
{ACAD_REACTORS
330
47
102
}
330
47
100
AcDbScale
 70
     0
300
1" = 1'-0"
140
1.0
141
12.0
290
     0
  0
SCALE
  5
65
102
{ACAD_REACTORS
330
47
102
}
330
47
100
AcDbScale
 70
     0
300
1-1/2" = 1'-0"
140
1.5
141
12.0
290
     0
  0
SCALE
  5
66
102
{ACAD_REACTORS
330
47
102
}
330
47
100
AcDbScale
 70
     0
300
3" = 1'-0"
140
3.0
141
12.0
290
     0
  0
SCALE
  5
67
102
{ACAD_REACTORS
330
47
102
}
330
47
100
AcDbScale
 70
     0
300
6" = 1'-0"
140
6.0
141
12.0
290
     0
  0
SCALE
  5
68
102
{ACAD_REACTORS
330
47
102
}
330
47
100
AcDbScale
 70
     0
300
1'-0" = 1'-0"
140
12.0
141
12.0
290
     0
  0
ENDSEC
  0
EOF
