  0
SECTION
  2
HEADER
  9
$ACADVER
  1
AC1015
  9
$ACADMAINTVER
 70
     6
  9
$DWGCODEPAGE
  3
ANSI_1250
  9
$INSBASE
 10
0.0
 20
0.0
 30
0.0
  9
$EXTMIN
 10
0.0
 20
0.0
 30
0.0
  9
$EXTMAX
 10
20000.0
 20
10000.0
 30
0.0
  9
$LIMMIN
 10
0.0
 20
0.0
  9
$LIMMAX
 10
20000.0
 20
10000.0
  9
$ORTHOMODE
 70
     0
  9
$REGENMODE
 70
     1
  9
$FILLMODE
 70
     1
  9
$QTEXTMODE
 70
     0
  9
$MIRRTEXT
 70
     1
  9
$LTSCALE
 40
1.0
  9
$ATTMODE
 70
     1
  9
$TEXTSIZE
 40
2.0
  9
$TRACEWID
 40
1.0
  9
$TEXTSTYLE
  7
Standard
  9
$CLAYER
  8
0
  9
$CELTYPE
  6
ByLayer
  9
$CECOLOR
 62
   256
  9
$CELTSCALE
 40
1.0
  9
$DISPSILH
 70
     0
  9
$DIMSCALE
 40
1.0
  9
$DIMASZ
 40
2.0
  9
$DIMEXO
 40
1.0
  9
$DIMDLI
 40
3.75
  9
$DIMRND
 40
0.0
  9
$DIMDLE
 40
0.0
  9
$DIMEXE
 40
1.0
  9
$DIMTP
 40
0.0
  9
$DIMTM
 40
0.0
  9
$DIMTXT
 40
2.0
  9
$DIMCEN
 40
2.5
  9
$DIMTSZ
 40
0.0
  9
$DIMTOL
 70
     0
  9
$DIMLIM
 70
     0
  9
$DIMTIH
 70
     1
  9
$DIMTOH
 70
     1
  9
$DIMSE1
 70
     0
  9
$DIMSE2
 70
     0
  9
$DIMTAD
 70
     1
  9
$DIMZIN
 70
     0
  9
$DIMBLK
  1

  9
$DIMASO
 70
     1
  9
$DIMSHO
 70
     1
  9
$DIMPOST
  1

  9
$DIMAPOST
  1

  9
$DIMALT
 70
     0
  9
$DIMALTD
 70
     3
  9
$DIMALTF
 40
0.0393700787
  9
$DIMLFAC
 40
1.0
  9
$DIMTOFL
 70
     1
  9
$DIMTVP
 40
0.0
  9
$DIMTIX
 70
     0
  9
$DIMSOXD
 70
     0
  9
$DIMSAH
 70
     0
  9
$DIMBLK1
  1

  9
$DIMBLK2
  1

  9
$DIMSTYLE
  2
ISO-25
  9
$DIMCLRD
 70
     0
  9
$DIMCLRE
 70
     0
  9
$DIMCLRT
 70
     0
  9
$DIMTFAC
 40
1.0
  9
$DIMGAP
 40
1.524
  9
$DIMJUST
 70
     0
  9
$DIMSD1
 70
     0
  9
$DIMSD2
 70
     0
  9
$DIMTOLJ
 70
     0
  9
$DIMTZIN
 70
     0
  9
$DIMALTZ
 70
     0
  9
$DIMALTTZ
 70
     0
  9
$DIMUPT
 70
     0
  9
$DIMDEC
 70
     2
  9
$DIMTDEC
 70
     0
  9
$DIMALTU
 70
     2
  9
$DIMALTTD
 70
     3
  9
$DIMTXSTY
  7
Standard
  9
$DIMAUNIT
 70
     0
  9
$DIMADEC
 70
     2
  9
$DIMALTRND
 40
0.0
  9
$DIMAZIN
 70
     0
  9
$DIMDSEP
 70
    44
  9
$DIMATFIT
 70
     3
  9
$DIMFRAC
 70
     0
  9
$DIMLDRBLK
  1

  9
$DIMLUNIT
 70
     2
  9
$DIMLWD
 70
    -2
  9
$DIMLWE
 70
    -2
  9
$DIMTMOVE
 70
     0
  9
$LUNITS
 70
     2
  9
$LUPREC
 70
     3
  9
$SKETCHINC
 40
1.0
  9
$FILLETRAD
 40
10.0
  9
$AUNITS
 70
     0
  9
$AUPREC
 70
     2
  9
$MENU
  1
.
  9
$ELEVATION
 40
0.0
  9
$PELEVATION
 40
0.0
  9
$THICKNESS
 40
0.0
  9
$LIMCHECK
 70
     0
  9
$CHAMFERA
 40
0.0
  9
$CHAMFERB
 40
0.0
  9
$CHAMFERC
 40
0.0
  9
$CHAMFERD
 40
0.0
  9
$SKPOLY
 70
     0
  9
$TDCREATE
 40
2459611.559150069
  9
$TDUCREATE
 40
2459611.517483403
  9
$TDUPDATE
 40
2459611.559150428
  9
$TDUUPDATE
 40
2459611.517483762
  9
$TDINDWG
 40
0.0000000116
  9
$TDUSRTIMER
 40
0.0000000116
  9
$USRTIMER
 70
     1
  9
$ANGBASE
 50
0.0
  9
$ANGDIR
 70
     0
  9
$PDMODE
 70
     0
  9
$PDSIZE
 40
-1.0
  9
$PLINEWID
 40
0.0
  9
$SPLFRAME
 70
     0
  9
$SPLINETYPE
 70
     6
  9
$SPLINESEGS
 70
     8
  9
$HANDSEED
  5
188
  9
$SURFTAB1
 70
     6
  9
$SURFTAB2
 70
     6
  9
$SURFTYPE
 70
     6
  9
$SURFU
 70
     6
  9
$SURFV
 70
     6
  9
$UCSBASE
  2

  9
$UCSNAME
  2

  9
$UCSORG
 10
0.0
 20
0.0
 30
0.0
  9
$UCSXDIR
 10
1.0
 20
0.0
 30
0.0
  9
$UCSYDIR
 10
0.0
 20
1.0
 30
0.0
  9
$UCSORTHOREF
  2

  9
$UCSORTHOVIEW
 70
     0
  9
$UCSORGTOP
 10
0.0
 20
0.0
 30
0.0
  9
$UCSORGBOTTOM
 10
0.0
 20
0.0
 30
0.0
  9
$UCSORGLEFT
 10
0.0
 20
0.0
 30
0.0
  9
$UCSORGRIGHT
 10
0.0
 20
0.0
 30
0.0
  9
$UCSORGFRONT
 10
0.0
 20
0.0
 30
0.0
  9
$UCSORGBACK
 10
0.0
 20
0.0
 30
0.0
  9
$PUCSBASE
  2

  9
$PUCSNAME
  2

  9
$PUCSORG
 10
0.0
 20
0.0
 30
0.0
  9
$PUCSXDIR
 10
1.0
 20
0.0
 30
0.0
  9
$PUCSYDIR
 10
0.0
 20
1.0
 30
0.0
  9
$PUCSORTHOREF
  2

  9
$PUCSORTHOVIEW
 70
     0
  9
$PUCSORGTOP
 10
0.0
 20
0.0
 30
0.0
  9
$PUCSORGBOTTOM
 10
0.0
 20
0.0
 30
0.0
  9
$PUCSORGLEFT
 10
0.0
 20
0.0
 30
0.0
  9
$PUCSORGRIGHT
 10
0.0
 20
0.0
 30
0.0
  9
$PUCSORGFRONT
 10
0.0
 20
0.0
 30
0.0
  9
$PUCSORGBACK
 10
0.0
 20
0.0
 30
0.0
  9
$USERI1
 70
     0
  9
$USERI2
 70
     0
  9
$USERI3
 70
     0
  9
$USERI4
 70
     0
  9
$USERI5
 70
     0
  9
$USERR1
 40
0.0
  9
$USERR2
 40
0.0
  9
$USERR3
 40
0.0
  9
$USERR4
 40
0.0
  9
$USERR5
 40
0.0
  9
$WORLDVIEW
 70
     1
  9
$SHADEDGE
 70
     3
  9
$SHADEDIF
 70
    70
  9
$TILEMODE
 70
     1
  9
$MAXACTVP
 70
    64
  9
$PINSBASE
 10
0.0
 20
0.0
 30
0.0
  9
$PLIMCHECK
 70
     0
  9
$PEXTMIN
 10
1.0000000000E+20
 20
1.0000000000E+20
 30
1.0000000000E+20
  9
$PEXTMAX
 10
-1.0000000000E+20
 20
-1.0000000000E+20
 30
-1.0000000000E+20
  9
$PLIMMIN
 10
0.0
 20
0.0
  9
$PLIMMAX
 10
420.0
 20
297.0
  9
$UNITMODE
 70
     0
  9
$VISRETAIN
 70
     1
  9
$PLINEGEN
 70
     0
  9
$PSLTSCALE
 70
     1
  9
$TREEDEPTH
 70
  3020
  9
$CMLSTYLE
  2
Standard
  9
$CMLJUST
 70
     0
  9
$CMLSCALE
 40
20.0
  9
$PROXYGRAPHICS
 70
     1
  9
$MEASUREMENT
 70
     1
  9
$CELWEIGHT
370
    -1
  9
$ENDCAPS
280
     0
  9
$JOINSTYLE
280
     0
  9
$LWDISPLAY
290
     1
  9
$INSUNITS
 70
     4
  9
$HYPERLINKBASE
  1

  9
$STYLESHEET
  1

  9
$XEDIT
290
     1
  9
$CEPSNTYPE
380
     0
  9
$PSTYLEMODE
290
     1
  9
$FINGERPRINTGUID
  2
{58762d64-1f94-49b3-8b15-45c25c6919ce}
  9
$VERSIONGUID
  2
{FAEB1C32-E019-11D5-929B-00C0DF256EC4}
  9
$EXTNAMES
290
     1
  9
$PSVPSCALE
 40
0.0
  9
$OLESTARTUP
290
     0
  0
ENDSEC
  0
SECTION
  2
CLASSES
  0
CLASS
  1
ACDBDICTIONARYWDFLT
  2
AcDbDictionaryWithDefault
  3
ObjectDBX Classes
 90
        0
280
     0
281
     0
  0
CLASS
  1
VISUALSTYLE
  2
AcDbVisualStyle
  3
ObjectDBX Classes
 90
     4095
280
     0
281
     0
  0
CLASS
  1
MATERIAL
  2
AcDbMaterial
  3
ObjectDBX Classes
 90
     1153
280
     0
281
     0
  0
CLASS
  1
SCALE
  2
AcDbScale
  3
ObjectDBX Classes
 90
     1153
280
     0
281
     0
  0
CLASS
  1
TABLESTYLE
  2
AcDbTableStyle
  3
ObjectDBX Classes
 90
     4095
280
     0
281
     0
  0
CLASS
  1
MLEADERSTYLE
  2
AcDbMLeaderStyle
  3
ACDB_MLEADERSTYLE_CLASS
 90
     4095
280
     0
281
     0
  0
CLASS
  1
SUN
  2
AcDbSun
  3
SCENEOE
 90
     1153
280
     0
281
     0
  0
CLASS
  1
ACDBPLACEHOLDER
  2
AcDbPlaceHolder
  3
ObjectDBX Classes
 90
        0
280
     0
281
     0
  0
CLASS
  1
LAYOUT
  2
AcDbLayout
  3
ObjectDBX Classes
 90
        0
280
     0
281
     0
  0
ENDSEC
  0
SECTION
  2
TABLES
  0
TABLE
  2
VPORT
  5
8
330
0
100
AcDbSymbolTable
 70
     1
  0
VPORT
  5
29
330
8
100
AcDbSymbolTableRecord
100
AcDbViewportTableRecord
  2
*Active
 70
     0
 10
0.0
 20
0.0
 11
1.0
 21
1.0
 12
10000.0
 22
5000.0
 13
0.0
 23
0.0
 14
10.0
 24
10.0
 15
10.0
 25
10.0
 16
0.0
 26
0.0
 36
1.0
 17
0.0
 27
0.0
 37
0.0
 40
10000.0
 41
2.0
 42
50.0
 43
0.0
 44
0.0
 50
0.0
 51
0.0
 71
     0
 72
  2000
 73
     1
 74
     3
 75
     0
 76
     0
 77
     0
 78
     0
281
     0
 65
     1
110
0.0
120
0.0
130
0.0
111
1.0
121
0.0
131
0.0
112
0.0
122
1.0
132
0.0
 79
     0
146
0.0
  0
ENDTAB
  0
TABLE
  2
LTYPE
  5
5
330
0
100
AcDbSymbolTable
 70
     6
  0
LTYPE
  5
14
330
5
100
AcDbSymbolTableRecord
100
AcDbLinetypeTableRecord
  2
ByBlock
 70
     0
  3

 72
    65
 73
     0
 40
0.0
  0
LTYPE
  5
15
330
5
100
AcDbSymbolTableRecord
100
AcDbLinetypeTableRecord
  2
ByLayer
 70
     0
  3

 72
    65
 73
     0
 40
0.0
  0
LTYPE
  5
16
330
5
100
AcDbSymbolTableRecord
100
AcDbLinetypeTableRecord
  2
Continuous
 70
     0
  3
Solid line
 72
    65
 73
     0
 40
0.0
  0
LTYPE
  5
6E
330
5
100
AcDbSymbolTableRecord
100
AcDbLinetypeTableRecord
  2
HIDDEN
 70
     0
  3
Hidden __ __ __ __ __ __ __ __ __ __ __ __ __ __
 72
    65
 73
     2
 40
1.905
 49
1.27
 74
     0
 49
-0.635
 74
     0
  0
LTYPE
  5
6F
330
5
100
AcDbSymbolTableRecord
100
AcDbLinetypeTableRecord
  2
PHANTOM
 70
     0
  3
Phantom ______  __  __  ______  __  __  ______
 72
    65
 73
     6
 40
12.7
 49
6.35
 74
     0
 49
-1.27
 74
     0
 49
1.27
 74
     0
 49
-1.27
 74
     0
 49
1.27
 74
     0
 49
-1.27
 74
     0
  0
LTYPE
  5
70
330
5
100
AcDbSymbolTableRecord
100
AcDbLinetypeTableRecord
  2
CENTER
 70
     0
  3
Center ____ _ ____ _ ____ _ ____ _ ____ _ ____
 72
    65
 73
     4
 40
10.16
 49
6.35
 74
     0
 49
-1.27
 74
     0
 49
1.27
 74
     0
 49
-1.27
 74
     0
  0
LTYPE
  5
71
330
5
100
AcDbSymbolTableRecord
100
AcDbLinetypeTableRecord
  2
CENTERX2
 70
     0
  3
Center (2x) ________  __  ________  __  _____
 72
    65
 73
     4
 40
20.32
 49
12.7
 74
     0
 49
-2.54
 74
     0
 49
2.54
 74
     0
 49
-2.54
 74
     0
  0
LTYPE
  5
72
330
5
100
AcDbSymbolTableRecord
100
AcDbLinetypeTableRecord
  2
DOT2
 70
     0
  3
Dot (.5x) ........................................
 72
    65
 73
     2
 40
0.635
 49
0.0
 74
     0
 49
-0.635
 74
     0
  0
ENDTAB
  0
TABLE
  2
LAYER
  5
2
330
0
100
AcDbSymbolTable
 70
    13
  0
LAYER
  5
10
330
2
100
AcDbSymbolTableRecord
100
AcDbLayerTableRecord
  2
0
 70
     0
 62
     7
  6
Continuous
370
    -3
390
F
  0
LAYER
  5
73
330
2
100
AcDbSymbolTableRecord
100
AcDbLayerTableRecord
  2
FORMAT
 70
     0
 62
     7
  6
Continuous
370
    -3
390
F
  0
LAYER
  5
74
330
2
100
AcDbSymbolTableRecord
100
AcDbLayerTableRecord
  2
OSA
 70
     0
 62
     7
  6
CENTER
370
    -3
390
F
  0
LAYER
  5
75
330
2
100
AcDbSymbolTableRecord
100
AcDbLayerTableRecord
  2
0_35
 70
     0
 62
     7
  6
Continuous
370
    35
390
F
  0
LAYER
  5
76
330
2
100
AcDbSymbolTableRecord
100
AcDbLayerTableRecord
  2
0_5
 70
     0
 62
     7
  6
Continuous
370
    50
390
F
  0
LAYER
  5
77
330
2
100
AcDbSymbolTableRecord
100
AcDbLayerTableRecord
  2
0_25
 70
     0
 62
     7
  6
Continuous
370
    25
390
F
  0
LAYER
  5
78
330
2
100
AcDbSymbolTableRecord
100
AcDbLayerTableRecord
  2
0_18
 70
     0
 62
     7
  6
Continuous
370
    -3
390
F
  0
LAYER
  5
79
330
2
100
AcDbSymbolTableRecord
100
AcDbLayerTableRecord
  2
SLD-0
 70
     0
 62
   179
  6
Continuous
370
    -3
390
F
  0
LAYER
  5
7A
330
2
100
AcDbSymbolTableRecord
100
AcDbLayerTableRecord
  2
KOTY
 70
     0
 62
     7
  6
Continuous
370
    -3
390
F
  0
LAYER
  5
7B
330
2
100
AcDbSymbolTableRecord
100
AcDbLayerTableRecord
  2
SILNA
 70
     0
 62
   179
  6
Continuous
370
    -3
390
F
  0
LAYER
  5
7C
330
2
100
AcDbSymbolTableRecord
100
AcDbLayerTableRecord
  2
0_18_1
 70
     0
 62
   179
  6
Continuous
370
    -3
390
F
  0
LAYER
  5
7D
330
2
100
AcDbSymbolTableRecord
100
AcDbLayerTableRecord
  2
0_35_1
 70
     0
 62
   179
  6
Continuous
370
    35
390
F
  0
LAYER
  5
7E
330
2
100
AcDbSymbolTableRecord
100
AcDbLayerTableRecord
  2
0_5_1
 70
     0
 62
   179
  6
Continuous
370
    50
390
F
  0
ENDTAB
  0
TABLE
  2
STYLE
  5
3
330
0
100
AcDbSymbolTable
 70
     1
  0
STYLE
  5
11
330
3
100
AcDbSymbolTableRecord
100
AcDbTextStyleTableRecord
  2
Standard
 70
     0
 40
0.0
 41
1.0
 50
0.0
 71
     0
 42
2.0
  3
txt
  4

  0
ENDTAB
  0
TABLE
  2
VIEW
  5
6
330
0
100
AcDbSymbolTable
 70
     0
  0
ENDTAB
  0
TABLE
  2
UCS
  5
7
330
0
100
AcDbSymbolTable
 70
     0
  0
ENDTAB
  0
TABLE
  2
APPID
  5
9
330
0
100
AcDbSymbolTable
 70
     1
  0
APPID
  5
12
330
9
100
AcDbSymbolTableRecord
100
AcDbRegAppTableRecord
  2
ACAD
 70
     0
  0
ENDTAB
  0
TABLE
  2
DIMSTYLE
  5
A
330
0
100
AcDbSymbolTable
 70
     1
100
AcDbDimStyleTable
  0
DIMSTYLE
105
27
330
A
100
AcDbSymbolTableRecord
100
AcDbDimStyleTableRecord
  2
ISO-25
 70
     0
 41
2.5
 42
0.625
 43
3.75
 44
1.25
 73
     0
 74
     0
 77
     1
 78
     8
140
2.5
141
2.5
143
0.0393700787
147
0.625
171
     3
172
     1
178
     0
271
     2
272
     2
274
     3
278
    44
283
     0
284
     8
340
11
  0
ENDTAB
  0
TABLE
  2
BLOCK_RECORD
  5
1
330
0
100
AcDbSymbolTable
 70
     1
  0
BLOCK_RECORD
  5
1F
330
1
100
AcDbSymbolTableRecord
100
AcDbBlockTableRecord
  2
*Model_Space
340
22
  0
BLOCK_RECORD
  5
1B
330
1
100
AcDbSymbolTableRecord
100
AcDbBlockTableRecord
  2
*Paper_Space
340
1E
  0
BLOCK_RECORD
  5
23
330
1
100
AcDbSymbolTableRecord
100
AcDbBlockTableRecord
  2
*Paper_Space0
340
26
  0
ENDTAB
  0
ENDSEC
  0
SECTION
  2
BLOCKS
  0
BLOCK
  5
20
330
1F
100
AcDbEntity
  8
0
100
AcDbBlockBegin
  2
*Model_Space
 70
     0
 10
0.0
 20
0.0
 30
0.0
  3
*Model_Space
  1

  0
ENDBLK
  5
21
330
1F
100
AcDbEntity
  8
0
100
AcDbBlockEnd
  0
BLOCK
  5
1C
330
1B
100
AcDbEntity
 67
     1
  8
0
100
AcDbBlockBegin
  2
*Paper_Space
 70
     0
 10
0.0
 20
0.0
 30
0.0
  3
*Paper_Space
  1

  0
ENDBLK
  5
1D
330
1B
100
AcDbEntity
 67
     1
  8
0
100
AcDbBlockEnd
  0
BLOCK
  5
24
330
23
100
AcDbEntity
  8
0
100
AcDbBlockBegin
  2
*Paper_Space0
 70
     0
 10
0.0
 20
0.0
 30
0.0
  3
*Paper_Space0
  1

  0
ENDBLK
  5
25
330
23
100
AcDbEntity
  8
0
100
AcDbBlockEnd
  0
ENDSEC
  0
SECTION
  2
ENTITIES
  0
ARC
  5
7F
330
1F
100
AcDbEntity
  8
0
  6
Continuous
 62
     7
370
    25
100
AcDbCircle
 10
6010.2499215653
 20
5472.8985308826
 30
0.0
 40
105.0626791300346
100
AcDbArc
 50
5.3210403434
 51
8.2392650883
  0
LINE
  5
80
330
1F
100
AcDbEntity
  8
0
  6
Continuous
 62
     7
370
    25
100
AcDbLine
 10
6433.2081519906
 20
5484.9620222373
 30
0.0
 11
6433.4359660145
 21
5486.2366633291
 31
0.0
  0
ARC
  5
81
330
1F
100
AcDbEntity
  8
0
  6
Continuous
 62
     7
370
    25
100
AcDbCircle
 10
6173.8641045357
 20
5485.5254980332
 30
0.0
 40
59.95314849890831
100
AcDbArc
 50
95.328396212
 51
178.1970230289
  0
ARC
  5
82
330
1F
100
AcDbEntity
  8
0
  6
Continuous
 62
     7
370
    25
100
AcDbCircle
 10
6374.3402542003
 20
5485.4753128485
 30
0.0
 40
60.00000071493679
100
AcDbArc
 50
1.887764143
 51
84.9547448414
  0
LWPOLYLINE
  5
83
330
1F
100
AcDbEntity
  8
0
  6
Continuous
 62
     7
370
    25
100
AcDbPolyline
 90
       20
 70
   128
 43
0.0
 10
6117.0252509906
 20
5329.8922471309
 10
6117.2090492815
 20
5326.5941605787
 10
6117.2811170556
 20
5323.6614090853
 10
6117.2351226284
 20
5321.4326147914
 10
6117.0833718593
 20
5320.1489905347
 10
6116.8505843921
 20
5319.9515058359
 10
6116.5681494716
 20
5320.8709362395
 10
6116.2688538506
 20
5322.8138645277
 10
6115.9827920613
 20
5325.5639557921
 10
6115.735456479
 20
5328.8061341346
 10
6115.5477914964
 20
5332.1675643103
 10
6115.4367334235
 20
5335.2650087376
 10
6115.4148668993
 20
5337.7506964812
 10
6115.4888580994
 20
5339.3508376419
 10
6115.6571797809
 20
5339.8921066864
 10
6115.9078741354
 20
5339.3148924648
 10
6116.2170406342
 20
5337.6770147004
 10
6116.5490302954
 20
5335.1524815786
 10
6116.8598879719
 20
5332.0230378759
 10
6117.0252509906
 20
5329.8922471309
  0
LINE
  5
84
330
1F
100
AcDbEntity
  8
0
  6
Continuous
 62
     7
370
    25
100
AcDbLine
 10
6189.0850836337
 20
4904.8922471309
 30
0.0
 11
6359.0850836337
 21
4904.8922471309
 31
0.0
  0
LWPOLYLINE
  5
85
330
1F
100
AcDbEntity
  8
0
  6
Continuous
 62
     7
370
    25
100
AcDbPolyline
 90
       14
 70
   128
 43
0.0
 10
6189.0850836337
 20
4904.8922471309
 10
6175.6945015722
 20
4951.0491690254
 10
6163.6036122895
 20
4997.2969004544
 10
6152.8124157857
 20
5043.635441418
 10
6143.3209120607
 20
5090.0647919162
 10
6135.1291011146
 20
5136.5849519489
 10
6128.2369829474
 20
5183.1959215162
 10
6122.6445575591
 20
5229.8977006181
 10
6118.6599116235
 20
5272.7874384485
 10
6115.7673686479
 20
5315.7534815128
 10
6113.9669286323
 20
5358.795829811
 10
6113.2585915767
 20
5401.9144833431
 10
6113.6423574812
 20
5445.1094421092
 10
6114.9224094211
 20
5482.6395145702
  0
LWPOLYLINE
  5
86
330
1F
100
AcDbEntity
  8
0
  6
Continuous
 62
     7
370
    25
100
AcDbPolyline
 90
       44
 70
   128
 43
0.0
 10
6119.4826193412
 20
5483.7629753298
 10
6122.6364846236
 20
5468.6103821376
 10
6126.9393282097
 20
5453.5651044865
 10
6132.4877119255
 20
5438.6988587501
 10
6137.6958019058
 20
5427.3667964549
 10
6143.7629378351
 20
5416.2104170451
 10
6149.6172874969
 20
5406.9254930834
 10
6156.1720264964
 20
5397.8269383458
 10
6163.4638213875
 20
5388.9677981865
 10
6169.9932268904
 20
5381.9486521956
 10
6177.1161972977
 20
5375.1201481234
 10
6184.8466774878
 20
5368.555067507
 10
6193.1986123387
 20
5362.3261918833
 10
6202.1859467286
 20
5356.5063027896
 10
6211.8226255356
 20
5351.1681817628
 10
6220.9604371588
 20
5346.8830913712
 10
6230.636793078
 20
5343.0871253894
 10
6240.7822122479
 20
5339.8615945905
 10
6249.4578279164
 20
5337.6983646183
 10
6258.4337621558
 20
5336.0700944636
 10
6267.6051498575
 20
5335.1041622078
 10
6274.6576026544
 20
5334.9130543025
 10
6281.7384749501
 20
5335.2066786063
 10
6288.7529365374
 20
5335.9371840092
 10
6295.6061572096
 20
5337.056719401
 10
6304.3701813897
 20
5339.0331177064
 10
6312.8601845889
 20
5341.4960793734
 10
6321.0297343936
 20
5344.3794805212
 10
6328.8323983903
 20
5347.6171972687
 10
6339.4979904108
 20
5352.8762386225
 10
6349.4283942574
 20
5358.7345035459
 10
6358.6175390155
 20
5365.0802039074
 10
6367.0593537703
 20
5371.8015515754
 10
6375.4993001649
 20
5379.496244068
 10
6383.2071668981
 20
5387.5220139757
 10
6390.2157285331
 20
5395.8260118397
 10
6396.5577596331
 20
5404.3553882011
 10
6402.2660347614
 20
5413.0572936008
 10
6407.3733284811
 20
5421.8788785801
 10
6413.389192671
 20
5433.9615719161
 10
6418.4606562837
 20
5446.2378586479
 10
6422.6423440864
 20
5458.6613886324
 10
6425.9888808464
 20
5471.1858117261
 10
6428.554891331
 20
5483.7647777859
  0
LWPOLYLINE
  5
87
330
1F
100
AcDbEntity
  8
0
  6
Continuous
 62
     7
370
    25
100
AcDbPolyline
 90
       14
 70
   128
 43
0.0
 10
6433.1640705134
 20
5484.9790053587
 10
6434.6078258173
 20
5441.1794745671
 10
6434.8640179338
 20
5394.0690525596
 10
6433.8205172716
 20
5347.0494400867
 10
6431.4773238304
 20
5300.1206371483
 10
6427.8344376104
 20
5253.2826437446
 10
6422.8918586115
 20
5206.5354598754
 10
6416.6495868338
 20
5159.8790855408
 10
6409.7857603671
 20
5117.1905160543
 10
6401.8298309405
 20
5074.5782518018
 10
6392.7817985538
 20
5032.0422927832
 10
6382.6416632072
 20
4989.5826389985
 10
6371.4094249005
 20
4947.1992904478
 10
6359.0850836337
 20
4904.8922471309
  0
LWPOLYLINE
  5
88
330
1F
100
AcDbEntity
  8
0
  6
Continuous
 62
     7
370
    25
100
AcDbPolyline
 90
       20
 70
   128
 43
0.0
 10
6431.1472579889
 20
5329.8922471309
 10
6431.4216243672
 20
5333.2104366577
 10
6431.7467871263
 20
5336.1486656435
 10
6432.0795196682
 20
5338.3853368169
 10
6432.3768971473
 20
5339.6581196474
 10
6432.6045202543
 20
5339.8178604236
 10
6432.7415796337
 20
5338.8533964243
 10
6432.780726061
 20
5336.8835536552
 10
6432.7249804768
 20
5334.133977168
 10
6432.5842254333
 20
5330.9103195755
 10
6432.3727373213
 20
5327.5689637278
 10
6432.1082282432
 20
5324.4825183116
 10
6431.8123099594
 20
5322.0003952845
 10
6431.511646564
 20
5320.4085749837
 10
6431.2382383757
 20
5319.8935553393
 10
6431.0269354916
 20
5320.5153114486
 10
6430.9093906881
 20
5322.1963859215
 10
6430.9063385822
 20
5324.7352638712
 10
6431.0220172945
 20
5327.8417356095
 10
6431.1472579889
 20
5329.8922471309
  0
ARC
  5
89
330
1F
100
AcDbEntity
  8
0
  6
Continuous
 62
     7
370
    25
100
AcDbCircle
 10
6378.1897279338
 20
5492.8632643941
 30
0.0
 40
51.18038826143081
100
AcDbArc
 50
349.7599350373
 51
33.189278443
  0
ARC
  5
8A
330
1F
100
AcDbEntity
  8
0
  6
Continuous
 62
     7
370
    25
100
AcDbCircle
 10
6169.9312164117
 20
5492.7540396955
 30
0.0
 40
51.24353798102749
100
AcDbArc
 50
147.4091381128
 51
190.1052843492
  0
LWPOLYLINE
  5
8B
330
1F
100
AcDbEntity
  8
0
  6
Continuous
 62
     7
370
    25
100
AcDbPolyline
 90
        5
 70
   128
 43
0.0
 10
6126.7565641886
 20
5520.3556627012
 10
6130.6836912573
 20
5525.9437853436
 10
6135.7949349572
 20
5531.1284524194
 10
6141.9904717908
 20
5535.8084064598
 10
6149.1493018235
 20
5539.8922471309
  0
ARC
  5
8C
330
1F
100
AcDbEntity
  8
0
  6
Continuous
 62
     7
370
    25
100
AcDbCircle
 10
6174.1365605529
 20
5487.1160159262
 30
0.0
 40
58.39258239699782
100
AcDbArc
 50
94.9466914461
 51
115.3355270895
  0
ARC
  5
8D
330
1F
100
AcDbEntity
  8
0
  6
Continuous
 62
     7
370
    25
100
AcDbCircle
 10
6274.0850836337
 20
4349.8922471309
 30
0.0
 40
1200.0
100
AcDbArc
 50
84.9814213279
 51
95.0190163508
  0
ARC
  5
8E
330
1F
100
AcDbEntity
  8
0
  6
Continuous
 62
     7
370
    25
100
AcDbCircle
 10
6374.0412850304
 20
5487.2130937314
 30
0.0
 40
58.29521622760887
100
AcDbArc
 50
64.6422891784
 51
85.0616092859
  0
LWPOLYLINE
  5
8F
330
1F
100
AcDbEntity
  8
0
  6
Continuous
 62
     7
370
    25
100
AcDbPolyline
 90
        5
 70
   128
 43
0.0
 10
6399.0079633104
 20
5539.8922471309
 10
6406.0261922125
 20
5535.9184145937
 10
6412.112866489
 20
5531.3609162644
 10
6417.1327235538
 20
5526.3272997385
 10
6421.0211495849
 20
5520.8798166348
  0
LWPOLYLINE
  5
90
330
1F
100
AcDbEntity
  8
0
  6
Continuous
 62
     7
370
    25
100
AcDbPolyline
 90
       43
 70
   128
 43
0.0
 10
6129.494592776
 20
5484.0983207713
 10
6132.139069854
 20
5471.2015473881
 10
6135.626717204
 20
5458.373420954
 10
6140.0212417319
 20
5445.6631646853
 10
6145.3863503434
 20
5433.1200017981
 10
6150.6379534679
 20
5422.8449239785
 10
6156.6629716286
 20
5412.7377191313
 10
6163.5053806256
 20
5402.8530845179
 10
6169.3905194955
 20
5395.3913709307
 10
6175.8431502674
 20
5388.1095901594
 10
6182.8929734877
 20
5381.061375688
 10
6190.5696897028
 20
5374.3003610006
 10
6198.6019807139
 20
5368.1067183281
 10
6207.3144699895
 20
5362.2866189272
 10
6216.7129449578
 20
5356.9398418817
 10
6224.2906718121
 20
5353.2649635416
 10
6232.2942341936
 20
5349.9427929397
 10
6240.6776915238
 20
5347.0385287725
 10
6249.3951032243
 20
5344.6173697363
 10
6256.5017459919
 20
5343.100098427
 10
6263.8121947508
 20
5342.0117675608
 10
6271.2391008927
 20
5341.4560291133
 10
6278.7865956964
 20
5341.5439145388
 10
6286.2921182209
 20
5342.2500386042
 10
6293.6168993469
 20
5343.4666383017
 10
6301.6492500778
 20
5345.3371603247
 10
6309.4232503202
 20
5347.6518659875
 10
6316.8993047379
 20
5350.3486313259
 10
6324.0378179946
 20
5353.3653323756
 10
6334.0378795997
 20
5358.3781012729
 10
6343.3368407986
 20
5363.9526972864
 10
6351.935881488
 20
5369.9813111162
 10
6359.8361815645
 20
5376.3561334624
 10
6369.460116743
 20
5385.3592486891
 10
6378.0711309296
 20
5394.8039724189
 10
6385.7276153466
 20
5404.6019958696
 10
6392.4879612162
 20
5414.6650102591
 10
6398.4105597605
 20
5424.9047068052
 10
6404.0996765474
 20
5436.4713544337
 10
6408.9058883654
 20
5448.2167576844
 10
6412.8806687253
 20
5460.0984762404
 10
6416.075491138
 20
5472.0740697848
 10
6418.5418291146
 20
5484.1010980008
  0
ARC
  5
91
330
1F
100
AcDbEntity
  8
0
  6
Continuous
 62
     7
370
    25
100
AcDbCircle
 10
6375.4683200861
 20
5491.8560002231
 30
0.0
 40
43.76603350209073
100
AcDbArc
 50
349.7938738278
 51
14.5642433718
  0
LWPOLYLINE
  5
92
330
1F
100
AcDbEntity
  8
0
  6
Continuous
 62
     7
370
    25
100
AcDbPolyline
 90
       32
 70
   128
 43
0.0
 10
6130.3565399205
 20
5503.2525827203
 10
6137.2906021094
 20
5509.6055074384
 10
6143.8614751245
 20
5516.1199098215
 10
6147.4477941801
 20
5519.5911539922
 10
6151.2410938296
 20
5522.9718447338
 10
6155.3785630486
 20
5526.1745866582
 10
6159.5840691378
 20
5528.8415863509
 10
6164.336128827
 20
5531.0889759863
 10
6167.9070492316
 20
5532.2135711024
 10
6171.7089462998
 20
5533.0309528683
 10
6175.592445127
 20
5533.6759411836
 10
6192.3838839917
 20
5535.9156950327
 10
6209.369739898
 20
5537.5320380488
 10
6226.4472618908
 20
5538.6585403373
 10
6252.0632530802
 20
5539.6425340437
 10
6277.7251546762
 20
5539.8853205995
 10
6294.8298548313
 20
5539.670681988
 10
6311.920116023
 20
5539.1310627535
 10
6328.9672345856
 20
5538.2289478796
 10
6345.1656690116
 20
5536.9806292659
 10
6361.2528450477
 20
5535.2542375691
 10
6367.2698865001
 20
5534.5114134503
 10
6373.2509803949
 20
5533.6634145192
 10
6379.0969238552
 20
5532.5295670733
 10
6383.7299997052
 20
5531.0860759389
 10
6387.9051632618
 20
5529.1420336457
 10
6393.336956075
 20
5525.678611169
 10
6398.0887485914
 20
5521.7928281876
 10
6402.4098039372
 20
5517.7077876687
 10
6407.4132149198
 20
5512.6987256366
 10
6412.4616075623
 20
5507.7084567244
 10
6417.8279886113
 20
5502.8616429095
  0
ARC
  5
93
330
1F
100
AcDbEntity
  8
0
  6
Continuous
 62
     7
370
    25
100
AcDbCircle
 10
6172.4308259658
 20
5491.7627031757
 30
0.0
 40
43.614938704179
100
AcDbArc
 50
164.7257764144
 51
190.1210479424
  0
LINE
  5
94
330
1F
100
AcDbEntity
  8
0
  6
Continuous
 62
     7
370
    25
100
AcDbLine
 10
6127.1603409721
 20
5523.0109391418
 30
0.0
 11
6127.155346674
 21
5522.9755276803
 31
0.0
  0
LINE
  5
95
330
1F
100
AcDbEntity
  8
0
  6
Continuous
 62
     7
370
    25
100
AcDbLine
 10
6127.155346674
 20
5522.9755276803
 30
0.0
 11
6127.1186776033
 21
5522.7343082864
 31
0.0
  0
LWPOLYLINE
  5
96
330
1F
100
AcDbEntity
  8
0
  6
Continuous
 62
     7
370
    25
100
AcDbPolyline
 90
        3
 70
   128
 43
0.0
 10
6127.1186776033
 20
5522.7343082864
 10
6127.0289384299
 20
5522.1457511541
 10
6127.0082458142
 20
5522.0093156835
  0
LINE
  5
97
330
1F
100
AcDbEntity
  8
0
  6
Continuous
 62
     7
370
    25
100
AcDbLine
 10
6127.0082458142
 20
5522.0093156835
 30
0.0
 11
6126.756426959
 21
5520.3558282473
 31
0.0
  0
LWPOLYLINE
  5
98
330
1F
100
AcDbEntity
  8
0
  6
Continuous
 62
     7
370
    25
100
AcDbPolyline
 90
        3
 70
   128
 43
0.0
 10
6168.645212369
 20
5545.2509520974
 10
6168.6425906505
 20
5545.2507208423
 10
6169.1014361499
 20
5545.2911068263
  0
LINE
  5
99
330
1F
100
AcDbEntity
  8
0
  6
Continuous
 62
     7
370
    25
100
AcDbLine
 10
6149.1205848117
 20
5539.8922471555
 30
0.0
 11
6149.1487916979
 21
5539.8928625178
 31
0.0
  0
LINE
  5
9A
330
1F
100
AcDbEntity
  8
0
  6
Continuous
 62
     7
370
    25
100
AcDbLine
 10
6148.9067306094
 20
5539.8922498271
 30
0.0
 11
6149.1205848117
 21
5539.8922471555
 31
0.0
  0
LINE
  5
9B
330
1F
100
AcDbEntity
  8
0
  6
Continuous
 62
     7
370
    25
100
AcDbLine
 10
6148.6979931744
 20
5539.8922537352
 30
0.0
 11
6148.9067306094
 21
5539.8922498271
 31
0.0
  0
LINE
  5
9C
330
1F
100
AcDbEntity
  8
0
  6
Continuous
 62
     7
370
    25
100
AcDbLine
 10
6148.616178835
 20
5539.8922478656
 30
0.0
 11
6148.6979931744
 21
5539.8922537352
 31
0.0
  0
LINE
  5
9D
330
1F
100
AcDbEntity
  8
0
  6
Continuous
 62
     7
370
    25
100
AcDbLine
 10
6148.6055536257
 20
5539.8925886698
 30
0.0
 11
6148.616178835
 21
5539.8922478656
 31
0.0
  0
ARC
  5
9E
330
1F
100
AcDbEntity
  8
0
  6
Continuous
 62
     7
370
    25
100
AcDbCircle
 10
6173.6477814056
 20
5486.0187348841
 30
0.0
 40
59.40963973880529
100
AcDbArc
 50
114.9304572809
 51
141.4891129621
  0
LWPOLYLINE
  5
9F
330
1F
100
AcDbEntity
  8
0
  6
Continuous
 62
     7
370
    25
100
AcDbPolyline
 90
        3
 70
   128
 43
0.0
 10
6379.0595995405
 20
5545.2919087547
 10
6379.551658998
 20
5545.2485962925
 10
6379.5604752966
 20
5545.2478183681
  0
LINE
  5
A0
330
1F
100
AcDbEntity
  8
0
  6
Continuous
 62
     7
370
    25
100
AcDbLine
 10
6421.0213769426
 20
5520.8794109425
 30
0.0
 11
6420.7885686825
 21
5522.5316251708
 31
0.0
  0
LWPOLYLINE
  5
A1
330
1F
100
AcDbEntity
  8
0
  6
Continuous
 62
     7
370
    25
100
AcDbPolyline
 90
        3
 70
   128
 43
0.0
 10
6420.7885686825
 20
5522.5316251708
 10
6420.7769356886
 20
5522.6145624961
 10
6420.6960760931
 20
5523.1875621312
  0
LINE
  5
A2
330
1F
100
AcDbEntity
  8
0
  6
Continuous
 62
     7
370
    25
100
AcDbLine
 10
6420.6960760931
 20
5523.1875621312
 30
0.0
 11
6420.661459085
 21
5523.4337723807
 31
0.0
  0
LINE
  5
A3
330
1F
100
AcDbEntity
  8
0
  6
Continuous
 62
     7
370
    25
100
AcDbLine
 10
6420.661459085
 20
5523.4337723807
 30
0.0
 11
6420.6568113033
 21
5523.4696090871
 31
0.0
  0
ARC
  5
A4
330
1F
100
AcDbEntity
  8
0
  6
Continuous
 62
     7
370
    25
100
AcDbCircle
 10
6374.5620589861
 20
5486.0580962156
 30
0.0
 40
59.36621502607943
100
AcDbArc
 50
39.0635424358
 51
65.0695981968
  0
LINE
  5
A5
330
1F
100
AcDbEntity
  8
0
  6
Continuous
 62
     7
370
    25
100
AcDbLine
 10
6399.5737145552
 20
5539.8922475144
 30
0.0
 11
6399.5859303456
 21
5539.8925958297
 31
0.0
  0
LINE
  5
A6
330
1F
100
AcDbEntity
  8
0
  6
Continuous
 62
     7
370
    25
100
AcDbLine
 10
6399.4842791749
 20
5539.8922488816
 30
0.0
 11
6399.5737145552
 21
5539.8922475144
 31
0.0
  0
LINE
  5
A7
330
1F
100
AcDbEntity
  8
0
  6
Continuous
 62
     7
370
    25
100
AcDbLine
 10
6399.0065900256
 20
5539.8929107768
 30
0.0
 11
6399.4842791749
 21
5539.8922488816
 31
0.0
  0
LINE
  5
A8
330
1F
100
AcDbEntity
  8
0
  6
Continuous
 62
     7
370
    25
100
AcDbLine
 10
6129.4250597184
 20
5484.8922471309
 30
0.0
 11
6418.6398461828
 21
5484.8922471309
 31
0.0
  0
LINE
  5
A9
330
1F
100
AcDbEntity
  8
0
  6
Continuous
 62
     7
370
    25
100
AcDbLine
 10
6134.0582498703
 20
5484.8922471309
 30
0.0
 11
6134.0046574808
 21
5483.4978931227
 31
0.0
  0
LINE
  5
AA
330
1F
100
AcDbEntity
  8
0
  6
Continuous
 62
     7
370
    25
100
AcDbLine
 10
6414.1807496036
 20
5483.4894209762
 30
0.0
 11
6414.1275248292
 21
5484.8922471309
 31
0.0
  0
LWPOLYLINE
  5
AB
330
1F
100
AcDbEntity
  8
0
  6
Continuous
 62
     8
370
    25
100
AcDbPolyline
 90
        6
 70
   128
 43
0.0
 10
6119.4826193412
 20
5483.7629753298
 10
6118.8063086187
 20
5484.0289032236
 10
6116.3427942999
 20
5485.1545858794
 10
6114.7700923292
 20
5486.1525175077
 10
6114.0033127371
 20
5487.0123167418
 10
6113.9808164266
 20
5487.4115204217
  0
LWPOLYLINE
  5
AC
330
1F
100
AcDbEntity
  8
0
  6
Continuous
 62
     8
370
    25
100
AcDbPolyline
 90
        5
 70
   128
 43
0.0
 10
6434.2179567729
 20
5487.4294338339
 10
6434.160431685
 20
5486.9604332356
 10
6433.2459407338
 20
5486.0468205453
 10
6431.4089482662
 20
5484.9757462653
 10
6428.554891331
 20
5483.7647777859
  0
LINE
  5
AD
330
1F
100
AcDbEntity
  8
0
  6
Continuous
 62
     8
370
    25
100
AcDbLine
 10
6134.0046574808
 20
5483.4978931227
 30
0.0
 11
6133.8886038244
 21
5464.7664807888
 31
0.0
  0
LINE
  5
AE
330
1F
100
AcDbEntity
  8
0
  6
Continuous
 62
     8
370
    25
100
AcDbLine
 10
6414.2784682347
 20
5465.3380409542
 30
0.0
 11
6414.1807496036
 21
5483.4894209762
 31
0.0
  0
ARC
  5
AF
330
1F
100
AcDbEntity
  8
0
  6
Continuous
 62
     8
370
    25
100
AcDbCircle
 10
6134.4802564014
 20
5514.1180793475
 30
0.0
 40
30.62387955130341
100
AcDbArc
 50
260.5849028388
 51
269.110141928
  0
ARC
  5
B0
330
1F
100
AcDbEntity
  8
0
  6
Continuous
 62
     8
370
    25
100
AcDbCircle
 10
6413.7149638962
 20
5514.2399504822
 30
0.0
 40
30.75405698803879
100
AcDbArc
 50
270.8678066636
 51
279.061297443
  0
LWPOLYLINE
  5
B1
330
1F
100
AcDbEntity
  8
0
  6
Continuous
 62
     7
370
    25
100
AcDbPolyline
 90
        3
 70
   128
 43
0.0
 10
6767.9234386682
 20
4904.8922471309
 10
6921.6904855754
 20
5198.7581546577
 10
6992.928792562
 20
5334.9024708867
  0
LINE
  5
B2
330
1F
100
AcDbEntity
  8
0
  6
Continuous
 62
     7
370
    25
100
AcDbLine
 10
6732.9234384925
 20
5549.8922471309
 30
0.0
 11
6642.9234384925
 21
5549.8922471309
 31
0.0
  0
CIRCLE
  5
B3
330
1F
100
AcDbEntity
  8
0
  6
Continuous
 62
     7
370
    25
100
AcDbCircle
 10
6704.9234384925
 20
5329.8922471309
 30
0.0
 40
10.00000000000091
  0
LINE
  5
B4
330
1F
100
AcDbEntity
  8
0
  6
Continuous
 62
     7
370
    25
100
AcDbLine
 10
6642.9234384925
 20
4904.8922471309
 30
0.0
 11
6767.9234384925
 21
4904.8922471309
 31
0.0
  0
LINE
  5
B5
330
1F
100
AcDbEntity
  8
0
  6
Continuous
 62
     7
370
    25
100
AcDbLine
 10
6642.9234384925
 20
4904.8922471309
 30
0.0
 11
6642.9234384925
 21
5488.3807061091
 31
0.0
  0
LWPOLYLINE
  5
B6
330
1F
100
AcDbEntity
  8
0
  6
Continuous
 62
     7
370
    25
100
AcDbPolyline
 90
        9
 70
   128
 43
0.0
 10
6812.8937206706
 20
5483.7629753298
 10
6806.7319449927
 20
5484.0289032236
 10
6778.8934242901
 20
5485.1545858794
 10
6750.9845790209
 20
5486.1525175077
 10
6722.9358226241
 20
5487.0123167418
 10
6694.8712662286
 20
5487.7053300577
 10
6668.8993236727
 20
5488.1674064279
 10
6655.9129056484
 20
5488.3189020069
 10
6642.9234384925
 20
5488.3807061091
  0
LINE
  5
B7
330
1F
100
AcDbEntity
  8
0
  6
Continuous
 62
     7
370
    25
100
AcDbLine
 10
6812.8937206706
 20
5483.7629753298
 30
0.0
 11
6992.8805456916
 21
5334.9277161778
 31
0.0
  0
LINE
  5
B8
330
1F
100
AcDbEntity
  8
0
  6
Continuous
 62
     7
370
    25
100
AcDbLine
 10
6722.6692722301
 20
5523.0109391418
 30
0.0
 11
6724.2666591961
 21
5522.9755276803
 31
0.0
  0
LINE
  5
B9
330
1F
100
AcDbEntity
  8
0
  6
Continuous
 62
     7
370
    25
100
AcDbLine
 10
6724.2666591961
 20
5522.9755276803
 30
0.0
 11
6732.6063307001
 21
5522.7343082864
 31
0.0
  0
LWPOLYLINE
  5
BA
330
1F
100
AcDbEntity
  8
0
  6
Continuous
 62
     7
370
    25
100
AcDbPolyline
 90
        3
 70
   128
 43
0.0
 10
6732.6063307001
 20
5522.7343082864
 10
6745.6468576774
 20
5522.1457511541
 10
6748.0065570151
 20
5522.0093156835
  0
LINE
  5
BB
330
1F
100
AcDbEntity
  8
0
  6
Continuous
 62
     7
370
    25
100
AcDbLine
 10
6748.0065570151
 20
5522.0093156835
 30
0.0
 11
6768.6421020719
 21
5520.3558282473
 31
0.0
  0
LWPOLYLINE
  5
BC
330
1F
100
AcDbEntity
  8
0
  6
Continuous
 62
     7
370
    25
100
AcDbPolyline
 90
        6
 70
   128
 43
0.0
 10
6642.9234384925
 20
5545.3558034959
 10
6656.0572203722
 20
5545.3355101255
 10
6669.1882495692
 20
5545.29859565
 10
6695.4530606459
 20
5545.2512372418
 10
6716.9679348177
 20
5545.2507208423
 10
6738.4876081632
 20
5545.2911068263
  0
LINE
  5
BD
330
1F
100
AcDbEntity
  8
0
  6
Continuous
 62
     7
370
    25
100
AcDbLine
 10
6744.0543437157
 20
5539.8922471555
 30
0.0
 11
6745.0164741597
 21
5539.8928625178
 31
0.0
  0
LINE
  5
BE
330
1F
100
AcDbEntity
  8
0
  6
Continuous
 62
     7
370
    25
100
AcDbLine
 10
6735.8253533972
 20
5539.8922498271
 30
0.0
 11
6744.0543437157
 21
5539.8922471555
 31
0.0
  0
LINE
  5
BF
330
1F
100
AcDbEntity
  8
0
  6
Continuous
 62
     7
370
    25
100
AcDbLine
 10
6724.1283627149
 20
5539.8922537352
 30
0.0
 11
6735.8253533972
 21
5539.8922498271
 31
0.0
  0
LINE
  5
C0
330
1F
100
AcDbEntity
  8
0
  6
Continuous
 62
     7
370
    25
100
AcDbLine
 10
6715.9754383525
 20
5539.8922478656
 30
0.0
 11
6724.1283627149
 21
5539.8922537352
 31
0.0
  0
LINE
  5
C1
330
1F
100
AcDbEntity
  8
0
  6
Continuous
 62
     7
370
    25
100
AcDbLine
 10
6714.3325389391
 20
5539.8925886698
 30
0.0
 11
6715.9754383525
 21
5539.8922478656
 31
0.0
  0
LWPOLYLINE
  5
C2
330
1F
100
AcDbEntity
  8
0
  6
Continuous
 62
     7
370
    25
100
AcDbPolyline
 90
        5
 70
   128
 43
0.0
 10
6714.3325389392
 20
5539.8925886695
 10
6716.0036676553
 20
5536.5083943885
 10
6717.95137161
 20
5532.5641336962
 10
6720.1776684346
 20
5528.0560343814
 10
6722.6692722301
 20
5523.0109391418
  0
LINE
  5
C3
330
1F
100
AcDbEntity
  8
0
  6
Continuous
 62
     7
370
    25
100
AcDbLine
 10
6642.9234384925
 20
5488.3807061091
 30
0.0
 11
6642.9234384925
 21
5545.3558034959
 31
0.0
  0
LINE
  5
C4
330
1F
100
AcDbEntity
  8
0
  6
Continuous
 62
     7
370
    25
100
AcDbLine
 10
6768.6420834968
 20
5520.3556753004
 30
0.0
 11
6812.8937206706
 21
5483.7629753298
 31
0.0
  0
LINE
  5
C5
330
1F
100
AcDbEntity
  8
0
  6
Continuous
 62
     7
370
    25
100
AcDbLine
 10
6738.4876081632
 20
5545.2911068263
 30
0.0
 11
6745.0164617483
 21
5539.8922471309
 31
0.0
  0
LINE
  5
C6
330
1F
100
AcDbEntity
  8
0
  6
Continuous
 62
     7
370
    25
100
AcDbLine
 10
6768.6420987331
 20
5520.3556627012
 30
0.0
 11
6745.0164617483
 21
5539.8922471309
 31
0.0
  0
LINE
  5
C7
330
1F
100
AcDbEntity
  8
0
  6
Continuous
 62
     7
370
    25
100
AcDbLine
 10
6642.9234384925
 20
5549.8922471309
 30
0.0
 11
6642.9234384925
 21
5545.3558034959
 31
0.0
  0
LINE
  5
C8
330
1F
100
AcDbEntity
  8
0
  6
Continuous
 62
     7
370
    25
100
AcDbLine
 10
6732.9234384925
 20
5549.8922471309
 30
0.0
 11
6738.4876081632
 21
5545.2911068263
 31
0.0
  0
LWPOLYLINE
  5
C9
330
1F
100
AcDbEntity
  8
0
  6
Continuous
 62
     7
370
    25
100
AcDbPolyline
 90
        4
 70
   128
 43
0.0
 10
6116.0560820284
 20
4547.1333585566
 10
6117.1699037167
 20
4532.027734027
 10
6118.7318424453
 20
4515.3335233766
 10
6119.1847095294
 20
4511.362121011
  0
LWPOLYLINE
  5
CA
330
1F
100
AcDbEntity
  8
0
  6
Continuous
 62
     7
370
    25
100
AcDbPolyline
 90
        4
 70
   128
 43
0.0
 10
6428.9222234282
 20
4511.3604353736
 10
6429.6581742791
 20
4517.9197713638
 10
6431.094352291
 20
4533.3959115298
 10
6432.2148866549
 20
4548.5277035307
  0
LWPOLYLINE
  5
CB
330
1F
100
AcDbEntity
  8
0
  6
Continuous
 62
     7
370
    25
100
AcDbPolyline
 90
       28
 70
   128
 43
0.0
 10
6432.5435683561
 20
4554.582614496
 10
6432.7685757889
 20
4558.4008708399
 10
6432.9828135845
 20
4562.1379020048
 10
6433.1596878951
 20
4565.3002137596
 10
6433.305513736
 20
4567.971336982
 10
6433.4363340296
 20
4570.4288627385
 10
6433.6166952605
 20
4573.9155332566
 10
6433.7818777226
 20
4577.22093802
 10
6433.952298693
 20
4580.7657878662
 10
6434.2622529437
 20
4587.6503190611
 10
6434.5654472606
 20
4595.1386085119
 10
6434.843838611
 20
4603.0493070279
 10
6435.0506627902
 20
4610.0275719759
 10
6435.2203001855
 20
4617.0975538259
 10
6435.3506943481
 20
4624.4041102556
 10
6435.4360653164
 20
4632.0830316806
 10
6435.4515456141
 20
4634.5087842304
 10
6435.4606897276
 20
4636.7043677121
 10
6435.4649311425
 20
4638.6715064319
 10
6435.4655650929
 20
4640.4117456643
 10
6435.4636059236
 20
4641.9890723602
 10
6435.4564153674
 20
4644.2837976509
 10
6435.4371135279
 20
4647.5758812123
 10
6435.3963501429
 20
4651.8592636818
 10
6435.3231813253
 20
4657.1265704884
 10
6435.2078156654
 20
4663.3692447443
 10
6435.050804705
 20
4670.577940354
 10
6434.9236334386
 20
4678.7435134904
  0
LWPOLYLINE
  5
CC
330
1F
100
AcDbEntity
  8
0
  6
Continuous
 62
     7
370
    25
100
AcDbPolyline
 90
       30
 70
   128
 43
0.0
 10
6113.2465338288
 20
4678.7435134904
 10
6113.1351158884
 20
4670.5482976371
 10
6112.9914345725
 20
4663.3366118872
 10
6112.8837533425
 20
4657.1180988469
 10
6112.8147994313
 20
4651.9021862609
 10
6112.7759693446
 20
4647.6974342493
 10
6112.7571818166
 20
4644.5111523716
 10
6112.7488956577
 20
4641.955557945
 10
6112.7466716014
 20
4640.0669306037
 10
6112.7483633605
 20
4637.8022069787
 10
6112.7563690103
 20
4635.1567343317
 10
6112.7735004329
 20
4632.1253719588
 10
6112.802890592
 20
4628.706267869
 10
6112.8443870663
 20
4625.1644651383
 10
6112.8962468399
 20
4621.6618874108
 10
6113.1198496951
 20
4610.9143444528
 10
6113.420863137
 20
4600.5734452164
 10
6113.6534176767
 20
4593.974506299
 10
6113.881245797
 20
4588.1904010576
 10
6114.0919889379
 20
4583.2609367845
 10
6114.2817899046
 20
4579.083879852
 10
6114.4797029951
 20
4574.9402256206
 10
6114.5723236766
 20
4573.0643743151
 10
6114.6742934314
 20
4571.0386688696
 10
6114.7867618477
 20
4568.8495541469
 10
6114.9104012052
 20
4566.4967139729
 10
6115.0537094442
 20
4563.8327614316
 10
6115.2218467055
 20
4560.7759055243
 10
6115.4191804828
 20
4557.2717875561
 10
6115.5855864016
 20
4554.3919568712
  0
LWPOLYLINE
  5
CD
330
1F
100
AcDbEntity
  8
0
  6
Continuous
 62
     7
370
    25
100
AcDbPolyline
 90
        6
 70
   128
 43
0.0
 10
6169.840729335
 20
4678.7435134904
 10
6169.608441899
 20
4665.6097316107
 10
6169.1867427495
 20
4652.4787024137
 10
6168.6484450251
 20
4626.213891337
 10
6168.6425906505
 20
4604.6990171652
 10
6169.1014361499
 20
4583.1793438197
  0
LINE
  5
CE
330
1F
100
AcDbEntity
  8
0
  6
Continuous
 62
     7
370
    25
100
AcDbLine
 10
6378.3294379324
 20
4678.7435134904
 30
0.0
 11
6169.840729335
 21
4678.7435134904
 31
0.0
  0
LWPOLYLINE
  5
CF
330
1F
100
AcDbEntity
  8
0
  6
Continuous
 62
     7
370
    25
100
AcDbPolyline
 90
        6
 70
   128
 43
0.0
 10
6379.0595995405
 20
4583.1803135936
 10
6379.551658998
 20
4604.7020644805
 10
6379.5678779787
 20
4626.2403706986
 10
6379.0289279668
 20
4652.4927180644
 10
6378.5814940502
 20
4665.6166506214
 10
6378.3294379324
 20
4678.7435134904
  0
ELLIPSE
  5
D0
330
1F
100
AcDbEntity
  8
0
  6
Continuous
 62
     7
370
    25
100
AcDbEllipse
 10
6274.0850836337
 20
3137.5807227928
 30
0.0
 11
0.0
 21
1451.162790697675
 31
0.0
210
0.0
220
0.0
230
1.0
 40
0.8269230769
 41
6.195594585580925
 42
6.370783667713126
  0
ARC
  5
D1
330
1F
100
AcDbEntity
  8
0
  6
Continuous
 62
     7
370
    25
100
AcDbCircle
 10
6357.039064726
 20
4519.8448535555
 30
0.0
 40
72.36743751786068
100
AcDbArc
 50
351.2014023727
 51
27.8560185565
  0
LWPOLYLINE
  5
D2
330
1F
100
AcDbEntity
  8
0
  6
Continuous
 62
     7
370
    25
100
AcDbPolyline
 90
       44
 70
   128
 43
0.0
 10
6119.4826193412
 20
4508.7732313123
 10
6122.6364846236
 20
4490.4491651264
 10
6126.9393282097
 20
4472.2548758739
 10
6132.4877119255
 20
4454.2770903323
 10
6137.6958019058
 20
4440.573201045
 10
6143.7629378351
 20
4427.0817654797
 10
6149.6172874969
 20
4415.85348534
 10
6156.1720264964
 20
4404.8505819363
 10
6163.4638213875
 20
4394.137203139
 10
6169.9932268904
 20
4385.6489335686
 10
6177.1161972977
 20
4377.3912077139
 10
6184.8466774878
 20
4369.4520404568
 10
6193.1986123387
 20
4361.9194466794
 10
6202.1859467286
 20
4354.8814412637
 10
6211.8226255356
 20
4348.4260390918
 10
6220.9604371588
 20
4343.2440693158
 10
6230.636793078
 20
4338.6535988263
 10
6240.7822122479
 20
4334.7529569299
 10
6249.4578279164
 20
4332.1369578938
 10
6258.4337621558
 20
4330.167887009
 10
6267.6051498575
 20
4328.9997828857
 10
6274.6576026544
 20
4328.7686756514
 10
6281.7384749501
 20
4329.1237562049
 10
6288.7529365374
 20
4330.0071580875
 10
6295.6061572096
 20
4331.3610148403
 10
6304.3701813897
 20
4333.7510779073
 10
6312.8601845889
 20
4336.729543179
 10
6321.0297343936
 20
4340.2164468926
 10
6328.8323983903
 20
4344.131825285
 10
6339.4979904108
 20
4350.4915962244
 10
6349.4283942574
 20
4357.5760096202
 10
6358.6175390155
 20
4365.2498798248
 10
6367.0593537703
 20
4373.3780211907
 10
6375.4993001649
 20
4382.6832307167
 10
6383.2071668981
 20
4392.3888129307
 10
6390.2157285331
 20
4402.4308568592
 10
6396.5577596331
 20
4412.7454515287
 10
6402.2660347614
 20
4423.2686859657
 10
6407.3733284811
 20
4433.9366491965
 10
6413.389192671
 20
4448.5482783469
 10
6418.4606562837
 20
4463.3940204412
 10
6422.6423440864
 20
4478.4178241433
 10
6425.9888808464
 20
4493.5636381172
 10
6428.554891331
 20
4508.7754110267
  0
ARC
  5
D3
330
1F
100
AcDbEntity
  8
0
  6
Continuous
 62
     7
370
    25
100
AcDbCircle
 10
6191.4280563234
 20
4519.6707076685
 30
0.0
 40
72.76606965812368
100
AcDbArc
 50
152.7176890813
 51
188.613042172
  0
ARC
  5
D4
330
1F
100
AcDbEntity
  8
0
  6
Continuous
 62
     7
370
    25
100
AcDbCircle
 10
6177.0718991434
 20
4527.7601213751
 30
0.0
 40
56.302216726461
100
AcDbArc
 50
119.7318431342
 51
153.337497572
  0
ARC
  5
D5
330
1F
100
AcDbEntity
  8
0
  6
Continuous
 62
     7
370
    25
100
AcDbCircle
 10
6174.5673937801
 20
4532.72418914
 30
0.0
 40
50.7503628220912
100
AcDbArc
 50
96.1829105686
 51
120.0559550655
  0
ARC
  5
D6
330
1F
100
AcDbEntity
  8
0
  6
Continuous
 62
     7
370
    25
100
AcDbCircle
 10
6373.6099695072
 20
4532.8036655276
 30
0.0
 40
50.67055493932082
100
AcDbArc
 50
59.9189757408
 51
83.8258835498
  0
ARC
  5
D7
330
1F
100
AcDbEntity
  8
0
  6
Continuous
 62
     7
370
    25
100
AcDbCircle
 10
6371.6473889676
 20
4528.4204415453
 30
0.0
 40
55.45032574248214
100
AcDbArc
 50
27.0746514885
 51
60.4340565534
  0
LWPOLYLINE
  5
D8
330
1F
100
AcDbEntity
  8
0
  6
Continuous
 62
     7
370
    25
100
AcDbPolyline
 90
       43
 70
   128
 43
0.0
 10
6129.494592776
 20
4509.1787653346
 10
6132.139069854
 20
4493.5826672898
 10
6135.626717204
 20
4478.0695841603
 10
6140.0212417319
 20
4462.6990416958
 10
6145.3863503434
 20
4447.5305656461
 10
6150.6379534679
 20
4435.1048901433
 10
6156.6629716286
 20
4422.8822238165
 10
6163.5053806256
 20
4410.928712191
 10
6169.3905194955
 20
4401.9052445972
 10
6175.8431502674
 20
4393.099370176
 10
6182.8929734877
 20
4384.5759480246
 10
6190.5696897028
 20
4376.3998372399
 10
6198.6019807139
 20
4368.9098507521
 10
6207.3144699895
 20
4361.8715910115
 10
6216.7129449578
 20
4355.405721096
 10
6224.2906718121
 20
4350.9616821732
 10
6232.2942341936
 20
4346.9441735383
 10
6240.6776915238
 20
4343.4320401267
 10
6249.3951032243
 20
4340.5041268737
 10
6256.5017459919
 20
4338.6692871508
 10
6263.8121947508
 20
4337.3531661033
 10
6271.2391008927
 20
4336.6811103064
 10
6278.7865956964
 20
4336.7873903558
 10
6286.2921182209
 20
4337.6413078302
 10
6293.6168993469
 20
4339.1125446737
 10
6301.6492500778
 20
4341.3745713062
 10
6309.4232503202
 20
4344.1737502472
 10
6316.8993047379
 20
4347.4349548425
 10
6324.0378179946
 20
4351.0830584376
 10
6334.0378795997
 20
4357.1450115227
 10
6343.3368407986
 20
4363.8863834459
 10
6351.935881488
 20
4371.1768001703
 10
6359.8361815645
 20
4378.8858876588
 10
6369.460116743
 20
4389.7733758398
 10
6378.0711309296
 20
4401.1949022107
 10
6385.7276153466
 20
4413.0436747558
 10
6392.4879612162
 20
4425.2129014594
 10
6398.4105597605
 20
4437.5957903058
 10
6404.0996765474
 20
4451.5833641822
 10
6408.9058883654
 20
4465.7871076481
 10
6412.8806687253
 20
4480.1556975298
 10
6416.075491138
 20
4494.6378106532
 10
6418.5418291146
 20
4509.1821238448
  0
ARC
  5
D9
330
1F
100
AcDbEntity
  8
0
  6
Continuous
 62
     7
370
    25
100
AcDbCircle
 10
6355.5471388816
 20
4518.5548429575
 30
0.0
 40
63.68813752274716
100
AcDbArc
 50
351.5372808471
 51
12.0670962367
  0
LWPOLYLINE
  5
DA
330
1F
100
AcDbEntity
  8
0
  6
Continuous
 62
     7
370
    25
100
AcDbPolyline
 90
       32
 70
   128
 43
0.0
 10
6130.3565399205
 20
4532.3420588544
 10
6137.2906021094
 20
4540.0246654902
 10
6143.8614751245
 20
4547.9025474418
 10
6147.4477941801
 20
4552.1003310902
 10
6151.2410938296
 20
4556.188608266
 10
6155.3785630486
 20
4560.0616915234
 10
6159.5840691378
 20
4563.2869004541
 10
6164.336128827
 20
4566.0046739667
 10
6167.9070492316
 20
4567.3646494559
 10
6171.7089462998
 20
4568.3531111264
 10
6175.592445127
 20
4569.133096996
 10
6192.3838839917
 20
4571.8416365345
 10
6209.369739898
 20
4573.7962839027
 10
6226.4472618908
 20
4575.15856574
 10
6252.0632530802
 20
4576.3485116175
 10
6277.7251546762
 20
4576.6421139641
 10
6294.8298548313
 20
4576.382550992
 10
6311.920116023
 20
4575.7299881968
 10
6328.9672345856
 20
4574.6390585818
 10
6345.1656690116
 20
4573.1294639792
 10
6361.2528450477
 20
4571.0417344854
 10
6367.2698865001
 20
4570.1434355511
 10
6373.2509803949
 20
4569.1179484716
 10
6379.0969238552
 20
4567.7467841185
 10
6383.7299997052
 20
4566.0011669326
 10
6387.9051632618
 20
4563.6502320665
 10
6393.336956075
 20
4559.461907211
 10
6398.0887485914
 20
4554.7628208148
 10
6402.4098039372
 20
4549.8227718153
 10
6407.4132149198
 20
4543.7653014508
 10
6412.4616075623
 20
4537.73055765
 10
6417.8279886113
 20
4531.869294432
  0
ARC
  5
DB
330
1F
100
AcDbEntity
  8
0
  6
Continuous
 62
     7
370
    25
100
AcDbCircle
 10
6192.2051876947
 20
4518.4428771665
 30
0.0
 40
63.39118616251746
100
AcDbArc
 50
167.3343990506
 51
188.4034128232
  0
LINE
  5
DC
330
1F
100
AcDbEntity
  8
0
  6
Continuous
 62
     7
370
    25
100
AcDbLine
 10
6127.1603409721
 20
4598.9976797529
 30
0.0
 11
6127.155346674
 21
4597.4002927868
 31
0.0
  0
LINE
  5
DD
330
1F
100
AcDbEntity
  8
0
  6
Continuous
 62
     7
370
    25
100
AcDbLine
 10
6127.155346674
 20
4597.4002927868
 30
0.0
 11
6127.1186776033
 21
4589.0606212829
 31
0.0
  0
LWPOLYLINE
  5
DE
330
1F
100
AcDbEntity
  8
0
  6
Continuous
 62
     7
370
    25
100
AcDbPolyline
 90
        3
 70
   128
 43
0.0
 10
6127.1186776033
 20
4589.0606212829
 10
6127.0289384299
 20
4576.0200943055
 10
6127.0082458142
 20
4573.6603949678
  0
LINE
  5
DF
330
1F
100
AcDbEntity
  8
0
  6
Continuous
 62
     7
370
    25
100
AcDbLine
 10
6127.0082458142
 20
4573.6603949678
 30
0.0
 11
6126.756426959
 21
4553.024849911
 31
0.0
  0
LINE
  5
E0
330
1F
100
AcDbEntity
  8
0
  6
Continuous
 62
     7
370
    25
100
AcDbLine
 10
6116.0962841906
 20
4547.1480453232
 30
0.0
 11
6115.1310589431
 21
4564.2767337743
 31
0.0
  0
LINE
  5
E1
330
1F
100
AcDbEntity
  8
0
  6
Continuous
 62
     7
370
    25
100
AcDbLine
 10
6149.1205848117
 20
4577.6126082672
 30
0.0
 11
6149.1487916979
 21
4576.6504778232
 31
0.0
  0
LINE
  5
E2
330
1F
100
AcDbEntity
  8
0
  6
Continuous
 62
     7
370
    25
100
AcDbLine
 10
6148.9067306094
 20
4585.8415985857
 30
0.0
 11
6149.1205848117
 21
4577.6126082672
 31
0.0
  0
LINE
  5
E3
330
1F
100
AcDbEntity
  8
0
  6
Continuous
 62
     7
370
    25
100
AcDbLine
 10
6148.6979931744
 20
4597.538589268
 30
0.0
 11
6148.9067306094
 21
4585.8415985857
 31
0.0
  0
LINE
  5
E4
330
1F
100
AcDbEntity
  8
0
  6
Continuous
 62
     7
370
    25
100
AcDbLine
 10
6148.616178835
 20
4605.6915136304
 30
0.0
 11
6148.6979931744
 21
4597.538589268
 31
0.0
  0
LINE
  5
E5
330
1F
100
AcDbEntity
  8
0
  6
Continuous
 62
     7
370
    25
100
AcDbLine
 10
6148.6055536257
 20
4607.3344130439
 30
0.0
 11
6148.616178835
 21
4605.6915136304
 31
0.0
  0
ARC
  5
E6
330
1F
100
AcDbEntity
  8
0
  6
Continuous
 62
     7
370
    25
100
AcDbCircle
 10
6163.3259499985
 20
4537.7170768326
 30
0.0
 40
71.15661297812055
100
AcDbArc
 50
101.9391765386
 51
120.5475768132
  0
LINE
  5
E7
330
1F
100
AcDbEntity
  8
0
  6
Continuous
 62
     7
370
    25
100
AcDbLine
 10
6115.1182263457
 20
4678.7435134904
 30
0.0
 11
6169.840729335
 21
4678.7435134904
 31
0.0
  0
LINE
  5
E8
330
1F
100
AcDbEntity
  8
0
  6
Continuous
 62
     7
370
    25
100
AcDbLine
 10
6433.0318555649
 20
4564.34763369
 30
0.0
 11
6432.0497938936
 21
4548.549124885
 31
0.0
  0
LINE
  5
E9
330
1F
100
AcDbEntity
  8
0
  6
Continuous
 62
     7
370
    25
100
AcDbLine
 10
6421.0213769426
 20
4553.6580053694
 30
0.0
 11
6420.7885686825
 21
4575.0275736345
 31
0.0
  0
LWPOLYLINE
  5
EA
330
1F
100
AcDbEntity
  8
0
  6
Continuous
 62
     7
370
    25
100
AcDbPolyline
 90
        3
 70
   128
 43
0.0
 10
6420.7885686825
 20
4575.0275736345
 10
6420.7769356886
 20
4576.5031196827
 10
6420.6960760931
 20
4589.2620808666
  0
LINE
  5
EB
330
1F
100
AcDbEntity
  8
0
  6
Continuous
 62
     7
370
    25
100
AcDbLine
 10
6420.6960760931
 20
4589.2620808666
 30
0.0
 11
6420.661459085
 21
4597.6503674243
 31
0.0
  0
LINE
  5
EC
330
1F
100
AcDbEntity
  8
0
  6
Continuous
 62
     7
370
    25
100
AcDbLine
 10
6420.661459085
 20
4597.6503674243
 30
0.0
 11
6420.6568113033
 21
4599.2241793766
 31
0.0
  0
ARC
  5
ED
330
1F
100
AcDbEntity
  8
0
  6
Continuous
 62
     7
370
    25
100
AcDbCircle
 10
6384.6876002543
 20
4537.2008095968
 30
0.0
 40
71.69855327923996
100
AcDbArc
 50
59.8892693016
 51
78.0070563918
  0
LINE
  5
EE
330
1F
100
AcDbEntity
  8
0
  6
Continuous
 62
     7
370
    25
100
AcDbLine
 10
6399.5737145552
 20
4605.6932447581
 30
0.0
 11
6399.5859303456
 21
4607.3344128325
 31
0.0
  0
LINE
  5
EF
330
1F
100
AcDbEntity
  8
0
  6
Continuous
 62
     7
370
    25
100
AcDbLine
 10
6399.4842791749
 20
4597.607647404
 30
0.0
 11
6399.5737145552
 21
4605.6932447581
 31
0.0
  0
LINE
  5
F0
330
1F
100
AcDbEntity
  8
0
  6
Continuous
 62
     7
370
    25
100
AcDbLine
 10
6399.0065900256
 20
4576.6504767225
 30
0.0
 11
6399.4842791749
 21
4597.607647404
 31
0.0
  0
LINE
  5
F1
330
1F
100
AcDbEntity
  8
0
  6
Continuous
 62
     7
370
    25
100
AcDbLine
 10
6378.3294379324
 20
4678.7435134904
 30
0.0
 11
6433.0519409218
 21
4678.7435134904
 31
0.0
  0
ARC
  5
F2
330
1F
100
AcDbEntity
  8
0
  6
Continuous
 62
     7
370
    25
100
AcDbCircle
 10
6273.8051774958
 20
4248.2739412858
 30
0.0
 40
315.6689537075417
100
AcDbArc
 50
62.7536110881
 51
117.1490120667
  0
LWPOLYLINE
  5
F3
330
1F
100
AcDbEntity
  8
0
  6
Continuous
 62
     7
370
    25
100
AcDbPolyline
 90
       15
 70
   128
 43
0.0
 10
6325.6452716505
 20
4388.1418832038
 10
6318.1450565271
 20
4383.1170738842
 10
6310.2647367223
 20
4378.6819564004
 10
6301.9794292621
 20
4374.8828237134
 10
6295.4748900852
 20
4372.5017143888
 10
6288.6884924041
 20
4370.6054003889
 10
6281.5972036776
 20
4369.3176627516
 10
6274.2268384977
 20
4368.8259153922
 10
6266.8499580262
 20
4369.2915344562
 10
6259.7509327252
 20
4370.5587981979
 10
6252.9562423061
 20
4372.4369991515
 10
6246.4423322312
 20
4374.8001965182
 10
6238.1413320124
 20
4378.5734594889
 10
6230.240520892
 20
4382.9794218693
 10
6222.7167293074
 20
4387.9729361882
  0
LINE
  5
F4
330
1F
100
AcDbEntity
  8
0
  6
Continuous
 62
     7
370
    25
100
AcDbLine
 10
6433.0519409218
 20
4678.7435134904
 30
0.0
 11
6434.7862530258
 21
4678.7435134904
 31
0.0
  0
LINE
  5
F5
330
1F
100
AcDbEntity
  8
0
  6
Continuous
 62
     7
370
    25
100
AcDbLine
 10
6113.3159553707
 20
4678.7435134904
 30
0.0
 11
6115.1182263457
 21
4678.7435134904
 31
0.0
  0
LINE
  5
F6
330
1F
100
AcDbEntity
  8
0
  6
Continuous
 62
     7
370
    25
100
AcDbLine
 10
6291.1947306923
 20
4563.2058073861
 30
0.0
 11
6291.2506610745
 21
4563.2115368746
 31
0.0
  0
LWPOLYLINE
  5
F7
330
1F
100
AcDbEntity
  8
0
  6
Continuous
 62
     7
370
    25
100
AcDbPolyline
 90
        3
 70
   128
 43
0.0
 10
6290.8541086728
 20
4563.2115368746
 10
6290.9899943055
 20
4563.2107764855
 10
6291.1947306923
 20
4563.2058073861
  0
LINE
  5
F8
330
1F
100
AcDbEntity
  8
0
  6
Continuous
 62
     7
370
    25
100
AcDbLine
 10
6290.8541086728
 20
4563.2115368746
 30
0.0
 11
6257.3160585947
 21
4563.2115368746
 31
0.0
  0
LWPOLYLINE
  5
F9
330
1F
100
AcDbEntity
  8
0
  6
Continuous
 62
     7
370
    25
100
AcDbPolyline
 90
        3
 70
   128
 43
0.0
 10
6256.9754365752
 20
4563.2058073861
 10
6257.099021173
 20
4563.2094659113
 10
6257.3160585947
 20
4563.2115368746
  0
LINE
  5
FA
330
1F
100
AcDbEntity
  8
0
  6
Continuous
 62
     7
370
    25
100
AcDbLine
 10
6256.9195061929
 20
4563.2115368746
 30
0.0
 11
6256.9754365752
 21
4563.2058073861
 31
0.0
  0
LINE
  5
FB
330
1F
100
AcDbEntity
  8
0
  6
Continuous
 62
     7
370
    25
100
AcDbLine
 10
6274.0013736876
 20
4467.8592271577
 30
0.0
 11
6222.7167293074
 21
4387.9729361882
 31
0.0
  0
LWPOLYLINE
  5
FC
330
1F
100
AcDbEntity
  8
0
  6
Continuous
 62
     7
370
    25
100
AcDbPolyline
 90
        3
 70
   128
 43
0.0
 10
6237.7069100448
 20
4553.869526425
 10
6240.8356791421
 20
4541.9607148481
 10
6240.9595347812
 20
4541.5201760197
  0
LWPOLYLINE
  5
FD
330
1F
100
AcDbEntity
  8
0
  6
Continuous
 62
     7
370
    25
100
AcDbPolyline
 90
        3
 70
   128
 43
0.0
 10
6244.8421424237
 20
4505.9358047366
 10
6242.6371467299
 20
4525.8129263404
 10
6240.9595347812
 20
4541.5201760197
  0
ARC
  5
FE
330
1F
100
AcDbEntity
  8
0
  6
Continuous
 62
     7
370
    25
100
AcDbCircle
 10
6277.0448947812
 20
4509.6072383276
 30
0.0
 40
32.41136658669042
100
AcDbArc
 50
186.5042038001
 51
215.4644870766
  0
ARC
  5
FF
330
1F
100
AcDbEntity
  8
0
  6
Continuous
 62
     7
370
    25
100
AcDbCircle
 10
6266.0306642509
 20
4501.720067657
 30
0.0
 40
18.86445509981544
100
AcDbArc
 50
215.3628354783
 51
264.6621938797
  0
LWPOLYLINE
  5
100
330
1F
100
AcDbEntity
  8
0
  6
Continuous
 62
     7
370
    25
100
AcDbPolyline
 90
        3
 70
   128
 43
0.0
 10
6264.2757495026
 20
4482.9374176725
 10
6268.9071642622
 20
4475.1962314542
 10
6274.0013736876
 20
4467.8592271577
  0
LWPOLYLINE
  5
101
330
1F
100
AcDbEntity
  8
0
  6
Continuous
 62
     7
370
    25
100
AcDbPolyline
 90
        3
 70
   128
 43
0.0
 10
6307.2765318528
 20
4542.2672961267
 10
6305.144198283
 20
4522.381241402
 10
6303.3130398237
 20
4505.9423503117
  0
LINE
  5
102
330
1F
100
AcDbEntity
  8
0
  6
Continuous
 62
     7
370
    25
100
AcDbLine
 10
6307.2765318528
 20
4542.2672961267
 30
0.0
 11
6310.341425439
 21
4553.869526425
 31
0.0
  0
LINE
  5
103
330
1F
100
AcDbEntity
  8
0
  6
Continuous
 62
     7
370
    25
100
AcDbLine
 10
6274.0013736876
 20
4467.8592271577
 30
0.0
 11
6325.6452716505
 21
4388.1418832038
 31
0.0
  0
LWPOLYLINE
  5
104
330
1F
100
AcDbEntity
  8
0
  6
Continuous
 62
     7
370
    25
100
AcDbPolyline
 90
        3
 70
   128
 43
0.0
 10
6274.0013736876
 20
4467.8592271577
 10
6279.0831639609
 20
4475.2128209953
 10
6283.6871845081
 20
4482.9265193708
  0
ARC
  5
105
330
1F
100
AcDbEntity
  8
0
  6
Continuous
 62
     7
370
    25
100
AcDbCircle
 10
6282.1297603372
 20
4501.7151447346
 30
0.0
 40
18.85306375924398
100
AcDbArc
 50
274.7385208658
 51
324.5745169552
  0
ARC
  5
106
330
1F
100
AcDbEntity
  8
0
  6
Continuous
 62
     7
370
    25
100
AcDbCircle
 10
6271.1069989124
 20
4509.6159687833
 30
0.0
 40
32.41488151851542
100
AcDbArc
 50
324.4881330656
 51
353.4926175617
  0
LWPOLYLINE
  5
107
330
1F
100
AcDbEntity
  8
0
  6
Continuous
 62
     7
370
    25
100
AcDbPolyline
 90
        7
 70
   128
 43
0.0
 10
6248.5920465886
 20
4552.4590641895
 10
6248.5890969591
 20
4552.5212252937
 10
6248.7559560717
 20
4555.081824343
 10
6249.8015463958
 20
4558.2264261945
 10
6251.6715739991
 20
4560.8061776704
 10
6254.1563625625
 20
4562.5309418998
 10
6256.9754365752
 20
4563.2058073861
  0
ARC
  5
108
330
1F
100
AcDbEntity
  8
0
  6
Continuous
 62
     7
370
    25
100
AcDbCircle
 10
6237.0254126305
 20
4508.6066228489
 30
0.0
 40
45.35221750533366
100
AcDbArc
 50
75.224038893
 51
86.4035894471
  0
ARC
  5
109
330
1F
100
AcDbEntity
  8
0
  6
Continuous
 62
     7
370
    25
100
AcDbCircle
 10
6311.8931300156
 20
4503.9789444558
 30
0.0
 40
50.019810718974
100
AcDbArc
 50
94.1194546458
 51
104.2529170141
  0
LWPOLYLINE
  5
10A
330
1F
100
AcDbEntity
  8
0
  6
Continuous
 62
     7
370
    25
100
AcDbPolyline
 90
        7
 70
   128
 43
0.0
 10
6299.5781206789
 20
4552.4590641895
 10
6299.5810703084
 20
4552.5212252937
 10
6299.4142111958
 20
4555.081824343
 10
6298.3686208716
 20
4558.2264261945
 10
6296.4985932683
 20
4560.8061776704
 10
6294.013804705
 20
4562.5309418998
 10
6291.1947306923
 20
4563.2058073861
  0
LINE
  5
10B
330
1F
100
AcDbEntity
  8
0
  6
Continuous
 62
     7
370
    25
100
AcDbLine
 10
6239.8702663196
 20
4553.869526425
 30
0.0
 11
6237.7069100448
 21
4553.869526425
 31
0.0
  0
LINE
  5
10C
330
1F
100
AcDbEntity
  8
0
  6
Continuous
 62
     7
370
    25
100
AcDbLine
 10
6310.341425439
 20
4553.869526425
 30
0.0
 11
6308.2999009479
 21
4553.869526425
 31
0.0
  0
ARC
  5
10D
330
1F
100
AcDbEntity
  8
0
  6
Continuous
 62
     7
370
    25
100
AcDbCircle
 10
6255.8191484604
 20
4406.5449068275
 30
0.0
 40
99.99522612959238
100
AcDbArc
 50
90.9936431993
 51
96.3023628174
  0
LWPOLYLINE
  5
10E
330
1F
100
AcDbEntity
  8
0
  6
Continuous
 62
     7
370
    25
100
AcDbPolyline
 90
        3
 70
   128
 43
0.0
 10
6254.0850836337
 20
4506.5250962047
 10
6254.898033861
 20
4502.3757158125
 10
6255.1608240603
 20
4501.5821443692
  0
LINE
  5
10F
330
1F
100
AcDbEntity
  8
0
  6
Continuous
 62
     7
370
    25
100
AcDbLine
 10
6257.5601198133
 20
4496.0388598569
 30
0.0
 11
6255.1608240603
 21
4501.5821443692
 31
0.0
  0
ARC
  5
110
330
1F
100
AcDbEntity
  8
0
  6
Continuous
 62
     7
370
    25
100
AcDbCircle
 10
6098.9683430883
 20
4698.2319154173
 30
0.0
 40
256.9696156389319
100
AcDbArc
 50
306.1752975451
 51
308.1091537631
  0
ARC
  5
111
330
1F
100
AcDbEntity
  8
0
  6
Continuous
 62
     7
370
    25
100
AcDbCircle
 10
6292.5603856979
 20
4409.0259451091
 30
0.0
 40
97.51107202847633
100
AcDbArc
 50
83.669055911
 51
89.1040779776
  0
ARC
  5
112
330
1F
100
AcDbEntity
  8
0
  6
Continuous
 62
     7
370
    25
100
AcDbCircle
 10
6445.4665487768
 20
4692.7968046269
 30
0.0
 40
250.4081237632762
100
AcDbArc
 50
231.7958355711
 51
233.7768780527
  0
LINE
  5
113
330
1F
100
AcDbEntity
  8
0
  6
Continuous
 62
     7
370
    25
100
AcDbLine
 10
6293.0016825563
 20
4501.5605685328
 30
0.0
 11
6290.5977602651
 21
4496.0231102682
 31
0.0
  0
LWPOLYLINE
  5
114
330
1F
100
AcDbEntity
  8
0
  6
Continuous
 62
     7
370
    25
100
AcDbPolyline
 90
        3
 70
   128
 43
0.0
 10
6293.0016825563
 20
4501.5605685328
 10
6293.2031489866
 20
4502.1563574863
 10
6294.0850836337
 20
4506.5250962047
  0
LINE
  5
115
330
1F
100
AcDbEntity
  8
0
  6
Continuous
 62
     7
370
    25
100
AcDbLine
 10
6283.6871845081
 20
4482.9265193708
 30
0.0
 11
6283.331672478
 21
4490.3706580625
 31
0.0
  0
ARC
  5
116
330
1F
100
AcDbEntity
  8
0
  6
Continuous
 62
     7
370
    25
100
AcDbCircle
 10
6279.1999057259
 20
4503.1783565863
 30
0.0
 40
13.45766093975661
100
AcDbArc
 50
287.879714021
 51
327.8805760911
  0
ARC
  5
117
330
1F
100
AcDbEntity
  8
0
  6
Continuous
 62
     7
370
    25
100
AcDbCircle
 10
6269.0231549152
 20
4503.2663161139
 30
0.0
 40
13.55128398693173
100
AcDbArc
 50
212.231476443
 51
251.4212198891
  0
LINE
  5
118
330
1F
100
AcDbEntity
  8
0
  6
Continuous
 62
     7
370
    25
100
AcDbLine
 10
6264.2757495026
 20
4482.9374176725
 30
0.0
 11
6264.7056037024
 21
4490.4212373201
 31
0.0
  0
LINE
  5
119
330
1F
100
AcDbEntity
  8
0
  6
Continuous
 62
     7
370
    25
100
AcDbLine
 10
6307.2765318528
 20
4542.2672961267
 30
0.0
 11
6297.3152065131
 21
4543.1459299959
 31
0.0
  0
LINE
  5
11A
330
1F
100
AcDbEntity
  8
0
  6
Continuous
 62
     7
370
    25
100
AcDbLine
 10
6297.3152065131
 20
4543.1459299959
 30
0.0
 11
6298.1255390106
 21
4552.3329030053
 31
0.0
  0
LINE
  5
11B
330
1F
100
AcDbEntity
  8
0
  6
Continuous
 62
     7
370
    25
100
AcDbLine
 10
6299.5781206789
 20
4552.4590641895
 30
0.0
 11
6298.1255390106
 21
4552.3329030053
 31
0.0
  0
LINE
  5
11C
330
1F
100
AcDbEntity
  8
0
  6
Continuous
 62
     7
370
    25
100
AcDbLine
 10
6308.2999009479
 20
4553.869526425
 30
0.0
 11
6307.2765318528
 21
4542.2672961267
 31
0.0
  0
LINE
  5
11D
330
1F
100
AcDbEntity
  8
0
  6
Continuous
 62
     7
370
    25
100
AcDbLine
 10
6240.9595347812
 20
4541.5201760197
 30
0.0
 11
6250.920860121
 21
4542.3988098889
 31
0.0
  0
LINE
  5
11E
330
1F
100
AcDbEntity
  8
0
  6
Continuous
 62
     7
370
    25
100
AcDbLine
 10
6240.9595347812
 20
4541.5201760197
 30
0.0
 11
6239.8702663196
 21
4553.869526425
 31
0.0
  0
LINE
  5
11F
330
1F
100
AcDbEntity
  8
0
  6
Continuous
 62
     7
370
    25
100
AcDbLine
 10
6250.0446282568
 20
4552.3329030053
 30
0.0
 11
6248.5920465886
 21
4552.4590641895
 31
0.0
  0
LINE
  5
120
330
1F
100
AcDbEntity
  8
0
  6
Continuous
 62
     7
370
    25
100
AcDbLine
 10
6250.0446282568
 20
4552.3329030053
 30
0.0
 11
6250.920860121
 21
4542.3988098889
 31
0.0
  0
ARC
  5
121
330
1F
100
AcDbEntity
  8
0
  6
Continuous
 62
     7
370
    25
100
AcDbCircle
 10
6288.1642136709
 20
4553.2115368746
 30
0.0
 40
10.00000000000091
100
AcDbArc
 50
354.9592988318
 51
90.0
  0
ARC
  5
122
330
1F
100
AcDbEntity
  8
0
  6
Continuous
 62
     7
370
    25
100
AcDbCircle
 10
6260.0059535965
 20
4553.2115368746
 30
0.0
 40
10.00000000000091
100
AcDbArc
 50
90.0
 51
185.0407011682
  0
LINE
  5
123
330
1F
100
AcDbEntity
  8
0
  6
Continuous
 62
     7
370
    25
100
AcDbLine
 10
6250.920860121
 20
4542.3988098889
 30
0.0
 11
6254.0850836337
 21
4506.5250962047
 31
0.0
  0
LINE
  5
124
330
1F
100
AcDbEntity
  8
0
  6
Continuous
 62
     7
370
    25
100
AcDbLine
 10
6294.0850836337
 20
4506.5250962047
 30
0.0
 11
6297.3152065131
 21
4543.1459299959
 31
0.0
  0
LWPOLYLINE
  5
125
330
1F
100
AcDbEntity
  8
0
  6
Continuous
 62
     7
370
    25
100
AcDbPolyline
 90
        7
 70
   128
 43
0.0
 10
6283.6871845081
 20
4482.9265193708
 10
6280.4743658604
 20
4483.0104085055
 10
6277.2753651386
 20
4483.3946935448
 10
6274.728657353
 20
4483.6361070456
 10
6272.1772485478
 20
4483.5599600455
 10
6266.9694057626
 20
4482.9446427141
 10
6264.2757495026
 20
4482.9374176725
  0
ARC
  5
126
330
1F
100
AcDbEntity
  8
0
  6
Continuous
 62
     7
370
    25
100
AcDbCircle
 10
6272.2806352838
 20
4510.1444482175
 30
0.0
 40
21.12785250712153
100
AcDbArc
 50
248.9898723776
 51
251.3950381599
  0
LWPOLYLINE
  5
127
330
1F
100
AcDbEntity
  8
0
  6
Continuous
 62
     7
370
    25
100
AcDbPolyline
 90
       13
 70
   128
 43
0.0
 10
6282.6301913153
 20
4490.1207207089
 10
6282.6095479374
 20
4490.1055047336
 10
6280.7430789134
 20
4488.8820169995
 10
6278.7777139291
 20
4487.9123194278
 10
6276.62091194
 20
4487.2124550353
 10
6275.7842456445
 20
4487.047815899
 10
6274.0850836337
 20
4486.9111126683
 10
6271.7522408553
 20
4487.1668361363
 10
6269.0898224469
 20
4488.0404873238
 10
6266.6110485234
 20
4489.3799349791
 10
6265.7908167948
 20
4489.938315607
 10
6265.56061933
 20
4490.1055047336
 10
6265.5399759522
 20
4490.1207207089
  0
ARC
  5
128
330
1F
100
AcDbEntity
  8
0
  6
Continuous
 62
     7
370
    25
100
AcDbCircle
 10
6275.849596138
 20
4510.2606956601
 30
0.0
 40
21.25076615071636
100
AcDbArc
 50
288.6070138569
 51
290.6148971476
  0
ARC
  5
129
330
1F
100
AcDbEntity
  8
0
  6
Continuous
 62
     7
370
    25
100
AcDbCircle
 10
6274.0850836337
 20
4519.0809908721
 30
0.0
 40
30.19463715986759
100
AcDbArc
 50
253.5606138328
 51
286.4393861672
  0
ELLIPSE
  5
12A
330
1F
100
AcDbEntity
  8
0
  6
Continuous
 62
     7
370
    25
100
AcDbEllipse
 10
6290.6556140908
 20
4524.5507365711
 30
0.0
 11
4.475596272858638
 21
2.548722259422902
 31
0.0
210
0.0
220
0.0
230
1.0
 40
0.9068578424
 41
0.9465980174977997
 42
1.010070873376514
  0
LINE
  5
12B
330
1F
100
AcDbEntity
  8
0
  6
Continuous
 62
     7
370
    25
100
AcDbLine
 10
6289.1044209639
 20
4503.3548183614
 30
0.0
 11
6291.3958766979
 21
4529.3337122646
 31
0.0
  0
ARC
  5
12C
330
1F
100
AcDbEntity
  8
0
  6
Continuous
 62
     7
370
    25
100
AcDbCircle
 10
6274.0850836337
 20
4504.6795917246
 30
0.0
 40
15.07764962784819
100
AcDbArc
 50
340.4195710188
 51
354.9592988318
  0
LINE
  5
12D
330
1F
100
AcDbEntity
  8
0
  6
Continuous
 62
     7
370
    25
100
AcDbLine
 10
6286.759334343
 20
4495.2182024649
 30
0.0
 11
6288.2908226516
 21
4499.626622572
 31
0.0
  0
ARC
  5
12E
330
1F
100
AcDbEntity
  8
0
  6
Continuous
 62
     7
370
    25
100
AcDbCircle
 10
6277.6170185979
 20
4498.4392545238
 30
0.0
 40
9.693147762693123
100
AcDbArc
 50
304.8351855181
 51
340.5914448445
  0
LWPOLYLINE
  5
12F
330
1F
100
AcDbEntity
  8
0
  6
Continuous
 62
     7
370
    25
100
AcDbPolyline
 90
        3
 70
   128
 43
0.0
 10
6282.6301913153
 20
4490.1207207089
 10
6282.6488899797
 20
4490.1330257793
 10
6283.1539164628
 20
4490.4831326304
  0
ARC
  5
130
330
1F
100
AcDbEntity
  8
0
  6
Continuous
 62
     7
370
    25
100
AcDbCircle
 10
6272.7471576494
 20
4501.0949215027
 30
0.0
 40
13.12922507536155
100
AcDbArc
 50
233.4073039667
 51
236.7055471864
  0
ARC
  5
131
330
1F
100
AcDbEntity
  8
0
  6
Continuous
 62
     7
370
    25
100
AcDbCircle
 10
6270.5965153782
 20
4498.4883074128
 30
0.0
 40
9.755877129069168
100
AcDbArc
 50
199.5058968357
 51
234.4226449036
  0
LINE
  5
132
330
1F
100
AcDbEntity
  8
0
  6
Continuous
 62
     7
370
    25
100
AcDbLine
 10
6259.8735917209
 20
4499.6428253103
 30
0.0
 11
6261.4005560275
 21
4495.2307822512
 31
0.0
  0
ARC
  5
133
330
1F
100
AcDbEntity
  8
0
  6
Continuous
 62
     7
370
    25
100
AcDbCircle
 10
6274.0850836337
 20
4504.6795917246
 30
0.0
 40
15.07764962784804
100
AcDbArc
 50
185.0407011682
 51
199.5150919734
  0
LINE
  5
134
330
1F
100
AcDbEntity
  8
0
  6
Continuous
 62
     7
370
    25
100
AcDbLine
 10
6256.7742905695
 20
4529.3337122646
 30
0.0
 11
6259.0657463036
 21
4503.3548183614
 31
0.0
  0
ELLIPSE
  5
135
330
1F
100
AcDbEntity
  8
0
  6
Continuous
 62
     7
370
    25
100
AcDbEllipse
 10
6257.5145531766
 20
4524.5507365711
 30
0.0
 11
4.475596272858639
 21
-2.548722259421993
 31
0.0
210
0.0
220
0.0
230
1.0
 40
0.9068578424
 41
2.131521780213171
 42
2.194994636091886
  0
LINE
  5
136
330
1F
100
AcDbEntity
  8
0
  6
Continuous
 62
     7
370
    25
100
AcDbLine
 10
6261.2919565058
 20
4529.3433632993
 30
0.0
 11
6257.091821861
 21
4529.3433632993
 31
0.0
  0
LINE
  5
137
330
1F
100
AcDbEntity
  8
0
  6
Continuous
 62
     7
370
    25
100
AcDbLine
 10
6286.8782107616
 20
4529.3433632993
 30
0.0
 11
6261.2919565058
 21
4529.3433632993
 31
0.0
  0
LINE
  5
138
330
1F
100
AcDbEntity
  8
0
  6
Continuous
 62
     7
370
    25
100
AcDbLine
 10
6291.0783454064
 20
4529.3433632993
 30
0.0
 11
6286.8782107616
 21
4529.3433632993
 31
0.0
  0
ARC
  5
139
330
1F
100
AcDbEntity
  8
0
  6
Continuous
 62
     7
370
    25
100
AcDbCircle
 10
6286.4657440858
 20
4495.5204795348
 30
0.0
 40
6.028521049099339
100
AcDbArc
 50
236.6768905997
 51
238.676197106
  0
ARC
  5
13A
330
1F
100
AcDbEntity
  8
0
  6
Continuous
 62
     7
370
    25
100
AcDbCircle
 10
6287.721730769
 20
4500.1835011742
 30
0.0
 40
5.05770680777281
100
AcDbArc
 50
259.0306905396
 51
304.6556510783
  0
ARC
  5
13B
330
1F
100
AcDbEntity
  8
0
  6
Continuous
 62
     7
370
    25
100
AcDbCircle
 10
6260.4406319674
 20
4500.1986748326
 30
0.0
 40
5.059783681291713
100
AcDbArc
 50
235.2988855645
 51
280.9362354251
  0
ARC
  5
13C
330
1F
100
AcDbEntity
  8
0
  6
Continuous
 62
     7
370
    25
100
AcDbCircle
 10
6261.6704430526
 20
4495.5921438954
 30
0.0
 40
5.995871494715756
100
AcDbArc
 50
300.4116030309
 51
302.8235917388
  0
ARC
  5
13D
330
1F
100
AcDbEntity
  8
0
  6
Continuous
 62
     7
370
    25
100
AcDbCircle
 10
6289.4624836431
 20
4503.4771144548
 30
0.0
 40
4.024807724442609
100
AcDbArc
 50
253.0755898945
 51
331.5635823227
  0
ARC
  5
13E
330
1F
100
AcDbEntity
  8
0
  6
Continuous
 62
     7
370
    25
100
AcDbCircle
 10
6258.7036670137
 20
4503.4957165392
 30
0.0
 40
4.026598395939474
100
AcDbArc
 50
208.3745174232
 51
286.8908351793
  0
LWPOLYLINE
  5
13F
330
1F
100
AcDbEntity
  8
0
  6
Continuous
 62
     7
370
    25
100
AcDbPolyline
 90
        9
 70
   128
 43
0.0
 10
6294.0850836337
 20
4506.5250962047
 10
6293.9376442579
 20
4505.8606503082
 10
6293.6191306388
 20
4505.2352726236
 10
6293.1408167179
 20
4504.671098692
 10
6292.5196326444
 20
4504.1880977189
 10
6291.777565525
 20
4503.803365754
 10
6290.940881179
 20
4503.5305205687
 10
6290.0391944481
 20
4503.3792196485
 10
6289.1044209639
 20
4503.3548183614
  0
LWPOLYLINE
  5
140
330
1F
100
AcDbEntity
  8
0
  6
Continuous
 62
     7
370
    25
100
AcDbPolyline
 90
        9
 70
   128
 43
0.0
 10
6254.0850836337
 20
4506.5250962047
 10
6254.2325230095
 20
4505.8606503082
 10
6254.5510366286
 20
4505.2352726236
 10
6255.0293505496
 20
4504.671098692
 10
6255.650534623
 20
4504.1880977189
 10
6256.3926017425
 20
4503.803365754
 10
6257.2292860884
 20
4503.5305205687
 10
6258.1309728194
 20
4503.3792196485
 10
6259.0657463036
 20
4503.3548183614
  0
ELLIPSE
  5
141
330
1F
100
AcDbEntity
  8
0
  6
Continuous
 62
     7
370
    25
100
AcDbEllipse
 10
6256.9036500122
 20
4531.4767217686
 30
0.0
 11
4.980662669862794
 21
0.4393169346149078
 31
0.0
210
0.0
220
0.0
230
1.0
 40
0.4255280023
 41
3.141592653589405
 42
4.648916124506089
  0
ELLIPSE
  5
142
330
1F
100
AcDbEntity
  8
0
  6
Continuous
 62
     7
370
    25
100
AcDbEllipse
 10
6291.2665172553
 20
4531.4767217686
 30
0.0
 11
4.980662669862795
 21
-0.4393169346139986
 31
0.0
210
0.0
220
0.0
230
1.0
 40
0.4255280023
 41
4.775861836263406
 42
6.283185307179586
  0
LWPOLYLINE
  5
143
330
1F
100
AcDbEntity
  8
0
  6
Continuous
 62
     7
370
    25
100
AcDbPolyline
 90
        6
 70
   128
 43
0.0
 10
6263.2525397708
 20
4561.5167504164
 10
6265.0600683755
 20
4561.8053759852
 10
6266.8464705067
 20
4562.2099121219
 10
6270.4713362831
 20
4562.9338166736
 10
6274.0551682126
 20
4563.2115172919
 10
6274.0850836337
 20
4563.2115368746
  0
LINE
  5
144
330
1F
100
AcDbEntity
  8
0
  6
Continuous
 62
     7
370
    25
100
AcDbLine
 10
6263.2525397708
 20
4561.5167504164
 30
0.0
 11
6263.2525397708
 21
4563.2115368746
 31
0.0
  0
LINE
  5
145
330
1F
100
AcDbEntity
  8
0
  6
Continuous
 62
     7
370
    25
100
AcDbLine
 10
6284.9176274966
 20
4563.2115368746
 30
0.0
 11
6284.9176274966
 21
4561.5167504164
 31
0.0
  0
LWPOLYLINE
  5
146
330
1F
100
AcDbEntity
  8
0
  6
Continuous
 62
     7
370
    25
100
AcDbPolyline
 90
        6
 70
   128
 43
0.0
 10
6274.0850836337
 20
4563.2115368746
 10
6274.114999077
 20
4563.2115172919
 10
6277.6988309843
 20
4562.9338166736
 10
6281.2765700506
 20
4562.2207833694
 10
6283.0863524447
 20
4561.8101250903
 10
6284.9176274966
 20
4561.5167504164
  0
LINE
  5
147
330
1F
100
AcDbEntity
  8
0
  6
Continuous
 62
     7
370
    25
100
AcDbLine
 10
6260.0059535965
 20
4560.1376304484
 30
0.0
 11
6260.0059535965
 21
4563.2115368746
 31
0.0
  0
ARC
  5
148
330
1F
100
AcDbEntity
  8
0
  6
Continuous
 62
     7
370
    25
100
AcDbCircle
 10
6267.2212715684
 20
4548.793492098
 30
0.0
 40
13.4443403835714
100
AcDbArc
 50
122.4579641121
 51
146.3627873351
  0
ARC
  5
149
330
1F
100
AcDbEntity
  8
0
  6
Continuous
 62
     7
370
    25
100
AcDbCircle
 10
6260.0059535965
 20
4553.2115368746
 30
0.0
 40
4.999999999999782
100
AcDbArc
 50
142.7105300506
 51
173.6924013741
  0
LINE
  5
14A
330
1F
100
AcDbEntity
  8
0
  6
Continuous
 62
     7
370
    25
100
AcDbLine
 10
6254.874141941
 20
4552.758887917
 30
0.0
 11
6255.0362216283
 21
4553.7608675259
 31
0.0
  0
LINE
  5
14B
330
1F
100
AcDbEntity
  8
0
  6
Continuous
 62
     7
370
    25
100
AcDbLine
 10
6254.874141941
 20
4552.758887917
 30
0.0
 11
6250.0446282568
 21
4552.3329030053
 31
0.0
  0
LINE
  5
14C
330
1F
100
AcDbEntity
  8
0
  6
Continuous
 62
     7
370
    25
100
AcDbLine
 10
6260.0059535965
 20
4560.1376304484
 30
0.0
 11
6263.2525397708
 21
4561.5167504164
 31
0.0
  0
LINE
  5
14D
330
1F
100
AcDbEntity
  8
0
  6
Continuous
 62
     7
370
    25
100
AcDbLine
 10
6288.1642136709
 20
4563.2115368746
 30
0.0
 11
6288.1642136709
 21
4560.1376304484
 31
0.0
  0
LINE
  5
14E
330
1F
100
AcDbEntity
  8
0
  6
Continuous
 62
     7
370
    25
100
AcDbLine
 10
6284.9176274966
 20
4561.5167504164
 30
0.0
 11
6288.1642136709
 21
4560.1376304484
 31
0.0
  0
LINE
  5
14F
330
1F
100
AcDbEntity
  8
0
  6
Continuous
 62
     7
370
    25
100
AcDbLine
 10
6298.1255390106
 20
4552.3329030053
 30
0.0
 11
6293.2960253264
 21
4552.758887917
 31
0.0
  0
LINE
  5
150
330
1F
100
AcDbEntity
  8
0
  6
Continuous
 62
     7
370
    25
100
AcDbLine
 10
6293.1339456391
 20
4553.7608675259
 30
0.0
 11
6293.2960253264
 21
4552.758887917
 31
0.0
  0
ARC
  5
151
330
1F
100
AcDbEntity
  8
0
  6
Continuous
 62
     7
370
    25
100
AcDbCircle
 10
6288.1642136709
 20
4553.2115368746
 30
0.0
 40
4.999999999999782
100
AcDbArc
 50
6.307598626
 51
37.2894699494
  0
ARC
  5
152
330
1F
100
AcDbEntity
  8
0
  6
Continuous
 62
     7
370
    25
100
AcDbCircle
 10
6280.9275784733
 20
4548.7717315482
 30
0.0
 40
13.47414363854978
100
AcDbArc
 50
33.6640389881
 51
57.5152095646
  0
LINE
  5
153
330
1F
100
AcDbEntity
  8
0
  6
Continuous
 62
     7
370
    25
100
AcDbLine
 10
6291.0783454064
 20
4529.3433632993
 30
0.0
 11
6291.6067925418
 21
4535.3345207371
 31
0.0
  0
ARC
  5
154
330
1F
100
AcDbEntity
  8
0
  6
Continuous
 62
     7
370
    25
100
AcDbCircle
 10
6248.2548863978
 20
4548.3314059787
 30
0.0
 40
45.25822347709102
100
AcDbArc
 50
343.3112890014
 51
5.6140604158
  0
ARC
  5
155
330
1F
100
AcDbEntity
  8
0
  6
Continuous
 62
     7
370
    25
100
AcDbCircle
 10
6299.9128099837
 20
4548.3311664348
 30
0.0
 40
45.25578787939067
100
AcDbArc
 50
174.3853317384
 51
196.6893188444
  0
LINE
  5
156
330
1F
100
AcDbEntity
  8
0
  6
Continuous
 62
     7
370
    25
100
AcDbLine
 10
6256.5633747256
 20
4535.3345207371
 30
0.0
 11
6257.091821861
 21
4529.3433632993
 31
0.0
  0
ARC
  5
157
330
1F
100
AcDbEntity
  8
0
  6
Continuous
 62
     7
370
    25
100
AcDbCircle
 10
6265.2688663972
 20
4563.1824504495
 30
0.0
 40
2.615364155221269
100
AcDbArc
 50
219.5603250979
 51
287.9303298656
  0
ARC
  5
158
330
1F
100
AcDbEntity
  8
0
  6
Continuous
 62
     7
370
    25
100
AcDbCircle
 10
6274.120951341
 20
4549.0921490147
 30
0.0
 40
14.11943341741482
100
AcDbArc
 50
90.1455490741
 51
124.7445023012
  0
ARC
  5
159
330
1F
100
AcDbEntity
  8
0
  6
Continuous
 62
     7
370
    25
100
AcDbCircle
 10
6282.9013008703
 20
4563.1824504495
 30
0.0
 40
2.615364155219449
100
AcDbArc
 50
252.0696701344
 51
320.4396749021
  0
ARC
  5
15A
330
1F
100
AcDbEntity
  8
0
  6
Continuous
 62
     7
370
    25
100
AcDbCircle
 10
6274.0387442143
 20
4549.0588255332
 30
0.0
 40
14.1527872044379
100
AcDbArc
 50
55.2975482731
 51
89.8124003517
  0
LINE
  5
15B
330
1F
100
AcDbEntity
  8
0
  6
Continuous
 62
     7
370
    25
100
AcDbLine
 10
6292.142137863
 20
4556.240747848
 30
0.0
 11
6287.6164949827
 21
4554.1150581907
 31
0.0
  0
ARC
  5
15C
330
1F
100
AcDbEntity
  8
0
  6
Continuous
 62
     7
370
    25
100
AcDbCircle
 10
6272.3649402341
 20
4547.000326111
 30
0.0
 40
16.82941873076739
100
AcDbArc
 50
25.0086866868
 51
43.6013642071
  0
LWPOLYLINE
  5
15D
330
1F
100
AcDbEntity
  8
0
  6
Continuous
 62
     7
370
    25
100
AcDbPolyline
 90
        9
 70
   128
 43
0.0
 10
6288.1642136709
 20
4560.1376304484
 10
6287.557367124
 20
4559.6684250348
 10
6286.9665389936
 20
4559.2624463088
 10
6286.4073248719
 20
4558.9304105486
 10
6285.8944858623
 20
4558.6810822222
 10
6285.441558944
 20
4558.5210426391
 10
6285.0604996467
 20
4558.4545162293
 10
6284.7613664715
 20
4558.4832590344
 10
6284.5520553845
 20
4558.6065123548
  0
LWPOLYLINE
  5
15E
330
1F
100
AcDbEntity
  8
0
  6
Continuous
 62
     7
370
    25
100
AcDbPolyline
 90
        9
 70
   128
 43
0.0
 10
6260.0059535965
 20
4560.1376304484
 10
6260.6128001435
 20
4559.6684250348
 10
6261.2036282738
 20
4559.2624463088
 10
6261.7628423956
 20
4558.9304105486
 10
6262.2756814051
 20
4558.6810822222
 10
6262.7286083235
 20
4558.5210426391
 10
6263.1096676208
 20
4558.4545162293
 10
6263.408800796
 20
4558.4832590344
 10
6263.6181118829
 20
4558.6065123548
  0
ARC
  5
15F
330
1F
100
AcDbEntity
  8
0
  6
Continuous
 62
     7
370
    25
100
AcDbCircle
 10
6275.8033040383
 20
4547.0016381365
 30
0.0
 40
16.82712136656623
100
AcDbArc
 50
136.3973553289
 51
154.9925937772
  0
LINE
  5
160
330
1F
100
AcDbEntity
  8
0
  6
Continuous
 62
     7
370
    25
100
AcDbLine
 10
6256.0280294044
 20
4556.240747848
 30
0.0
 11
6260.5536722848
 21
4554.1150581907
 31
0.0
  0
LINE
  5
161
330
1F
100
AcDbEntity
  8
0
  6
Continuous
 62
     7
370
    25
100
AcDbLine
 10
6284.5520553845
 20
4558.6065123548
 30
0.0
 11
6282.0961340587
 21
4560.6941104265
 31
0.0
  0
LINE
  5
162
330
1F
100
AcDbEntity
  8
0
  6
Continuous
 62
     7
370
    25
100
AcDbLine
 10
6266.0740332087
 20
4560.6941104265
 30
0.0
 11
6263.6181118829
 21
4558.6065123548
 31
0.0
  0
LINE
  5
163
330
1F
100
AcDbEntity
  8
0
  6
Continuous
 62
     7
370
    25
100
AcDbLine
 10
6291.6067925418
 20
4535.3345207371
 30
0.0
 11
6287.2001583478
 21
4537.6970564681
 31
0.0
  0
ARC
  5
164
330
1F
100
AcDbEntity
  8
0
  6
Continuous
 62
     7
370
    25
100
AcDbCircle
 10
6270.8721800106
 20
4546.3289065366
 30
0.0
 40
18.4692098419318
100
AcDbArc
 50
332.1366542919
 51
15.8764398814
  0
ARC
  5
165
330
1F
100
AcDbEntity
  8
0
  6
Continuous
 62
     7
370
    25
100
AcDbCircle
 10
6322.4900234141
 20
4445.4449996321
 30
0.0
 40
111.2140285357804
100
AcDbArc
 50
105.2186236576
 51
107.7218602465
  0
ARC
  5
166
330
1F
100
AcDbEntity
  8
0
  6
Continuous
 62
     7
370
    25
100
AcDbCircle
 10
6225.6801438538
 20
4445.4449996337
 30
0.0
 40
111.2140285341296
100
AcDbArc
 50
72.2781397535
 51
74.7813763424
  0
ARC
  5
167
330
1F
100
AcDbEntity
  8
0
  6
Continuous
 62
     7
370
    25
100
AcDbCircle
 10
6277.2786257603
 20
4546.3268737981
 30
0.0
 40
18.45114441990817
100
AcDbArc
 50
164.1010413216
 51
207.885864505
  0
LINE
  5
168
330
1F
100
AcDbEntity
  8
0
  6
Continuous
 62
     7
370
    25
100
AcDbLine
 10
6256.5633747256
 20
4535.3345207371
 30
0.0
 11
6260.9700089196
 21
4537.6970564681
 31
0.0
  0
LINE
  5
169
330
1F
100
AcDbEntity
  8
0
  6
Continuous
 62
     7
370
    25
100
AcDbLine
 10
6261.2919565058
 20
4529.3433632993
 30
0.0
 11
6264.5953273233
 21
4533.0967272894
 31
0.0
  0
LINE
  5
16A
330
1F
100
AcDbEntity
  8
0
  6
Continuous
 62
     7
370
    25
100
AcDbLine
 10
6286.8782107616
 20
4529.3433632993
 30
0.0
 11
6283.5748399441
 21
4533.0967272894
 31
0.0
  0
ARC
  5
16B
330
1F
100
AcDbEntity
  8
0
  6
Continuous
 62
     7
370
    25
100
AcDbCircle
 10
6274.0850836337
 20
4543.5698969501
 30
0.0
 40
14.13303780416205
100
AcDbArc
 50
227.8202239587
 51
312.1797760413
  0
LINE
  5
16C
330
1F
100
AcDbEntity
  8
0
  6
Continuous
 62
     7
370
    25
100
AcDbLine
 10
6255.0362216283
 20
4553.7608675259
 30
0.0
 11
6259.7789241673
 21
4552.1775884517
 31
0.0
  0
LINE
  5
16D
330
1F
100
AcDbEntity
  8
0
  6
Continuous
 62
     7
370
    25
100
AcDbLine
 10
6259.7789241673
 20
4552.1775884517
 30
0.0
 11
6259.5333060966
 21
4551.3814123961
 31
0.0
  0
LINE
  5
16E
330
1F
100
AcDbEntity
  8
0
  6
Continuous
 62
     7
370
    25
100
AcDbLine
 10
6293.1339456391
 20
4553.7608675259
 30
0.0
 11
6288.3912431001
 21
4552.1775884517
 31
0.0
  0
LINE
  5
16F
330
1F
100
AcDbEntity
  8
0
  6
Continuous
 62
     7
370
    25
100
AcDbLine
 10
6288.6368611709
 20
4551.3814123961
 30
0.0
 11
6288.3912431001
 21
4552.1775884517
 31
0.0
  0
LWPOLYLINE
  5
170
330
1F
100
AcDbEntity
  8
0
  6
Continuous
 62
     7
370
    25
100
AcDbPolyline
 90
        3
 70
   128
 43
0.0
 10
6255.0362216283
 20
4553.7608675259
 10
6255.5620937976
 20
4555.179077003
 10
6256.0280294044
 20
4556.240747848
  0
LWPOLYLINE
  5
171
330
1F
100
AcDbEntity
  8
0
  6
Continuous
 62
     7
370
    25
100
AcDbPolyline
 90
        3
 70
   128
 43
0.0
 10
6260.5536722848
 20
4554.1150581907
 10
6260.1902670373
 20
4553.2869849168
 10
6259.7789241673
 20
4552.1775884517
  0
LWPOLYLINE
  5
172
330
1F
100
AcDbEntity
  8
0
  6
Continuous
 62
     7
370
    25
100
AcDbPolyline
 90
        3
 70
   128
 43
0.0
 10
6292.142137863
 20
4556.240747848
 10
6292.7685620609
 20
4554.7756134096
 10
6293.1339456391
 20
4553.7608675259
  0
LWPOLYLINE
  5
173
330
1F
100
AcDbEntity
  8
0
  6
Continuous
 62
     7
370
    25
100
AcDbPolyline
 90
        3
 70
   128
 43
0.0
 10
6288.3912431001
 20
4552.1775884517
 10
6288.1053014991
 20
4552.9717284541
 10
6287.6164949827
 20
4554.1150581907
  0
ARC
  5
174
330
1F
100
AcDbEntity
  8
0
  6
Continuous
 62
     7
370
    25
100
AcDbCircle
 10
6275.557368319
 20
4545.4641035632
 30
0.0
 40
21.52626862364797
100
AcDbArc
 50
208.0712020774
 51
228.4940482552
  0
LWPOLYLINE
  5
175
330
1F
100
AcDbEntity
  8
0
  6
Continuous
 62
     7
370
    25
100
AcDbPolyline
 90
        3
 70
   128
 43
0.0
 10
6260.9700089196
 20
4537.6970564681
 10
6261.8306237342
 20
4536.2636301467
 10
6264.5953273233
 20
4533.0967272894
  0
LWPOLYLINE
  5
176
330
1F
100
AcDbEntity
  8
0
  6
Continuous
 62
     7
370
    25
100
AcDbPolyline
 90
        3
 70
   128
 43
0.0
 10
6291.6067925418
 20
4535.3345207371
 10
6289.8730837148
 20
4532.6015081848
 10
6286.8782107616
 20
4529.3433632993
  0
LWPOLYLINE
  5
177
330
1F
100
AcDbEntity
  8
0
  6
Continuous
 62
     7
370
    25
100
AcDbPolyline
 90
        3
 70
   128
 43
0.0
 10
6283.5748399441
 20
4533.0967272894
 10
6285.8604280673
 20
4535.5845594171
 10
6287.2001583478
 20
4537.6970564681
  0
LWPOLYLINE
  5
178
330
1F
100
AcDbEntity
  8
0
  6
Continuous
 62
     8
370
    25
100
AcDbPolyline
 90
        7
 70
   128
 43
0.0
 10
6115.1310589431
 20
4564.2767337743
 10
6114.7700923292
 20
4570.682372962
 10
6114.0033127371
 20
4598.7311293588
 10
6113.9642593828
 20
4626.7956857543
 10
6114.4756473558
 20
4652.7676283102
 10
6114.8857646859
 20
4665.7540463345
 10
6115.1182263457
 20
4678.7435134904
  0
LWPOLYLINE
  5
179
330
1F
100
AcDbEntity
  8
0
  6
Continuous
 62
     8
370
    25
100
AcDbPolyline
 90
        7
 70
   128
 43
0.0
 10
6433.0519409218
 20
4678.7435134904
 10
6433.3044466792
 20
4665.7523018479
 10
6433.7394998406
 20
4652.7642944274
 10
6434.2503865161
 20
4626.7850753643
 10
6434.160431685
 20
4597.2784186128
 10
6433.2459407338
 20
4567.7916398296
 10
6433.0318555649
 20
4564.34763369
  0
LWPOLYLINE
  5
17A
330
1F
100
AcDbEntity
  8
0
  6
Continuous
 62
     8
370
    25
100
AcDbPolyline
 90
       13
 70
   128
 43
0.0
 10
6407.4754100995
 20
4534.2026714175
 10
6406.9769927422
 20
4532.137882432
 10
6401.4865654273
 20
4512.6586204134
 10
6395.0740385718
 20
4493.4856337036
 10
6389.1957342981
 20
4478.2739644343
 10
6382.6198389643
 20
4463.318998284
 10
6375.2786135468
 20
4448.7499545986
 10
6367.1043190216
 20
4434.6960527239
 10
6358.0292163652
 20
4421.2865120061
 10
6350.862468131
 20
4412.1044746978
 10
6343.0842706564
 20
4403.4178293389
 10
6334.6825598576
 20
4395.379368113
 10
6325.6452716505
 20
4388.1418832038
  0
LINE
  5
17B
330
1F
100
AcDbEntity
  8
0
  6
Continuous
 62
     8
370
    25
100
AcDbLine
 10
6419.1189241471
 20
4514.8903690616
 30
0.0
 11
6418.5418291146
 21
4509.1821238448
 31
0.0
  0
LWPOLYLINE
  5
17C
330
1F
100
AcDbEntity
  8
0
  6
Continuous
 62
     8
370
    25
100
AcDbPolyline
 90
       13
 70
   128
 43
0.0
 10
6222.7167293074
 20
4387.9729361882
 10
6214.7714048039
 20
4394.2008910451
 10
6207.3112018578
 20
4401.0513729997
 10
6200.3332353244
 20
4408.420733902
 10
6193.8346200591
 20
4416.2053256018
 10
6184.5317316961
 20
4429.0370170938
 10
6176.1417611276
 20
4442.5663901435
 10
6168.5948908407
 20
4456.6522247905
 10
6161.8213033224
 20
4471.1533010745
 10
6155.7511810598
 20
4485.9283990353
 10
6148.38794277
 20
4506.7613224938
 10
6142.1570649062
 20
4527.9881026358
 10
6140.5699305694
 20
4534.4099418393
  0
LINE
  5
17D
330
1F
100
AcDbEntity
  8
0
  6
Continuous
 62
     8
370
    25
100
AcDbLine
 10
6291.2506610745
 20
4563.2115368746
 30
0.0
 11
6292.6943150862
 21
4563.3365691198
 31
0.0
  0
LINE
  5
17E
330
1F
100
AcDbEntity
  8
0
  6
Continuous
 62
     8
370
    25
100
AcDbLine
 10
6255.3600772933
 20
4563.3454952592
 30
0.0
 11
6256.9195061929
 21
4563.2115368746
 31
0.0
  0
LWPOLYLINE
  5
17F
330
1F
100
AcDbEntity
  8
0
  6
Continuous
 62
     8
370
    25
100
AcDbPolyline
 90
        5
 70
   128
 43
0.0
 10
6237.7069100448
 20
4553.869526425
 10
6225.9511020323
 20
4553.6453800684
 10
6214.3046655325
 20
4553.5231494661
 10
6202.9882123073
 20
4553.5079139854
 10
6193.7440591158
 20
4553.5909270592
  0
LWPOLYLINE
  5
180
330
1F
100
AcDbEntity
  8
0
  6
Continuous
 62
     8
370
    25
100
AcDbPolyline
 90
        5
 70
   128
 43
0.0
 10
6353.9169737349
 20
4553.5708932774
 10
6343.1697039574
 20
4553.4974918503
 10
6331.8788364595
 20
4553.5321628412
 10
6320.3590556117
 20
4553.6703898959
 10
6310.341425439
 20
4553.869526425
  0
LINE
  5
181
330
1F
100
AcDbEntity
  8
0
  6
Continuous
 62
     8
370
    25
100
AcDbLine
 10
6237.7069100448
 20
4553.869526425
 30
0.0
 11
6237.7069100448
 21
4561.907402356
 31
0.0
  0
LINE
  5
182
330
1F
100
AcDbEntity
  8
0
  6
Continuous
 62
     8
370
    25
100
AcDbLine
 10
6310.341425439
 20
4561.8691231973
 30
0.0
 11
6310.341425439
 21
4553.869526425
 31
0.0
  0
LINE
  5
183
330
1F
100
AcDbEntity
  8
0
  6
Continuous
 62
     8
370
    25
100
AcDbLine
 10
6239.8702663196
 20
4562.1100665528
 30
0.0
 11
6239.8702663196
 21
4553.869526425
 31
0.0
  0
LINE
  5
184
330
1F
100
AcDbEntity
  8
0
  6
Continuous
 62
     8
370
    25
100
AcDbLine
 10
6308.2999009479
 20
4553.869526425
 30
0.0
 11
6308.2999009479
 21
4562.0608699124
 31
0.0
  0
LINE
  5
185
330
1F
100
AcDbEntity
  8
0
  6
Continuous
 62
     8
370
    25
100
AcDbLine
 10
6309.7216119799
 20
4561.9287002315
 30
0.0
 11
6308.2999009479
 21
4553.869526425
 31
0.0
  0
LINE
  5
186
330
1F
100
AcDbEntity
  8
0
  6
Continuous
 62
     8
370
    25
100
AcDbLine
 10
6239.8702663196
 20
4553.869526425
 30
0.0
 11
6238.4401999759
 21
4561.9760635197
 31
0.0
  0
ENDSEC
  0
SECTION
  2
OBJECTS
  0
DICTIONARY
  5
C
330
0
100
AcDbDictionary
281
     1
  3
ACAD_GROUP
350
D
  3
ACAD_LAYOUT
350
1A
  3
ACAD_MLINESTYLE
350
17
  3
ACAD_PLOTSETTINGS
350
19
  3
ACAD_PLOTSTYLENAME
350
E
  3
ACAD_SCALELIST
350
47
  3
DWGPROPS
350
187
  0
DICTIONARY
  5
D
102
{ACAD_REACTORS
330
C
102
}
330
C
100
AcDbDictionary
281
     1
  0
DICTIONARY
  5
1A
102
{ACAD_REACTORS
330
C
102
}
330
C
100
AcDbDictionary
281
     1
  3
Layout1
350
1E
  3
Layout2
350
26
  3
Model
350
22
  0
DICTIONARY
  5
17
102
{ACAD_REACTORS
330
C
102
}
330
C
100
AcDbDictionary
281
     1
  3
Standard
350
18
  0
DICTIONARY
  5
19
102
{ACAD_REACTORS
330
C
102
}
330
C
100
AcDbDictionary
281
     1
  0
ACDBDICTIONARYWDFLT
  5
E
102
{ACAD_REACTORS
330
C
102
}
330
C
100
AcDbDictionary
281
     1
  3
Normal
350
F
100
AcDbDictionaryWithDefault
340
F
  0
DICTIONARY
  5
47
102
{ACAD_REACTORS
330
C
102
}
330
C
100
AcDbDictionary
281
     1
  3
A0
350
48
  3
A1
350
49
  3
A2
350
4A
  3
A3
350
4B
  3
A4
350
4C
  3
A5
350
4D
  3
A6
350
4E
  3
A7
350
4F
  3
A8
350
50
  3
A9
350
51
  3
B0
350
52
  3
B1
350
53
  3
B2
350
54
  3
B3
350
55
  3
B4
350
56
  3
B5
350
57
  3
B6
350
58
  3
B7
350
59
  3
B8
350
5A
  3
B9
350
5B
  3
C0
350
5C
  3
C1
350
5D
  3
C2
350
5E
  3
C3
350
5F
  3
C4
350
60
  3
C5
350
61
  3
C6
350
62
  3
C7
350
63
  3
C8
350
64
  3
C9
350
65
  3
D0
350
66
  3
D1
350
67
  3
D2
350
68
  0
XRECORD
  5
187
102
{ACAD_REACTORS
330
C
102
}
330
C
100
AcDbXrecord
280
     1
  1
DWGPROPS COOKIE
  2

  3

  4

  6

  7

  8
radek.stransky
  9

300
=
301
=
302
=
303
=
304
=
305
=
306
=
307
=
308
=
309
=
 40
0.0
 41
2459611.517483403
 42
2459611.517483762
  1

 90
        0
  0
LAYOUT
  5
1E
102
{ACAD_REACTORS
330
1A
102
}
330
1A
100
AcDbPlotSettings
  1

  2
none_device
  4

  6

 40
0.0
 41
0.0
 42
0.0
 43
0.0
 44
0.0
 45
0.0
 46
0.0
 47
0.0
 48
0.0
 49
0.0
140
0.0
141
0.0
142
1.0
143
1.0
 70
   688
 72
     1
 73
     0
 74
     5
  7

 75
    16
147
1.0
148
0.0
149
0.0
100
AcDbLayout
  1
Layout1
 70
     1
 71
     1
 10
0.0
 20
0.0
 11
420.0
 21
297.0
 12
0.0
 22
0.0
 32
0.0
 14
1.0000000000E+20
 24
1.0000000000E+20
 34
1.0000000000E+20
 15
-1.0000000000E+20
 25
-1.0000000000E+20
 35
-1.0000000000E+20
146
0.0
 13
0.0
 23
0.0
 33
0.0
 16
1.0
 26
0.0
 36
0.0
 17
0.0
 27
1.0
 37
0.0
 76
     0
330
1B
  0
LAYOUT
  5
26
102
{ACAD_REACTORS
330
1A
102
}
330
1A
100
AcDbPlotSettings
  1

  2
none_device
  4

  6

 40
0.0
 41
0.0
 42
0.0
 43
0.0
 44
0.0
 45
0.0
 46
0.0
 47
0.0
 48
0.0
 49
0.0
140
0.0
141
0.0
142
1.0
143
1.0
 70
   688
 72
     1
 73
     0
 74
     5
  7

 75
    16
147
1.0
148
0.0
149
0.0
100
AcDbLayout
  1
Layout2
 70
     1
 71
     2
 10
0.0
 20
0.0
 11
0.0
 21
0.0
 12
0.0
 22
0.0
 32
0.0
 14
0.0
 24
0.0
 34
0.0
 15
0.0
 25
0.0
 35
0.0
146
0.0
 13
0.0
 23
0.0
 33
0.0
 16
1.0
 26
0.0
 36
0.0
 17
0.0
 27
1.0
 37
0.0
 76
     0
330
23
  0
LAYOUT
  5
22
102
{ACAD_REACTORS
330
1A
102
}
330
1A
100
AcDbPlotSettings
  1

  2
none_device
  4
Letter_(8.50_x_11.00_Inches)
  6

 40
6.35
 41
6.35
 42
6.35000508
 43
6.35000508
 44
215.9
 45
279.4
 46
0.0
 47
0.0
 48
0.0
 49
0.0
140
0.0
141
0.0
142
1.0
143
1.0
 70
  1712
 72
     1
 73
     0
 74
     0
  7

 75
     0
147
1.0
148
0.0
149
0.0
100
AcDbLayout
  1
Model
 70
     1
 71
     0
 10
0.0
 20
0.0
 11
20000.0
 21
10000.0
 12
0.0
 22
0.0
 32
0.0
 14
0.0
 24
0.0
 34
0.0
 15
20000.0
 25
10000.0
 35
0.0
146
0.0
 13
0.0
 23
0.0
 33
0.0
 16
1.0
 26
0.0
 36
0.0
 17
0.0
 27
1.0
 37
0.0
 76
     0
330
1F
331
29
  0
MLINESTYLE
  5
18
102
{ACAD_REACTORS
330
17
102
}
330
17
100
AcDbMlineStyle
  2
Standard
 70
     0
  3

 62
   256
 51
90.0
 52
90.0
 71
     2
 49
0.5
 62
   256
  6
BYLAYER
 49
-0.5
 62
   256
  6
BYLAYER
  0
ACDBPLACEHOLDER
  5
F
102
{ACAD_REACTORS
330
E
102
}
330
E
  0
SCALE
  5
48
102
{ACAD_REACTORS
330
47
102
}
330
47
100
AcDbScale
 70
     0
300
1:1
140
1.0
141
1.0
290
     1
  0
SCALE
  5
49
102
{ACAD_REACTORS
330
47
102
}
330
47
100
AcDbScale
 70
     0
300
1:2
140
1.0
141
2.0
290
     0
  0
SCALE
  5
4A
102
{ACAD_REACTORS
330
47
102
}
330
47
100
AcDbScale
 70
     0
300
1:4
140
1.0
141
4.0
290
     0
  0
SCALE
  5
4B
102
{ACAD_REACTORS
330
47
102
}
330
47
100
AcDbScale
 70
     0
300
1:5
140
1.0
141
5.0
290
     0
  0
SCALE
  5
4C
102
{ACAD_REACTORS
330
47
102
}
330
47
100
AcDbScale
 70
     0
300
1:8
140
1.0
141
8.0
290
     0
  0
SCALE
  5
4D
102
{ACAD_REACTORS
330
47
102
}
330
47
100
AcDbScale
 70
     0
300
1:10
140
1.0
141
10.0
290
     0
  0
SCALE
  5
4E
102
{ACAD_REACTORS
330
47
102
}
330
47
100
AcDbScale
 70
     0
300
1:16
140
1.0
141
16.0
290
     0
  0
SCALE
  5
4F
102
{ACAD_REACTORS
330
47
102
}
330
47
100
AcDbScale
 70
     0
300
1:20
140
1.0
141
20.0
290
     0
  0
SCALE
  5
50
102
{ACAD_REACTORS
330
47
102
}
330
47
100
AcDbScale
 70
     0
300
1:30
140
1.0
141
30.0
290
     0
  0
SCALE
  5
51
102
{ACAD_REACTORS
330
47
102
}
330
47
100
AcDbScale
 70
     0
300
1:40
140
1.0
141
40.0
290
     0
  0
SCALE
  5
52
102
{ACAD_REACTORS
330
47
102
}
330
47
100
AcDbScale
 70
     0
300
1:50
140
1.0
141
50.0
290
     0
  0
SCALE
  5
53
102
{ACAD_REACTORS
330
47
102
}
330
47
100
AcDbScale
 70
     0
300
1:100
140
1.0
141
100.0
290
     0
  0
SCALE
  5
54
102
{ACAD_REACTORS
330
47
102
}
330
47
100
AcDbScale
 70
     0
300
2:1
140
2.0
141
1.0
290
     0
  0
SCALE
  5
55
102
{ACAD_REACTORS
330
47
102
}
330
47
100
AcDbScale
 70
     0
300
4:1
140
4.0
141
1.0
290
     0
  0
SCALE
  5
56
102
{ACAD_REACTORS
330
47
102
}
330
47
100
AcDbScale
 70
     0
300
8:1
140
8.0
141
1.0
290
     0
  0
SCALE
  5
57
102
{ACAD_REACTORS
330
47
102
}
330
47
100
AcDbScale
 70
     0
300
10:1
140
10.0
141
1.0
290
     0
  0
SCALE
  5
58
102
{ACAD_REACTORS
330
47
102
}
330
47
100
AcDbScale
 70
     0
300
100:1
140
100.0
141
1.0
290
     0
  0
SCALE
  5
59
102
{ACAD_REACTORS
330
47
102
}
330
47
100
AcDbScale
 70
     0
300
1/128" = 1'-0"
140
0.0078125
141
12.0
290
     0
  0
SCALE
  5
5A
102
{ACAD_REACTORS
330
47
102
}
330
47
100
AcDbScale
 70
     0
300
1/64" = 1'-0"
140
0.015625
141
12.0
290
     0
  0
SCALE
  5
5B
102
{ACAD_REACTORS
330
47
102
}
330
47
100
AcDbScale
 70
     0
300
1/32" = 1'-0"
140
0.03125
141
12.0
290
     0
  0
SCALE
  5
5C
102
{ACAD_REACTORS
330
47
102
}
330
47
100
AcDbScale
 70
     0
300
1/16" = 1'-0"
140
0.0625
141
12.0
290
     0
  0
SCALE
  5
5D
102
{ACAD_REACTORS
330
47
102
}
330
47
100
AcDbScale
 70
     0
300
3/32" = 1'-0"
140
0.09375
141
12.0
290
     0
  0
SCALE
  5
5E
102
{ACAD_REACTORS
330
47
102
}
330
47
100
AcDbScale
 70
     0
300
1/8" = 1'-0"
140
0.125
141
12.0
290
     0
  0
SCALE
  5
5F
102
{ACAD_REACTORS
330
47
102
}
330
47
100
AcDbScale
 70
     0
300
3/16" = 1'-0"
140
0.1875
141
12.0
290
     0
  0
SCALE
  5
60
102
{ACAD_REACTORS
330
47
102
}
330
47
100
AcDbScale
 70
     0
300
1/4" = 1'-0"
140
0.25
141
12.0
290
     0
  0
SCALE
  5
61
102
{ACAD_REACTORS
330
47
102
}
330
47
100
AcDbScale
 70
     0
300
3/8" = 1'-0"
140
0.375
141
12.0
290
     0
  0
SCALE
  5
62
102
{ACAD_REACTORS
330
47
102
}
330
47
100
AcDbScale
 70
     0
300
1/2" = 1'-0"
140
0.5
141
12.0
290
     0
  0
SCALE
  5
63
102
{ACAD_REACTORS
330
47
102
}
330
47
100
AcDbScale
 70
     0
300
3/4" = 1'-0"
140
0.75
141
12.0
290
     0
  0
SCALE
  5
64
102
{ACAD_REACTORS
330
47
102
}
330
47
100
AcDbScale
 70
     0
300
1" = 1'-0"
140
1.0
141
12.0
290
     0
  0
SCALE
  5
65
102
{ACAD_REACTORS
330
47
102
}
330
47
100
AcDbScale
 70
     0
300
1-1/2" = 1'-0"
140
1.5
141
12.0
290
     0
  0
SCALE
  5
66
102
{ACAD_REACTORS
330
47
102
}
330
47
100
AcDbScale
 70
     0
300
3" = 1'-0"
140
3.0
141
12.0
290
     0
  0
SCALE
  5
67
102
{ACAD_REACTORS
330
47
102
}
330
47
100
AcDbScale
 70
     0
300
6" = 1'-0"
140
6.0
141
12.0
290
     0
  0
SCALE
  5
68
102
{ACAD_REACTORS
330
47
102
}
330
47
100
AcDbScale
 70
     0
300
1'-0" = 1'-0"
140
12.0
141
12.0
290
     0
  0
ENDSEC
  0
EOF
