  0
SECTION
  2
HEADER
  9
$ACADVER
  1
AC1015
  9
$ACADMAINTVER
 70
     6
  9
$DWGCODEPAGE
  3
ANSI_1250
  9
$INSBASE
 10
0.0
 20
0.0
 30
0.0
  9
$EXTMIN
 10
0.0
 20
0.0
 30
0.0
  9
$EXTMAX
 10
20000.0
 20
10000.0
 30
0.0
  9
$LIMMIN
 10
0.0
 20
0.0
  9
$LIMMAX
 10
20000.0
 20
10000.0
  9
$ORTHOMODE
 70
     0
  9
$REGENMODE
 70
     1
  9
$FILLMODE
 70
     1
  9
$QTEXTMODE
 70
     0
  9
$MIRRTEXT
 70
     1
  9
$LTSCALE
 40
1.0
  9
$ATTMODE
 70
     1
  9
$TEXTSIZE
 40
2.0
  9
$TRACEWID
 40
1.0
  9
$TEXTSTYLE
  7
Standard
  9
$CLAYER
  8
0
  9
$CELTYPE
  6
ByLayer
  9
$CECOLOR
 62
   256
  9
$CELTSCALE
 40
1.0
  9
$DISPSILH
 70
     0
  9
$DIMSCALE
 40
1.0
  9
$DIMASZ
 40
2.0
  9
$DIMEXO
 40
1.0
  9
$DIMDLI
 40
3.75
  9
$DIMRND
 40
0.0
  9
$DIMDLE
 40
0.0
  9
$DIMEXE
 40
1.0
  9
$DIMTP
 40
0.0
  9
$DIMTM
 40
0.0
  9
$DIMTXT
 40
2.0
  9
$DIMCEN
 40
2.5
  9
$DIMTSZ
 40
0.0
  9
$DIMTOL
 70
     0
  9
$DIMLIM
 70
     0
  9
$DIMTIH
 70
     1
  9
$DIMTOH
 70
     1
  9
$DIMSE1
 70
     0
  9
$DIMSE2
 70
     0
  9
$DIMTAD
 70
     1
  9
$DIMZIN
 70
     0
  9
$DIMBLK
  1

  9
$DIMASO
 70
     1
  9
$DIMSHO
 70
     1
  9
$DIMPOST
  1

  9
$DIMAPOST
  1

  9
$DIMALT
 70
     0
  9
$DIMALTD
 70
     3
  9
$DIMALTF
 40
0.0393700787
  9
$DIMLFAC
 40
1.0
  9
$DIMTOFL
 70
     1
  9
$DIMTVP
 40
0.0
  9
$DIMTIX
 70
     0
  9
$DIMSOXD
 70
     0
  9
$DIMSAH
 70
     0
  9
$DIMBLK1
  1

  9
$DIMBLK2
  1

  9
$DIMSTYLE
  2
ISO-25
  9
$DIMCLRD
 70
     0
  9
$DIMCLRE
 70
     0
  9
$DIMCLRT
 70
     0
  9
$DIMTFAC
 40
1.0
  9
$DIMGAP
 40
1.524
  9
$DIMJUST
 70
     0
  9
$DIMSD1
 70
     0
  9
$DIMSD2
 70
     0
  9
$DIMTOLJ
 70
     0
  9
$DIMTZIN
 70
     0
  9
$DIMALTZ
 70
     0
  9
$DIMALTTZ
 70
     0
  9
$DIMUPT
 70
     0
  9
$DIMDEC
 70
     2
  9
$DIMTDEC
 70
     0
  9
$DIMALTU
 70
     2
  9
$DIMALTTD
 70
     3
  9
$DIMTXSTY
  7
Standard
  9
$DIMAUNIT
 70
     0
  9
$DIMADEC
 70
     2
  9
$DIMALTRND
 40
0.0
  9
$DIMAZIN
 70
     0
  9
$DIMDSEP
 70
    44
  9
$DIMATFIT
 70
     3
  9
$DIMFRAC
 70
     0
  9
$DIMLDRBLK
  1

  9
$DIMLUNIT
 70
     2
  9
$DIMLWD
 70
    -2
  9
$DIMLWE
 70
    -2
  9
$DIMTMOVE
 70
     0
  9
$LUNITS
 70
     2
  9
$LUPREC
 70
     3
  9
$SKETCHINC
 40
1.0
  9
$FILLETRAD
 40
10.0
  9
$AUNITS
 70
     0
  9
$AUPREC
 70
     2
  9
$MENU
  1
.
  9
$ELEVATION
 40
0.0
  9
$PELEVATION
 40
0.0
  9
$THICKNESS
 40
0.0
  9
$LIMCHECK
 70
     0
  9
$CHAMFERA
 40
0.0
  9
$CHAMFERB
 40
0.0
  9
$CHAMFERC
 40
0.0
  9
$CHAMFERD
 40
0.0
  9
$SKPOLY
 70
     0
  9
$TDCREATE
 40
2459593.588956447
  9
$TDUCREATE
 40
2459593.54728978
  9
$TDUPDATE
 40
2459593.588956771
  9
$TDUUPDATE
 40
2459593.547290104
  9
$TDINDWG
 40
0.0000000116
  9
$TDUSRTIMER
 40
0.0000000116
  9
$USRTIMER
 70
     1
  9
$ANGBASE
 50
0.0
  9
$ANGDIR
 70
     0
  9
$PDMODE
 70
     0
  9
$PDSIZE
 40
-1.0
  9
$PLINEWID
 40
0.0
  9
$SPLFRAME
 70
     0
  9
$SPLINETYPE
 70
     6
  9
$SPLINESEGS
 70
     8
  9
$HANDSEED
  5
FF
  9
$SURFTAB1
 70
     6
  9
$SURFTAB2
 70
     6
  9
$SURFTYPE
 70
     6
  9
$SURFU
 70
     6
  9
$SURFV
 70
     6
  9
$UCSBASE
  2

  9
$UCSNAME
  2

  9
$UCSORG
 10
0.0
 20
0.0
 30
0.0
  9
$UCSXDIR
 10
1.0
 20
0.0
 30
0.0
  9
$UCSYDIR
 10
0.0
 20
1.0
 30
0.0
  9
$UCSORTHOREF
  2

  9
$UCSORTHOVIEW
 70
     0
  9
$UCSORGTOP
 10
0.0
 20
0.0
 30
0.0
  9
$UCSORGBOTTOM
 10
0.0
 20
0.0
 30
0.0
  9
$UCSORGLEFT
 10
0.0
 20
0.0
 30
0.0
  9
$UCSORGRIGHT
 10
0.0
 20
0.0
 30
0.0
  9
$UCSORGFRONT
 10
0.0
 20
0.0
 30
0.0
  9
$UCSORGBACK
 10
0.0
 20
0.0
 30
0.0
  9
$PUCSBASE
  2

  9
$PUCSNAME
  2

  9
$PUCSORG
 10
0.0
 20
0.0
 30
0.0
  9
$PUCSXDIR
 10
1.0
 20
0.0
 30
0.0
  9
$PUCSYDIR
 10
0.0
 20
1.0
 30
0.0
  9
$PUCSORTHOREF
  2

  9
$PUCSORTHOVIEW
 70
     0
  9
$PUCSORGTOP
 10
0.0
 20
0.0
 30
0.0
  9
$PUCSORGBOTTOM
 10
0.0
 20
0.0
 30
0.0
  9
$PUCSORGLEFT
 10
0.0
 20
0.0
 30
0.0
  9
$PUCSORGRIGHT
 10
0.0
 20
0.0
 30
0.0
  9
$PUCSORGFRONT
 10
0.0
 20
0.0
 30
0.0
  9
$PUCSORGBACK
 10
0.0
 20
0.0
 30
0.0
  9
$USERI1
 70
     0
  9
$USERI2
 70
     0
  9
$USERI3
 70
     0
  9
$USERI4
 70
     0
  9
$USERI5
 70
     0
  9
$USERR1
 40
0.0
  9
$USERR2
 40
0.0
  9
$USERR3
 40
0.0
  9
$USERR4
 40
0.0
  9
$USERR5
 40
0.0
  9
$WORLDVIEW
 70
     1
  9
$SHADEDGE
 70
     3
  9
$SHADEDIF
 70
    70
  9
$TILEMODE
 70
     1
  9
$MAXACTVP
 70
    64
  9
$PINSBASE
 10
0.0
 20
0.0
 30
0.0
  9
$PLIMCHECK
 70
     0
  9
$PEXTMIN
 10
1.0000000000E+20
 20
1.0000000000E+20
 30
1.0000000000E+20
  9
$PEXTMAX
 10
-1.0000000000E+20
 20
-1.0000000000E+20
 30
-1.0000000000E+20
  9
$PLIMMIN
 10
0.0
 20
0.0
  9
$PLIMMAX
 10
420.0
 20
297.0
  9
$UNITMODE
 70
     0
  9
$VISRETAIN
 70
     1
  9
$PLINEGEN
 70
     0
  9
$PSLTSCALE
 70
     1
  9
$TREEDEPTH
 70
  3020
  9
$CMLSTYLE
  2
Standard
  9
$CMLJUST
 70
     0
  9
$CMLSCALE
 40
20.0
  9
$PROXYGRAPHICS
 70
     1
  9
$MEASUREMENT
 70
     1
  9
$CELWEIGHT
370
    -1
  9
$ENDCAPS
280
     0
  9
$JOINSTYLE
280
     0
  9
$LWDISPLAY
290
     1
  9
$INSUNITS
 70
     4
  9
$HYPERLINKBASE
  1

  9
$STYLESHEET
  1

  9
$XEDIT
290
     1
  9
$CEPSNTYPE
380
     0
  9
$PSTYLEMODE
290
     1
  9
$FINGERPRINTGUID
  2
{b4804883-3de3-4837-bfb8-be96b527bb7d}
  9
$VERSIONGUID
  2
{FAEB1C32-E019-11D5-929B-00C0DF256EC4}
  9
$EXTNAMES
290
     1
  9
$PSVPSCALE
 40
0.0
  9
$OLESTARTUP
290
     0
  0
ENDSEC
  0
SECTION
  2
CLASSES
  0
CLASS
  1
ACDBDICTIONARYWDFLT
  2
AcDbDictionaryWithDefault
  3
ObjectDBX Classes
 90
        0
280
     0
281
     0
  0
CLASS
  1
VISUALSTYLE
  2
AcDbVisualStyle
  3
ObjectDBX Classes
 90
     4095
280
     0
281
     0
  0
CLASS
  1
MATERIAL
  2
AcDbMaterial
  3
ObjectDBX Classes
 90
     1153
280
     0
281
     0
  0
CLASS
  1
SCALE
  2
AcDbScale
  3
ObjectDBX Classes
 90
     1153
280
     0
281
     0
  0
CLASS
  1
TABLESTYLE
  2
AcDbTableStyle
  3
ObjectDBX Classes
 90
     4095
280
     0
281
     0
  0
CLASS
  1
MLEADERSTYLE
  2
AcDbMLeaderStyle
  3
ACDB_MLEADERSTYLE_CLASS
 90
     4095
280
     0
281
     0
  0
CLASS
  1
SUN
  2
AcDbSun
  3
SCENEOE
 90
     1153
280
     0
281
     0
  0
CLASS
  1
ACDBPLACEHOLDER
  2
AcDbPlaceHolder
  3
ObjectDBX Classes
 90
        0
280
     0
281
     0
  0
CLASS
  1
LAYOUT
  2
AcDbLayout
  3
ObjectDBX Classes
 90
        0
280
     0
281
     0
  0
ENDSEC
  0
SECTION
  2
TABLES
  0
TABLE
  2
VPORT
  5
8
330
0
100
AcDbSymbolTable
 70
     1
  0
VPORT
  5
29
330
8
100
AcDbSymbolTableRecord
100
AcDbViewportTableRecord
  2
*Active
 70
     0
 10
0.0
 20
0.0
 11
1.0
 21
1.0
 12
10000.0
 22
5000.0
 13
0.0
 23
0.0
 14
10.0
 24
10.0
 15
10.0
 25
10.0
 16
0.0
 26
0.0
 36
1.0
 17
0.0
 27
0.0
 37
0.0
 40
10000.0
 41
2.0
 42
50.0
 43
0.0
 44
0.0
 50
0.0
 51
0.0
 71
     0
 72
  2000
 73
     1
 74
     3
 75
     0
 76
     0
 77
     0
 78
     0
281
     0
 65
     1
110
0.0
120
0.0
130
0.0
111
1.0
121
0.0
131
0.0
112
0.0
122
1.0
132
0.0
 79
     0
146
0.0
  0
ENDTAB
  0
TABLE
  2
LTYPE
  5
5
330
0
100
AcDbSymbolTable
 70
     6
  0
LTYPE
  5
14
330
5
100
AcDbSymbolTableRecord
100
AcDbLinetypeTableRecord
  2
ByBlock
 70
     0
  3

 72
    65
 73
     0
 40
0.0
  0
LTYPE
  5
15
330
5
100
AcDbSymbolTableRecord
100
AcDbLinetypeTableRecord
  2
ByLayer
 70
     0
  3

 72
    65
 73
     0
 40
0.0
  0
LTYPE
  5
16
330
5
100
AcDbSymbolTableRecord
100
AcDbLinetypeTableRecord
  2
Continuous
 70
     0
  3
Solid line
 72
    65
 73
     0
 40
0.0
  0
LTYPE
  5
6E
330
5
100
AcDbSymbolTableRecord
100
AcDbLinetypeTableRecord
  2
HIDDEN
 70
     0
  3
Hidden __ __ __ __ __ __ __ __ __ __ __ __ __ __
 72
    65
 73
     2
 40
1.905
 49
1.27
 74
     0
 49
-0.635
 74
     0
  0
LTYPE
  5
6F
330
5
100
AcDbSymbolTableRecord
100
AcDbLinetypeTableRecord
  2
PHANTOM
 70
     0
  3
Phantom ______  __  __  ______  __  __  ______
 72
    65
 73
     6
 40
12.7
 49
6.35
 74
     0
 49
-1.27
 74
     0
 49
1.27
 74
     0
 49
-1.27
 74
     0
 49
1.27
 74
     0
 49
-1.27
 74
     0
  0
LTYPE
  5
70
330
5
100
AcDbSymbolTableRecord
100
AcDbLinetypeTableRecord
  2
CENTER
 70
     0
  3
Center ____ _ ____ _ ____ _ ____ _ ____ _ ____
 72
    65
 73
     4
 40
10.16
 49
6.35
 74
     0
 49
-1.27
 74
     0
 49
1.27
 74
     0
 49
-1.27
 74
     0
  0
LTYPE
  5
71
330
5
100
AcDbSymbolTableRecord
100
AcDbLinetypeTableRecord
  2
CENTERX2
 70
     0
  3
Center (2x) ________  __  ________  __  _____
 72
    65
 73
     4
 40
20.32
 49
12.7
 74
     0
 49
-2.54
 74
     0
 49
2.54
 74
     0
 49
-2.54
 74
     0
  0
LTYPE
  5
72
330
5
100
AcDbSymbolTableRecord
100
AcDbLinetypeTableRecord
  2
DOT2
 70
     0
  3
Dot (.5x) ........................................
 72
    65
 73
     2
 40
0.635
 49
0.0
 74
     0
 49
-0.635
 74
     0
  0
ENDTAB
  0
TABLE
  2
LAYER
  5
2
330
0
100
AcDbSymbolTable
 70
    13
  0
LAYER
  5
10
330
2
100
AcDbSymbolTableRecord
100
AcDbLayerTableRecord
  2
0
 70
     0
 62
     7
  6
Continuous
370
    -3
390
F
  0
LAYER
  5
73
330
2
100
AcDbSymbolTableRecord
100
AcDbLayerTableRecord
  2
FORMAT
 70
     0
 62
     7
  6
Continuous
370
    -3
390
F
  0
LAYER
  5
74
330
2
100
AcDbSymbolTableRecord
100
AcDbLayerTableRecord
  2
OSA
 70
     0
 62
     7
  6
CENTER
370
    -3
390
F
  0
LAYER
  5
75
330
2
100
AcDbSymbolTableRecord
100
AcDbLayerTableRecord
  2
0_35
 70
     0
 62
     7
  6
Continuous
370
    35
390
F
  0
LAYER
  5
76
330
2
100
AcDbSymbolTableRecord
100
AcDbLayerTableRecord
  2
0_5
 70
     0
 62
     7
  6
Continuous
370
    50
390
F
  0
LAYER
  5
77
330
2
100
AcDbSymbolTableRecord
100
AcDbLayerTableRecord
  2
0_25
 70
     0
 62
     7
  6
Continuous
370
    25
390
F
  0
LAYER
  5
78
330
2
100
AcDbSymbolTableRecord
100
AcDbLayerTableRecord
  2
0_18
 70
     0
 62
     7
  6
Continuous
370
    -3
390
F
  0
LAYER
  5
79
330
2
100
AcDbSymbolTableRecord
100
AcDbLayerTableRecord
  2
SLD-0
 70
     0
 62
   179
  6
Continuous
370
    -3
390
F
  0
LAYER
  5
7A
330
2
100
AcDbSymbolTableRecord
100
AcDbLayerTableRecord
  2
KOTY
 70
     0
 62
     7
  6
Continuous
370
    -3
390
F
  0
LAYER
  5
7B
330
2
100
AcDbSymbolTableRecord
100
AcDbLayerTableRecord
  2
SILNA
 70
     0
 62
   179
  6
Continuous
370
    -3
390
F
  0
LAYER
  5
7C
330
2
100
AcDbSymbolTableRecord
100
AcDbLayerTableRecord
  2
0_18_1
 70
     0
 62
   179
  6
Continuous
370
    -3
390
F
  0
LAYER
  5
7D
330
2
100
AcDbSymbolTableRecord
100
AcDbLayerTableRecord
  2
0_35_1
 70
     0
 62
   179
  6
Continuous
370
    35
390
F
  0
LAYER
  5
7E
330
2
100
AcDbSymbolTableRecord
100
AcDbLayerTableRecord
  2
0_5_1
 70
     0
 62
   179
  6
Continuous
370
    50
390
F
  0
ENDTAB
  0
TABLE
  2
STYLE
  5
3
330
0
100
AcDbSymbolTable
 70
     1
  0
STYLE
  5
11
330
3
100
AcDbSymbolTableRecord
100
AcDbTextStyleTableRecord
  2
Standard
 70
     0
 40
0.0
 41
1.0
 50
0.0
 71
     0
 42
2.0
  3
txt
  4

  0
ENDTAB
  0
TABLE
  2
VIEW
  5
6
330
0
100
AcDbSymbolTable
 70
     0
  0
ENDTAB
  0
TABLE
  2
UCS
  5
7
330
0
100
AcDbSymbolTable
 70
     0
  0
ENDTAB
  0
TABLE
  2
APPID
  5
9
330
0
100
AcDbSymbolTable
 70
     1
  0
APPID
  5
12
330
9
100
AcDbSymbolTableRecord
100
AcDbRegAppTableRecord
  2
ACAD
 70
     0
  0
ENDTAB
  0
TABLE
  2
DIMSTYLE
  5
A
330
0
100
AcDbSymbolTable
 70
     1
100
AcDbDimStyleTable
  0
DIMSTYLE
105
27
330
A
100
AcDbSymbolTableRecord
100
AcDbDimStyleTableRecord
  2
ISO-25
 70
     0
 41
2.5
 42
0.625
 43
3.75
 44
1.25
 73
     0
 74
     0
 77
     1
 78
     8
140
2.5
141
2.5
143
0.0393700787
147
0.625
171
     3
172
     1
178
     0
271
     2
272
     2
274
     3
278
    44
283
     0
284
     8
340
11
  0
ENDTAB
  0
TABLE
  2
BLOCK_RECORD
  5
1
330
0
100
AcDbSymbolTable
 70
     1
  0
BLOCK_RECORD
  5
1F
330
1
100
AcDbSymbolTableRecord
100
AcDbBlockTableRecord
  2
*Model_Space
340
22
  0
BLOCK_RECORD
  5
1B
330
1
100
AcDbSymbolTableRecord
100
AcDbBlockTableRecord
  2
*Paper_Space
340
1E
  0
BLOCK_RECORD
  5
23
330
1
100
AcDbSymbolTableRecord
100
AcDbBlockTableRecord
  2
*Paper_Space0
340
26
  0
ENDTAB
  0
ENDSEC
  0
SECTION
  2
BLOCKS
  0
BLOCK
  5
20
330
1F
100
AcDbEntity
  8
0
100
AcDbBlockBegin
  2
*Model_Space
 70
     0
 10
0.0
 20
0.0
 30
0.0
  3
*Model_Space
  1

  0
ENDBLK
  5
21
330
1F
100
AcDbEntity
  8
0
100
AcDbBlockEnd
  0
BLOCK
  5
1C
330
1B
100
AcDbEntity
 67
     1
  8
0
100
AcDbBlockBegin
  2
*Paper_Space
 70
     0
 10
0.0
 20
0.0
 30
0.0
  3
*Paper_Space
  1

  0
ENDBLK
  5
1D
330
1B
100
AcDbEntity
 67
     1
  8
0
100
AcDbBlockEnd
  0
BLOCK
  5
24
330
23
100
AcDbEntity
  8
0
100
AcDbBlockBegin
  2
*Paper_Space0
 70
     0
 10
0.0
 20
0.0
 30
0.0
  3
*Paper_Space0
  1

  0
ENDBLK
  5
25
330
23
100
AcDbEntity
  8
0
100
AcDbBlockEnd
  0
ENDSEC
  0
SECTION
  2
ENTITIES
  0
LINE
  5
7F
330
1F
100
AcDbEntity
  8
0
  6
Continuous
 62
     7
370
    25
100
AcDbLine
 10
6283.318755336
 20
5142.8494545927
 30
0.0
 11
6283.318755336
 21
5142.9494545927
 31
0.0
  0
LINE
  5
80
330
1F
100
AcDbEntity
  8
0
  6
Continuous
 62
     7
370
    25
100
AcDbLine
 10
6264.718755336
 20
5142.9494545927
 30
0.0
 11
6264.718755336
 21
5142.8494545927
 31
0.0
  0
ARC
  5
81
330
1F
100
AcDbEntity
  8
0
  6
Continuous
 62
     7
370
    25
100
AcDbCircle
 10
6288.018755336
 20
5142.3494545927
 30
0.0
 40
0.4999999999990905
100
AcDbArc
 50
0.0
 51
90.0
  0
ARC
  5
82
330
1F
100
AcDbEntity
  8
0
  6
Continuous
 62
     7
370
    25
100
AcDbCircle
 10
6260.018755336
 20
5142.3494545927
 30
0.0
 40
0.5000000000009095
100
AcDbArc
 50
90.0
 51
180.0
  0
LINE
  5
83
330
1F
100
AcDbEntity
  8
0
  6
Continuous
 62
     7
370
    25
100
AcDbLine
 10
6288.518755336
 20
5141.0494545927
 30
0.0
 11
6288.518755336
 21
5142.3494545927
 31
0.0
  0
LINE
  5
84
330
1F
100
AcDbEntity
  8
0
  6
Continuous
 62
     7
370
    25
100
AcDbLine
 10
6288.518755336
 20
5122.4494545927
 30
0.0
 11
6288.518755336
 21
5125.4494545927
 31
0.0
  0
LINE
  5
85
330
1F
100
AcDbEntity
  8
0
  6
Continuous
 62
     7
370
    25
100
AcDbLine
 10
6259.518755336
 20
5125.4494545927
 30
0.0
 11
6259.518755336
 21
5122.4494545927
 31
0.0
  0
LINE
  5
86
330
1F
100
AcDbEntity
  8
0
  6
Continuous
 62
     7
370
    25
100
AcDbLine
 10
6259.518755336
 20
5142.3494545927
 30
0.0
 11
6259.518755336
 21
5141.0494545927
 31
0.0
  0
LINE
  5
87
330
1F
100
AcDbEntity
  8
0
  6
Continuous
 62
     7
370
    25
100
AcDbLine
 10
6284.018755336
 20
5272.9494545927
 30
0.0
 11
6284.018755336
 21
5288.6089912405
 31
0.0
  0
LINE
  5
88
330
1F
100
AcDbEntity
  8
0
  6
Continuous
 62
     7
370
    25
100
AcDbLine
 10
6264.018755336
 20
5288.6089912405
 30
0.0
 11
6264.018755336
 21
5272.9494545927
 31
0.0
  0
LINE
  5
89
330
1F
100
AcDbEntity
  8
0
  6
Continuous
 62
     7
370
    25
100
AcDbLine
 10
6284.018755336
 20
5288.6089912405
 30
0.0
 11
6284.018755336
 21
5304.2685278884
 31
0.0
  0
LINE
  5
8A
330
1F
100
AcDbEntity
  8
0
  6
Continuous
 62
     7
370
    25
100
AcDbLine
 10
6264.018755336
 20
5304.2685278884
 30
0.0
 11
6264.018755336
 21
5288.6089912405
 31
0.0
  0
ARC
  5
8B
330
1F
100
AcDbEntity
  8
0
  6
Continuous
 62
     7
370
    25
100
AcDbCircle
 10
6274.018755336
 20
5377.9494545927
 30
0.0
 40
10.00000000000091
100
AcDbArc
 50
0.0
 51
180.0
  0
LINE
  5
8C
330
1F
100
AcDbEntity
  8
0
  6
Continuous
 62
     7
370
    25
100
AcDbLine
 10
6264.018755336
 20
5377.9494545927
 30
0.0
 11
6264.018755336
 21
5304.2685278884
 31
0.0
  0
LINE
  5
8D
330
1F
100
AcDbEntity
  8
0
  6
Continuous
 62
     7
370
    25
100
AcDbLine
 10
6284.018755336
 20
5304.2685278884
 30
0.0
 11
6284.018755336
 21
5377.9494545927
 31
0.0
  0
LINE
  5
8E
330
1F
100
AcDbEntity
  8
0
  6
Continuous
 62
     7
370
    25
100
AcDbLine
 10
6264.018755336
 20
5272.9494545927
 30
0.0
 11
6264.018755336
 21
5142.9494545927
 31
0.0
  0
LINE
  5
8F
330
1F
100
AcDbEntity
  8
0
  6
Continuous
 62
     7
370
    25
100
AcDbLine
 10
6284.018755336
 20
5142.9494545927
 30
0.0
 11
6284.018755336
 21
5272.9494545927
 31
0.0
  0
LINE
  5
90
330
1F
100
AcDbEntity
  8
0
  6
Continuous
 62
     7
370
    25
100
AcDbLine
 10
6266.518755336
 20
5273.5206942255
 30
0.0
 11
6266.518755336
 21
5272.9494545927
 31
0.0
  0
LINE
  5
91
330
1F
100
AcDbEntity
  8
0
  6
Continuous
 62
     7
370
    25
100
AcDbLine
 10
6281.518755336
 20
5272.9494545927
 30
0.0
 11
6281.518755336
 21
5273.5206942255
 31
0.0
  0
LINE
  5
92
330
1F
100
AcDbEntity
  8
0
  6
Continuous
 62
     7
370
    25
100
AcDbLine
 10
6250.0187553361
 20
5117.5749430155
 30
0.0
 11
6250.0187553361
 21
5039.4494545927
 31
0.0
  0
LINE
  5
93
330
1F
100
AcDbEntity
  8
0
  6
Continuous
 62
     7
370
    25
100
AcDbLine
 10
6298.0187553361
 20
5039.4494545927
 30
0.0
 11
6298.0187553361
 21
5117.5749430155
 31
0.0
  0
ARC
  5
94
330
1F
100
AcDbEntity
  8
0
  6
Continuous
 62
     7
370
    25
100
AcDbCircle
 10
6252.0187553361
 20
5117.5749430155
 30
0.0
 40
2.0
100
AcDbArc
 50
97.0
 51
180.0
  0
ARC
  5
95
330
1F
100
AcDbEntity
  8
0
  6
Continuous
 62
     7
370
    25
100
AcDbCircle
 10
6296.0187553361
 20
5117.5749430155
 30
0.0
 40
2.0
100
AcDbArc
 50
0.0
 51
83.0
  0
LINE
  5
96
330
1F
100
AcDbEntity
  8
0
  6
Continuous
 62
     7
370
    25
100
AcDbLine
 10
6296.2624940229
 20
5119.5600353188
 30
0.0
 11
6289.0187553361
 21
5120.4494545927
 31
0.0
  0
LINE
  5
97
330
1F
100
AcDbEntity
  8
0
  6
Continuous
 62
     7
370
    25
100
AcDbLine
 10
6259.0187553361
 20
5120.4494545927
 30
0.0
 11
6251.7750166493
 21
5119.5600353188
 31
0.0
  0
LINE
  5
98
330
1F
100
AcDbEntity
  8
0
  6
Continuous
 62
     7
370
    25
100
AcDbLine
 10
6261.7687553361
 20
5122.4494545927
 30
0.0
 11
6261.7687553361
 21
5120.4494545927
 31
0.0
  0
LINE
  5
99
330
1F
100
AcDbEntity
  8
0
  6
Continuous
 62
     7
370
    25
100
AcDbLine
 10
6286.2687553361
 20
5120.4494545927
 30
0.0
 11
6286.2687553361
 21
5122.4494545927
 31
0.0
  0
LINE
  5
9A
330
1F
100
AcDbEntity
  8
0
  6
Continuous
 62
     7
370
    25
100
AcDbLine
 10
6288.018755336
 20
5142.8494545927
 30
0.0
 11
6260.018755336
 21
5142.8494545927
 31
0.0
  0
LINE
  5
9B
330
1F
100
AcDbEntity
  8
0
  6
Continuous
 62
     7
370
    25
100
AcDbLine
 10
6287.968755336
 20
5141.0494545927
 30
0.0
 11
6288.518755336
 21
5141.0494545927
 31
0.0
  0
LINE
  5
9C
330
1F
100
AcDbEntity
  8
0
  6
Continuous
 62
     7
370
    25
100
AcDbLine
 10
6287.968755336
 20
5125.4494545927
 30
0.0
 11
6287.968755336
 21
5141.0494545927
 31
0.0
  0
LINE
  5
9D
330
1F
100
AcDbEntity
  8
0
  6
Continuous
 62
     7
370
    25
100
AcDbLine
 10
6288.518755336
 20
5125.4494545927
 30
0.0
 11
6287.968755336
 21
5125.4494545927
 31
0.0
  0
LINE
  5
9E
330
1F
100
AcDbEntity
  8
0
  6
Continuous
 62
     7
370
    25
100
AcDbLine
 10
6260.068755336
 20
5125.4494545927
 30
0.0
 11
6259.518755336
 21
5125.4494545927
 31
0.0
  0
LINE
  5
9F
330
1F
100
AcDbEntity
  8
0
  6
Continuous
 62
     7
370
    25
100
AcDbLine
 10
6260.068755336
 20
5141.0494545927
 30
0.0
 11
6260.068755336
 21
5125.4494545927
 31
0.0
  0
LINE
  5
A0
330
1F
100
AcDbEntity
  8
0
  6
Continuous
 62
     7
370
    25
100
AcDbLine
 10
6259.518755336
 20
5141.0494545927
 30
0.0
 11
6260.068755336
 21
5141.0494545927
 31
0.0
  0
LINE
  5
A1
330
1F
100
AcDbEntity
  8
0
  6
Continuous
 62
     7
370
    25
100
AcDbLine
 10
6288.518755336
 20
5122.4494545927
 30
0.0
 11
6259.518755336
 21
5122.4494545927
 31
0.0
  0
LWPOLYLINE
  5
A2
330
1F
100
AcDbEntity
  8
0
  6
Continuous
 62
     7
370
    25
100
AcDbPolyline
 90
       38
 70
   128
 43
0.0
 10
6274.018755336
 20
5270.8975012574
 10
6275.7087635392
 20
5270.9270167381
 10
6277.3501532834
 20
5271.0147140737
 10
6278.8957047741
 20
5271.1580703714
 10
6280.300955309
 20
5271.3529615316
 10
6281.5254783885
 20
5271.5937808905
 10
6282.5340467133
 20
5271.8736005135
 10
6283.297645609
 20
5272.1843704995
 10
6283.7943077255
 20
5272.517150562
 10
6284.0097449981
 20
5272.8623672243
 10
6283.9377596886
 20
5273.2100892316
 10
6283.5804226834
 20
5273.5503132549
 10
6282.9480139175
 20
5273.8732516685
 10
6282.0587266397
 20
5274.1696141221
 10
6280.9381440258
 20
5274.4308748077
 10
6279.6185031974
 20
5274.6495177308
 10
6278.1377678184
 20
5274.8192529328
 10
6276.5385359499
 20
5274.9351974409
 10
6274.8668145808
 20
5274.9940157426
 10
6273.1706960913
 20
5274.9940157426
 10
6271.4989747222
 20
5274.9351974409
 10
6269.8997428536
 20
5274.8192529328
 10
6268.4190074746
 20
5274.6495177308
 10
6267.0993666462
 20
5274.4308748077
 10
6265.9787840323
 20
5274.1696141221
 10
6265.0894967545
 20
5273.8732516685
 10
6264.4570879886
 20
5273.5503132549
 10
6264.0997509834
 20
5273.2100892316
 10
6264.027765674
 20
5272.8623672243
 10
6264.2432029465
 20
5272.517150562
 10
6264.739865063
 20
5272.1843704995
 10
6265.5034639587
 20
5271.8736005135
 10
6266.5120322835
 20
5271.5937808905
 10
6267.7365553631
 20
5271.3529615316
 10
6269.1418058979
 20
5271.1580703714
 10
6270.6873573886
 20
5271.0147140737
 10
6272.3287471328
 20
5270.9270167381
 10
6274.018755336
 20
5270.8975012574
  0
LWPOLYLINE
  5
A3
330
1F
100
AcDbEntity
  8
0
  6
Continuous
 62
     7
370
    25
100
AcDbPolyline
 90
       34
 70
   128
 43
0.0
 10
6274.018755336
 20
5274.591017261
 10
6275.5327652909
 20
5274.561352085
 10
6276.9920549813
 20
5274.473428734
 10
6278.3438818757
 20
5274.3304249868
 10
6279.5393874279
 20
5274.1375093714
 10
6280.5353629524
 20
5273.9016543609
 10
6281.2958112988
 20
5273.6313843699
 10
6281.7932478826
 20
5273.33646766
 10
6282.0096940495
 20
5273.0275632894
 10
6281.9373268711
 20
5272.7158358671
 10
6281.5787618857
 20
5272.4125520342
 10
6280.9469585663
 20
5272.1286732586
 10
6280.0647519308
 20
5271.874459659
 10
6278.9640272258
 20
5271.6590991771
 10
6277.6845675098
 20
5271.490375502
 10
6276.2726157907
 20
5271.3743867468
 10
6274.7792036824
 20
5271.3153250473
 10
6273.2583069896
 20
5271.3153250473
 10
6271.7648948813
 20
5271.3743867468
 10
6270.3529431622
 20
5271.490375502
 10
6269.0734834462
 20
5271.6590991771
 10
6267.9727587412
 20
5271.874459659
 10
6267.0905521057
 20
5272.1286732586
 10
6266.4587487863
 20
5272.4125520342
 10
6266.100183801
 20
5272.7158358671
 10
6266.0278166225
 20
5273.0275632894
 10
6266.2442627894
 20
5273.33646766
 10
6266.7416993732
 20
5273.6313843699
 10
6267.5021477196
 20
5273.9016543609
 10
6268.4981232442
 20
5274.1375093714
 10
6269.6936287964
 20
5274.3304249868
 10
6271.0454556907
 20
5274.473428734
 10
6272.5047453811
 20
5274.561352085
 10
6274.018755336
 20
5274.591017261
  0
LINE
  5
A4
330
1F
100
AcDbEntity
  8
0
  6
Continuous
 62
     7
370
    25
100
AcDbLine
 10
6274.018755336
 20
5142.9494545927
 30
0.0
 11
6284.018755336
 21
5142.9494545927
 31
0.0
  0
LINE
  5
A5
330
1F
100
AcDbEntity
  8
0
  6
Continuous
 62
     7
370
    25
100
AcDbLine
 10
6264.018755336
 20
5142.9494545927
 30
0.0
 11
6274.018755336
 21
5142.9494545927
 31
0.0
  0
LWPOLYLINE
  5
A6
330
1F
100
AcDbEntity
  8
0
  6
Continuous
 62
     7
370
    25
100
AcDbPolyline
 90
       33
 70
   128
 43
0.0
 10
6274.018755336
 20
5274.4884195942
 10
6275.4819327511
 20
5274.4588488132
 10
6276.8888810787
 20
5274.3712728589
 10
6278.1855320837
 20
5274.2290572259
 10
6279.3220561949
 20
5274.0376671813
 10
6280.2547774283
 20
5273.8044577372
 10
6280.9478518298
 20
5273.5383910018
 10
6281.374644939
 20
5273.2496917704
 10
6281.518755336
 20
5272.9494545927
 10
6281.374644939
 20
5272.649217415
 10
6280.9478518298
 20
5272.3605181837
 10
6280.2547774283
 20
5272.0944514482
 10
6279.3220561949
 20
5271.8612420042
 10
6278.1855320837
 20
5271.6698519596
 10
6276.8888810787
 20
5271.5276363266
 10
6275.4819327511
 20
5271.4400603722
 10
6274.018755336
 20
5271.4104895912
 10
6272.5555779209
 20
5271.4400603722
 10
6271.1486295933
 20
5271.5276363266
 10
6269.8519785884
 20
5271.6698519596
 10
6268.7154544771
 20
5271.8612420042
 10
6267.7827332437
 20
5272.0944514482
 10
6267.0896588422
 20
5272.3605181837
 10
6266.662865733
 20
5272.649217415
 10
6266.518755336
 20
5272.9494545927
 10
6266.662865733
 20
5273.2496917704
 10
6267.0896588422
 20
5273.5383910018
 10
6267.7827332437
 20
5273.8044577372
 10
6268.7154544771
 20
5274.0376671813
 10
6269.8519785884
 20
5274.2290572259
 10
6271.1486295933
 20
5274.3712728589
 10
6272.5555779209
 20
5274.4588488132
 10
6274.018755336
 20
5274.4884195942
  0
ARC
  5
A7
330
1F
100
AcDbEntity
  8
0
  6
Continuous
 62
     7
370
    25
100
AcDbCircle
 10
6274.0288170355
 20
5068.4489253091
 30
0.0
 40
10.89444214977641
100
AcDbArc
 50
179.9999831632
 51
179.9976115205
  0
LINE
  5
A8
330
1F
100
AcDbEntity
  8
0
  6
Continuous
 62
     7
370
    25
100
AcDbLine
 10
6263.1343748857
 20
5068.4489285105
 30
0.0
 11
6263.4133528381
 21
5068.448928499
 31
0.0
  0
LWPOLYLINE
  5
A9
330
1F
100
AcDbEntity
  8
0
  6
Continuous
 62
     7
370
    25
100
AcDbPolyline
 90
       34
 70
   128
 43
0.0
 10
6263.4133528381
 20
5068.448928499
 10
6263.5394647442
 20
5066.8498718176
 10
6263.9274118629
 20
5065.2508151285
 10
6265.3777641493
 20
5062.4202129485
 10
6267.7756032893
 20
5060.0437586505
 10
6269.3209589406
 20
5059.1271053763
 10
6271.0676632104
 20
5058.4623794763
 10
6272.7873510679
 20
5058.1220555226
 10
6274.6038645316
 20
5058.0677356455
 10
6276.240902305
 20
5058.2825980119
 10
6277.8611390377
 20
5058.7579915809
 10
6280.736737031
 20
5060.4030487413
 10
6281.9983556689
 20
5061.599716444
 10
6283.0710785487
 20
5063.0313430551
 10
6283.8821726423
 20
5064.6278094855
 10
6284.4200849997
 20
5066.4190287591
 10
6284.61710003
 20
5068.0698373304
 10
6284.5357626337
 20
5069.7903932169
 10
6283.6815679702
 20
5072.7355997755
 10
6281.9281576818
 20
5075.3771945977
 10
6280.6619242174
 20
5076.5551448934
 10
6279.1723413017
 20
5077.5374877177
 10
6277.5234960806
 20
5078.263066254
 10
6275.7026402679
 20
5078.7151798663
 10
6273.9953006897
 20
5078.8469877569
 10
6272.2350338074
 20
5078.699001217
 10
6269.10977072
 20
5077.6666770035
 10
6267.6837234229
 20
5076.7889146706
 10
6266.3898807532
 20
5075.6731077494
 10
6265.2586754304
 20
5074.3111988876
 10
6264.3488900029
 20
5072.720361765
 10
6263.7527840086
 20
5071.0596231788
 10
6263.444212696
 20
5069.2419283433
 10
6263.4133528473
 20
5068.4493586609
  0
LWPOLYLINE
  5
AA
330
1F
100
AcDbEntity
  8
0
  6
Continuous
 62
     7
370
    25
100
AcDbPolyline
 90
        9
 70
   128
 43
0.0
 10
6263.4133528473
 20
5068.4493586609
 10
6263.3541847468
 20
5068.4493618549
 10
6263.3002624129
 20
5068.4493649891
 10
6263.252595663
 20
5068.4493680047
 10
6263.2120771646
 20
5068.4493708454
 10
6263.1794657179
 20
5068.4493734579
 10
6263.155372046
 20
5068.4493757933
 10
6263.1402473571
 20
5068.4493778079
 10
6263.1343748952
 20
5068.4493794639
  0
LINE
  5
AB
330
1F
100
AcDbEntity
  8
0
  6
Continuous
 62
     7
370
    25
100
AcDbLine
 10
6263.1343748857
 20
5068.4489285105
 30
0.0
 11
6263.1343748952
 21
5068.4493794639
 31
0.0
  0
LINE
  5
AC
330
1F
100
AcDbEntity
  8
0
  6
Continuous
 62
     7
370
    25
100
AcDbLine
 10
6263.4133528473
 20
5068.4493586609
 30
0.0
 11
6263.4133528381
 21
5068.448928499
 31
0.0
  0
LWPOLYLINE
  5
AD
330
1F
100
AcDbEntity
  8
0
  6
Continuous
 62
     7
370
    25
100
AcDbPolyline
 90
       38
 70
   128
 43
0.0
 10
6274.0187553361
 20
5079.6994545927
 10
6276.7471790202
 20
5079.369242083
 10
6278.3613374417
 20
5078.8425999969
 10
6279.903474838
 20
5078.0675280444
 10
6281.3501237425
 20
5077.0346523637
 10
6282.6412331607
 20
5075.7603595915
 10
6283.7618004255
 20
5074.212361472
 10
6284.6302336321
 20
5072.4278881053
 10
6285.1531339234
 20
5070.6048533765
 10
6285.3617856324
 20
5068.6328511002
 10
6285.2594495245
 20
5066.9307688459
 10
6284.8867333793
 20
5065.2230169169
 10
6283.4601685222
 20
5062.2123320082
 10
6282.334817418
 20
5060.7974337029
 10
6280.9617998113
 20
5059.5524485292
 10
6279.3244943129
 20
5058.5056695945
 10
6277.4548136117
 20
5057.7278894751
 10
6275.6285210094
 20
5057.3132899201
 10
6273.6854444696
 20
5057.2043112965
 10
6272.6767223123
 20
5057.278450169
 10
6270.8954433885
 20
5057.6342185959
 10
6269.1561712821
 20
5058.2852914176
 10
6267.6093392435
 20
5059.1670136723
 10
6266.1953938244
 20
5060.3024706477
 10
6264.9455853727
 20
5061.6962027686
 10
6263.9162519028
 20
5063.3312667852
 10
6263.1837340997
 20
5065.1157944005
 10
6262.7573420242
 20
5067.0900722047
 10
6262.6815153782
 20
5068.8529159468
 10
6262.8956569753
 20
5070.6613872873
 10
6264.0240019967
 20
5073.7716145644
 10
6264.9746623138
 20
5075.2409537985
 10
6266.1673466225
 20
5076.5698616422
 10
6267.6646063321
 20
5077.7691867112
 10
6269.4087804131
 20
5078.7287227184
 10
6271.2203845001
 20
5079.3518209188
 10
6273.1928165265
 20
5079.6695993017
 10
6274.0187553361
 20
5079.6994545927
  0
CIRCLE
  5
AE
330
1F
100
AcDbEntity
  8
0
  6
Continuous
 62
     7
370
    25
100
AcDbCircle
 10
6274.0187553361
 20
5068.4494545927
 30
0.0
 40
11.04999999999927
  0
LINE
  5
AF
330
1F
100
AcDbEntity
  8
0
  6
Continuous
 62
     7
370
    25
100
AcDbLine
 10
6250.0187553361
 20
5039.4494545927
 30
0.0
 11
6298.0187553361
 21
5039.4494545927
 31
0.0
  0
LINE
  5
B0
330
1F
100
AcDbEntity
  8
0
  6
Continuous
 62
     7
370
    25
100
AcDbLine
 10
6259.0187553361
 20
5120.4494545927
 30
0.0
 11
6289.0187553361
 21
5120.4494545927
 31
0.0
  0
LINE
  5
B1
330
1F
100
AcDbEntity
  8
0
  6
Continuous
 62
     8
370
    25
100
AcDbLine
 10
6288.518755336
 20
5142.3494545927
 30
0.0
 11
6259.518755336
 21
5142.3494545927
 31
0.0
  0
LWPOLYLINE
  5
B2
330
1F
100
AcDbEntity
  8
0
  6
Continuous
 62
     8
370
    25
100
AcDbPolyline
 90
       20
 70
   128
 43
0.0
 10
6284.018755336
 20
5288.6089912405
 10
6283.9377596886
 20
5288.8696258794
 10
6283.5804226834
 20
5289.2098499027
 10
6282.9480139175
 20
5289.5327883163
 10
6282.0587266397
 20
5289.82915077
 10
6280.9381440258
 20
5290.0904114555
 10
6279.6185031974
 20
5290.3090543787
 10
6278.1377678184
 20
5290.4787895806
 10
6276.5385359499
 20
5290.5947340887
 10
6274.8668145808
 20
5290.6535523905
 10
6273.1706960913
 20
5290.6535523905
 10
6271.4989747222
 20
5290.5947340887
 10
6269.8997428536
 20
5290.4787895806
 10
6268.4190074746
 20
5290.3090543787
 10
6267.0993666462
 20
5290.0904114555
 10
6265.9787840323
 20
5289.82915077
 10
6265.0894967545
 20
5289.5327883163
 10
6264.4570879886
 20
5289.2098499027
 10
6264.0997509834
 20
5288.8696258794
 10
6264.018755336
 20
5288.6089912405
  0
LWPOLYLINE
  5
B3
330
1F
100
AcDbEntity
  8
0
  6
Continuous
 62
     8
370
    25
100
AcDbPolyline
 90
       20
 70
   128
 43
0.0
 10
6284.018755336
 20
5304.2685278884
 10
6283.9377596886
 20
5304.5291625273
 10
6283.5804226834
 20
5304.8693865506
 10
6282.9480139175
 20
5305.1923249641
 10
6282.0587266397
 20
5305.4886874178
 10
6280.9381440258
 20
5305.7499481033
 10
6279.6185031974
 20
5305.9685910265
 10
6278.1377678184
 20
5306.1383262285
 10
6276.5385359499
 20
5306.2542707365
 10
6274.8668145808
 20
5306.3130890383
 10
6273.1706960913
 20
5306.3130890383
 10
6271.4989747222
 20
5306.2542707365
 10
6269.8997428536
 20
5306.1383262285
 10
6268.4190074746
 20
5305.9685910265
 10
6267.0993666462
 20
5305.7499481033
 10
6265.9787840323
 20
5305.4886874178
 10
6265.0894967545
 20
5305.1923249641
 10
6264.4570879886
 20
5304.8693865506
 10
6264.0997509834
 20
5304.5291625273
 10
6264.018755336
 20
5304.2685278884
  0
LINE
  5
B4
330
1F
100
AcDbEntity
  8
0
  6
Continuous
 62
     8
370
    25
100
AcDbLine
 10
6250.0187553361
 20
5117.5749430155
 30
0.0
 11
6298.0187553361
 21
5117.5749430155
 31
0.0
  0
LINE
  5
B5
330
1F
100
AcDbEntity
  8
0
  6
Continuous
 62
     8
370
    25
100
AcDbLine
 10
6251.7750166493
 20
5119.5600353188
 30
0.0
 11
6296.2624940229
 21
5119.5600353188
 31
0.0
  0
LINE
  5
B6
330
1F
100
AcDbEntity
  8
0
  6
Continuous
 62
     7
370
    25
100
AcDbLine
 10
6264.018755336
 20
4868.5060791324
 30
0.0
 11
6264.018755336
 21
4685.0723298054
 31
0.0
  0
LINE
  5
B7
330
1F
100
AcDbEntity
  8
0
  6
Continuous
 62
     7
370
    25
100
AcDbLine
 10
6284.018755336
 20
4685.0723298054
 30
0.0
 11
6284.018755336
 21
4868.5060791324
 31
0.0
  0
LINE
  5
B8
330
1F
100
AcDbEntity
  8
0
  6
Continuous
 62
     7
370
    25
100
AcDbLine
 10
6284.018755336
 20
4681.7892044689
 30
0.0
 11
6284.018755336
 21
4685.0723298054
 31
0.0
  0
LINE
  5
B9
330
1F
100
AcDbEntity
  8
0
  6
Continuous
 62
     7
370
    25
100
AcDbLine
 10
6264.018755336
 20
4685.0723298054
 30
0.0
 11
6264.018755336
 21
4681.7892044689
 31
0.0
  0
LINE
  5
BA
330
1F
100
AcDbEntity
  8
0
  6
Continuous
 62
     7
370
    25
100
AcDbLine
 10
6284.018755336
 20
4678.5060791324
 30
0.0
 11
6284.018755336
 21
4681.7892044689
 31
0.0
  0
LINE
  5
BB
330
1F
100
AcDbEntity
  8
0
  6
Continuous
 62
     7
370
    25
100
AcDbLine
 10
6264.018755336
 20
4681.7892044689
 30
0.0
 11
6264.018755336
 21
4678.5060791324
 31
0.0
  0
ARC
  5
BC
330
1F
100
AcDbEntity
  8
0
  6
Continuous
 62
     7
370
    25
100
AcDbCircle
 10
6274.018755336
 20
4868.5060791324
 30
0.0
 40
14.50000000000129
100
AcDbArc
 50
313.6028189727
 51
90.0
  0
ARC
  5
BD
330
1F
100
AcDbEntity
  8
0
  6
Continuous
 62
     7
370
    25
100
AcDbCircle
 10
6274.018755336
 20
4868.5060791324
 30
0.0
 40
14.50000000000003
100
AcDbArc
 50
90.0
 51
226.3971810273
  0
ARC
  5
BE
330
1F
100
AcDbEntity
  8
0
  6
Continuous
 62
     7
370
    25
100
AcDbCircle
 10
6274.018755336
 20
4868.5060791324
 30
0.0
 40
10.00000000000091
100
AcDbArc
 50
0.0
 51
180.0
  0
ARC
  5
BF
330
1F
100
AcDbEntity
  8
0
  6
Continuous
 62
     7
370
    25
100
AcDbCircle
 10
6274.018755336
 20
4678.6719224326
 30
0.0
 40
10.0013751054648
100
AcDbArc
 50
180.9501250149
 51
359.0498749851
  0
ARC
  5
C0
330
1F
100
AcDbEntity
  8
0
  6
Continuous
 62
     7
370
    25
100
AcDbCircle
 10
6274.0187553361
 20
4869.5060791323
 30
0.0
 40
15.00000000000091
100
AcDbArc
 50
180.0
 51
211.6682395659
  0
ARC
  5
C1
330
1F
100
AcDbEntity
  8
0
  6
Continuous
 62
     7
370
    25
100
AcDbCircle
 10
6274.0187553361
 20
4869.5060791323
 30
0.0
 40
15.00000000000091
100
AcDbArc
 50
328.3317591987
 51
180.0
  0
ARC
  5
C2
330
1F
100
AcDbEntity
  8
0
  6
Continuous
 62
     7
370
    25
100
AcDbCircle
 10
6274.0187553361
 20
4869.5060791323
 30
0.0
 40
24.0
100
AcDbArc
 50
180.0
 51
245.3756816476
  0
ARC
  5
C3
330
1F
100
AcDbEntity
  8
0
  6
Continuous
 62
     7
370
    25
100
AcDbCircle
 10
6274.0187553361
 20
4869.5060791323
 30
0.0
 40
24.0
100
AcDbArc
 50
294.6243183519
 51
180.0
  0
ARC
  5
C4
330
1F
100
AcDbEntity
  8
0
  6
Continuous
 62
     8
370
    25
100
AcDbCircle
 10
6274.018755336
 20
4868.5060791324
 30
0.0
 40
14.00000000000091
100
AcDbArc
 50
315.5846914028
 51
90.0
  0
ARC
  5
C5
330
1F
100
AcDbEntity
  8
0
  6
Continuous
 62
     8
370
    25
100
AcDbCircle
 10
6274.018755336
 20
4868.5060791324
 30
0.0
 40
14.0
100
AcDbArc
 50
90.0
 51
224.4153085972
  0
ARC
  5
C6
330
1F
100
AcDbEntity
  8
0
  6
Continuous
 62
     8
370
    25
100
AcDbCircle
 10
6274.018755336
 20
4685.2381731056
 30
0.0
 40
10.00137510546477
100
AcDbArc
 50
180.9501250149
 51
359.0498749851
  0
ARC
  5
C7
330
1F
100
AcDbEntity
  8
0
  6
Continuous
 62
     8
370
    25
100
AcDbCircle
 10
6274.018755336
 20
4681.9550477691
 30
0.0
 40
10.00137510546479
100
AcDbArc
 50
180.9501250149
 51
359.0498749851
  0
ARC
  5
C8
330
1F
100
AcDbEntity
  8
0
  6
Continuous
 62
     8
370
    25
100
AcDbCircle
 10
6274.0187553361
 20
4869.5060791323
 30
0.0
 40
22.24373868681029
100
AcDbArc
 50
180.0
 51
243.2842401774
  0
ARC
  5
C9
330
1F
100
AcDbEntity
  8
0
  6
Continuous
 62
     8
370
    25
100
AcDbCircle
 10
6274.0187553361
 20
4869.5060791323
 30
0.0
 40
22.24373868680976
100
AcDbArc
 50
296.7157598221
 51
180.0
  0
LINE
  5
CA
330
1F
100
AcDbEntity
  8
0
  6
Continuous
 62
     7
370
    25
100
AcDbLine
 10
6477.8223112921
 20
5142.8494545927
 30
0.0
 11
6477.8223112921
 21
5142.9494545927
 31
0.0
  0
LINE
  5
CB
330
1F
100
AcDbEntity
  8
0
  6
Continuous
 62
     7
370
    25
100
AcDbLine
 10
6459.2223112921
 20
5142.9494545927
 30
0.0
 11
6459.2223112921
 21
5142.8494545927
 31
0.0
  0
ARC
  5
CC
330
1F
100
AcDbEntity
  8
0
  6
Continuous
 62
     7
370
    25
100
AcDbCircle
 10
6482.5223112921
 20
5142.3494545927
 30
0.0
 40
0.5
100
AcDbArc
 50
0.0
 51
90.0
  0
ARC
  5
CD
330
1F
100
AcDbEntity
  8
0
  6
Continuous
 62
     7
370
    25
100
AcDbCircle
 10
6454.5223112921
 20
5142.3494545927
 30
0.0
 40
0.5
100
AcDbArc
 50
90.0
 51
180.0
  0
LINE
  5
CE
330
1F
100
AcDbEntity
  8
0
  6
Continuous
 62
     7
370
    25
100
AcDbLine
 10
6483.0223112921
 20
5122.4494545927
 30
0.0
 11
6483.0223112921
 21
5142.3494545927
 31
0.0
  0
LINE
  5
CF
330
1F
100
AcDbEntity
  8
0
  6
Continuous
 62
     7
370
    25
100
AcDbLine
 10
6454.0223112921
 20
5142.3494545927
 30
0.0
 11
6454.0223112921
 21
5122.4494545927
 31
0.0
  0
ARC
  5
D0
330
1F
100
AcDbEntity
  8
0
  6
Continuous
 62
     7
370
    25
100
AcDbCircle
 10
6561.2254996514
 20
5285.2462662334
 30
0.0
 40
82.70318835928265
100
AcDbArc
 50
11.8409339239
 51
180.0
  0
ARC
  5
D1
330
1F
100
AcDbEntity
  8
0
  6
Continuous
 62
     7
370
    25
100
AcDbCircle
 10
6561.2254996514
 20
5285.2462662334
 30
0.0
 40
102.7031883592826
100
AcDbArc
 50
11.8409339239
 51
180.0
  0
LINE
  5
D2
330
1F
100
AcDbEntity
  8
0
  6
Continuous
 62
     7
370
    25
100
AcDbLine
 10
6458.5223112921
 20
5285.2462662334
 30
0.0
 11
6458.5223112921
 21
5142.9494545927
 31
0.0
  0
LINE
  5
D3
330
1F
100
AcDbEntity
  8
0
  6
Continuous
 62
     7
370
    25
100
AcDbLine
 10
6478.5223112921
 20
5142.9494545927
 30
0.0
 11
6478.5223112921
 21
5285.2462662334
 31
0.0
  0
LINE
  5
D4
330
1F
100
AcDbEntity
  8
0
  6
Continuous
 62
     7
370
    25
100
AcDbLine
 10
6665.0263963605
 20
5290.6609445759
 30
0.0
 11
6661.743271024
 21
5306.3204812237
 31
0.0
  0
LINE
  5
D5
330
1F
100
AcDbEntity
  8
0
  6
Continuous
 62
     7
370
    25
100
AcDbLine
 10
6642.1688502142
 20
5302.216574553
 30
0.0
 11
6645.4519755507
 21
5286.5570379052
 31
0.0
  0
LINE
  5
D6
330
1F
100
AcDbEntity
  8
0
  6
Continuous
 62
     7
370
    25
100
AcDbLine
 10
6668.309521697
 20
5275.001407928
 30
0.0
 11
6665.0263963605
 21
5290.6609445759
 31
0.0
  0
LINE
  5
D7
330
1F
100
AcDbEntity
  8
0
  6
Continuous
 62
     7
370
    25
100
AcDbLine
 10
6645.4519755507
 20
5286.5570379052
 30
0.0
 11
6648.7351008872
 21
5270.8975012574
 31
0.0
  0
LWPOLYLINE
  5
D8
330
1F
100
AcDbEntity
  8
0
  6
Continuous
 62
     7
370
    25
100
AcDbPolyline
 90
        3
 70
   128
 43
0.0
 10
6491.3019289287
 20
5057.6390503467
 10
6491.4218612063
 20
5057.7534913057
 10
6491.450903963
 20
5057.8056961932
  0
LINE
  5
D9
330
1F
100
AcDbEntity
  8
0
  6
Continuous
 62
     7
370
    25
100
AcDbLine
 10
6491.5223112923
 20
5058.0852263185
 30
0.0
 11
6491.5223112923
 21
5078.8451792044
 31
0.0
  0
LINE
  5
DA
330
1F
100
AcDbEntity
  8
0
  6
Continuous
 62
     7
370
    25
100
AcDbLine
 10
6443.5223112923
 20
5117.5749430155
 30
0.0
 11
6443.5223112923
 21
5039.4494545927
 31
0.0
  0
LINE
  5
DB
330
1F
100
AcDbEntity
  8
0
  6
Continuous
 62
     7
370
    25
100
AcDbLine
 10
6491.5223112923
 20
5079.6994545927
 30
0.0
 11
6491.5223112923
 21
5117.5749430155
 31
0.0
  0
LINE
  5
DC
330
1F
100
AcDbEntity
  8
0
  6
Continuous
 62
     7
370
    25
100
AcDbLine
 10
6491.5223112923
 20
5039.4494545927
 30
0.0
 11
6491.5223112923
 21
5057.2229885427
 31
0.0
  0
ARC
  5
DD
330
1F
100
AcDbEntity
  8
0
  6
Continuous
 62
     7
370
    25
100
AcDbCircle
 10
6445.5223112923
 20
5117.5749430155
 30
0.0
 40
2.000000000000909
100
AcDbArc
 50
97.0
 51
180.0
  0
ARC
  5
DE
330
1F
100
AcDbEntity
  8
0
  6
Continuous
 62
     7
370
    25
100
AcDbCircle
 10
6489.5223112923
 20
5117.5749430155
 30
0.0
 40
2.000000000000107
100
AcDbArc
 50
0.0
 51
83.0
  0
LINE
  5
DF
330
1F
100
AcDbEntity
  8
0
  6
Continuous
 62
     7
370
    25
100
AcDbLine
 10
6489.7660499791
 20
5119.5600353188
 30
0.0
 11
6482.5223112923
 21
5120.4494545927
 31
0.0
  0
LINE
  5
E0
330
1F
100
AcDbEntity
  8
0
  6
Continuous
 62
     7
370
    25
100
AcDbLine
 10
6452.5223112923
 20
5120.4494545927
 30
0.0
 11
6445.2785726055
 21
5119.5600353188
 31
0.0
  0
LINE
  5
E1
330
1F
100
AcDbEntity
  8
0
  6
Continuous
 62
     7
370
    25
100
AcDbLine
 10
6455.2723112923
 20
5122.4494545927
 30
0.0
 11
6455.2723112923
 21
5120.4494545927
 31
0.0
  0
LINE
  5
E2
330
1F
100
AcDbEntity
  8
0
  6
Continuous
 62
     7
370
    25
100
AcDbLine
 10
6479.7723112923
 20
5120.4494545927
 30
0.0
 11
6479.7723112923
 21
5122.4494545927
 31
0.0
  0
ARC
  5
E3
330
1F
100
AcDbEntity
  8
0
  6
Continuous
 62
     7
370
    25
100
AcDbCircle
 10
6491.3357281279
 20
5079.6949791574
 30
0.0
 40
0.1857375450679399
100
AcDbArc
 50
334.8629921738
 51
29.8943598055
  0
LINE
  5
E4
330
1F
100
AcDbEntity
  8
0
  6
Continuous
 62
     7
370
    25
100
AcDbLine
 10
6454.5223112921
 20
5142.8494545927
 30
0.0
 11
6482.5223112921
 21
5142.8494545927
 31
0.0
  0
LINE
  5
E5
330
1F
100
AcDbEntity
  8
0
  6
Continuous
 62
     7
370
    25
100
AcDbLine
 10
6472.4780033934
 20
5125.4494545927
 30
0.0
 11
6464.5666191909
 21
5125.4494545927
 31
0.0
  0
LINE
  5
E6
330
1F
100
AcDbEntity
  8
0
  6
Continuous
 62
     7
370
    25
100
AcDbLine
 10
6472.4780033934
 20
5141.0494545927
 30
0.0
 11
6472.4780033934
 21
5125.4494545927
 31
0.0
  0
LINE
  5
E7
330
1F
100
AcDbEntity
  8
0
  6
Continuous
 62
     7
370
    25
100
AcDbLine
 10
6464.5666191909
 20
5141.0494545927
 30
0.0
 11
6472.4780033934
 21
5141.0494545927
 31
0.0
  0
LINE
  5
E8
330
1F
100
AcDbEntity
  8
0
  6
Continuous
 62
     7
370
    25
100
AcDbLine
 10
6464.5666191909
 20
5125.4494545927
 30
0.0
 11
6464.5666191909
 21
5141.0494545927
 31
0.0
  0
LINE
  5
E9
330
1F
100
AcDbEntity
  8
0
  6
Continuous
 62
     7
370
    25
100
AcDbLine
 10
6483.0223112921
 20
5122.4494545927
 30
0.0
 11
6454.0223112921
 21
5122.4494545927
 31
0.0
  0
LINE
  5
EA
330
1F
100
AcDbEntity
  8
0
  6
Continuous
 62
     7
370
    25
100
AcDbLine
 10
6458.5223112921
 20
5142.9494545927
 30
0.0
 11
6478.5223112921
 21
5142.9494545927
 31
0.0
  0
LINE
  5
EB
330
1F
100
AcDbEntity
  8
0
  6
Continuous
 62
     7
370
    25
100
AcDbLine
 10
6668.309521697
 20
5275.001407928
 30
0.0
 11
6648.7351008872
 21
5270.8975012574
 31
0.0
  0
LINE
  5
EC
330
1F
100
AcDbEntity
  8
0
  6
Continuous
 62
     7
370
    25
100
AcDbLine
 10
6488.6121439948
 20
5068.4489285105
 30
0.0
 11
6489.051951973
 21
5068.448928499
 31
0.0
  0
ARC
  5
ED
330
1F
100
AcDbEntity
  8
0
  6
Continuous
 62
     7
370
    25
100
AcDbCircle
 10
6515.3507918828
 20
5069.2068724254
 30
0.0
 40
26.30975977834485
100
AcDbArc
 50
181.6508321467
 51
205.006886498
  0
ARC
  5
EE
330
1F
100
AcDbEntity
  8
0
  6
Continuous
 62
     7
370
    25
100
AcDbCircle
 10
6514.6234919139
 20
5067.8661541566
 30
0.0
 40
25.5781895803813
100
AcDbArc
 50
154.5765656923
 51
178.6934942144
  0
LWPOLYLINE
  5
EF
330
1F
100
AcDbEntity
  8
0
  6
Continuous
 62
     7
370
    25
100
AcDbPolyline
 90
        9
 70
   128
 43
0.0
 10
6489.0519519776
 20
5068.4493586609
 10
6489.0175870247
 20
5068.4493618549
 10
6488.9754658185
 20
5068.4493649891
 10
6488.9263771735
 20
5068.4493680047
 10
6488.8712403855
 20
5068.4493708454
 10
6488.8110880152
 20
5068.4493734579
 10
6488.7470465514
 20
5068.4493757933
 10
6488.6803153151
 20
5068.4493778079
 10
6488.6121439992
 20
5068.4493794639
  0
LINE
  5
F0
330
1F
100
AcDbEntity
  8
0
  6
Continuous
 62
     7
370
    25
100
AcDbLine
 10
6489.0519519776
 20
5068.4493586609
 30
0.0
 11
6489.051951973
 21
5068.448928499
 31
0.0
  0
LINE
  5
F1
330
1F
100
AcDbEntity
  8
0
  6
Continuous
 62
     7
370
    25
100
AcDbLine
 10
6467.5223112923
 20
5039.4494545927
 30
0.0
 11
6491.5223112923
 21
5039.4494545927
 31
0.0
  0
LINE
  5
F2
330
1F
100
AcDbEntity
  8
0
  6
Continuous
 62
     7
370
    25
100
AcDbLine
 10
6443.5223112923
 20
5039.4494545927
 30
0.0
 11
6467.5223112923
 21
5039.4494545927
 31
0.0
  0
LWPOLYLINE
  5
F3
330
1F
100
AcDbEntity
  8
0
  6
Continuous
 62
     7
370
    25
100
AcDbPolyline
 90
       21
 70
   128
 43
0.0
 10
6491.5111305112
 20
5057.2229885427
 10
6491.5199966779
 20
5057.2043112965
 10
6491.4847599852
 20
5057.278450169
 10
6491.3182126721
 20
5057.6342185959
 10
6491.0245511072
 20
5058.2852914176
 10
6490.6506356015
 20
5059.1670136723
 10
6490.2114059119
 20
5060.3024706477
 10
6489.7411678519
 20
5061.6962027686
 10
6489.2924611397
 20
5063.3312667852
 10
6488.9373133891
 20
5065.1157944005
 10
6488.7161917821
 20
5067.0900722047
 10
6488.675726859
 20
5068.8529159468
 10
6488.7891089557
 20
5070.6613872873
 10
6489.3421395612
 20
5073.7716145644
 10
6489.7530193648
 20
5075.2409537985
 10
6490.2017156322
 20
5076.5698616422
 10
6490.6658803869
 20
5077.7691867112
 10
6491.0754030471
 20
5078.7287227184
 10
6491.3586096766
 20
5079.3518209188
 10
6491.5080951044
 20
5079.6695993017
 10
6491.5223112923
 20
5079.6994545927
  0
LINE
  5
F4
330
1F
100
AcDbEntity
  8
0
  6
Continuous
 62
     7
370
    25
100
AcDbLine
 10
6467.5223112923
 20
5120.4494545927
 30
0.0
 11
6482.5223112923
 21
5120.4494545927
 31
0.0
  0
LINE
  5
F5
330
1F
100
AcDbEntity
  8
0
  6
Continuous
 62
     7
370
    25
100
AcDbLine
 10
6452.5223112923
 20
5120.4494545927
 30
0.0
 11
6467.5223112923
 21
5120.4494545927
 31
0.0
  0
LINE
  5
F6
330
1F
100
AcDbEntity
  8
0
  6
Continuous
 62
     8
370
    25
100
AcDbLine
 10
6483.0223112921
 20
5142.3494545927
 30
0.0
 11
6454.0223112921
 21
5142.3494545927
 31
0.0
  0
LINE
  5
F7
330
1F
100
AcDbEntity
  8
0
  6
Continuous
 62
     8
370
    25
100
AcDbLine
 10
6458.5223112921
 20
5285.2462662334
 30
0.0
 11
6478.5223112921
 21
5285.2462662334
 31
0.0
  0
LINE
  5
F8
330
1F
100
AcDbEntity
  8
0
  6
Continuous
 62
     8
370
    25
100
AcDbLine
 10
6661.743271024
 20
5306.3204812237
 30
0.0
 11
6642.1688502142
 21
5302.216574553
 31
0.0
  0
LINE
  5
F9
330
1F
100
AcDbEntity
  8
0
  6
Continuous
 62
     8
370
    25
100
AcDbLine
 10
6665.0263963605
 20
5290.6609445759
 30
0.0
 11
6645.4519755507
 21
5286.5570379052
 31
0.0
  0
LINE
  5
FA
330
1F
100
AcDbEntity
  8
0
  6
Continuous
 62
     8
370
    25
100
AcDbLine
 10
6467.5223112923
 20
5117.5749430155
 30
0.0
 11
6491.5223112923
 21
5117.5749430155
 31
0.0
  0
LINE
  5
FB
330
1F
100
AcDbEntity
  8
0
  6
Continuous
 62
     8
370
    25
100
AcDbLine
 10
6443.5223112923
 20
5117.5749430155
 30
0.0
 11
6467.5223112923
 21
5117.5749430155
 31
0.0
  0
LINE
  5
FC
330
1F
100
AcDbEntity
  8
0
  6
Continuous
 62
     8
370
    25
100
AcDbLine
 10
6467.5223112923
 20
5119.5600353188
 30
0.0
 11
6489.7660499791
 21
5119.5600353188
 31
0.0
  0
LINE
  5
FD
330
1F
100
AcDbEntity
  8
0
  6
Continuous
 62
     8
370
    25
100
AcDbLine
 10
6445.2785726055
 20
5119.5600353188
 30
0.0
 11
6467.5223112923
 21
5119.5600353188
 31
0.0
  0
ENDSEC
  0
SECTION
  2
OBJECTS
  0
DICTIONARY
  5
C
330
0
100
AcDbDictionary
281
     1
  3
ACAD_GROUP
350
D
  3
ACAD_LAYOUT
350
1A
  3
ACAD_MLINESTYLE
350
17
  3
ACAD_PLOTSETTINGS
350
19
  3
ACAD_PLOTSTYLENAME
350
E
  3
ACAD_SCALELIST
350
47
  3
DWGPROPS
350
FE
  0
DICTIONARY
  5
D
102
{ACAD_REACTORS
330
C
102
}
330
C
100
AcDbDictionary
281
     1
  0
DICTIONARY
  5
1A
102
{ACAD_REACTORS
330
C
102
}
330
C
100
AcDbDictionary
281
     1
  3
Layout1
350
1E
  3
Layout2
350
26
  3
Model
350
22
  0
DICTIONARY
  5
17
102
{ACAD_REACTORS
330
C
102
}
330
C
100
AcDbDictionary
281
     1
  3
Standard
350
18
  0
DICTIONARY
  5
19
102
{ACAD_REACTORS
330
C
102
}
330
C
100
AcDbDictionary
281
     1
  0
ACDBDICTIONARYWDFLT
  5
E
102
{ACAD_REACTORS
330
C
102
}
330
C
100
AcDbDictionary
281
     1
  3
Normal
350
F
100
AcDbDictionaryWithDefault
340
F
  0
DICTIONARY
  5
47
102
{ACAD_REACTORS
330
C
102
}
330
C
100
AcDbDictionary
281
     1
  3
A0
350
48
  3
A1
350
49
  3
A2
350
4A
  3
A3
350
4B
  3
A4
350
4C
  3
A5
350
4D
  3
A6
350
4E
  3
A7
350
4F
  3
A8
350
50
  3
A9
350
51
  3
B0
350
52
  3
B1
350
53
  3
B2
350
54
  3
B3
350
55
  3
B4
350
56
  3
B5
350
57
  3
B6
350
58
  3
B7
350
59
  3
B8
350
5A
  3
B9
350
5B
  3
C0
350
5C
  3
C1
350
5D
  3
C2
350
5E
  3
C3
350
5F
  3
C4
350
60
  3
C5
350
61
  3
C6
350
62
  3
C7
350
63
  3
C8
350
64
  3
C9
350
65
  3
D0
350
66
  3
D1
350
67
  3
D2
350
68
  0
XRECORD
  5
FE
102
{ACAD_REACTORS
330
C
102
}
330
C
100
AcDbXrecord
280
     1
  1
DWGPROPS COOKIE
  2

  3

  4

  6

  7

  8
radek.stransky
  9

300
=
301
=
302
=
303
=
304
=
305
=
306
=
307
=
308
=
309
=
 40
0.0
 41
2459593.54728978
 42
2459593.547290104
  1

 90
        0
  0
LAYOUT
  5
1E
102
{ACAD_REACTORS
330
1A
102
}
330
1A
100
AcDbPlotSettings
  1

  2
none_device
  4

  6

 40
0.0
 41
0.0
 42
0.0
 43
0.0
 44
0.0
 45
0.0
 46
0.0
 47
0.0
 48
0.0
 49
0.0
140
0.0
141
0.0
142
1.0
143
1.0
 70
   688
 72
     1
 73
     0
 74
     5
  7

 75
    16
147
1.0
148
0.0
149
0.0
100
AcDbLayout
  1
Layout1
 70
     1
 71
     1
 10
0.0
 20
0.0
 11
420.0
 21
297.0
 12
0.0
 22
0.0
 32
0.0
 14
1.0000000000E+20
 24
1.0000000000E+20
 34
1.0000000000E+20
 15
-1.0000000000E+20
 25
-1.0000000000E+20
 35
-1.0000000000E+20
146
0.0
 13
0.0
 23
0.0
 33
0.0
 16
1.0
 26
0.0
 36
0.0
 17
0.0
 27
1.0
 37
0.0
 76
     0
330
1B
  0
LAYOUT
  5
26
102
{ACAD_REACTORS
330
1A
102
}
330
1A
100
AcDbPlotSettings
  1

  2
none_device
  4

  6

 40
0.0
 41
0.0
 42
0.0
 43
0.0
 44
0.0
 45
0.0
 46
0.0
 47
0.0
 48
0.0
 49
0.0
140
0.0
141
0.0
142
1.0
143
1.0
 70
   688
 72
     1
 73
     0
 74
     5
  7

 75
    16
147
1.0
148
0.0
149
0.0
100
AcDbLayout
  1
Layout2
 70
     1
 71
     2
 10
0.0
 20
0.0
 11
0.0
 21
0.0
 12
0.0
 22
0.0
 32
0.0
 14
0.0
 24
0.0
 34
0.0
 15
0.0
 25
0.0
 35
0.0
146
0.0
 13
0.0
 23
0.0
 33
0.0
 16
1.0
 26
0.0
 36
0.0
 17
0.0
 27
1.0
 37
0.0
 76
     0
330
23
  0
LAYOUT
  5
22
102
{ACAD_REACTORS
330
1A
102
}
330
1A
100
AcDbPlotSettings
  1

  2
none_device
  4
Letter_(8.50_x_11.00_Inches)
  6

 40
6.35
 41
6.35
 42
6.35000508
 43
6.35000508
 44
215.9
 45
279.4
 46
0.0
 47
0.0
 48
0.0
 49
0.0
140
0.0
141
0.0
142
1.0
143
1.0
 70
  1712
 72
     1
 73
     0
 74
     0
  7

 75
     0
147
1.0
148
0.0
149
0.0
100
AcDbLayout
  1
Model
 70
     1
 71
     0
 10
0.0
 20
0.0
 11
20000.0
 21
10000.0
 12
0.0
 22
0.0
 32
0.0
 14
0.0
 24
0.0
 34
0.0
 15
20000.0
 25
10000.0
 35
0.0
146
0.0
 13
0.0
 23
0.0
 33
0.0
 16
1.0
 26
0.0
 36
0.0
 17
0.0
 27
1.0
 37
0.0
 76
     0
330
1F
331
29
  0
MLINESTYLE
  5
18
102
{ACAD_REACTORS
330
17
102
}
330
17
100
AcDbMlineStyle
  2
Standard
 70
     0
  3

 62
   256
 51
90.0
 52
90.0
 71
     2
 49
0.5
 62
   256
  6
BYLAYER
 49
-0.5
 62
   256
  6
BYLAYER
  0
ACDBPLACEHOLDER
  5
F
102
{ACAD_REACTORS
330
E
102
}
330
E
  0
SCALE
  5
48
102
{ACAD_REACTORS
330
47
102
}
330
47
100
AcDbScale
 70
     0
300
1:1
140
1.0
141
1.0
290
     1
  0
SCALE
  5
49
102
{ACAD_REACTORS
330
47
102
}
330
47
100
AcDbScale
 70
     0
300
1:2
140
1.0
141
2.0
290
     0
  0
SCALE
  5
4A
102
{ACAD_REACTORS
330
47
102
}
330
47
100
AcDbScale
 70
     0
300
1:4
140
1.0
141
4.0
290
     0
  0
SCALE
  5
4B
102
{ACAD_REACTORS
330
47
102
}
330
47
100
AcDbScale
 70
     0
300
1:5
140
1.0
141
5.0
290
     0
  0
SCALE
  5
4C
102
{ACAD_REACTORS
330
47
102
}
330
47
100
AcDbScale
 70
     0
300
1:8
140
1.0
141
8.0
290
     0
  0
SCALE
  5
4D
102
{ACAD_REACTORS
330
47
102
}
330
47
100
AcDbScale
 70
     0
300
1:10
140
1.0
141
10.0
290
     0
  0
SCALE
  5
4E
102
{ACAD_REACTORS
330
47
102
}
330
47
100
AcDbScale
 70
     0
300
1:16
140
1.0
141
16.0
290
     0
  0
SCALE
  5
4F
102
{ACAD_REACTORS
330
47
102
}
330
47
100
AcDbScale
 70
     0
300
1:20
140
1.0
141
20.0
290
     0
  0
SCALE
  5
50
102
{ACAD_REACTORS
330
47
102
}
330
47
100
AcDbScale
 70
     0
300
1:30
140
1.0
141
30.0
290
     0
  0
SCALE
  5
51
102
{ACAD_REACTORS
330
47
102
}
330
47
100
AcDbScale
 70
     0
300
1:40
140
1.0
141
40.0
290
     0
  0
SCALE
  5
52
102
{ACAD_REACTORS
330
47
102
}
330
47
100
AcDbScale
 70
     0
300
1:50
140
1.0
141
50.0
290
     0
  0
SCALE
  5
53
102
{ACAD_REACTORS
330
47
102
}
330
47
100
AcDbScale
 70
     0
300
1:100
140
1.0
141
100.0
290
     0
  0
SCALE
  5
54
102
{ACAD_REACTORS
330
47
102
}
330
47
100
AcDbScale
 70
     0
300
2:1
140
2.0
141
1.0
290
     0
  0
SCALE
  5
55
102
{ACAD_REACTORS
330
47
102
}
330
47
100
AcDbScale
 70
     0
300
4:1
140
4.0
141
1.0
290
     0
  0
SCALE
  5
56
102
{ACAD_REACTORS
330
47
102
}
330
47
100
AcDbScale
 70
     0
300
8:1
140
8.0
141
1.0
290
     0
  0
SCALE
  5
57
102
{ACAD_REACTORS
330
47
102
}
330
47
100
AcDbScale
 70
     0
300
10:1
140
10.0
141
1.0
290
     0
  0
SCALE
  5
58
102
{ACAD_REACTORS
330
47
102
}
330
47
100
AcDbScale
 70
     0
300
100:1
140
100.0
141
1.0
290
     0
  0
SCALE
  5
59
102
{ACAD_REACTORS
330
47
102
}
330
47
100
AcDbScale
 70
     0
300
1/128" = 1'-0"
140
0.0078125
141
12.0
290
     0
  0
SCALE
  5
5A
102
{ACAD_REACTORS
330
47
102
}
330
47
100
AcDbScale
 70
     0
300
1/64" = 1'-0"
140
0.015625
141
12.0
290
     0
  0
SCALE
  5
5B
102
{ACAD_REACTORS
330
47
102
}
330
47
100
AcDbScale
 70
     0
300
1/32" = 1'-0"
140
0.03125
141
12.0
290
     0
  0
SCALE
  5
5C
102
{ACAD_REACTORS
330
47
102
}
330
47
100
AcDbScale
 70
     0
300
1/16" = 1'-0"
140
0.0625
141
12.0
290
     0
  0
SCALE
  5
5D
102
{ACAD_REACTORS
330
47
102
}
330
47
100
AcDbScale
 70
     0
300
3/32" = 1'-0"
140
0.09375
141
12.0
290
     0
  0
SCALE
  5
5E
102
{ACAD_REACTORS
330
47
102
}
330
47
100
AcDbScale
 70
     0
300
1/8" = 1'-0"
140
0.125
141
12.0
290
     0
  0
SCALE
  5
5F
102
{ACAD_REACTORS
330
47
102
}
330
47
100
AcDbScale
 70
     0
300
3/16" = 1'-0"
140
0.1875
141
12.0
290
     0
  0
SCALE
  5
60
102
{ACAD_REACTORS
330
47
102
}
330
47
100
AcDbScale
 70
     0
300
1/4" = 1'-0"
140
0.25
141
12.0
290
     0
  0
SCALE
  5
61
102
{ACAD_REACTORS
330
47
102
}
330
47
100
AcDbScale
 70
     0
300
3/8" = 1'-0"
140
0.375
141
12.0
290
     0
  0
SCALE
  5
62
102
{ACAD_REACTORS
330
47
102
}
330
47
100
AcDbScale
 70
     0
300
1/2" = 1'-0"
140
0.5
141
12.0
290
     0
  0
SCALE
  5
63
102
{ACAD_REACTORS
330
47
102
}
330
47
100
AcDbScale
 70
     0
300
3/4" = 1'-0"
140
0.75
141
12.0
290
     0
  0
SCALE
  5
64
102
{ACAD_REACTORS
330
47
102
}
330
47
100
AcDbScale
 70
     0
300
1" = 1'-0"
140
1.0
141
12.0
290
     0
  0
SCALE
  5
65
102
{ACAD_REACTORS
330
47
102
}
330
47
100
AcDbScale
 70
     0
300
1-1/2" = 1'-0"
140
1.5
141
12.0
290
     0
  0
SCALE
  5
66
102
{ACAD_REACTORS
330
47
102
}
330
47
100
AcDbScale
 70
     0
300
3" = 1'-0"
140
3.0
141
12.0
290
     0
  0
SCALE
  5
67
102
{ACAD_REACTORS
330
47
102
}
330
47
100
AcDbScale
 70
     0
300
6" = 1'-0"
140
6.0
141
12.0
290
     0
  0
SCALE
  5
68
102
{ACAD_REACTORS
330
47
102
}
330
47
100
AcDbScale
 70
     0
300
1'-0" = 1'-0"
140
12.0
141
12.0
290
     0
  0
ENDSEC
  0
EOF
