  0
SECTION
  2
HEADER
  9
$ACADVER
  1
AC1015
  9
$ACADMAINTVER
 70
     6
  9
$DWGCODEPAGE
  3
ANSI_1250
  9
$INSBASE
 10
0.0
 20
0.0
 30
0.0
  9
$EXTMIN
 10
0.0
 20
0.0
 30
0.0
  9
$EXTMAX
 10
20000.0
 20
10000.0
 30
0.0
  9
$LIMMIN
 10
0.0
 20
0.0
  9
$LIMMAX
 10
20000.0
 20
10000.0
  9
$ORTHOMODE
 70
     0
  9
$REGENMODE
 70
     1
  9
$FILLMODE
 70
     1
  9
$QTEXTMODE
 70
     0
  9
$MIRRTEXT
 70
     1
  9
$LTSCALE
 40
1.0
  9
$ATTMODE
 70
     1
  9
$TEXTSIZE
 40
2.0
  9
$TRACEWID
 40
1.0
  9
$TEXTSTYLE
  7
Standard
  9
$CLAYER
  8
0
  9
$CELTYPE
  6
ByLayer
  9
$CECOLOR
 62
   256
  9
$CELTSCALE
 40
1.0
  9
$DISPSILH
 70
     0
  9
$DIMSCALE
 40
1.0
  9
$DIMASZ
 40
2.0
  9
$DIMEXO
 40
1.0
  9
$DIMDLI
 40
3.75
  9
$DIMRND
 40
0.0
  9
$DIMDLE
 40
0.0
  9
$DIMEXE
 40
1.0
  9
$DIMTP
 40
0.0
  9
$DIMTM
 40
0.0
  9
$DIMTXT
 40
2.0
  9
$DIMCEN
 40
2.5
  9
$DIMTSZ
 40
0.0
  9
$DIMTOL
 70
     0
  9
$DIMLIM
 70
     0
  9
$DIMTIH
 70
     1
  9
$DIMTOH
 70
     1
  9
$DIMSE1
 70
     0
  9
$DIMSE2
 70
     0
  9
$DIMTAD
 70
     1
  9
$DIMZIN
 70
     0
  9
$DIMBLK
  1

  9
$DIMASO
 70
     1
  9
$DIMSHO
 70
     1
  9
$DIMPOST
  1

  9
$DIMAPOST
  1

  9
$DIMALT
 70
     0
  9
$DIMALTD
 70
     3
  9
$DIMALTF
 40
0.0393700787
  9
$DIMLFAC
 40
1.0
  9
$DIMTOFL
 70
     1
  9
$DIMTVP
 40
0.0
  9
$DIMTIX
 70
     0
  9
$DIMSOXD
 70
     0
  9
$DIMSAH
 70
     0
  9
$DIMBLK1
  1

  9
$DIMBLK2
  1

  9
$DIMSTYLE
  2
ISO-25
  9
$DIMCLRD
 70
     0
  9
$DIMCLRE
 70
     0
  9
$DIMCLRT
 70
     0
  9
$DIMTFAC
 40
1.0
  9
$DIMGAP
 40
1.524
  9
$DIMJUST
 70
     0
  9
$DIMSD1
 70
     0
  9
$DIMSD2
 70
     0
  9
$DIMTOLJ
 70
     0
  9
$DIMTZIN
 70
     0
  9
$DIMALTZ
 70
     0
  9
$DIMALTTZ
 70
     0
  9
$DIMUPT
 70
     0
  9
$DIMDEC
 70
     2
  9
$DIMTDEC
 70
     0
  9
$DIMALTU
 70
     2
  9
$DIMALTTD
 70
     3
  9
$DIMTXSTY
  7
Standard
  9
$DIMAUNIT
 70
     0
  9
$DIMADEC
 70
     2
  9
$DIMALTRND
 40
0.0
  9
$DIMAZIN
 70
     0
  9
$DIMDSEP
 70
    44
  9
$DIMATFIT
 70
     3
  9
$DIMFRAC
 70
     0
  9
$DIMLDRBLK
  1

  9
$DIMLUNIT
 70
     2
  9
$DIMLWD
 70
    -2
  9
$DIMLWE
 70
    -2
  9
$DIMTMOVE
 70
     0
  9
$LUNITS
 70
     2
  9
$LUPREC
 70
     3
  9
$SKETCHINC
 40
1.0
  9
$FILLETRAD
 40
10.0
  9
$AUNITS
 70
     0
  9
$AUPREC
 70
     2
  9
$MENU
  1
.
  9
$ELEVATION
 40
0.0
  9
$PELEVATION
 40
0.0
  9
$THICKNESS
 40
0.0
  9
$LIMCHECK
 70
     0
  9
$CHAMFERA
 40
0.0
  9
$CHAMFERB
 40
0.0
  9
$CHAMFERC
 40
0.0
  9
$CHAMFERD
 40
0.0
  9
$SKPOLY
 70
     0
  9
$TDCREATE
 40
2459593.590568542
  9
$TDUCREATE
 40
2459593.548901875
  9
$TDUPDATE
 40
2459593.59056882
  9
$TDUUPDATE
 40
2459593.548902153
  9
$TDINDWG
 40
0.0000000116
  9
$TDUSRTIMER
 40
0.0000000116
  9
$USRTIMER
 70
     1
  9
$ANGBASE
 50
0.0
  9
$ANGDIR
 70
     0
  9
$PDMODE
 70
     0
  9
$PDSIZE
 40
-1.0
  9
$PLINEWID
 40
0.0
  9
$SPLFRAME
 70
     0
  9
$SPLINETYPE
 70
     6
  9
$SPLINESEGS
 70
     8
  9
$HANDSEED
  5
150
  9
$SURFTAB1
 70
     6
  9
$SURFTAB2
 70
     6
  9
$SURFTYPE
 70
     6
  9
$SURFU
 70
     6
  9
$SURFV
 70
     6
  9
$UCSBASE
  2

  9
$UCSNAME
  2

  9
$UCSORG
 10
0.0
 20
0.0
 30
0.0
  9
$UCSXDIR
 10
1.0
 20
0.0
 30
0.0
  9
$UCSYDIR
 10
0.0
 20
1.0
 30
0.0
  9
$UCSORTHOREF
  2

  9
$UCSORTHOVIEW
 70
     0
  9
$UCSORGTOP
 10
0.0
 20
0.0
 30
0.0
  9
$UCSORGBOTTOM
 10
0.0
 20
0.0
 30
0.0
  9
$UCSORGLEFT
 10
0.0
 20
0.0
 30
0.0
  9
$UCSORGRIGHT
 10
0.0
 20
0.0
 30
0.0
  9
$UCSORGFRONT
 10
0.0
 20
0.0
 30
0.0
  9
$UCSORGBACK
 10
0.0
 20
0.0
 30
0.0
  9
$PUCSBASE
  2

  9
$PUCSNAME
  2

  9
$PUCSORG
 10
0.0
 20
0.0
 30
0.0
  9
$PUCSXDIR
 10
1.0
 20
0.0
 30
0.0
  9
$PUCSYDIR
 10
0.0
 20
1.0
 30
0.0
  9
$PUCSORTHOREF
  2

  9
$PUCSORTHOVIEW
 70
     0
  9
$PUCSORGTOP
 10
0.0
 20
0.0
 30
0.0
  9
$PUCSORGBOTTOM
 10
0.0
 20
0.0
 30
0.0
  9
$PUCSORGLEFT
 10
0.0
 20
0.0
 30
0.0
  9
$PUCSORGRIGHT
 10
0.0
 20
0.0
 30
0.0
  9
$PUCSORGFRONT
 10
0.0
 20
0.0
 30
0.0
  9
$PUCSORGBACK
 10
0.0
 20
0.0
 30
0.0
  9
$USERI1
 70
     0
  9
$USERI2
 70
     0
  9
$USERI3
 70
     0
  9
$USERI4
 70
     0
  9
$USERI5
 70
     0
  9
$USERR1
 40
0.0
  9
$USERR2
 40
0.0
  9
$USERR3
 40
0.0
  9
$USERR4
 40
0.0
  9
$USERR5
 40
0.0
  9
$WORLDVIEW
 70
     1
  9
$SHADEDGE
 70
     3
  9
$SHADEDIF
 70
    70
  9
$TILEMODE
 70
     1
  9
$MAXACTVP
 70
    64
  9
$PINSBASE
 10
0.0
 20
0.0
 30
0.0
  9
$PLIMCHECK
 70
     0
  9
$PEXTMIN
 10
1.0000000000E+20
 20
1.0000000000E+20
 30
1.0000000000E+20
  9
$PEXTMAX
 10
-1.0000000000E+20
 20
-1.0000000000E+20
 30
-1.0000000000E+20
  9
$PLIMMIN
 10
0.0
 20
0.0
  9
$PLIMMAX
 10
420.0
 20
297.0
  9
$UNITMODE
 70
     0
  9
$VISRETAIN
 70
     1
  9
$PLINEGEN
 70
     0
  9
$PSLTSCALE
 70
     1
  9
$TREEDEPTH
 70
  3020
  9
$CMLSTYLE
  2
Standard
  9
$CMLJUST
 70
     0
  9
$CMLSCALE
 40
20.0
  9
$PROXYGRAPHICS
 70
     1
  9
$MEASUREMENT
 70
     1
  9
$CELWEIGHT
370
    -1
  9
$ENDCAPS
280
     0
  9
$JOINSTYLE
280
     0
  9
$LWDISPLAY
290
     1
  9
$INSUNITS
 70
     4
  9
$HYPERLINKBASE
  1

  9
$STYLESHEET
  1

  9
$XEDIT
290
     1
  9
$CEPSNTYPE
380
     0
  9
$PSTYLEMODE
290
     1
  9
$FINGERPRINTGUID
  2
{3db849a8-c7c9-4992-8468-e242e44d4e06}
  9
$VERSIONGUID
  2
{FAEB1C32-E019-11D5-929B-00C0DF256EC4}
  9
$EXTNAMES
290
     1
  9
$PSVPSCALE
 40
0.0
  9
$OLESTARTUP
290
     0
  0
ENDSEC
  0
SECTION
  2
CLASSES
  0
CLASS
  1
ACDBDICTIONARYWDFLT
  2
AcDbDictionaryWithDefault
  3
ObjectDBX Classes
 90
        0
280
     0
281
     0
  0
CLASS
  1
VISUALSTYLE
  2
AcDbVisualStyle
  3
ObjectDBX Classes
 90
     4095
280
     0
281
     0
  0
CLASS
  1
MATERIAL
  2
AcDbMaterial
  3
ObjectDBX Classes
 90
     1153
280
     0
281
     0
  0
CLASS
  1
SCALE
  2
AcDbScale
  3
ObjectDBX Classes
 90
     1153
280
     0
281
     0
  0
CLASS
  1
TABLESTYLE
  2
AcDbTableStyle
  3
ObjectDBX Classes
 90
     4095
280
     0
281
     0
  0
CLASS
  1
MLEADERSTYLE
  2
AcDbMLeaderStyle
  3
ACDB_MLEADERSTYLE_CLASS
 90
     4095
280
     0
281
     0
  0
CLASS
  1
SUN
  2
AcDbSun
  3
SCENEOE
 90
     1153
280
     0
281
     0
  0
CLASS
  1
ACDBPLACEHOLDER
  2
AcDbPlaceHolder
  3
ObjectDBX Classes
 90
        0
280
     0
281
     0
  0
CLASS
  1
LAYOUT
  2
AcDbLayout
  3
ObjectDBX Classes
 90
        0
280
     0
281
     0
  0
ENDSEC
  0
SECTION
  2
TABLES
  0
TABLE
  2
VPORT
  5
8
330
0
100
AcDbSymbolTable
 70
     1
  0
VPORT
  5
29
330
8
100
AcDbSymbolTableRecord
100
AcDbViewportTableRecord
  2
*Active
 70
     0
 10
0.0
 20
0.0
 11
1.0
 21
1.0
 12
10000.0
 22
5000.0
 13
0.0
 23
0.0
 14
10.0
 24
10.0
 15
10.0
 25
10.0
 16
0.0
 26
0.0
 36
1.0
 17
0.0
 27
0.0
 37
0.0
 40
10000.0
 41
2.0
 42
50.0
 43
0.0
 44
0.0
 50
0.0
 51
0.0
 71
     0
 72
  2000
 73
     1
 74
     3
 75
     0
 76
     0
 77
     0
 78
     0
281
     0
 65
     1
110
0.0
120
0.0
130
0.0
111
1.0
121
0.0
131
0.0
112
0.0
122
1.0
132
0.0
 79
     0
146
0.0
  0
ENDTAB
  0
TABLE
  2
LTYPE
  5
5
330
0
100
AcDbSymbolTable
 70
     6
  0
LTYPE
  5
14
330
5
100
AcDbSymbolTableRecord
100
AcDbLinetypeTableRecord
  2
ByBlock
 70
     0
  3

 72
    65
 73
     0
 40
0.0
  0
LTYPE
  5
15
330
5
100
AcDbSymbolTableRecord
100
AcDbLinetypeTableRecord
  2
ByLayer
 70
     0
  3

 72
    65
 73
     0
 40
0.0
  0
LTYPE
  5
16
330
5
100
AcDbSymbolTableRecord
100
AcDbLinetypeTableRecord
  2
Continuous
 70
     0
  3
Solid line
 72
    65
 73
     0
 40
0.0
  0
LTYPE
  5
6E
330
5
100
AcDbSymbolTableRecord
100
AcDbLinetypeTableRecord
  2
HIDDEN
 70
     0
  3
Hidden __ __ __ __ __ __ __ __ __ __ __ __ __ __
 72
    65
 73
     2
 40
1.905
 49
1.27
 74
     0
 49
-0.635
 74
     0
  0
LTYPE
  5
6F
330
5
100
AcDbSymbolTableRecord
100
AcDbLinetypeTableRecord
  2
PHANTOM
 70
     0
  3
Phantom ______  __  __  ______  __  __  ______
 72
    65
 73
     6
 40
12.7
 49
6.35
 74
     0
 49
-1.27
 74
     0
 49
1.27
 74
     0
 49
-1.27
 74
     0
 49
1.27
 74
     0
 49
-1.27
 74
     0
  0
LTYPE
  5
70
330
5
100
AcDbSymbolTableRecord
100
AcDbLinetypeTableRecord
  2
CENTER
 70
     0
  3
Center ____ _ ____ _ ____ _ ____ _ ____ _ ____
 72
    65
 73
     4
 40
10.16
 49
6.35
 74
     0
 49
-1.27
 74
     0
 49
1.27
 74
     0
 49
-1.27
 74
     0
  0
LTYPE
  5
71
330
5
100
AcDbSymbolTableRecord
100
AcDbLinetypeTableRecord
  2
CENTERX2
 70
     0
  3
Center (2x) ________  __  ________  __  _____
 72
    65
 73
     4
 40
20.32
 49
12.7
 74
     0
 49
-2.54
 74
     0
 49
2.54
 74
     0
 49
-2.54
 74
     0
  0
LTYPE
  5
72
330
5
100
AcDbSymbolTableRecord
100
AcDbLinetypeTableRecord
  2
DOT2
 70
     0
  3
Dot (.5x) ........................................
 72
    65
 73
     2
 40
0.635
 49
0.0
 74
     0
 49
-0.635
 74
     0
  0
ENDTAB
  0
TABLE
  2
LAYER
  5
2
330
0
100
AcDbSymbolTable
 70
    13
  0
LAYER
  5
10
330
2
100
AcDbSymbolTableRecord
100
AcDbLayerTableRecord
  2
0
 70
     0
 62
     7
  6
Continuous
370
    -3
390
F
  0
LAYER
  5
73
330
2
100
AcDbSymbolTableRecord
100
AcDbLayerTableRecord
  2
FORMAT
 70
     0
 62
     7
  6
Continuous
370
    -3
390
F
  0
LAYER
  5
74
330
2
100
AcDbSymbolTableRecord
100
AcDbLayerTableRecord
  2
OSA
 70
     0
 62
     7
  6
CENTER
370
    -3
390
F
  0
LAYER
  5
75
330
2
100
AcDbSymbolTableRecord
100
AcDbLayerTableRecord
  2
0_35
 70
     0
 62
     7
  6
Continuous
370
    35
390
F
  0
LAYER
  5
76
330
2
100
AcDbSymbolTableRecord
100
AcDbLayerTableRecord
  2
0_5
 70
     0
 62
     7
  6
Continuous
370
    50
390
F
  0
LAYER
  5
77
330
2
100
AcDbSymbolTableRecord
100
AcDbLayerTableRecord
  2
0_25
 70
     0
 62
     7
  6
Continuous
370
    25
390
F
  0
LAYER
  5
78
330
2
100
AcDbSymbolTableRecord
100
AcDbLayerTableRecord
  2
0_18
 70
     0
 62
     7
  6
Continuous
370
    -3
390
F
  0
LAYER
  5
79
330
2
100
AcDbSymbolTableRecord
100
AcDbLayerTableRecord
  2
SLD-0
 70
     0
 62
   179
  6
Continuous
370
    -3
390
F
  0
LAYER
  5
7A
330
2
100
AcDbSymbolTableRecord
100
AcDbLayerTableRecord
  2
KOTY
 70
     0
 62
     7
  6
Continuous
370
    -3
390
F
  0
LAYER
  5
7B
330
2
100
AcDbSymbolTableRecord
100
AcDbLayerTableRecord
  2
SILNA
 70
     0
 62
   179
  6
Continuous
370
    -3
390
F
  0
LAYER
  5
7C
330
2
100
AcDbSymbolTableRecord
100
AcDbLayerTableRecord
  2
0_18_1
 70
     0
 62
   179
  6
Continuous
370
    -3
390
F
  0
LAYER
  5
7D
330
2
100
AcDbSymbolTableRecord
100
AcDbLayerTableRecord
  2
0_35_1
 70
     0
 62
   179
  6
Continuous
370
    35
390
F
  0
LAYER
  5
7E
330
2
100
AcDbSymbolTableRecord
100
AcDbLayerTableRecord
  2
0_5_1
 70
     0
 62
   179
  6
Continuous
370
    50
390
F
  0
ENDTAB
  0
TABLE
  2
STYLE
  5
3
330
0
100
AcDbSymbolTable
 70
     1
  0
STYLE
  5
11
330
3
100
AcDbSymbolTableRecord
100
AcDbTextStyleTableRecord
  2
Standard
 70
     0
 40
0.0
 41
1.0
 50
0.0
 71
     0
 42
2.0
  3
txt
  4

  0
ENDTAB
  0
TABLE
  2
VIEW
  5
6
330
0
100
AcDbSymbolTable
 70
     0
  0
ENDTAB
  0
TABLE
  2
UCS
  5
7
330
0
100
AcDbSymbolTable
 70
     0
  0
ENDTAB
  0
TABLE
  2
APPID
  5
9
330
0
100
AcDbSymbolTable
 70
     1
  0
APPID
  5
12
330
9
100
AcDbSymbolTableRecord
100
AcDbRegAppTableRecord
  2
ACAD
 70
     0
  0
ENDTAB
  0
TABLE
  2
DIMSTYLE
  5
A
330
0
100
AcDbSymbolTable
 70
     1
100
AcDbDimStyleTable
  0
DIMSTYLE
105
27
330
A
100
AcDbSymbolTableRecord
100
AcDbDimStyleTableRecord
  2
ISO-25
 70
     0
 41
2.5
 42
0.625
 43
3.75
 44
1.25
 73
     0
 74
     0
 77
     1
 78
     8
140
2.5
141
2.5
143
0.0393700787
147
0.625
171
     3
172
     1
178
     0
271
     2
272
     2
274
     3
278
    44
283
     0
284
     8
340
11
  0
ENDTAB
  0
TABLE
  2
BLOCK_RECORD
  5
1
330
0
100
AcDbSymbolTable
 70
     1
  0
BLOCK_RECORD
  5
1F
330
1
100
AcDbSymbolTableRecord
100
AcDbBlockTableRecord
  2
*Model_Space
340
22
  0
BLOCK_RECORD
  5
1B
330
1
100
AcDbSymbolTableRecord
100
AcDbBlockTableRecord
  2
*Paper_Space
340
1E
  0
BLOCK_RECORD
  5
23
330
1
100
AcDbSymbolTableRecord
100
AcDbBlockTableRecord
  2
*Paper_Space0
340
26
  0
ENDTAB
  0
ENDSEC
  0
SECTION
  2
BLOCKS
  0
BLOCK
  5
20
330
1F
100
AcDbEntity
  8
0
100
AcDbBlockBegin
  2
*Model_Space
 70
     0
 10
0.0
 20
0.0
 30
0.0
  3
*Model_Space
  1

  0
ENDBLK
  5
21
330
1F
100
AcDbEntity
  8
0
100
AcDbBlockEnd
  0
BLOCK
  5
1C
330
1B
100
AcDbEntity
 67
     1
  8
0
100
AcDbBlockBegin
  2
*Paper_Space
 70
     0
 10
0.0
 20
0.0
 30
0.0
  3
*Paper_Space
  1

  0
ENDBLK
  5
1D
330
1B
100
AcDbEntity
 67
     1
  8
0
100
AcDbBlockEnd
  0
BLOCK
  5
24
330
23
100
AcDbEntity
  8
0
100
AcDbBlockBegin
  2
*Paper_Space0
 70
     0
 10
0.0
 20
0.0
 30
0.0
  3
*Paper_Space0
  1

  0
ENDBLK
  5
25
330
23
100
AcDbEntity
  8
0
100
AcDbBlockEnd
  0
ENDSEC
  0
SECTION
  2
ENTITIES
  0
LINE
  5
7F
330
1F
100
AcDbEntity
  8
0
  6
Continuous
 62
     7
370
    25
100
AcDbLine
 10
6276.3187553361
 20
5164.5994545927
 30
0.0
 11
6276.3187553361
 21
5164.6994545927
 31
0.0
  0
LINE
  5
80
330
1F
100
AcDbEntity
  8
0
  6
Continuous
 62
     7
370
    25
100
AcDbLine
 10
6257.7187553361
 20
5164.6994545927
 30
0.0
 11
6257.7187553361
 21
5164.5994545927
 31
0.0
  0
LINE
  5
81
330
1F
100
AcDbEntity
  8
0
  6
Continuous
 62
     7
370
    25
100
AcDbLine
 10
6281.5187553361
 20
5162.7994545927
 30
0.0
 11
6281.5187553361
 21
5164.0994545927
 31
0.0
  0
LINE
  5
82
330
1F
100
AcDbEntity
  8
0
  6
Continuous
 62
     7
370
    25
100
AcDbLine
 10
6281.5187553361
 20
5144.1994545927
 30
0.0
 11
6281.5187553361
 21
5147.1994545927
 31
0.0
  0
LINE
  5
83
330
1F
100
AcDbEntity
  8
0
  6
Continuous
 62
     7
370
    25
100
AcDbLine
 10
6252.5187553361
 20
5147.1994545927
 30
0.0
 11
6252.5187553361
 21
5144.1994545927
 31
0.0
  0
LINE
  5
84
330
1F
100
AcDbEntity
  8
0
  6
Continuous
 62
     7
370
    25
100
AcDbLine
 10
6252.5187553361
 20
5164.0994545927
 30
0.0
 11
6252.5187553361
 21
5162.7994545927
 31
0.0
  0
ARC
  5
85
330
1F
100
AcDbEntity
  8
0
  6
Continuous
 62
     7
370
    25
100
AcDbCircle
 10
6281.0187553361
 20
5164.0994545927
 30
0.0
 40
0.5
100
AcDbArc
 50
0.0
 51
90.0
  0
ARC
  5
86
330
1F
100
AcDbEntity
  8
0
  6
Continuous
 62
     7
370
    25
100
AcDbCircle
 10
6253.0187553361
 20
5164.0994545927
 30
0.0
 40
0.5
100
AcDbArc
 50
90.0
 51
180.0
  0
LINE
  5
87
330
1F
100
AcDbEntity
  8
0
  6
Continuous
 62
     7
370
    25
100
AcDbLine
 10
6276.925697965
 20
5294.6984277463
 30
0.0
 11
6276.9273059589
 21
5310.3579643941
 31
0.0
  0
LINE
  5
88
330
1F
100
AcDbEntity
  8
0
  6
Continuous
 62
     7
370
    25
100
AcDbLine
 10
6256.9273060643
 20
5310.3600180869
 30
0.0
 11
6256.9256980704
 21
5294.7004814391
 31
0.0
  0
LINE
  5
89
330
1F
100
AcDbEntity
  8
0
  6
Continuous
 62
     7
370
    25
100
AcDbLine
 10
6276.9273059589
 20
5310.3579643941
 30
0.0
 11
6276.9289139528
 21
5326.017501042
 31
0.0
  0
LINE
  5
8A
330
1F
100
AcDbEntity
  8
0
  6
Continuous
 62
     7
370
    25
100
AcDbLine
 10
6256.9289140582
 20
5326.0195547348
 30
0.0
 11
6256.9273060643
 21
5310.3600180869
 31
0.0
  0
LWPOLYLINE
  5
8B
330
1F
100
AcDbEntity
  8
0
  6
Continuous
 62
     7
370
    25
100
AcDbPolyline
 90
       91
 70
   128
 43
0.0
 10
6277.0187553361
 20
5306.9962662334
 10
6277.0187378684
 20
5309.5675582805
 10
6277.0186084223
 20
5314.4479624925
 10
6277.0183531566
 20
5319.3080652059
 10
6277.0179727862
 20
5324.1339504777
 10
6277.0174683675
 20
5328.9122067611
 10
6277.0168413014
 20
5333.6295551727
 10
6277.0160933295
 20
5338.2728863836
 10
6277.0152265286
 20
5342.8292971448
 10
6277.0142433055
 20
5347.286126256
 10
6277.0131463897
 20
5351.6309898853
 10
6277.0119388255
 20
5355.8518161486
 10
6277.0106239638
 20
5359.9368788671
 10
6277.0092054516
 20
5363.8748304245
 10
6277.0076872216
 20
5367.6547336607
 10
6277.0060734802
 20
5371.2660927503
 10
6277.0043686947
 20
5374.6988830421
 10
6277.0025775779
 20
5377.943579869
 10
6277.0007050725
 20
5380.9911864043
 10
6276.9987563311
 20
5383.8332607451
 10
6276.9967366927
 20
5386.4619426032
 10
6276.9946516516
 20
5388.8699803603
 10
6276.9925068109
 20
5391.0507600258
 10
6276.9903078065
 20
5392.9983393452
 10
6276.9880601621
 20
5394.7074944165
 10
6276.9857689659
 20
5396.1737971769
 10
6276.9834380237
 20
5397.3937760846
 10
6276.9810670997
 20
5398.3653400623
 10
6276.9786395895
 20
5399.0892941612
 10
6276.9760214452
 20
5399.5784309687
 10
6276.9741604692
 20
5399.7679647848
 10
6276.972166548
 20
5399.8860765762
 10
6276.9686344762
 20
5400.0175591068
 10
6276.9584523071
 20
5400.248805315
 10
6276.9418886281
 20
5400.4938399523
 10
6276.8952500922
 20
5400.9475266211
 10
6276.7999958121
 20
5401.5536987655
 10
6276.5538514307
 20
5402.565590509
 10
6275.9507777256
 20
5404.1047045254
 10
6275.1353341069
 20
5405.4771961875
 10
6274.3160300806
 20
5406.4880663301
 10
6273.2833695689
 20
5407.4572756366
 10
6272.0842043458
 20
5408.2947586464
 10
6270.7493117269
 20
5408.9591608165
 10
6269.3142376657
 20
5409.4216079013
 10
6267.8166319311
 20
5409.6638351489
 10
6266.1699397575
 20
5409.6671288878
 10
6264.624183994
 20
5409.4196101568
 10
6263.2047331486
 20
5408.9621512343
 10
6261.9260870678
 20
5408.3322517279
 10
6260.7990639115
 20
5407.5657293988
 10
6259.8300563714
 20
5406.6975611538
 10
6259.0207454075
 20
5405.7621509189
 10
6258.3680303773
 20
5404.7934481089
 10
6257.864068095
 20
5403.8251546914
 10
6257.4964125625
 20
5402.8913587585
 10
6257.2484040801
 20
5402.0288962759
 10
6257.1002645103
 20
5401.2880123337
 10
6257.0286660341
 20
5400.7507965023
 10
6256.9991253687
 20
5400.4190938416
 10
6256.9869677398
 20
5400.2251351436
 10
6256.9806420962
 20
5400.0885702645
 10
6256.9763609845
 20
5399.9610589598
 10
6256.9738475836
 20
5399.8512373711
 10
6256.9721148227
 20
5399.7334277012
 10
6256.9701526061
 20
5399.5025962766
 10
6256.9676806834
 20
5398.9928546523
 10
6256.9651673386
 20
5398.194298057
 10
6256.9627813242
 20
5397.1624806326
 10
6256.9604499946
 20
5395.8863924107
 10
6256.9581637688
 20
5394.3660509906
 10
6256.955924017
 20
5392.6044051883
 10
6256.9537349534
 20
5390.6057540691
 10
6256.9516017171
 20
5388.3753315708
 10
6256.9495297435
 20
5385.9191475323
 10
6256.9475245129
 20
5383.2439091848
 10
6256.9455914317
 20
5380.3569727289
 10
6256.9437357676
 20
5377.2663072326
 10
6256.9419626097
 20
5373.9804636763
 10
6256.9402768398
 20
5370.5085459584
 10
6256.9386831114
 20
5366.8601823441
 10
6256.9371858311
 20
5363.0454966107
 10
6256.935789144
 20
5359.0750785127
 10
6256.93449692
 20
5354.9599533915
 10
6256.9333127416
 20
5350.7115508577
 10
6256.9322398933
 20
5346.3416725377
 10
6256.9312813519
 20
5341.8624589151
 10
6256.9304397776
 20
5337.2863553184
 10
6256.9297175065
 20
5332.6260771238
 10
6256.9291165438
 20
5327.8945742526
 10
6256.9289140582
 20
5326.0195547348
  0
LWPOLYLINE
  5
8C
330
1F
100
AcDbEntity
  8
0
  6
Continuous
 62
     7
370
    25
100
AcDbPolyline
 90
       28
 70
   128
 43
0.0
 10
6276.9289139528
 20
5326.017501042
 10
6276.9291894324
 20
5328.5264851255
 10
6276.9298065319
 20
5333.248265951
 10
6276.9305447153
 20
5337.8974496822
 10
6276.9314018816
 20
5342.4607087489
 10
6276.9323756449
 20
5346.9253529417
 10
6276.9334632947
 20
5351.2789657178
 10
6276.9346618025
 20
5355.5094384678
 10
6276.9359678304
 20
5359.6050039735
 10
6276.9373777397
 20
5363.5542688529
 10
6276.9388876003
 20
5367.3462448765
 10
6276.9404932008
 20
5370.9703790287
 10
6276.9421900588
 20
5374.4165821681
 10
6276.9439734306
 20
5377.6752561132
 10
6276.9458383218
 20
5380.7373189209
 10
6276.9477794946
 20
5383.5942280271
 10
6276.9497914733
 20
5386.2380007291
 10
6276.9518685428
 20
5388.661231125
 10
6276.9540047331
 20
5390.8571018726
 10
6276.9561937754
 20
5392.8193874974
 10
6276.9584289899
 20
5394.5424421129
 10
6276.9607030019
 20
5396.0211543684
 10
6276.9630069588
 20
5397.2508226836
 10
6276.9653280059
 20
5398.2267990502
 10
6276.9676387589
 20
5398.9432741392
 10
6276.9696142967
 20
5399.3544419423
 10
6276.9706684988
 20
5399.4922064894
 10
6276.9705625611
 20
5399.4875199998
  0
LINE
  5
8D
330
1F
100
AcDbEntity
  8
0
  6
Continuous
 62
     7
370
    25
100
AcDbLine
 10
6257.0187553361
 20
5294.4211458172
 30
0.0
 11
6257.0187553361
 21
5164.6994545927
 31
0.0
  0
LINE
  5
8E
330
1F
100
AcDbEntity
  8
0
  6
Continuous
 62
     7
370
    25
100
AcDbLine
 10
6277.0187553361
 20
5164.6994545927
 30
0.0
 11
6277.0187553361
 21
5306.9962662334
 31
0.0
  0
LINE
  5
8F
330
1F
100
AcDbEntity
  8
0
  6
Continuous
 62
     7
370
    25
100
AcDbLine
 10
6259.4257567148
 20
5295.2714642887
 30
0.0
 11
6259.4256980573
 21
5294.7002247275
 31
0.0
  0
LINE
  5
90
330
1F
100
AcDbEntity
  8
0
  6
Continuous
 62
     7
370
    25
100
AcDbLine
 10
6274.4256979782
 20
5294.6986844579
 30
0.0
 11
6274.4257566357
 21
5295.2699240191
 31
0.0
  0
ARC
  5
91
330
1F
100
AcDbEntity
  8
0
  6
Continuous
 62
     7
370
    25
100
AcDbCircle
 10
6303.0187553361
 20
5082.0494545927
 30
0.0
 40
1.0
100
AcDbArc
 50
270.0
 51
0.0
  0
LINE
  5
92
330
1F
100
AcDbEntity
  8
0
  6
Continuous
 62
     7
370
    25
100
AcDbLine
 10
6292.0065769017
 20
5081.0494545927
 30
0.0
 11
6303.0187553361
 21
5081.0494545927
 31
0.0
  0
ARC
  5
93
330
1F
100
AcDbEntity
  8
0
  6
Continuous
 62
     7
370
    25
100
AcDbCircle
 10
6292.0187553361
 20
5095.3494545927
 30
0.0
 40
2.000000000000909
100
AcDbArc
 50
270.0
 51
0.0
  0
ARC
  5
94
330
1F
100
AcDbEntity
  8
0
  6
Continuous
 62
     7
370
    25
100
AcDbCircle
 10
6295.0230634697
 20
5109.432738408
 30
0.0
 40
1.004310207856637
100
AcDbArc
 50
90.245779269
 51
180.116449326
  0
ARC
  5
95
330
1F
100
AcDbEntity
  8
0
  6
Continuous
 62
     7
370
    25
100
AcDbCircle
 10
6303.0187553361
 20
5109.4371022422
 30
0.0
 40
1.0
100
AcDbArc
 50
0.0
 51
90.0
  0
LINE
  5
96
330
1F
100
AcDbEntity
  8
0
  6
Continuous
 62
     7
370
    25
100
AcDbLine
 10
6303.0187553361
 20
5110.4371022422
 30
0.0
 11
6295.0187553361
 21
5110.4371022422
 31
0.0
  0
LINE
  5
97
330
1F
100
AcDbEntity
  8
0
  6
Continuous
 62
     7
370
    25
100
AcDbLine
 10
6304.5884694504
 20
5091.7994545927
 30
0.0
 11
6304.0187553361
 21
5091.7994545927
 31
0.0
  0
LINE
  5
98
330
1F
100
AcDbEntity
  8
0
  6
Continuous
 62
     7
370
    25
100
AcDbLine
 10
6304.0187553361
 20
5082.5994545927
 30
0.0
 11
6304.5884694504
 21
5082.5994545927
 31
0.0
  0
ARC
  5
99
330
1F
100
AcDbEntity
  8
0
  6
Continuous
 62
     7
370
    25
100
AcDbCircle
 10
6304.5884694504
 20
5091.2994545927
 30
0.0
 40
0.5000000000008824
100
AcDbArc
 50
25.567805911
 51
90.0
  0
ARC
  5
9A
330
1F
100
AcDbEntity
  8
0
  6
Continuous
 62
     7
370
    25
100
AcDbCircle
 10
6304.5884694504
 20
5083.0994545927
 30
0.0
 40
0.5000000000009095
100
AcDbArc
 50
270.0
 51
334.432194089
  0
ARC
  5
9B
330
1F
100
AcDbEntity
  8
0
  6
Continuous
 62
     7
370
    25
100
AcDbCircle
 10
6296.0187553361
 20
5087.1994545927
 30
0.0
 40
10.0000000000006
100
AcDbArc
 50
334.432194089
 51
25.567805911
  0
LINE
  5
9C
330
1F
100
AcDbEntity
  8
0
  6
Continuous
 62
     7
370
    25
100
AcDbLine
 10
6292.0187553361
 20
5093.3494545927
 30
0.0
 11
6292.0187553361
 21
5140.7021584546
 31
0.0
  0
LINE
  5
9D
330
1F
100
AcDbEntity
  8
0
  6
Continuous
 62
     7
370
    25
100
AcDbLine
 10
6292.0187553361
 20
5062.6994545927
 30
0.0
 11
6292.0187553361
 21
5080.9994545927
 31
0.0
  0
LINE
  5
9E
330
1F
100
AcDbEntity
  8
0
  6
Continuous
 62
     7
370
    25
100
AcDbLine
 10
6242.0187553361
 20
5140.7021584546
 30
0.0
 11
6242.0187553361
 21
5062.6994545927
 31
0.0
  0
ARC
  5
9F
330
1F
100
AcDbEntity
  8
0
  6
Continuous
 62
     7
370
    25
100
AcDbCircle
 10
6290.0187553361
 20
5140.7021584546
 30
0.0
 40
2.000000000000107
100
AcDbArc
 50
0.0
 51
83.0
  0
ARC
  5
A0
330
1F
100
AcDbEntity
  8
0
  6
Continuous
 62
     7
370
    25
100
AcDbCircle
 10
6244.0187553361
 20
5140.7021584546
 30
0.0
 40
2.0
100
AcDbArc
 50
97.0
 51
180.0
  0
LINE
  5
A1
330
1F
100
AcDbEntity
  8
0
  6
Continuous
 62
     7
370
    25
100
AcDbLine
 10
6290.2624940229
 20
5142.6872507579
 30
0.0
 11
6282.0187553361
 21
5143.6994545927
 31
0.0
  0
LINE
  5
A2
330
1F
100
AcDbEntity
  8
0
  6
Continuous
 62
     7
370
    25
100
AcDbLine
 10
6252.0187553361
 20
5143.6994545927
 30
0.0
 11
6243.7750166493
 21
5142.6872507579
 31
0.0
  0
LINE
  5
A3
330
1F
100
AcDbEntity
  8
0
  6
Continuous
 62
     7
370
    25
100
AcDbLine
 10
6279.2687553361
 20
5143.6994545927
 30
0.0
 11
6279.2687553361
 21
5144.1994545927
 31
0.0
  0
LINE
  5
A4
330
1F
100
AcDbEntity
  8
0
  6
Continuous
 62
     7
370
    25
100
AcDbLine
 10
6254.7687553361
 20
5144.1994545927
 30
0.0
 11
6254.7687553361
 21
5143.6994545927
 31
0.0
  0
LINE
  5
A5
330
1F
100
AcDbEntity
  8
0
  6
Continuous
 62
     7
370
    25
100
AcDbLine
 10
6281.5187553361
 20
5144.1994545927
 30
0.0
 11
6252.5187553361
 21
5144.1994545927
 31
0.0
  0
LINE
  5
A6
330
1F
100
AcDbEntity
  8
0
  6
Continuous
 62
     7
370
    25
100
AcDbLine
 10
6280.9668162624
 20
5162.7994545927
 30
0.0
 11
6281.5187553361
 21
5162.7994545927
 31
0.0
  0
LINE
  5
A7
330
1F
100
AcDbEntity
  8
0
  6
Continuous
 62
     7
370
    25
100
AcDbLine
 10
6280.9668162624
 20
5147.1994545927
 30
0.0
 11
6280.9668162624
 21
5162.7994545927
 31
0.0
  0
LINE
  5
A8
330
1F
100
AcDbEntity
  8
0
  6
Continuous
 62
     7
370
    25
100
AcDbLine
 10
6281.5187553361
 20
5147.1994545927
 30
0.0
 11
6280.9668162624
 21
5147.1994545927
 31
0.0
  0
LINE
  5
A9
330
1F
100
AcDbEntity
  8
0
  6
Continuous
 62
     7
370
    25
100
AcDbLine
 10
6280.9706910635
 20
5162.7994545927
 30
0.0
 11
6280.9706910635
 21
5147.1994545927
 31
0.0
  0
LINE
  5
AA
330
1F
100
AcDbEntity
  8
0
  6
Continuous
 62
     7
370
    25
100
AcDbLine
 10
6253.0668196087
 20
5147.1994545927
 30
0.0
 11
6252.5187553361
 21
5147.1994545927
 31
0.0
  0
LINE
  5
AB
330
1F
100
AcDbEntity
  8
0
  6
Continuous
 62
     7
370
    25
100
AcDbLine
 10
6253.0668196087
 20
5162.7994545927
 30
0.0
 11
6253.0668196087
 21
5147.1994545927
 31
0.0
  0
LINE
  5
AC
330
1F
100
AcDbEntity
  8
0
  6
Continuous
 62
     7
370
    25
100
AcDbLine
 10
6252.5187553361
 20
5162.7994545927
 30
0.0
 11
6253.0668196087
 21
5162.7994545927
 31
0.0
  0
LINE
  5
AD
330
1F
100
AcDbEntity
  8
0
  6
Continuous
 62
     7
370
    25
100
AcDbLine
 10
6281.0187553361
 20
5164.5994545927
 30
0.0
 11
6253.0187553361
 21
5164.5994545927
 31
0.0
  0
LWPOLYLINE
  5
AE
330
1F
100
AcDbEntity
  8
0
  6
Continuous
 62
     7
370
    25
100
AcDbPolyline
 90
       38
 70
   128
 43
0.0
 10
6266.9304915522
 20
5292.6475012574
 10
6268.6204306021
 20
5292.6770167381
 10
6270.2616152811
 20
5292.7647140737
 10
6271.8068316942
 20
5292.9080703714
 10
6273.2116267784
 20
5293.1029615316
 10
6274.435587137
 20
5293.3437808905
 10
6275.4435016588
 20
5293.6236005135
 10
6276.2063744782
 20
5293.9343704995
 10
6276.7022591331
 20
5294.267150562
 10
6276.9168899248
 20
5294.6123672243
 10
6276.8440923163
 20
5294.9600892316
 10
6276.4859605622
 20
5295.3003132549
 10
6275.8527974611
 20
5295.6232516685
 10
6274.9628179624
 20
5295.9196141221
 10
6273.8416251561
 20
5296.1808748077
 10
6272.5214737179
 20
5296.3995177308
 10
6271.0403420009
 20
5296.5692529328
 10
6269.4408394681
 20
5296.6851974409
 10
6267.768980895
 20
5296.7440157426
 10
6266.072862609
 20
5296.7440157426
 10
6264.4012788448
 20
5296.6851974409
 10
6262.8023180241
 20
5296.5692529328
 10
6261.3219793384
 20
5296.3995177308
 10
6260.0028494364
 20
5296.1808748077
 10
6258.8828772837
 20
5295.9196141221
 10
6257.99428244
 20
5295.6232516685
 10
6257.3626281611
 20
5295.3003132549
 10
6257.0060859905
 20
5294.9600892316
 10
6256.9349129974
 20
5294.6123672243
 10
6257.1511566991
 20
5294.267150562
 10
6257.6485961581
 20
5293.9343704995
 10
6258.4129209468
 20
5293.6236005135
 10
6259.4221428326
 20
5293.3437808905
 10
6260.6472283395
 20
5293.1029615316
 10
6262.0529339878
 20
5292.9080703714
 10
6263.5988201854
 20
5292.7647140737
 10
6265.2404146011
 20
5292.6770167381
 10
6266.9304915522
 20
5292.6475012574
  0
LWPOLYLINE
  5
AF
330
1F
100
AcDbEntity
  8
0
  6
Continuous
 62
     7
370
    25
100
AcDbPolyline
 90
       34
 70
   128
 43
0.0
 10
6266.9218631901
 20
5296.341017261
 10
6268.4359422638
 20
5296.311352085
 10
6269.8954371754
 20
5296.223428734
 10
6271.2475979764
 20
5296.0804249868
 10
6272.4435540522
 20
5295.8875093714
 10
6273.4400804343
 20
5295.6516543609
 10
6274.2011600628
 20
5295.3813843699
 10
6274.699285537
 20
5295.08646766
 10
6274.9164533043
 20
5294.7775632894
 10
6274.8448143559
 20
5294.4658358671
 10
6274.48695791
 20
5294.1625520342
 10
6273.8558178308
 20
5293.8786732586
 10
6272.9742051654
 20
5293.624459659
 10
6271.8739836925
 20
5293.4090991771
 10
6270.5949182826
 20
5293.240375502
 10
6269.1832376923
 20
5293.1243867468
 10
6267.6899637362
 20
5293.0653250473
 10
6266.1690672257
 20
5293.0653250473
 10
6264.6755173235
 20
5293.1243867468
 10
6263.2632948143
 20
5293.240375502
 10
6261.9834410992
 20
5293.4090991771
 10
6260.8822134261
 20
5293.624459659
 10
6259.9994130322
 20
5293.8786732586
 10
6259.366946624
 20
5294.1625520342
 10
6259.0076731853
 20
5294.4658358671
 10
6258.9345777942
 20
5294.7775632894
 10
6259.1503023087
 20
5295.08646766
 10
6259.6470498827
 20
5295.3813843699
 10
6260.4068667647
 20
5295.6516543609
 10
6261.4022911927
 20
5295.8875093714
 10
6262.5973459346
 20
5296.0804249868
 10
6263.9488385981
 20
5296.223428734
 10
6265.4079227172
 20
5296.311352085
 10
6266.9218631901
 20
5296.341017261
  0
LINE
  5
B0
330
1F
100
AcDbEntity
  8
0
  6
Continuous
 62
     7
370
    25
100
AcDbLine
 10
6267.0138575825
 20
5164.6994545927
 30
0.0
 11
6277.0187553361
 21
5164.6994545927
 31
0.0
  0
LINE
  5
B1
330
1F
100
AcDbEntity
  8
0
  6
Continuous
 62
     7
370
    25
100
AcDbLine
 10
6257.0187553361
 20
5164.6994545927
 30
0.0
 11
6267.0138575825
 21
5164.6994545927
 31
0.0
  0
LWPOLYLINE
  5
B2
330
1F
100
AcDbEntity
  8
0
  6
Continuous
 62
     7
370
    25
100
AcDbPolyline
 90
       33
 70
   128
 43
0.0
 10
6266.9221028669
 20
5296.2384195942
 10
6268.3853491863
 20
5296.2088488132
 10
6269.7925019299
 20
5296.1212728589
 10
6271.0894850069
 20
5295.9790572259
 10
6272.226456085
 20
5295.7876671813
 10
6273.1597220032
 20
5295.5544577372
 10
6273.8534178758
 20
5295.2883910018
 10
6274.2808853593
 20
5294.9996917704
 10
6274.4256971182
 20
5294.6994545927
 10
6274.2822881176
 20
5294.399217415
 10
6273.8561694852
 20
5294.1105181837
 10
6273.1637167209
 20
5293.8444514482
 10
6272.2315403961
 20
5293.6112420042
 10
6271.0954635243
 20
5293.4198519596
 10
6269.7991449025
 20
5293.2776363266
 10
6268.3924013284
 20
5293.1900603722
 10
6266.9292931686
 20
5293.1604895912
 10
6265.4660468492
 20
5293.1900603722
 10
6264.0588941055
 20
5293.2776363266
 10
6262.7619110285
 20
5293.4198519596
 10
6261.6249399505
 20
5293.6112420042
 10
6260.6916740322
 20
5293.8444514482
 10
6259.9979781596
 20
5294.1105181837
 10
6259.5705106761
 20
5294.399217415
 10
6259.4256989173
 20
5294.6994545927
 10
6259.5691079178
 20
5294.9996917704
 10
6259.9952265503
 20
5295.2883910018
 10
6260.6876793146
 20
5295.5544577372
 10
6261.6198556393
 20
5295.7876671813
 10
6262.7559325111
 20
5295.9790572259
 10
6264.0522511329
 20
5296.1212728589
 10
6265.458994707
 20
5296.2088488132
 10
6266.9221028669
 20
5296.2384195942
  0
LINE
  5
B3
330
1F
100
AcDbEntity
  8
0
  6
Continuous
 62
     7
370
    25
100
AcDbLine
 10
6304.0187553361
 20
5090.3815556854
 30
0.0
 11
6304.0187553361
 21
5082.0494545927
 31
0.0
  0
LWPOLYLINE
  5
B4
330
1F
100
AcDbEntity
  8
0
  6
Continuous
 62
     7
370
    25
100
AcDbPolyline
 90
        9
 70
   128
 43
0.0
 10
6304.0187553361
 20
5090.3815556854
 10
6303.9995406165
 20
5090.5020988168
 10
6303.9426348686
 20
5090.6180095433
 10
6303.8502249484
 20
5090.7248334806
 10
6303.7258621173
 20
5090.8184654448
 10
6303.5743255691
 20
5090.8953072119
 10
6303.4014387685
 20
5090.952405796
 10
6303.2138456581
 20
5090.9875669305
 10
6303.0187553361
 20
5090.9994393927
  0
LINE
  5
B5
330
1F
100
AcDbEntity
  8
0
  6
Continuous
 62
     7
370
    25
100
AcDbLine
 10
6303.0187553361
 20
5090.9994393927
 30
0.0
 11
6292.0187553361
 21
5090.9994393927
 31
0.0
  0
ARC
  5
B6
330
1F
100
AcDbEntity
  8
0
  6
Continuous
 62
     7
370
    25
100
AcDbCircle
 10
6285.0767734745
 20
5096.8813607947
 30
0.0
 40
9.098797258241246
100
AcDbArc
 50
319.7254889516
 51
349.3471524284
  0
LINE
  5
B7
330
1F
100
AcDbEntity
  8
0
  6
Continuous
 62
     7
370
    25
100
AcDbLine
 10
6303.0187553361
 20
5090.9994393927
 30
0.0
 11
6303.0187553361
 21
5108.9546608005
 31
0.0
  0
ARC
  5
B8
330
1F
100
AcDbEntity
  8
0
  6
Continuous
 62
     7
370
    25
100
AcDbCircle
 10
6303.2520136573
 20
5107.7945020835
 30
0.0
 40
1.183375550275945
100
AcDbArc
 50
49.6144666676
 51
101.3681667307
  0
LINE
  5
B9
330
1F
100
AcDbEntity
  8
0
  6
Continuous
 62
     7
370
    25
100
AcDbLine
 10
6304.0187553361
 20
5108.6958815213
 30
0.0
 11
6304.0187553361
 21
5090.3815556854
 31
0.0
  0
ARC
  5
BA
330
1F
100
AcDbEntity
  8
0
  6
Continuous
 62
     7
370
    25
100
AcDbCircle
 10
6286.9232699144
 20
5096.4212642728
 30
0.0
 40
7.440440626318423
100
AcDbArc
 50
313.2227512646
 51
351.6492889286
  0
LWPOLYLINE
  5
BB
330
1F
100
AcDbEntity
  8
0
  6
Continuous
 62
     7
370
    25
100
AcDbPolyline
 90
        5
 70
   128
 43
0.0
 10
6295.0187553361
 20
5108.9546608005
 10
6294.904078608
 20
5105.3946839194
 10
6294.6517898063
 20
5101.926294229
 10
6294.3995010046
 20
5098.5687450905
 10
6294.2848242765
 20
5095.3406745789
  0
LINE
  5
BC
330
1F
100
AcDbEntity
  8
0
  6
Continuous
 62
     7
370
    25
100
AcDbLine
 10
6303.0187553361
 20
5108.9546608005
 30
0.0
 11
6295.0187553361
 21
5108.9546608005
 31
0.0
  0
LWPOLYLINE
  5
BD
330
1F
100
AcDbEntity
  8
0
  6
Continuous
 62
     7
370
    25
100
AcDbPolyline
 90
        7
 70
   128
 43
0.0
 10
6294.0187553361
 20
5095.1993762725
 10
6294.0374364884
 20
5095.2513874316
 10
6294.0621257677
 20
5095.2766960839
 10
6294.0966851245
 20
5095.2992892631
 10
6294.1392287573
 20
5095.3176423207
 10
6294.1868857072
 20
5095.3307537848
 10
6294.2848242765
 20
5095.3406745789
  0
ARC
  5
BE
330
1F
100
AcDbEntity
  8
0
  6
Continuous
 62
     7
370
    25
100
AcDbCircle
 10
6294.7854970149
 20
5107.7945020835
 30
0.0
 40
1.183375550272585
100
AcDbArc
 50
78.6318332693
 51
130.3855333325
  0
LINE
  5
BF
330
1F
100
AcDbEntity
  8
0
  6
Continuous
 62
     7
370
    25
100
AcDbLine
 10
6294.0187553361
 20
5095.1993762725
 30
0.0
 11
6294.0187553361
 21
5108.6958815213
 31
0.0
  0
LINE
  5
C0
330
1F
100
AcDbEntity
  8
0
  6
Continuous
 62
     7
370
    25
100
AcDbLine
 10
6294.0187553361
 20
5108.6958815213
 30
0.0
 11
6294.0187553361
 21
5109.4306972251
 31
0.0
  0
LINE
  5
C1
330
1F
100
AcDbEntity
  8
0
  6
Continuous
 62
     7
370
    25
100
AcDbLine
 10
6304.0187553361
 20
5109.4371022422
 30
0.0
 11
6304.0187553361
 21
5108.6958815213
 31
0.0
  0
LWPOLYLINE
  5
C2
330
1F
100
AcDbEntity
  8
0
  6
Continuous
 62
     7
370
    25
100
AcDbPolyline
 90
       20
 70
   128
 43
0.0
 10
6305.8057809025
 20
5087.0386296223
 10
6305.7513555496
 20
5086.9374804785
 10
6305.6879459189
 20
5086.9213154768
 10
6305.6212466034
 20
5086.9925336113
 10
6305.5594934616
 20
5087.1459189754
 10
6305.5113364624
 20
5087.3614860257
 10
6305.4828749437
 20
5087.6086056383
 10
6305.4763334004
 20
5087.8559782809
 10
6305.4909680357
 20
5088.0785550515
 10
6305.5246397601
 20
5088.2571438529
 10
6305.5743584811
 20
5088.375036807
 10
6305.6357501823
 20
5088.4170638435
 10
6305.702360291
 20
5088.3729434671
 10
6305.7658491376
 20
5088.2433973405
 10
6305.8176614087
 20
5088.0443146002
 10
6305.8514323513
 20
5087.8038882578
 10
6305.8643141622
 20
5087.5536176089
 10
6305.8563736029
 20
5087.3206102372
 10
6305.8292053259
 20
5087.1260894694
 10
6305.8057809025
 20
5087.0386296223
  0
LWPOLYLINE
  5
C3
330
1F
100
AcDbEntity
  8
0
  6
Continuous
 62
     7
370
    25
100
AcDbPolyline
 90
        9
 70
   128
 43
0.0
 10
6305.8312391352
 20
5087.1409261741
 10
6305.8569988086
 20
5087.3417880007
 10
6305.8629523981
 20
5087.5789432809
 10
6305.8485806672
 20
5087.8227555118
 10
6305.8156717412
 20
5088.049286996
 10
6305.7669113258
 20
5088.2373750871
 10
6305.7062870113
 20
5088.3661186665
 10
6305.6398199577
 20
5088.4167954437
 10
6305.6349454799
 20
5088.41387608
  0
LWPOLYLINE
  5
C4
330
1F
100
AcDbEntity
  8
0
  6
Continuous
 62
     7
370
    25
100
AcDbPolyline
 90
        4
 70
   128
 43
0.0
 10
6305.7066717412
 20
5086.9278188087
 10
6305.7469055558
 20
5086.9342485203
 10
6305.8029792429
 20
5087.0334398501
 10
6305.8312391352
 20
5087.1409261741
  0
ARC
  5
C5
330
1F
100
AcDbEntity
  8
0
  6
Continuous
 62
     7
370
    25
100
AcDbCircle
 10
6267.0088101145
 20
5087.1999847105
 30
0.0
 40
10.91193228181193
100
AcDbArc
 50
359.9999831906
 51
359.9976115572
  0
LINE
  5
C6
330
1F
100
AcDbEntity
  8
0
  6
Continuous
 62
     7
370
    25
100
AcDbLine
 10
6277.9207423963
 20
5087.1999815092
 30
0.0
 11
6277.6421390527
 21
5087.1999815207
 31
0.0
  0
LWPOLYLINE
  5
C7
330
1F
100
AcDbEntity
  8
0
  6
Continuous
 62
     7
370
    25
100
AcDbPolyline
 90
       34
 70
   128
 43
0.0
 10
6277.6421390527
 20
5087.1999815207
 10
6277.5158698922
 20
5088.8013632037
 10
6277.1274432331
 20
5090.4027448944
 10
6275.6754034941
 20
5093.2374228946
 10
6273.274234736
 20
5095.6180118478
 10
6271.7262867951
 20
5096.5365932963
 10
6269.9764998147
 20
5097.2028258485
 10
6268.2539617232
 20
5097.54399398
 10
6266.4343302142
 20
5097.5986925707
 10
6264.794860547
 20
5097.3838018396
 10
6263.1721733177
 20
5096.9080674542
 10
6260.2920918791
 20
5095.2615341577
 10
6259.0280649484
 20
5094.0634137387
 10
6257.9531423841
 20
5092.629957798
 10
6257.1399819426
 20
5091.0308972814
 10
6256.6004495233
 20
5089.2365286789
 10
6256.4025627101
 20
5087.5829528996
 10
6256.4835099305
 20
5085.8593361549
 10
6257.3377297895
 20
5082.9100907027
 10
6259.0920892464
 20
5080.2643220748
 10
6260.359697087
 20
5079.0838090051
 10
6261.8510922952
 20
5078.099081145
 10
6263.5025154202
 20
5077.3712789558
 10
6265.3265106259
 20
5076.9173651627
 10
6267.0366301866
 20
5076.7844557399
 10
6268.7999664561
 20
5076.9317769069
 10
6271.9302639846
 20
5077.9637977076
 10
6273.3588735658
 20
5078.8418767045
 10
6274.6552480372
 20
5079.958289996
 10
6275.7892741936
 20
5081.3215438873
 10
6276.7017112013
 20
5082.9141948527
 10
6277.3002106364
 20
5084.5776526106
 10
6277.6106859164
 20
5086.3987242891
 10
6277.6421390435
 20
5087.1995506366
  0
LWPOLYLINE
  5
C8
330
1F
100
AcDbEntity
  8
0
  6
Continuous
 62
     7
370
    25
100
AcDbPolyline
 90
        9
 70
   128
 43
0.0
 10
6277.6421390435
 20
5087.1995506366
 10
6277.7012351919
 20
5087.1995474437
 10
6277.7550878981
 20
5087.1995443104
 10
6277.8026901834
 20
5087.1995412955
 10
6277.8431519443
 20
5087.1995384552
 10
6277.8757165963
 20
5087.1995358427
 10
6277.899775221
 20
5087.1995335068
 10
6277.9148779519
 20
5087.1995314912
 10
6277.9207423869
 20
5087.1995298336
  0
LINE
  5
C9
330
1F
100
AcDbEntity
  8
0
  6
Continuous
 62
     7
370
    25
100
AcDbLine
 10
6277.9207423963
 20
5087.1999815092
 30
0.0
 11
6277.9207423869
 21
5087.1995298336
 31
0.0
  0
LINE
  5
CA
330
1F
100
AcDbEntity
  8
0
  6
Continuous
 62
     7
370
    25
100
AcDbLine
 10
6277.6421390435
 20
5087.1995506366
 30
0.0
 11
6277.6421390527
 21
5087.1999815207
 31
0.0
  0
ARC
  5
CB
330
1F
100
AcDbEntity
  8
0
  6
Continuous
 62
     7
370
    25
100
AcDbCircle
 10
6316.6055369942
 20
5087.1987686075
 30
0.0
 40
25.35628771248228
100
AcDbArc
 50
166.0375392815
 51
194.1515920012
  0
LINE
  5
CC
330
1F
100
AcDbEntity
  8
0
  6
Continuous
 62
     7
370
    25
100
AcDbLine
 10
6292.0187553361
 20
5062.6994545927
 30
0.0
 11
6242.0187553361
 21
5062.6994545927
 31
0.0
  0
CIRCLE
  5
CD
330
1F
100
AcDbEntity
  8
0
  6
Continuous
 62
     7
370
    25
100
AcDbCircle
 10
6267.018714565
 20
5087.1984234462
 30
0.0
 40
11.0489688535924
  0
LINE
  5
CE
330
1F
100
AcDbEntity
  8
0
  6
Continuous
 62
     7
370
    25
100
AcDbLine
 10
6282.0187553361
 20
5143.6994545927
 30
0.0
 11
6252.0187553361
 21
5143.6994545927
 31
0.0
  0
LINE
  5
CF
330
1F
100
AcDbEntity
  8
0
  6
Continuous
 62
     8
370
    25
100
AcDbLine
 10
6281.5187553361
 20
5164.0994545927
 30
0.0
 11
6252.5187553361
 21
5164.0994545927
 31
0.0
  0
LWPOLYLINE
  5
D0
330
1F
100
AcDbEntity
  8
0
  6
Continuous
 62
     8
370
    25
100
AcDbPolyline
 90
       20
 70
   128
 43
0.0
 10
6276.9273059589
 20
5310.3579643941
 10
6276.8457003102
 20
5310.6196258794
 10
6276.4875685561
 20
5310.9598499027
 10
6275.854405455
 20
5311.2827883163
 10
6274.9644259563
 20
5311.57915077
 10
6273.84323315
 20
5311.8404114555
 10
6272.5230817118
 20
5312.0590543787
 10
6271.0419499948
 20
5312.2287895806
 10
6269.442447462
 20
5312.3447340887
 10
6267.7705888889
 20
5312.4035523905
 10
6266.0744706028
 20
5312.4035523905
 10
6264.4028868387
 20
5312.3447340887
 10
6262.803926018
 20
5312.2287895806
 10
6261.3235873323
 20
5312.0590543787
 10
6260.0044574303
 20
5311.8404114555
 10
6258.8844852776
 20
5311.57915077
 10
6257.9958904339
 20
5311.2827883163
 10
6257.364236155
 20
5310.9598499027
 10
6257.0076939844
 20
5310.6196258794
 10
6256.9273060643
 20
5310.3600180869
  0
LWPOLYLINE
  5
D1
330
1F
100
AcDbEntity
  8
0
  6
Continuous
 62
     8
370
    25
100
AcDbPolyline
 90
       20
 70
   128
 43
0.0
 10
6276.9289139528
 20
5326.017501042
 10
6276.8473083041
 20
5326.2791625273
 10
6276.48917655
 20
5326.6193865506
 10
6275.8560134489
 20
5326.9423249641
 10
6274.9660339502
 20
5327.2386874178
 10
6273.8448411439
 20
5327.4999481033
 10
6272.5246897057
 20
5327.7185910265
 10
6271.0435579887
 20
5327.8883262285
 10
6269.4440554559
 20
5328.0042707365
 10
6267.7721968828
 20
5328.0630890383
 10
6266.0760785967
 20
5328.0630890383
 10
6264.4044948326
 20
5328.0042707365
 10
6262.8055340119
 20
5327.8883262285
 10
6261.3251953262
 20
5327.7185910265
 10
6260.0060654242
 20
5327.4999481033
 10
6258.8860932715
 20
5327.2386874178
 10
6257.9974984278
 20
5326.9423249641
 10
6257.3658441489
 20
5326.6193865506
 10
6257.0093019783
 20
5326.2791625273
 10
6256.9289140582
 20
5326.0195547348
  0
LINE
  5
D2
330
1F
100
AcDbEntity
  8
0
  6
Continuous
 62
     8
370
    25
100
AcDbLine
 10
6276.9269607641
 20
5306.9962662334
 30
0.0
 11
6277.0187553292
 21
5306.9962662334
 31
0.0
  0
LINE
  5
D3
330
1F
100
AcDbEntity
  8
0
  6
Continuous
 62
     8
370
    25
100
AcDbLine
 10
6303.0187553361
 20
5081.0494545927
 30
0.0
 11
6303.0187553361
 21
5090.9994393927
 31
0.0
  0
LINE
  5
D4
330
1F
100
AcDbEntity
  8
0
  6
Continuous
 62
     8
370
    25
100
AcDbLine
 10
6292.0187553361
 20
5090.9994393927
 30
0.0
 11
6292.0187553361
 21
5093.3494545927
 31
0.0
  0
LINE
  5
D5
330
1F
100
AcDbEntity
  8
0
  6
Continuous
 62
     8
370
    25
100
AcDbLine
 10
6295.0187553361
 20
5110.4098004451
 30
0.0
 11
6295.0187553361
 21
5108.9546608005
 31
0.0
  0
LINE
  5
D6
330
1F
100
AcDbEntity
  8
0
  6
Continuous
 62
     8
370
    25
100
AcDbLine
 10
6303.0187553361
 20
5108.9546608005
 30
0.0
 11
6303.0187553361
 21
5110.4371022422
 31
0.0
  0
LINE
  5
D7
330
1F
100
AcDbEntity
  8
0
  6
Continuous
 62
     8
370
    25
100
AcDbLine
 10
6304.5884694504
 20
5091.7994545927
 30
0.0
 11
6304.5884694504
 21
5082.5994545927
 31
0.0
  0
LINE
  5
D8
330
1F
100
AcDbEntity
  8
0
  6
Continuous
 62
     8
370
    25
100
AcDbLine
 10
6305.0395070353
 20
5091.5152440664
 30
0.0
 11
6305.0395070353
 21
5082.883665119
 31
0.0
  0
LINE
  5
D9
330
1F
100
AcDbEntity
  8
0
  6
Continuous
 62
     8
370
    25
100
AcDbLine
 10
6292.0187553361
 20
5140.7021584546
 30
0.0
 11
6242.0187553361
 21
5140.7021584546
 31
0.0
  0
LINE
  5
DA
330
1F
100
AcDbEntity
  8
0
  6
Continuous
 62
     8
370
    25
100
AcDbLine
 10
6290.2624940229
 20
5142.6872507579
 30
0.0
 11
6243.7750166493
 21
5142.6872507579
 31
0.0
  0
LINE
  5
DB
330
1F
100
AcDbEntity
  8
0
  6
Continuous
 62
     7
370
    25
100
AcDbLine
 10
6485.815897034
 20
5164.5994545927
 30
0.0
 11
6485.815897034
 21
5164.6994545927
 31
0.0
  0
LINE
  5
DC
330
1F
100
AcDbEntity
  8
0
  6
Continuous
 62
     7
370
    25
100
AcDbLine
 10
6467.215897034
 20
5164.6994545927
 30
0.0
 11
6467.215897034
 21
5164.5994545927
 31
0.0
  0
LINE
  5
DD
330
1F
100
AcDbEntity
  8
0
  6
Continuous
 62
     7
370
    25
100
AcDbLine
 10
6491.015897034
 20
5144.1994545927
 30
0.0
 11
6491.015897034
 21
5164.0994545927
 31
0.0
  0
LINE
  5
DE
330
1F
100
AcDbEntity
  8
0
  6
Continuous
 62
     7
370
    25
100
AcDbLine
 10
6462.015897034
 20
5164.0994545927
 30
0.0
 11
6462.015897034
 21
5144.1994545927
 31
0.0
  0
ARC
  5
DF
330
1F
100
AcDbEntity
  8
0
  6
Continuous
 62
     7
370
    25
100
AcDbCircle
 10
6490.515897034
 20
5164.0994545927
 30
0.0
 40
0.4999999999990905
100
AcDbArc
 50
0.0
 51
90.0
  0
ARC
  5
E0
330
1F
100
AcDbEntity
  8
0
  6
Continuous
 62
     7
370
    25
100
AcDbCircle
 10
6462.515897034
 20
5164.0994545927
 30
0.0
 40
0.5
100
AcDbArc
 50
90.0
 51
180.0
  0
LINE
  5
E1
330
1F
100
AcDbEntity
  8
0
  6
Continuous
 62
     7
370
    25
100
AcDbLine
 10
6676.3030846997
 20
5296.7514076923
 30
0.0
 11
6673.019959757
 21
5312.4109443401
 31
0.0
  0
LINE
  5
E2
330
1F
100
AcDbEntity
  8
0
  6
Continuous
 62
     7
370
    25
100
AcDbLine
 10
6653.4455388483
 20
5308.307038141
 30
0.0
 11
6656.7286637911
 21
5292.6475014931
 31
0.0
  0
LINE
  5
E3
330
1F
100
AcDbEntity
  8
0
  6
Continuous
 62
     7
370
    25
100
AcDbLine
 10
6673.019959757
 20
5312.4109443401
 30
0.0
 11
6669.7368348142
 21
5328.070480988
 31
0.0
  0
LINE
  5
E4
330
1F
100
AcDbEntity
  8
0
  6
Continuous
 62
     7
370
    25
100
AcDbLine
 10
6650.1624139056
 20
5323.9665747888
 30
0.0
 11
6653.4455388483
 21
5308.307038141
 31
0.0
  0
ARC
  5
E5
330
1F
100
AcDbEntity
  8
0
  6
Continuous
 62
     7
370
    25
100
AcDbCircle
 10
6569.2190734853
 20
5306.9962761252
 30
0.0
 40
82.70317645128006
100
AcDbArc
 50
11.8409288185
 51
180.0000068529
  0
ARC
  5
E6
330
1F
100
AcDbEntity
  8
0
  6
Continuous
 62
     7
370
    25
100
AcDbCircle
 10
6569.2190734744
 20
5306.9962762299
 30
0.0
 40
102.703176440416
100
AcDbArc
 50
11.8409294855
 51
180.0000055768
  0
LINE
  5
E7
330
1F
100
AcDbEntity
  8
0
  6
Continuous
 62
     7
370
    25
100
AcDbLine
 10
6466.515897034
 20
5306.9962662334
 30
0.0
 11
6466.515897034
 21
5164.6994545927
 31
0.0
  0
LINE
  5
E8
330
1F
100
AcDbEntity
  8
0
  6
Continuous
 62
     7
370
    25
100
AcDbLine
 10
6486.515897034
 20
5164.6994545927
 30
0.0
 11
6486.515897034
 21
5306.9962662334
 31
0.0
  0
LINE
  5
E9
330
1F
100
AcDbEntity
  8
0
  6
Continuous
 62
     7
370
    25
100
AcDbLine
 10
6659.1754089953
 20
5293.1607635937
 30
0.0
 11
6659.1754664047
 21
5293.160489768
 31
0.0
  0
LINE
  5
EA
330
1F
100
AcDbEntity
  8
0
  6
Continuous
 62
     7
370
    25
100
AcDbLine
 10
6673.8562820861
 20
5296.2384194174
 30
0.0
 11
6673.8562246768
 21
5296.2386932431
 31
0.0
  0
LINE
  5
EB
330
1F
100
AcDbEntity
  8
0
  6
Continuous
 62
     7
370
    25
100
AcDbLine
 10
6501.515897034
 20
5076.7890616894
 30
0.0
 11
6501.515897034
 21
5097.581447898
 31
0.0
  0
LINE
  5
EC
330
1F
100
AcDbEntity
  8
0
  6
Continuous
 62
     7
370
    25
100
AcDbLine
 10
6501.515897034
 20
5098.2217807311
 30
0.0
 11
6501.515897034
 21
5140.7021584546
 31
0.0
  0
LINE
  5
ED
330
1F
100
AcDbEntity
  8
0
  6
Continuous
 62
     7
370
    25
100
AcDbLine
 10
6501.515897034
 20
5062.6994545927
 30
0.0
 11
6501.515897034
 21
5076.1494545927
 31
0.0
  0
LINE
  5
EE
330
1F
100
AcDbEntity
  8
0
  6
Continuous
 62
     7
370
    25
100
AcDbLine
 10
6451.515897034
 20
5140.7021584546
 30
0.0
 11
6451.515897034
 21
5062.6994545927
 31
0.0
  0
ARC
  5
EF
330
1F
100
AcDbEntity
  8
0
  6
Continuous
 62
     7
370
    25
100
AcDbCircle
 10
6499.515897034
 20
5140.7021584546
 30
0.0
 40
2.0
100
AcDbArc
 50
0.0
 51
83.0
  0
ARC
  5
F0
330
1F
100
AcDbEntity
  8
0
  6
Continuous
 62
     7
370
    25
100
AcDbCircle
 10
6453.515897034
 20
5140.7021584546
 30
0.0
 40
2.000000000000107
100
AcDbArc
 50
97.0
 51
180.0
  0
LINE
  5
F1
330
1F
100
AcDbEntity
  8
0
  6
Continuous
 62
     7
370
    25
100
AcDbLine
 10
6499.7596357208
 20
5142.6872507579
 30
0.0
 11
6491.515897034
 21
5143.6994545927
 31
0.0
  0
LINE
  5
F2
330
1F
100
AcDbEntity
  8
0
  6
Continuous
 62
     7
370
    25
100
AcDbLine
 10
6461.515897034
 20
5143.6994545927
 30
0.0
 11
6453.2721583472
 21
5142.6872507579
 31
0.0
  0
LINE
  5
F3
330
1F
100
AcDbEntity
  8
0
  6
Continuous
 62
     7
370
    25
100
AcDbLine
 10
6488.765897034
 20
5143.6994545927
 30
0.0
 11
6488.765897034
 21
5144.1994545927
 31
0.0
  0
LINE
  5
F4
330
1F
100
AcDbEntity
  8
0
  6
Continuous
 62
     7
370
    25
100
AcDbLine
 10
6464.265897034
 20
5144.1994545927
 30
0.0
 11
6464.265897034
 21
5143.6994545927
 31
0.0
  0
LINE
  5
F5
330
1F
100
AcDbEntity
  8
0
  6
Continuous
 62
     7
370
    25
100
AcDbLine
 10
6491.015897034
 20
5144.1994545927
 30
0.0
 11
6462.0158987731
 21
5144.1994545927
 31
0.0
  0
LINE
  5
F6
330
1F
100
AcDbEntity
  8
0
  6
Continuous
 62
     7
370
    25
100
AcDbLine
 10
6480.4647562945
 20
5147.1994545927
 30
0.0
 11
6472.5533730409
 21
5147.1994545927
 31
0.0
  0
LINE
  5
F7
330
1F
100
AcDbEntity
  8
0
  6
Continuous
 62
     7
370
    25
100
AcDbLine
 10
6480.4647562945
 20
5162.7994545927
 30
0.0
 11
6480.4647562945
 21
5147.1994545927
 31
0.0
  0
LINE
  5
F8
330
1F
100
AcDbEntity
  8
0
  6
Continuous
 62
     7
370
    25
100
AcDbLine
 10
6472.5533730409
 20
5162.7994545927
 30
0.0
 11
6480.4647562945
 21
5162.7994545927
 31
0.0
  0
LINE
  5
F9
330
1F
100
AcDbEntity
  8
0
  6
Continuous
 62
     7
370
    25
100
AcDbLine
 10
6472.5533730409
 20
5147.1994545927
 30
0.0
 11
6472.5533730409
 21
5162.7994545927
 31
0.0
  0
LINE
  5
FA
330
1F
100
AcDbEntity
  8
0
  6
Continuous
 62
     7
370
    25
100
AcDbLine
 10
6490.515897034
 20
5164.5994545927
 30
0.0
 11
6462.5158987131
 21
5164.5994545927
 31
0.0
  0
LWPOLYLINE
  5
FB
330
1F
100
AcDbEntity
  8
0
  6
Continuous
 62
     7
370
    25
100
AcDbPolyline
 90
       38
 70
   128
 43
0.0
 10
6656.7286650144
 20
5292.6475012574
 10
6656.8702728338
 20
5292.6770167381
 10
6657.2893670441
 20
5292.7647140737
 10
6657.9738910679
 20
5292.9080703714
 10
6658.9041523954
 20
5293.1029615316
 10
6660.0533891019
 20
5293.3437808905
 10
6661.3885397398
 20
5293.6236005135
 10
6662.871194456
 20
5293.9343704995
 10
6664.458699974
 20
5294.267150562
 10
6666.1053866503
 20
5294.6123672243
 10
6667.7638823073
 20
5294.9600892316
 10
6669.3864750446
 20
5295.3003132549
 10
6670.9264858233
 20
5295.6232516685
 10
6672.3396113374
 20
5295.9196141221
 10
6673.5851985386
 20
5296.1808748077
 10
6674.627414151
 20
5296.3995177308
 10
6675.4362755289
 20
5296.5692529328
 10
6675.9885132032
 20
5296.6851974409
 10
6676.2682403015
 20
5296.7440157426
 10
6676.2674095845
 20
5296.7440157426
 10
6675.9860449503
 20
5296.6851974409
 10
6675.4322407473
 20
5296.5692529328
 10
6674.6219289139
 20
5296.3995177308
 10
6673.5784206464
 20
5296.1808748077
 10
6672.3317357777
 20
5295.9196141221
 10
6670.9177391617
 20
5295.6232516685
 10
6669.3771089064
 20
5295.3003132549
 10
6667.7541661394
 20
5294.9600892316
 10
6666.0955999691
 20
5294.6123672243
 10
6664.4491243246
 20
5294.267150562
 10
6662.8621053124
 20
5293.9343704995
 10
6661.38019858
 20
5293.6236005135
 10
6660.046035886
 20
5293.3437808905
 10
6658.8979986619
 20
5293.1029615316
 10
6657.9691138486
 20
5292.9080703714
 10
6657.2861037708
 20
5292.7647140737
 10
6656.868617385
 20
5292.6770167381
 10
6656.7286650144
 20
5292.6475012574
  0
LWPOLYLINE
  5
FC
330
1F
100
AcDbEntity
  8
0
  6
Continuous
 62
     7
370
    25
100
AcDbPolyline
 90
       34
 70
   128
 43
0.0
 10
6674.3456416302
 20
5296.341017261
 10
6674.2048890582
 20
5296.311352085
 10
6673.7862354573
 20
5296.223428734
 10
6673.1048120595
 20
5296.0804249868
 10
6672.1852472818
 20
5295.8875093714
 10
6671.0607765911
 20
5295.6516543609
 10
6669.7720412881
 20
5295.3813843699
 10
6668.3656196242
 20
5295.08646766
 10
6666.8923433429
 20
5294.7775632894
 10
6665.4054604875
 20
5294.4658358671
 10
6663.9587108785
 20
5294.1625520342
 10
6662.6043838162
 20
5293.8786732586
 10
6661.3914282093
 20
5293.624459659
 10
6660.3636834338
 20
5293.4090991771
 10
6659.5582948635
 20
5293.240375502
 10
6659.0043713399
 20
5293.1243867468
 10
6658.7219331024
 20
5293.0653250473
 10
6658.7211882047
 20
5293.0653250473
 10
6659.0021635693
 20
5293.1243867468
 10
6659.5547040146
 20
5293.240375502
 10
6660.3588392891
 20
5293.4090991771
 10
6661.385505849
 20
5293.624459659
 10
6662.5975972898
 20
5293.8786732586
 10
6663.9513054687
 20
5294.1625520342
 10
6665.3977038451
 20
5294.4658358671
 10
6666.8845158131
 20
5294.7775632894
 10
6668.3580041144
 20
5295.08646766
 10
6669.7649130427
 20
5295.3813843699
 10
6671.0543932434
 20
5295.6516543609
 10
6672.1798395427
 20
5295.8875093714
 10
6673.1005753787
 20
5296.0804249868
 10
6673.7833229595
 20
5296.223428734
 10
6674.2034060087
 20
5296.311352085
 10
6674.3456416302
 20
5296.341017261
  0
LINE
  5
FD
330
1F
100
AcDbEntity
  8
0
  6
Continuous
 62
     7
370
    25
100
AcDbLine
 10
6466.515897034
 20
5164.6994545927
 30
0.0
 11
6486.5158958346
 21
5164.6994545927
 31
0.0
  0
LWPOLYLINE
  5
FE
330
1F
100
AcDbEntity
  8
0
  6
Continuous
 62
     7
370
    25
100
AcDbPolyline
 90
       33
 70
   128
 43
0.0
 10
6673.8562811687
 20
5296.2384195942
 10
6673.7159539361
 20
5296.2088488132
 10
6673.298931679
 20
5296.1212728589
 10
6672.6212403286
 20
5295.9790572259
 10
6671.7089231836
 20
5295.7876671813
 10
6670.5970400802
 20
5295.5544577372
 10
6669.3283200625
 20
5295.2883910018
 10
6667.9515193293
 20
5294.9996917704
 10
6666.5195475606
 20
5294.6994545927
 10
6665.0874346285
 20
5294.399217415
 10
6663.7102158298
 20
5294.1105181837
 10
6662.4408169105
 20
5293.8444514482
 10
6661.3280201594
 20
5293.6112420042
 10
6660.4145897313
 20
5293.4198519596
 10
6659.7356282456
 20
5293.2776363266
 10
6659.3172278111
 20
5293.1900603722
 10
6659.1754673221
 20
5293.1604895912
 10
6659.3157945546
 20
5293.1900603722
 10
6659.7328168118
 20
5293.2776363266
 10
6660.4105081622
 20
5293.4198519596
 10
6661.3228253072
 20
5293.6112420042
 10
6662.4347084106
 20
5293.8444514482
 10
6663.7034284283
 20
5294.1105181837
 10
6665.0802291615
 20
5294.399217415
 10
6666.5122009302
 20
5294.6994545927
 10
6667.9443138623
 20
5294.9996917704
 10
6669.321532661
 20
5295.2883910018
 10
6670.5909315802
 20
5295.5544577372
 10
6671.7037283314
 20
5295.7876671813
 10
6672.6171587594
 20
5295.9790572259
 10
6673.2961202452
 20
5296.1212728589
 10
6673.7145206797
 20
5296.2088488132
 10
6673.8562811687
 20
5296.2384195942
  0
LWPOLYLINE
  5
FF
330
1F
100
AcDbEntity
  8
0
  6
Continuous
 62
     7
370
    25
100
AcDbPolyline
 90
       18
 70
   128
 43
0.0
 10
6501.5007538794
 20
5097.5811370248
 10
6501.5087803086
 20
5097.5986925707
 10
6501.4098196742
 20
5097.3781216221
 10
6501.2056376491
 20
5096.9080674542
 10
6500.5539526181
 20
5095.2615341577
 10
6500.1408302296
 20
5094.0449994819
 10
6499.7378382268
 20
5092.629957798
 10
6499.3838974707
 20
5091.0007337564
 10
6499.1366952118
 20
5089.2365286789
 10
6499.0409115376
 20
5087.5537844517
 10
6499.0799554231
 20
5085.8593361549
 10
6499.4767201862
 20
5082.9100907027
 10
6500.1691081132
 20
5080.2643220748
 10
6500.5786816429
 20
5079.0696987249
 10
6500.9529459861
 20
5078.099081145
 10
6501.2603017503
 20
5077.3625564906
 10
6501.4561624761
 20
5076.9173651627
 10
6501.5126404546
 20
5076.7908443999
  0
LWPOLYLINE
  5
100
330
1F
100
AcDbEntity
  8
0
  6
Continuous
 62
     7
370
    25
100
AcDbPolyline
 90
       21
 70
   128
 43
0.0
 10
6501.503696817
 20
5098.2217807311
 10
6501.4762212181
 20
5098.1593945275
 10
6501.3287278423
 20
5097.8192037762
 10
6501.0778024575
 20
5097.2189205481
 10
6500.7476022282
 20
5096.3797615931
 10
6500.3590182662
 20
5095.2986477681
 10
6499.9342442175
 20
5093.9464157463
 10
6499.527027647
 20
5092.3583917011
 10
6499.2007474859
 20
5090.6207029067
 10
6498.9914970671
 20
5088.7011525807
 10
6498.9426530363
 20
5086.9506880624
 10
6499.0346141503
 20
5085.1512552458
 10
6499.5297291538
 20
5082.028480909
 10
6499.9000883771
 20
5080.5720188314
 10
6500.3079714121
 20
5079.2517943574
 10
6500.7270111065
 20
5078.0736371151
 10
6501.0992550019
 20
5077.1275139169
 10
6501.3600461083
 20
5076.5067354237
 10
6501.5006686171
 20
5076.1839513786
 10
6501.515897034
 20
5076.1494545927
 10
6501.515897034
 20
5076.1494545927
  0
LINE
  5
101
330
1F
100
AcDbEntity
  8
0
  6
Continuous
 62
     7
370
    25
100
AcDbLine
 10
6501.515897034
 20
5062.6994545927
 30
0.0
 11
6451.515897034
 21
5062.6994545927
 31
0.0
  0
LINE
  5
102
330
1F
100
AcDbEntity
  8
0
  6
Continuous
 62
     7
370
    25
100
AcDbLine
 10
6491.515897034
 20
5143.6994545927
 30
0.0
 11
6461.515897034
 21
5143.6994545927
 31
0.0
  0
LINE
  5
103
330
1F
100
AcDbEntity
  8
0
  6
Continuous
 62
     8
370
    25
100
AcDbLine
 10
6491.015897034
 20
5164.0994545927
 30
0.0
 11
6462.0158987731
 21
5164.0994545927
 31
0.0
  0
LWPOLYLINE
  5
104
330
1F
100
AcDbEntity
  8
0
  6
Continuous
 62
     8
370
    25
100
AcDbPolyline
 90
       21
 70
   128
 43
0.0
 10
6673.019959757
 20
5312.4109443401
 10
6672.9842846417
 20
5312.4035523905
 10
6672.7029200076
 20
5312.3447340887
 10
6672.1491158045
 20
5312.2287895806
 10
6671.3388039712
 20
5312.0590543787
 10
6670.2952957037
 20
5311.8404114555
 10
6669.048610835
 20
5311.57915077
 10
6667.6346142189
 20
5311.2827883163
 10
6666.0939839637
 20
5310.9598499027
 10
6664.4710411967
 20
5310.6196258794
 10
6662.8124750264
 20
5310.2719038721
 10
6661.1659993819
 20
5309.9266872098
 10
6659.5789803697
 20
5309.5939071474
 10
6658.0970736372
 20
5309.2831371613
 10
6656.7629109432
 20
5309.0033175383
 10
6655.6148737192
 20
5308.7624981795
 10
6654.6859889058
 20
5308.5676070193
 10
6654.0029788281
 20
5308.4242507215
 10
6653.5854924423
 20
5308.336553386
 10
6653.4455400716
 20
5308.3070379052
 10
6653.4455400716
 20
5308.3070379052
  0
LWPOLYLINE
  5
105
330
1F
100
AcDbEntity
  8
0
  6
Continuous
 62
     8
370
    25
100
AcDbPolyline
 90
       21
 70
   128
 43
0.0
 10
6669.7368348142
 20
5328.070480988
 10
6669.701159699
 20
5328.0630890383
 10
6669.4197950648
 20
5328.0042707365
 10
6668.8659908618
 20
5327.8883262285
 10
6668.0556790284
 20
5327.7185910265
 10
6667.012170761
 20
5327.4999481033
 10
6665.7654858923
 20
5327.2386874178
 10
6664.3514892762
 20
5326.9423249641
 10
6662.8108590209
 20
5326.6193865506
 10
6661.1879162539
 20
5326.2791625273
 10
6659.5293500836
 20
5325.9314405199
 10
6657.8828744391
 20
5325.5862238576
 10
6656.2958554269
 20
5325.2534437952
 10
6654.8139486945
 20
5324.9426738091
 10
6653.4797860005
 20
5324.6628541861
 10
6652.3317487764
 20
5324.4220348273
 10
6651.4028639631
 20
5324.2271436671
 10
6650.7198538853
 20
5324.0837873694
 10
6650.3023674995
 20
5323.9960900338
 10
6650.1624151289
 20
5323.966574553
 10
6650.1624151289
 20
5323.966574553
  0
LINE
  5
106
330
1F
100
AcDbEntity
  8
0
  6
Continuous
 62
     8
370
    25
100
AcDbLine
 10
6466.5158974326
 20
5306.9962662334
 30
0.0
 11
6486.5158958346
 21
5306.9962662334
 31
0.0
  0
LINE
  5
107
330
1F
100
AcDbEntity
  8
0
  6
Continuous
 62
     8
370
    25
100
AcDbLine
 10
6501.515897034
 20
5140.7021584546
 30
0.0
 11
6451.515897034
 21
5140.7021584546
 31
0.0
  0
LINE
  5
108
330
1F
100
AcDbEntity
  8
0
  6
Continuous
 62
     8
370
    25
100
AcDbLine
 10
6499.7596357208
 20
5142.6872507579
 30
0.0
 11
6453.2721583472
 21
5142.6872507579
 31
0.0
  0
LINE
  5
109
330
1F
100
AcDbEntity
  8
0
  6
Continuous
 62
     7
370
    25
100
AcDbLine
 10
6257.0187565355
 20
4890.2510509918
 30
0.0
 11
6256.9289152049
 21
4706.8173236659
 31
0.0
  0
LINE
  5
10A
330
1F
100
AcDbEntity
  8
0
  6
Continuous
 62
     7
370
    25
100
AcDbLine
 10
6276.9289128061
 20
4706.8075281587
 30
0.0
 11
6277.0187541367
 21
4890.2412554846
 31
0.0
  0
LINE
  5
10B
330
1F
100
AcDbEntity
  8
0
  6
Continuous
 62
     7
370
    25
100
AcDbLine
 10
6276.9273048122
 20
4703.524403216
 30
0.0
 11
6276.9289128061
 21
4706.8075281587
 31
0.0
  0
LINE
  5
10C
330
1F
100
AcDbEntity
  8
0
  6
Continuous
 62
     7
370
    25
100
AcDbLine
 10
6256.9289152049
 20
4706.8173236659
 30
0.0
 11
6256.927307211
 21
4703.5341987232
 31
0.0
  0
LINE
  5
10D
330
1F
100
AcDbEntity
  8
0
  6
Continuous
 62
     7
370
    25
100
AcDbLine
 10
6276.9256968183
 20
4700.2412782732
 30
0.0
 11
6276.9273048122
 21
4703.524403216
 31
0.0
  0
LINE
  5
10E
330
1F
100
AcDbEntity
  8
0
  6
Continuous
 62
     7
370
    25
100
AcDbLine
 10
6256.927307211
 20
4703.5341987232
 30
0.0
 11
6256.9256992171
 21
4700.2510737804
 31
0.0
  0
ARC
  5
10F
330
1F
100
AcDbEntity
  8
0
  6
Continuous
 62
     7
370
    25
100
AcDbCircle
 10
6294.9217133721
 20
4897.4765658455
 30
0.0
 40
0.9030657754916324
100
AcDbArc
 50
89.3047630947
 51
179.1149460119
  0
ARC
  5
110
330
1F
100
AcDbEntity
  8
0
  6
Continuous
 62
     7
370
    25
100
AcDbCircle
 10
6303.0187553361
 20
4897.3805606217
 30
0.0
 40
1.0
100
AcDbArc
 50
0.0
 51
90.0
  0
LINE
  5
111
330
1F
100
AcDbEntity
  8
0
  6
Continuous
 62
     7
370
    25
100
AcDbLine
 10
6303.0187553361
 20
4898.3805606217
 30
0.0
 11
6294.9111667451
 21
4898.3805606217
 31
0.0
  0
ARC
  5
112
330
1F
100
AcDbEntity
  8
0
  6
Continuous
 62
     7
370
    25
100
AcDbCircle
 10
6292.0187553361
 20
4898.3961532382
 30
0.0
 40
2.000000000000977
100
AcDbArc
 50
270.0
 51
290.8154900929
  0
LINE
  5
113
330
1F
100
AcDbEntity
  8
0
  6
Continuous
 62
     7
370
    25
100
AcDbLine
 10
6292.0187553361
 20
4896.3961532382
 30
0.0
 11
6291.2505010429
 21
4896.3961532382
 31
0.0
  0
LINE
  5
114
330
1F
100
AcDbEntity
  8
0
  6
Continuous
 62
     7
370
    25
100
AcDbLine
 10
6291.2505010429
 20
4884.0961532382
 30
0.0
 11
6303.0187553361
 21
4884.0961532382
 31
0.0
  0
ARC
  5
115
330
1F
100
AcDbEntity
  8
0
  6
Continuous
 62
     7
370
    25
100
AcDbCircle
 10
6303.0187553361
 20
4885.0961532382
 30
0.0
 40
1.0
100
AcDbArc
 50
270.0
 51
0.0
  0
LINE
  5
116
330
1F
100
AcDbEntity
  8
0
  6
Continuous
 62
     7
370
    25
100
AcDbLine
 10
6304.5884694504
 20
4894.8461532382
 30
0.0
 11
6304.0187553361
 21
4894.8461532382
 31
0.0
  0
LINE
  5
117
330
1F
100
AcDbEntity
  8
0
  6
Continuous
 62
     7
370
    25
100
AcDbLine
 10
6304.0187553361
 20
4885.6461532382
 30
0.0
 11
6304.5884694504
 21
4885.6461532382
 31
0.0
  0
ARC
  5
118
330
1F
100
AcDbEntity
  8
0
  6
Continuous
 62
     7
370
    25
100
AcDbCircle
 10
6304.5884694504
 20
4894.3461532382
 30
0.0
 40
0.5000000000004898
100
AcDbArc
 50
25.567805911
 51
90.0
  0
ARC
  5
119
330
1F
100
AcDbEntity
  8
0
  6
Continuous
 62
     7
370
    25
100
AcDbCircle
 10
6304.5884694504
 20
4886.1461532382
 30
0.0
 40
0.5000000000004898
100
AcDbArc
 50
270.0
 51
334.432194089
  0
ARC
  5
11A
330
1F
100
AcDbEntity
  8
0
  6
Continuous
 62
     7
370
    25
100
AcDbCircle
 10
6296.0187553361
 20
4890.2461532382
 30
0.0
 40
10.0000000000002
100
AcDbArc
 50
17.6406159955
 51
25.567805911
  0
ARC
  5
11B
330
1F
100
AcDbEntity
  8
0
  6
Continuous
 62
     7
370
    25
100
AcDbCircle
 10
6296.0187553361
 20
4890.2461532382
 30
0.0
 40
9.999999999999792
100
AcDbArc
 50
349.1244925033
 51
10.7637541592
  0
ARC
  5
11C
330
1F
100
AcDbEntity
  8
0
  6
Continuous
 62
     7
370
    25
100
AcDbCircle
 10
6296.0187553361
 20
4890.2461532382
 30
0.0
 40
10.00000000000069
100
AcDbArc
 50
334.432194089
 51
342.3907913897
  0
ARC
  5
11D
330
1F
100
AcDbEntity
  8
0
  6
Continuous
 62
     7
370
    25
100
AcDbCircle
 10
6296.0187553361
 20
4890.2461532382
 30
0.0
 40
9.999000000000102
100
AcDbArc
 50
10.8005309786
 51
17.6528993417
  0
LINE
  5
11E
330
1F
100
AcDbEntity
  8
0
  6
Continuous
 62
     7
370
    25
100
AcDbLine
 10
6291.2377561413
 20
4884.0461532382
 30
0.0
 11
6291.2460350624
 21
4884.0461532382
 31
0.0
  0
LINE
  5
11F
330
1F
100
AcDbEntity
  8
0
  6
Continuous
 62
     7
370
    25
100
AcDbLine
 10
6291.2563316447
 20
4896.4461532382
 30
0.0
 11
6291.2377561413
 21
4896.4461532382
 31
0.0
  0
ARC
  5
120
330
1F
100
AcDbEntity
  8
0
  6
Continuous
 62
     7
370
    25
100
AcDbCircle
 10
6267.0187553361
 20
4890.2461532382
 30
0.0
 40
14.49999999999928
100
AcDbArc
 50
313.5747569106
 51
89.9719379378
  0
ARC
  5
121
330
1F
100
AcDbEntity
  8
0
  6
Continuous
 62
     7
370
    25
100
AcDbCircle
 10
6267.0187553361
 20
4890.2461532382
 30
0.0
 40
14.49999999999981
100
AcDbArc
 50
89.9719379378
 51
226.3691189651
  0
ARC
  5
122
330
1F
100
AcDbEntity
  8
0
  6
Continuous
 62
     7
370
    25
100
AcDbCircle
 10
6267.0187553361
 20
4890.2461532382
 30
0.0
 40
9.999999999999812
100
AcDbArc
 50
359.9719379379
 51
179.9719379378
  0
ARC
  5
123
330
1F
100
AcDbEntity
  8
0
  6
Continuous
 62
     7
370
    25
100
AcDbCircle
 10
6266.9257792437
 20
4700.4120193071
 30
0.0
 40
10.00137510546527
100
AcDbArc
 50
180.9220629528
 51
359.0218129229
  0
LINE
  5
124
330
1F
100
AcDbEntity
  8
0
  6
Continuous
 62
     7
370
    25
100
AcDbLine
 10
6294.0187553361
 20
4895.3598814126
 30
0.0
 11
6294.0187553361
 21
4897.3251958168
 31
0.0
  0
ARC
  5
125
330
1F
100
AcDbEntity
  8
0
  6
Continuous
 62
     7
370
    25
100
AcDbCircle
 10
6295.0184443946
 20
4897.3248846818
 30
0.0
 40
0.9996891069337552
100
AcDbArc
 50
89.9821788246
 51
179.9821677314
  0
LINE
  5
126
330
1F
100
AcDbEntity
  8
0
  6
Continuous
 62
     7
370
    25
100
AcDbLine
 10
6295.0187553361
 20
4898.3245737403
 30
0.0
 11
6295.0187553361
 21
4894.3939449319
 31
0.0
  0
ARC
  5
127
330
1F
100
AcDbEntity
  8
0
  6
Continuous
 62
     7
370
    25
100
AcDbCircle
 10
6295.0020136573
 20
4895.3772134827
 30
0.0
 40
0.9834110670530084
100
AcDbArc
 50
181.0098583594
 51
270.9754556472
  0
LINE
  5
128
330
1F
100
AcDbEntity
  8
0
  6
Continuous
 62
     7
370
    25
100
AcDbLine
 10
6303.0187553361
 20
4894.3939449319
 30
0.0
 11
6303.0187553361
 21
4898.3245737403
 31
0.0
  0
LINE
  5
129
330
1F
100
AcDbEntity
  8
0
  6
Continuous
 62
     7
370
    25
100
AcDbLine
 10
6303.0187553361
 20
4894.3939449319
 30
0.0
 11
6295.0187553361
 21
4894.3939449319
 31
0.0
  0
LINE
  5
12A
330
1F
100
AcDbEntity
  8
0
  6
Continuous
 62
     7
370
    25
100
AcDbLine
 10
6303.0187553361
 20
4898.3245737403
 30
0.0
 11
6295.0187553361
 21
4898.3245737403
 31
0.0
  0
LINE
  5
12B
330
1F
100
AcDbEntity
  8
0
  6
Continuous
 62
     7
370
    25
100
AcDbLine
 10
6304.0187553361
 20
4897.3251958168
 30
0.0
 11
6304.0187553361
 21
4895.3598814126
 31
0.0
  0
ARC
  5
12C
330
1F
100
AcDbEntity
  8
0
  6
Continuous
 62
     7
370
    25
100
AcDbCircle
 10
6303.0354970149
 20
4895.3772134827
 30
0.0
 40
0.9834110670547961
100
AcDbArc
 50
269.0245443529
 51
358.9901416405
  0
ARC
  5
12D
330
1F
100
AcDbEntity
  8
0
  6
Continuous
 62
     7
370
    25
100
AcDbCircle
 10
6303.0190662776
 20
4897.3248846818
 30
0.0
 40
0.9996891069346647
100
AcDbArc
 50
0.0178322686
 51
90.0178211754
  0
LINE
  5
12E
330
1F
100
AcDbEntity
  8
0
  6
Continuous
 62
     7
370
    25
100
AcDbLine
 10
6303.0187553361
 20
4885.4105958226
 30
0.0
 11
6303.0187553361
 21
4894.3939449319
 31
0.0
  0
LINE
  5
12F
330
1F
100
AcDbEntity
  8
0
  6
Continuous
 62
     7
370
    25
100
AcDbLine
 10
6303.0187553361
 20
4885.4105958226
 30
0.0
 11
6292.0187553361
 21
4885.4105958226
 31
0.0
  0
ARC
  5
130
330
1F
100
AcDbEntity
  8
0
  6
Continuous
 62
     7
370
    25
100
AcDbCircle
 10
6289.0122193028
 20
4890.0095292104
 30
0.0
 40
5.494492444761474
100
AcDbArc
 50
303.1745066983
 51
343.6614803555
  0
LWPOLYLINE
  5
131
330
1F
100
AcDbEntity
  8
0
  6
Continuous
 62
     7
370
    25
100
AcDbPolyline
 90
        5
 70
   128
 43
0.0
 10
6295.0187553361
 20
4894.3939449319
 10
6294.904078608
 20
4893.2965377509
 10
6294.6517898063
 20
4891.9371221152
 10
6294.3995010046
 20
4890.3232442703
 10
6294.2848242765
 20
4888.4638630058
  0
ARC
  5
132
330
1F
100
AcDbEntity
  8
0
  6
Continuous
 62
     7
370
    25
100
AcDbCircle
 10
6303.114200405
 20
4886.3182550852
 30
0.0
 40
0.9126637377128523
100
AcDbArc
 50
263.9971132517
 51
352.3566670064
  0
LINE
  5
133
330
1F
100
AcDbEntity
  8
0
  6
Continuous
 62
     7
370
    25
100
AcDbLine
 10
6304.0187553361
 20
4895.3598814126
 30
0.0
 11
6304.0187553361
 21
4886.1968653211
 31
0.0
  0
ARC
  5
134
330
1F
100
AcDbEntity
  8
0
  6
Continuous
 62
     7
370
    25
100
AcDbCircle
 10
6294.2660648421
 20
4888.7114518298
 30
0.0
 40
0.2482984940351304
100
AcDbArc
 50
185.1155268342
 51
274.3329364716
  0
LINE
  5
135
330
1F
100
AcDbEntity
  8
0
  6
Continuous
 62
     7
370
    25
100
AcDbLine
 10
6294.0187553361
 20
4888.6893124894
 30
0.0
 11
6294.0187553361
 21
4895.3598814126
 31
0.0
  0
LINE
  5
136
330
1F
100
AcDbEntity
  8
0
  6
Continuous
 62
     7
370
    25
100
AcDbLine
 10
6294.8962606529
 20
4898.339650273
 30
0.0
 11
6294.9111667451
 21
4898.3378156449
 31
0.0
  0
LINE
  5
137
330
1F
100
AcDbEntity
  8
0
  6
Continuous
 62
     7
370
    25
100
AcDbLine
 10
6304.0187553361
 20
4897.3805606217
 30
0.0
 11
6304.0187553361
 21
4897.3251958168
 31
0.0
  0
ARC
  5
138
330
1F
100
AcDbEntity
  8
0
  6
Continuous
 62
     7
370
    25
100
AcDbCircle
 10
6287.5564482288
 20
4890.3819328918
 30
0.0
 40
6.680297671238169
100
AcDbArc
 50
311.9113725662
 51
345.3226825937
  0
ARC
  5
139
330
1F
100
AcDbEntity
  8
0
  6
Continuous
 62
     7
370
    25
100
AcDbCircle
 10
6278.9279156315
 20
4935.5982309381
 30
0.0
 40
41.43755451858213
100
AcDbArc
 50
289.4549608709
 51
291.0689897951
  0
LINE
  5
13A
330
1F
100
AcDbEntity
  8
0
  6
Continuous
 62
     7
370
    25
100
AcDbLine
 10
6304.0187553361
 20
4886.1968653211
 30
0.0
 11
6304.0187553361
 21
4885.0961532382
 31
0.0
  0
LWPOLYLINE
  5
13B
330
1F
100
AcDbEntity
  8
0
  6
Continuous
 62
     7
370
    25
100
AcDbPolyline
 90
       17
 70
   128
 43
0.0
 10
6305.5487157927
 20
4887.218337274
 10
6305.5113364624
 20
4887.1053493004
 10
6305.4828749437
 20
4887.0425559672
 10
6305.4763334004
 20
4887.0644565516
 10
6305.4909680357
 20
4887.1632375799
 10
6305.5246397601
 20
4887.3273427363
 10
6305.5743584811
 20
4887.5427378073
 10
6305.6357501823
 20
4887.7903768152
 10
6305.702360291
 20
4888.0437184631
 10
6305.7658491376
 20
4888.2702114467
 10
6305.8176614087
 20
4888.4384886264
 10
6305.8514323513
 20
4888.5276880337
 10
6305.8643141622
 20
4888.5316445739
 10
6305.8563736029
 20
4888.4554583599
 10
6305.8292053259
 20
4888.3097419813
 10
6305.8057809025
 20
4888.1996279169
 10
6305.8057809025
 20
4888.1996279169
  0
ARC
  5
13C
330
1F
100
AcDbEntity
  8
0
  6
Continuous
 62
     7
370
    25
100
AcDbCircle
 10
6295.3607840084
 20
4890.0755810354
 30
0.0
 40
10.67790613653337
100
AcDbArc
 50
11.0199619181
 51
17.4385279345
  0
LWPOLYLINE
  5
13D
330
1F
100
AcDbEntity
  8
0
  6
Continuous
 62
     7
370
    25
100
AcDbPolyline
 90
        4
 70
   128
 43
0.0
 10
6305.8312391352
 20
4888.3247638668
 10
6305.8569988086
 20
4888.4660668423
 10
6305.8629523981
 20
4888.5350794407
 10
6305.8577828452
 20
4888.5310712479
  0
LWPOLYLINE
  5
13E
330
1F
100
AcDbEntity
  8
0
  6
Continuous
 62
     7
370
    25
100
AcDbPolyline
 90
        4
 70
   128
 43
0.0
 10
6305.4806643369
 20
4887.0491500371
 10
6305.4834917213
 20
4887.0446797776
 10
6305.5118082295
 20
4887.1095031722
 10
6305.5473235099
 20
4887.216983147
  0
ARC
  5
13F
330
1F
100
AcDbEntity
  8
0
  6
Continuous
 62
     7
370
    25
100
AcDbCircle
 10
6267.0187553361
 20
4890.2461532382
 30
0.0
 40
15.00000000000015
100
AcDbArc
 50
311.7822528336
 51
90.0
  0
ARC
  5
140
330
1F
100
AcDbEntity
  8
0
  6
Continuous
 62
     7
370
    25
100
AcDbCircle
 10
6267.0187553361
 20
4890.2461532382
 30
0.0
 40
15.00000000000041
100
AcDbArc
 50
90.0
 51
228.1616230421
  0
ARC
  5
141
330
1F
100
AcDbEntity
  8
0
  6
Continuous
 62
     7
370
    25
100
AcDbCircle
 10
6267.0187553361
 20
4890.2461532382
 30
0.0
 40
25.00000000000041
100
AcDbArc
 50
293.550116416
 51
90.0
  0
ARC
  5
142
330
1F
100
AcDbEntity
  8
0
  6
Continuous
 62
     7
370
    25
100
AcDbCircle
 10
6267.0187553361
 20
4890.2461532382
 30
0.0
 40
25.0000000000001
100
AcDbArc
 50
90.0
 51
246.3937594596
  0
ARC
  5
143
330
1F
100
AcDbEntity
  8
0
  6
Continuous
 62
     8
370
    25
100
AcDbCircle
 10
6267.0187553361
 20
4890.2461532382
 30
0.0
 40
13.99999999999943
100
AcDbArc
 50
315.5566293407
 51
89.9719379378
  0
ARC
  5
144
330
1F
100
AcDbEntity
  8
0
  6
Continuous
 62
     8
370
    25
100
AcDbCircle
 10
6267.0187553361
 20
4890.2461532382
 30
0.0
 40
13.99999999999962
100
AcDbArc
 50
89.9719379378
 51
224.387246535
  0
ARC
  5
145
330
1F
100
AcDbEntity
  8
0
  6
Continuous
 62
     8
370
    25
100
AcDbCircle
 10
6266.9289952315
 20
4706.9782691926
 30
0.0
 40
10.00137510546578
100
AcDbArc
 50
180.9220629528
 51
359.0218129229
  0
ARC
  5
146
330
1F
100
AcDbEntity
  8
0
  6
Continuous
 62
     8
370
    25
100
AcDbCircle
 10
6266.9273872376
 20
4703.6951442499
 30
0.0
 40
10.00137510546487
100
AcDbArc
 50
180.9220629528
 51
359.0218129229
  0
LINE
  5
147
330
1F
100
AcDbEntity
  8
0
  6
Continuous
 62
     8
370
    25
100
AcDbLine
 10
6294.9111667451
 20
4898.3378156449
 30
0.0
 11
6295.0187553361
 21
4898.3245737403
 31
0.0
  0
LINE
  5
148
330
1F
100
AcDbEntity
  8
0
  6
Continuous
 62
     8
370
    25
100
AcDbLine
 10
6303.0187553361
 20
4898.3245737403
 30
0.0
 11
6303.0187553361
 21
4898.3805606217
 31
0.0
  0
LINE
  5
149
330
1F
100
AcDbEntity
  8
0
  6
Continuous
 62
     8
370
    25
100
AcDbLine
 10
6292.0187553361
 20
4885.4105958226
 30
0.0
 11
6292.0187553361
 21
4896.3961532382
 31
0.0
  0
LINE
  5
14A
330
1F
100
AcDbEntity
  8
0
  6
Continuous
 62
     8
370
    25
100
AcDbLine
 10
6303.0187553361
 20
4884.0961532382
 30
0.0
 11
6303.0187553361
 21
4885.4105958226
 31
0.0
  0
LINE
  5
14B
330
1F
100
AcDbEntity
  8
0
  6
Continuous
 62
     8
370
    25
100
AcDbLine
 10
6304.5884694504
 20
4894.8461532382
 30
0.0
 11
6304.5884694504
 21
4885.6461532382
 31
0.0
  0
LINE
  5
14C
330
1F
100
AcDbEntity
  8
0
  6
Continuous
 62
     8
370
    25
100
AcDbLine
 10
6305.0395070353
 20
4894.5619427119
 30
0.0
 11
6305.0395070353
 21
4885.9303637646
 31
0.0
  0
ARC
  5
14D
330
1F
100
AcDbEntity
  8
0
  6
Continuous
 62
     8
370
    25
100
AcDbCircle
 10
6267.0187553361
 20
4890.2461532382
 30
0.0
 40
23.2437386868105
100
AcDbArc
 50
295.4536756563
 51
90.0
  0
ARC
  5
14E
330
1F
100
AcDbEntity
  8
0
  6
Continuous
 62
     8
370
    25
100
AcDbCircle
 10
6267.0187553361
 20
4890.2461532382
 30
0.0
 40
23.24373868681099
100
AcDbArc
 50
90.0
 51
244.4902002194
  0
ENDSEC
  0
SECTION
  2
OBJECTS
  0
DICTIONARY
  5
C
330
0
100
AcDbDictionary
281
     1
  3
ACAD_GROUP
350
D
  3
ACAD_LAYOUT
350
1A
  3
ACAD_MLINESTYLE
350
17
  3
ACAD_PLOTSETTINGS
350
19
  3
ACAD_PLOTSTYLENAME
350
E
  3
ACAD_SCALELIST
350
47
  3
DWGPROPS
350
14F
  0
DICTIONARY
  5
D
102
{ACAD_REACTORS
330
C
102
}
330
C
100
AcDbDictionary
281
     1
  0
DICTIONARY
  5
1A
102
{ACAD_REACTORS
330
C
102
}
330
C
100
AcDbDictionary
281
     1
  3
Layout1
350
1E
  3
Layout2
350
26
  3
Model
350
22
  0
DICTIONARY
  5
17
102
{ACAD_REACTORS
330
C
102
}
330
C
100
AcDbDictionary
281
     1
  3
Standard
350
18
  0
DICTIONARY
  5
19
102
{ACAD_REACTORS
330
C
102
}
330
C
100
AcDbDictionary
281
     1
  0
ACDBDICTIONARYWDFLT
  5
E
102
{ACAD_REACTORS
330
C
102
}
330
C
100
AcDbDictionary
281
     1
  3
Normal
350
F
100
AcDbDictionaryWithDefault
340
F
  0
DICTIONARY
  5
47
102
{ACAD_REACTORS
330
C
102
}
330
C
100
AcDbDictionary
281
     1
  3
A0
350
48
  3
A1
350
49
  3
A2
350
4A
  3
A3
350
4B
  3
A4
350
4C
  3
A5
350
4D
  3
A6
350
4E
  3
A7
350
4F
  3
A8
350
50
  3
A9
350
51
  3
B0
350
52
  3
B1
350
53
  3
B2
350
54
  3
B3
350
55
  3
B4
350
56
  3
B5
350
57
  3
B6
350
58
  3
B7
350
59
  3
B8
350
5A
  3
B9
350
5B
  3
C0
350
5C
  3
C1
350
5D
  3
C2
350
5E
  3
C3
350
5F
  3
C4
350
60
  3
C5
350
61
  3
C6
350
62
  3
C7
350
63
  3
C8
350
64
  3
C9
350
65
  3
D0
350
66
  3
D1
350
67
  3
D2
350
68
  0
XRECORD
  5
14F
102
{ACAD_REACTORS
330
C
102
}
330
C
100
AcDbXrecord
280
     1
  1
DWGPROPS COOKIE
  2

  3

  4

  6

  7

  8
radek.stransky
  9

300
=
301
=
302
=
303
=
304
=
305
=
306
=
307
=
308
=
309
=
 40
0.0
 41
2459593.548901875
 42
2459593.548902153
  1

 90
        0
  0
LAYOUT
  5
1E
102
{ACAD_REACTORS
330
1A
102
}
330
1A
100
AcDbPlotSettings
  1

  2
none_device
  4

  6

 40
0.0
 41
0.0
 42
0.0
 43
0.0
 44
0.0
 45
0.0
 46
0.0
 47
0.0
 48
0.0
 49
0.0
140
0.0
141
0.0
142
1.0
143
1.0
 70
   688
 72
     1
 73
     0
 74
     5
  7

 75
    16
147
1.0
148
0.0
149
0.0
100
AcDbLayout
  1
Layout1
 70
     1
 71
     1
 10
0.0
 20
0.0
 11
420.0
 21
297.0
 12
0.0
 22
0.0
 32
0.0
 14
1.0000000000E+20
 24
1.0000000000E+20
 34
1.0000000000E+20
 15
-1.0000000000E+20
 25
-1.0000000000E+20
 35
-1.0000000000E+20
146
0.0
 13
0.0
 23
0.0
 33
0.0
 16
1.0
 26
0.0
 36
0.0
 17
0.0
 27
1.0
 37
0.0
 76
     0
330
1B
  0
LAYOUT
  5
26
102
{ACAD_REACTORS
330
1A
102
}
330
1A
100
AcDbPlotSettings
  1

  2
none_device
  4

  6

 40
0.0
 41
0.0
 42
0.0
 43
0.0
 44
0.0
 45
0.0
 46
0.0
 47
0.0
 48
0.0
 49
0.0
140
0.0
141
0.0
142
1.0
143
1.0
 70
   688
 72
     1
 73
     0
 74
     5
  7

 75
    16
147
1.0
148
0.0
149
0.0
100
AcDbLayout
  1
Layout2
 70
     1
 71
     2
 10
0.0
 20
0.0
 11
0.0
 21
0.0
 12
0.0
 22
0.0
 32
0.0
 14
0.0
 24
0.0
 34
0.0
 15
0.0
 25
0.0
 35
0.0
146
0.0
 13
0.0
 23
0.0
 33
0.0
 16
1.0
 26
0.0
 36
0.0
 17
0.0
 27
1.0
 37
0.0
 76
     0
330
23
  0
LAYOUT
  5
22
102
{ACAD_REACTORS
330
1A
102
}
330
1A
100
AcDbPlotSettings
  1

  2
none_device
  4
Letter_(8.50_x_11.00_Inches)
  6

 40
6.35
 41
6.35
 42
6.35000508
 43
6.35000508
 44
215.9
 45
279.4
 46
0.0
 47
0.0
 48
0.0
 49
0.0
140
0.0
141
0.0
142
1.0
143
1.0
 70
  1712
 72
     1
 73
     0
 74
     0
  7

 75
     0
147
1.0
148
0.0
149
0.0
100
AcDbLayout
  1
Model
 70
     1
 71
     0
 10
0.0
 20
0.0
 11
20000.0
 21
10000.0
 12
0.0
 22
0.0
 32
0.0
 14
0.0
 24
0.0
 34
0.0
 15
20000.0
 25
10000.0
 35
0.0
146
0.0
 13
0.0
 23
0.0
 33
0.0
 16
1.0
 26
0.0
 36
0.0
 17
0.0
 27
1.0
 37
0.0
 76
     0
330
1F
331
29
  0
MLINESTYLE
  5
18
102
{ACAD_REACTORS
330
17
102
}
330
17
100
AcDbMlineStyle
  2
Standard
 70
     0
  3

 62
   256
 51
90.0
 52
90.0
 71
     2
 49
0.5
 62
   256
  6
BYLAYER
 49
-0.5
 62
   256
  6
BYLAYER
  0
ACDBPLACEHOLDER
  5
F
102
{ACAD_REACTORS
330
E
102
}
330
E
  0
SCALE
  5
48
102
{ACAD_REACTORS
330
47
102
}
330
47
100
AcDbScale
 70
     0
300
1:1
140
1.0
141
1.0
290
     1
  0
SCALE
  5
49
102
{ACAD_REACTORS
330
47
102
}
330
47
100
AcDbScale
 70
     0
300
1:2
140
1.0
141
2.0
290
     0
  0
SCALE
  5
4A
102
{ACAD_REACTORS
330
47
102
}
330
47
100
AcDbScale
 70
     0
300
1:4
140
1.0
141
4.0
290
     0
  0
SCALE
  5
4B
102
{ACAD_REACTORS
330
47
102
}
330
47
100
AcDbScale
 70
     0
300
1:5
140
1.0
141
5.0
290
     0
  0
SCALE
  5
4C
102
{ACAD_REACTORS
330
47
102
}
330
47
100
AcDbScale
 70
     0
300
1:8
140
1.0
141
8.0
290
     0
  0
SCALE
  5
4D
102
{ACAD_REACTORS
330
47
102
}
330
47
100
AcDbScale
 70
     0
300
1:10
140
1.0
141
10.0
290
     0
  0
SCALE
  5
4E
102
{ACAD_REACTORS
330
47
102
}
330
47
100
AcDbScale
 70
     0
300
1:16
140
1.0
141
16.0
290
     0
  0
SCALE
  5
4F
102
{ACAD_REACTORS
330
47
102
}
330
47
100
AcDbScale
 70
     0
300
1:20
140
1.0
141
20.0
290
     0
  0
SCALE
  5
50
102
{ACAD_REACTORS
330
47
102
}
330
47
100
AcDbScale
 70
     0
300
1:30
140
1.0
141
30.0
290
     0
  0
SCALE
  5
51
102
{ACAD_REACTORS
330
47
102
}
330
47
100
AcDbScale
 70
     0
300
1:40
140
1.0
141
40.0
290
     0
  0
SCALE
  5
52
102
{ACAD_REACTORS
330
47
102
}
330
47
100
AcDbScale
 70
     0
300
1:50
140
1.0
141
50.0
290
     0
  0
SCALE
  5
53
102
{ACAD_REACTORS
330
47
102
}
330
47
100
AcDbScale
 70
     0
300
1:100
140
1.0
141
100.0
290
     0
  0
SCALE
  5
54
102
{ACAD_REACTORS
330
47
102
}
330
47
100
AcDbScale
 70
     0
300
2:1
140
2.0
141
1.0
290
     0
  0
SCALE
  5
55
102
{ACAD_REACTORS
330
47
102
}
330
47
100
AcDbScale
 70
     0
300
4:1
140
4.0
141
1.0
290
     0
  0
SCALE
  5
56
102
{ACAD_REACTORS
330
47
102
}
330
47
100
AcDbScale
 70
     0
300
8:1
140
8.0
141
1.0
290
     0
  0
SCALE
  5
57
102
{ACAD_REACTORS
330
47
102
}
330
47
100
AcDbScale
 70
     0
300
10:1
140
10.0
141
1.0
290
     0
  0
SCALE
  5
58
102
{ACAD_REACTORS
330
47
102
}
330
47
100
AcDbScale
 70
     0
300
100:1
140
100.0
141
1.0
290
     0
  0
SCALE
  5
59
102
{ACAD_REACTORS
330
47
102
}
330
47
100
AcDbScale
 70
     0
300
1/128" = 1'-0"
140
0.0078125
141
12.0
290
     0
  0
SCALE
  5
5A
102
{ACAD_REACTORS
330
47
102
}
330
47
100
AcDbScale
 70
     0
300
1/64" = 1'-0"
140
0.015625
141
12.0
290
     0
  0
SCALE
  5
5B
102
{ACAD_REACTORS
330
47
102
}
330
47
100
AcDbScale
 70
     0
300
1/32" = 1'-0"
140
0.03125
141
12.0
290
     0
  0
SCALE
  5
5C
102
{ACAD_REACTORS
330
47
102
}
330
47
100
AcDbScale
 70
     0
300
1/16" = 1'-0"
140
0.0625
141
12.0
290
     0
  0
SCALE
  5
5D
102
{ACAD_REACTORS
330
47
102
}
330
47
100
AcDbScale
 70
     0
300
3/32" = 1'-0"
140
0.09375
141
12.0
290
     0
  0
SCALE
  5
5E
102
{ACAD_REACTORS
330
47
102
}
330
47
100
AcDbScale
 70
     0
300
1/8" = 1'-0"
140
0.125
141
12.0
290
     0
  0
SCALE
  5
5F
102
{ACAD_REACTORS
330
47
102
}
330
47
100
AcDbScale
 70
     0
300
3/16" = 1'-0"
140
0.1875
141
12.0
290
     0
  0
SCALE
  5
60
102
{ACAD_REACTORS
330
47
102
}
330
47
100
AcDbScale
 70
     0
300
1/4" = 1'-0"
140
0.25
141
12.0
290
     0
  0
SCALE
  5
61
102
{ACAD_REACTORS
330
47
102
}
330
47
100
AcDbScale
 70
     0
300
3/8" = 1'-0"
140
0.375
141
12.0
290
     0
  0
SCALE
  5
62
102
{ACAD_REACTORS
330
47
102
}
330
47
100
AcDbScale
 70
     0
300
1/2" = 1'-0"
140
0.5
141
12.0
290
     0
  0
SCALE
  5
63
102
{ACAD_REACTORS
330
47
102
}
330
47
100
AcDbScale
 70
     0
300
3/4" = 1'-0"
140
0.75
141
12.0
290
     0
  0
SCALE
  5
64
102
{ACAD_REACTORS
330
47
102
}
330
47
100
AcDbScale
 70
     0
300
1" = 1'-0"
140
1.0
141
12.0
290
     0
  0
SCALE
  5
65
102
{ACAD_REACTORS
330
47
102
}
330
47
100
AcDbScale
 70
     0
300
1-1/2" = 1'-0"
140
1.5
141
12.0
290
     0
  0
SCALE
  5
66
102
{ACAD_REACTORS
330
47
102
}
330
47
100
AcDbScale
 70
     0
300
3" = 1'-0"
140
3.0
141
12.0
290
     0
  0
SCALE
  5
67
102
{ACAD_REACTORS
330
47
102
}
330
47
100
AcDbScale
 70
     0
300
6" = 1'-0"
140
6.0
141
12.0
290
     0
  0
SCALE
  5
68
102
{ACAD_REACTORS
330
47
102
}
330
47
100
AcDbScale
 70
     0
300
1'-0" = 1'-0"
140
12.0
141
12.0
290
     0
  0
ENDSEC
  0
EOF
