  0
SECTION
  2
HEADER
  9
$ACADVER
  1
AC1015
  9
$ACADMAINTVER
 70
     6
  9
$DWGCODEPAGE
  3
ANSI_1250
  9
$INSBASE
 10
0.0
 20
0.0
 30
0.0
  9
$EXTMIN
 10
0.0
 20
0.0
 30
0.0
  9
$EXTMAX
 10
20000.0
 20
10000.0
 30
0.0
  9
$LIMMIN
 10
0.0
 20
0.0
  9
$LIMMAX
 10
20000.0
 20
10000.0
  9
$ORTHOMODE
 70
     0
  9
$REGENMODE
 70
     1
  9
$FILLMODE
 70
     1
  9
$QTEXTMODE
 70
     0
  9
$MIRRTEXT
 70
     1
  9
$LTSCALE
 40
1.0
  9
$ATTMODE
 70
     1
  9
$TEXTSIZE
 40
2.0
  9
$TRACEWID
 40
1.0
  9
$TEXTSTYLE
  7
Standard
  9
$CLAYER
  8
0
  9
$CELTYPE
  6
ByLayer
  9
$CECOLOR
 62
   256
  9
$CELTSCALE
 40
1.0
  9
$DISPSILH
 70
     0
  9
$DIMSCALE
 40
1.0
  9
$DIMASZ
 40
2.0
  9
$DIMEXO
 40
1.0
  9
$DIMDLI
 40
3.75
  9
$DIMRND
 40
0.0
  9
$DIMDLE
 40
0.0
  9
$DIMEXE
 40
1.0
  9
$DIMTP
 40
0.0
  9
$DIMTM
 40
0.0
  9
$DIMTXT
 40
2.0
  9
$DIMCEN
 40
2.5
  9
$DIMTSZ
 40
0.0
  9
$DIMTOL
 70
     0
  9
$DIMLIM
 70
     0
  9
$DIMTIH
 70
     1
  9
$DIMTOH
 70
     1
  9
$DIMSE1
 70
     0
  9
$DIMSE2
 70
     0
  9
$DIMTAD
 70
     1
  9
$DIMZIN
 70
     0
  9
$DIMBLK
  1

  9
$DIMASO
 70
     1
  9
$DIMSHO
 70
     1
  9
$DIMPOST
  1

  9
$DIMAPOST
  1

  9
$DIMALT
 70
     0
  9
$DIMALTD
 70
     3
  9
$DIMALTF
 40
0.0393700787
  9
$DIMLFAC
 40
1.0
  9
$DIMTOFL
 70
     1
  9
$DIMTVP
 40
0.0
  9
$DIMTIX
 70
     0
  9
$DIMSOXD
 70
     0
  9
$DIMSAH
 70
     0
  9
$DIMBLK1
  1

  9
$DIMBLK2
  1

  9
$DIMSTYLE
  2
ISO-25
  9
$DIMCLRD
 70
     0
  9
$DIMCLRE
 70
     0
  9
$DIMCLRT
 70
     0
  9
$DIMTFAC
 40
1.0
  9
$DIMGAP
 40
1.524
  9
$DIMJUST
 70
     0
  9
$DIMSD1
 70
     0
  9
$DIMSD2
 70
     0
  9
$DIMTOLJ
 70
     0
  9
$DIMTZIN
 70
     0
  9
$DIMALTZ
 70
     0
  9
$DIMALTTZ
 70
     0
  9
$DIMUPT
 70
     0
  9
$DIMDEC
 70
     2
  9
$DIMTDEC
 70
     0
  9
$DIMALTU
 70
     2
  9
$DIMALTTD
 70
     3
  9
$DIMTXSTY
  7
Standard
  9
$DIMAUNIT
 70
     0
  9
$DIMADEC
 70
     2
  9
$DIMALTRND
 40
0.0
  9
$DIMAZIN
 70
     0
  9
$DIMDSEP
 70
    44
  9
$DIMATFIT
 70
     3
  9
$DIMFRAC
 70
     0
  9
$DIMLDRBLK
  1

  9
$DIMLUNIT
 70
     2
  9
$DIMLWD
 70
    -2
  9
$DIMLWE
 70
    -2
  9
$DIMTMOVE
 70
     0
  9
$LUNITS
 70
     2
  9
$LUPREC
 70
     3
  9
$SKETCHINC
 40
1.0
  9
$FILLETRAD
 40
10.0
  9
$AUNITS
 70
     0
  9
$AUPREC
 70
     2
  9
$MENU
  1
.
  9
$ELEVATION
 40
0.0
  9
$PELEVATION
 40
0.0
  9
$THICKNESS
 40
0.0
  9
$LIMCHECK
 70
     0
  9
$CHAMFERA
 40
0.0
  9
$CHAMFERB
 40
0.0
  9
$CHAMFERC
 40
0.0
  9
$CHAMFERD
 40
0.0
  9
$SKPOLY
 70
     0
  9
$TDCREATE
 40
2459543.406640486
  9
$TDUCREATE
 40
2459543.364973819
  9
$TDUPDATE
 40
2459543.406640857
  9
$TDUUPDATE
 40
2459543.36497419
  9
$TDINDWG
 40
0.0000000116
  9
$TDUSRTIMER
 40
0.0000000116
  9
$USRTIMER
 70
     1
  9
$ANGBASE
 50
0.0
  9
$ANGDIR
 70
     0
  9
$PDMODE
 70
     0
  9
$PDSIZE
 40
-1.0
  9
$PLINEWID
 40
0.0
  9
$SPLFRAME
 70
     0
  9
$SPLINETYPE
 70
     6
  9
$SPLINESEGS
 70
     8
  9
$HANDSEED
  5
354
  9
$SURFTAB1
 70
     6
  9
$SURFTAB2
 70
     6
  9
$SURFTYPE
 70
     6
  9
$SURFU
 70
     6
  9
$SURFV
 70
     6
  9
$UCSBASE
  2

  9
$UCSNAME
  2

  9
$UCSORG
 10
0.0
 20
0.0
 30
0.0
  9
$UCSXDIR
 10
1.0
 20
0.0
 30
0.0
  9
$UCSYDIR
 10
0.0
 20
1.0
 30
0.0
  9
$UCSORTHOREF
  2

  9
$UCSORTHOVIEW
 70
     0
  9
$UCSORGTOP
 10
0.0
 20
0.0
 30
0.0
  9
$UCSORGBOTTOM
 10
0.0
 20
0.0
 30
0.0
  9
$UCSORGLEFT
 10
0.0
 20
0.0
 30
0.0
  9
$UCSORGRIGHT
 10
0.0
 20
0.0
 30
0.0
  9
$UCSORGFRONT
 10
0.0
 20
0.0
 30
0.0
  9
$UCSORGBACK
 10
0.0
 20
0.0
 30
0.0
  9
$PUCSBASE
  2

  9
$PUCSNAME
  2

  9
$PUCSORG
 10
0.0
 20
0.0
 30
0.0
  9
$PUCSXDIR
 10
1.0
 20
0.0
 30
0.0
  9
$PUCSYDIR
 10
0.0
 20
1.0
 30
0.0
  9
$PUCSORTHOREF
  2

  9
$PUCSORTHOVIEW
 70
     0
  9
$PUCSORGTOP
 10
0.0
 20
0.0
 30
0.0
  9
$PUCSORGBOTTOM
 10
0.0
 20
0.0
 30
0.0
  9
$PUCSORGLEFT
 10
0.0
 20
0.0
 30
0.0
  9
$PUCSORGRIGHT
 10
0.0
 20
0.0
 30
0.0
  9
$PUCSORGFRONT
 10
0.0
 20
0.0
 30
0.0
  9
$PUCSORGBACK
 10
0.0
 20
0.0
 30
0.0
  9
$USERI1
 70
     0
  9
$USERI2
 70
     0
  9
$USERI3
 70
     0
  9
$USERI4
 70
     0
  9
$USERI5
 70
     0
  9
$USERR1
 40
0.0
  9
$USERR2
 40
0.0
  9
$USERR3
 40
0.0
  9
$USERR4
 40
0.0
  9
$USERR5
 40
0.0
  9
$WORLDVIEW
 70
     1
  9
$SHADEDGE
 70
     3
  9
$SHADEDIF
 70
    70
  9
$TILEMODE
 70
     1
  9
$MAXACTVP
 70
    64
  9
$PINSBASE
 10
0.0
 20
0.0
 30
0.0
  9
$PLIMCHECK
 70
     0
  9
$PEXTMIN
 10
1.0000000000E+20
 20
1.0000000000E+20
 30
1.0000000000E+20
  9
$PEXTMAX
 10
-1.0000000000E+20
 20
-1.0000000000E+20
 30
-1.0000000000E+20
  9
$PLIMMIN
 10
0.0
 20
0.0
  9
$PLIMMAX
 10
420.0
 20
297.0
  9
$UNITMODE
 70
     0
  9
$VISRETAIN
 70
     1
  9
$PLINEGEN
 70
     0
  9
$PSLTSCALE
 70
     1
  9
$TREEDEPTH
 70
  3020
  9
$CMLSTYLE
  2
Standard
  9
$CMLJUST
 70
     0
  9
$CMLSCALE
 40
20.0
  9
$PROXYGRAPHICS
 70
     1
  9
$MEASUREMENT
 70
     1
  9
$CELWEIGHT
370
    -1
  9
$ENDCAPS
280
     0
  9
$JOINSTYLE
280
     0
  9
$LWDISPLAY
290
     1
  9
$INSUNITS
 70
     4
  9
$HYPERLINKBASE
  1

  9
$STYLESHEET
  1

  9
$XEDIT
290
     1
  9
$CEPSNTYPE
380
     0
  9
$PSTYLEMODE
290
     1
  9
$FINGERPRINTGUID
  2
{69bbb707-3bad-4e6f-8dd0-9ef87008ee1f}
  9
$VERSIONGUID
  2
{FAEB1C32-E019-11D5-929B-00C0DF256EC4}
  9
$EXTNAMES
290
     1
  9
$PSVPSCALE
 40
0.0
  9
$OLESTARTUP
290
     0
  0
ENDSEC
  0
SECTION
  2
CLASSES
  0
CLASS
  1
ACDBDICTIONARYWDFLT
  2
AcDbDictionaryWithDefault
  3
ObjectDBX Classes
 90
        0
280
     0
281
     0
  0
CLASS
  1
VISUALSTYLE
  2
AcDbVisualStyle
  3
ObjectDBX Classes
 90
     4095
280
     0
281
     0
  0
CLASS
  1
MATERIAL
  2
AcDbMaterial
  3
ObjectDBX Classes
 90
     1153
280
     0
281
     0
  0
CLASS
  1
SCALE
  2
AcDbScale
  3
ObjectDBX Classes
 90
     1153
280
     0
281
     0
  0
CLASS
  1
TABLESTYLE
  2
AcDbTableStyle
  3
ObjectDBX Classes
 90
     4095
280
     0
281
     0
  0
CLASS
  1
MLEADERSTYLE
  2
AcDbMLeaderStyle
  3
ACDB_MLEADERSTYLE_CLASS
 90
     4095
280
     0
281
     0
  0
CLASS
  1
SUN
  2
AcDbSun
  3
SCENEOE
 90
     1153
280
     0
281
     0
  0
CLASS
  1
ACDBPLACEHOLDER
  2
AcDbPlaceHolder
  3
ObjectDBX Classes
 90
        0
280
     0
281
     0
  0
CLASS
  1
LAYOUT
  2
AcDbLayout
  3
ObjectDBX Classes
 90
        0
280
     0
281
     0
  0
ENDSEC
  0
SECTION
  2
TABLES
  0
TABLE
  2
VPORT
  5
8
330
0
100
AcDbSymbolTable
 70
     1
  0
VPORT
  5
29
330
8
100
AcDbSymbolTableRecord
100
AcDbViewportTableRecord
  2
*Active
 70
     0
 10
0.0
 20
0.0
 11
1.0
 21
1.0
 12
10000.0
 22
5000.0
 13
0.0
 23
0.0
 14
10.0
 24
10.0
 15
10.0
 25
10.0
 16
0.0
 26
0.0
 36
1.0
 17
0.0
 27
0.0
 37
0.0
 40
10000.0
 41
2.0
 42
50.0
 43
0.0
 44
0.0
 50
0.0
 51
0.0
 71
     0
 72
  2000
 73
     1
 74
     3
 75
     0
 76
     0
 77
     0
 78
     0
281
     0
 65
     1
110
0.0
120
0.0
130
0.0
111
1.0
121
0.0
131
0.0
112
0.0
122
1.0
132
0.0
 79
     0
146
0.0
  0
ENDTAB
  0
TABLE
  2
LTYPE
  5
5
330
0
100
AcDbSymbolTable
 70
     6
  0
LTYPE
  5
14
330
5
100
AcDbSymbolTableRecord
100
AcDbLinetypeTableRecord
  2
ByBlock
 70
     0
  3

 72
    65
 73
     0
 40
0.0
  0
LTYPE
  5
15
330
5
100
AcDbSymbolTableRecord
100
AcDbLinetypeTableRecord
  2
ByLayer
 70
     0
  3

 72
    65
 73
     0
 40
0.0
  0
LTYPE
  5
16
330
5
100
AcDbSymbolTableRecord
100
AcDbLinetypeTableRecord
  2
Continuous
 70
     0
  3
Solid line
 72
    65
 73
     0
 40
0.0
  0
LTYPE
  5
6E
330
5
100
AcDbSymbolTableRecord
100
AcDbLinetypeTableRecord
  2
HIDDEN
 70
     0
  3
Hidden __ __ __ __ __ __ __ __ __ __ __ __ __ __
 72
    65
 73
     2
 40
1.905
 49
1.27
 74
     0
 49
-0.635
 74
     0
  0
LTYPE
  5
6F
330
5
100
AcDbSymbolTableRecord
100
AcDbLinetypeTableRecord
  2
PHANTOM
 70
     0
  3
Phantom ______  __  __  ______  __  __  ______
 72
    65
 73
     6
 40
12.7
 49
6.35
 74
     0
 49
-1.27
 74
     0
 49
1.27
 74
     0
 49
-1.27
 74
     0
 49
1.27
 74
     0
 49
-1.27
 74
     0
  0
LTYPE
  5
70
330
5
100
AcDbSymbolTableRecord
100
AcDbLinetypeTableRecord
  2
CENTER
 70
     0
  3
Center ____ _ ____ _ ____ _ ____ _ ____ _ ____
 72
    65
 73
     4
 40
10.16
 49
6.35
 74
     0
 49
-1.27
 74
     0
 49
1.27
 74
     0
 49
-1.27
 74
     0
  0
LTYPE
  5
71
330
5
100
AcDbSymbolTableRecord
100
AcDbLinetypeTableRecord
  2
CENTERX2
 70
     0
  3
Center (2x) ________  __  ________  __  _____
 72
    65
 73
     4
 40
20.32
 49
12.7
 74
     0
 49
-2.54
 74
     0
 49
2.54
 74
     0
 49
-2.54
 74
     0
  0
LTYPE
  5
72
330
5
100
AcDbSymbolTableRecord
100
AcDbLinetypeTableRecord
  2
DOT2
 70
     0
  3
Dot (.5x) ........................................
 72
    65
 73
     2
 40
0.635
 49
0.0
 74
     0
 49
-0.635
 74
     0
  0
ENDTAB
  0
TABLE
  2
LAYER
  5
2
330
0
100
AcDbSymbolTable
 70
    13
  0
LAYER
  5
10
330
2
100
AcDbSymbolTableRecord
100
AcDbLayerTableRecord
  2
0
 70
     0
 62
     7
  6
Continuous
370
    -3
390
F
  0
LAYER
  5
73
330
2
100
AcDbSymbolTableRecord
100
AcDbLayerTableRecord
  2
FORMAT
 70
     0
 62
     7
  6
Continuous
370
    -3
390
F
  0
LAYER
  5
74
330
2
100
AcDbSymbolTableRecord
100
AcDbLayerTableRecord
  2
OSA
 70
     0
 62
     7
  6
CENTER
370
    -3
390
F
  0
LAYER
  5
75
330
2
100
AcDbSymbolTableRecord
100
AcDbLayerTableRecord
  2
0_35
 70
     0
 62
     7
  6
Continuous
370
    35
390
F
  0
LAYER
  5
76
330
2
100
AcDbSymbolTableRecord
100
AcDbLayerTableRecord
  2
0_5
 70
     0
 62
     7
  6
Continuous
370
    50
390
F
  0
LAYER
  5
77
330
2
100
AcDbSymbolTableRecord
100
AcDbLayerTableRecord
  2
0_25
 70
     0
 62
     7
  6
Continuous
370
    25
390
F
  0
LAYER
  5
78
330
2
100
AcDbSymbolTableRecord
100
AcDbLayerTableRecord
  2
0_18
 70
     0
 62
     7
  6
Continuous
370
    -3
390
F
  0
LAYER
  5
79
330
2
100
AcDbSymbolTableRecord
100
AcDbLayerTableRecord
  2
SLD-0
 70
     0
 62
   179
  6
Continuous
370
    -3
390
F
  0
LAYER
  5
7A
330
2
100
AcDbSymbolTableRecord
100
AcDbLayerTableRecord
  2
KOTY
 70
     0
 62
     7
  6
Continuous
370
    -3
390
F
  0
LAYER
  5
7B
330
2
100
AcDbSymbolTableRecord
100
AcDbLayerTableRecord
  2
SILNA
 70
     0
 62
   179
  6
Continuous
370
    -3
390
F
  0
LAYER
  5
7C
330
2
100
AcDbSymbolTableRecord
100
AcDbLayerTableRecord
  2
0_18_1
 70
     0
 62
   179
  6
Continuous
370
    -3
390
F
  0
LAYER
  5
7D
330
2
100
AcDbSymbolTableRecord
100
AcDbLayerTableRecord
  2
0_35_1
 70
     0
 62
   179
  6
Continuous
370
    35
390
F
  0
LAYER
  5
7E
330
2
100
AcDbSymbolTableRecord
100
AcDbLayerTableRecord
  2
0_5_1
 70
     0
 62
   179
  6
Continuous
370
    50
390
F
  0
ENDTAB
  0
TABLE
  2
STYLE
  5
3
330
0
100
AcDbSymbolTable
 70
     1
  0
STYLE
  5
11
330
3
100
AcDbSymbolTableRecord
100
AcDbTextStyleTableRecord
  2
Standard
 70
     0
 40
0.0
 41
1.0
 50
0.0
 71
     0
 42
2.0
  3
txt
  4

  0
ENDTAB
  0
TABLE
  2
VIEW
  5
6
330
0
100
AcDbSymbolTable
 70
     0
  0
ENDTAB
  0
TABLE
  2
UCS
  5
7
330
0
100
AcDbSymbolTable
 70
     0
  0
ENDTAB
  0
TABLE
  2
APPID
  5
9
330
0
100
AcDbSymbolTable
 70
     1
  0
APPID
  5
12
330
9
100
AcDbSymbolTableRecord
100
AcDbRegAppTableRecord
  2
ACAD
 70
     0
  0
ENDTAB
  0
TABLE
  2
DIMSTYLE
  5
A
330
0
100
AcDbSymbolTable
 70
     1
100
AcDbDimStyleTable
  0
DIMSTYLE
105
27
330
A
100
AcDbSymbolTableRecord
100
AcDbDimStyleTableRecord
  2
ISO-25
 70
     0
 41
2.5
 42
0.625
 43
3.75
 44
1.25
 73
     0
 74
     0
 77
     1
 78
     8
140
2.5
141
2.5
143
0.0393700787
147
0.625
171
     3
172
     1
178
     0
271
     2
272
     2
274
     3
278
    44
283
     0
284
     8
340
11
  0
ENDTAB
  0
TABLE
  2
BLOCK_RECORD
  5
1
330
0
100
AcDbSymbolTable
 70
     1
  0
BLOCK_RECORD
  5
1F
330
1
100
AcDbSymbolTableRecord
100
AcDbBlockTableRecord
  2
*Model_Space
340
22
  0
BLOCK_RECORD
  5
1B
330
1
100
AcDbSymbolTableRecord
100
AcDbBlockTableRecord
  2
*Paper_Space
340
1E
  0
BLOCK_RECORD
  5
23
330
1
100
AcDbSymbolTableRecord
100
AcDbBlockTableRecord
  2
*Paper_Space0
340
26
  0
ENDTAB
  0
ENDSEC
  0
SECTION
  2
BLOCKS
  0
BLOCK
  5
20
330
1F
100
AcDbEntity
  8
0
100
AcDbBlockBegin
  2
*Model_Space
 70
     0
 10
0.0
 20
0.0
 30
0.0
  3
*Model_Space
  1

  0
ENDBLK
  5
21
330
1F
100
AcDbEntity
  8
0
100
AcDbBlockEnd
  0
BLOCK
  5
1C
330
1B
100
AcDbEntity
 67
     1
  8
0
100
AcDbBlockBegin
  2
*Paper_Space
 70
     0
 10
0.0
 20
0.0
 30
0.0
  3
*Paper_Space
  1

  0
ENDBLK
  5
1D
330
1B
100
AcDbEntity
 67
     1
  8
0
100
AcDbBlockEnd
  0
BLOCK
  5
24
330
23
100
AcDbEntity
  8
0
100
AcDbBlockBegin
  2
*Paper_Space0
 70
     0
 10
0.0
 20
0.0
 30
0.0
  3
*Paper_Space0
  1

  0
ENDBLK
  5
25
330
23
100
AcDbEntity
  8
0
100
AcDbBlockEnd
  0
ENDSEC
  0
SECTION
  2
ENTITIES
  0
LINE
  5
7F
330
1F
100
AcDbEntity
  8
0
  6
Continuous
 62
     7
370
    25
100
AcDbLine
 10
6284.5711342028
 20
5163.2994545927
 30
0.0
 11
6284.5711342028
 21
5163.3057045927
 31
0.0
  0
LINE
  5
80
330
1F
100
AcDbEntity
  8
0
  6
Continuous
 62
     7
370
    25
100
AcDbLine
 10
6287.6153206939
 20
5163.2994545927
 30
0.0
 11
6287.6153206939
 21
5163.3057045927
 31
0.0
  0
LINE
  5
81
330
1F
100
AcDbEntity
  8
0
  6
Continuous
 62
     7
370
    25
100
AcDbLine
 10
6285.0558365568
 20
5163.3057045927
 30
0.0
 11
6285.0558365568
 21
5163.2994545927
 31
0.0
  0
LINE
  5
82
330
1F
100
AcDbEntity
  8
0
  6
Continuous
 62
     7
370
    25
100
AcDbLine
 10
6284.6152949166
 20
5163.2994545927
 30
0.0
 11
6284.6152949166
 21
5163.3057045927
 31
0.0
  0
LINE
  5
83
330
1F
100
AcDbEntity
  8
0
  6
Continuous
 62
     7
370
    25
100
AcDbLine
 10
6285.8173916718
 20
5163.2994545927
 30
0.0
 11
6285.8173916718
 21
5163.3057045927
 31
0.0
  0
LINE
  5
84
330
1F
100
AcDbEntity
  8
0
  6
Continuous
 62
     7
370
    25
100
AcDbLine
 10
6449.0187553361
 20
5195.2994545927
 30
0.0
 11
6403.211638835
 21
5195.2994545927
 31
0.0
  0
LINE
  5
85
330
1F
100
AcDbEntity
  8
0
  6
Continuous
 62
     7
370
    25
100
AcDbLine
 10
6371.4067981946
 20
5195.2994545927
 30
0.0
 11
6165.7864704099
 21
5195.2994545927
 31
0.0
  0
LINE
  5
86
330
1F
100
AcDbEntity
  8
0
  6
Continuous
 62
     7
370
    25
100
AcDbLine
 10
6119.587403279
 20
5195.2994545927
 30
0.0
 11
6101.0187553361
 21
5195.2994545927
 31
0.0
  0
LWPOLYLINE
  5
87
330
1F
100
AcDbEntity
  8
0
  6
Continuous
 62
     7
370
    25
100
AcDbPolyline
 90
       13
 70
   128
 43
0.0
 10
6207.7137593618
 20
5454.0994545927
 10
6208.1811144717
 20
5454.0776124095
 10
6209.3044993101
 20
5453.8462606665
 10
6210.3755426385
 20
5453.3880666402
 10
6211.4206517314
 20
5452.7069888295
 10
6212.5338766209
 20
5451.6981535699
 10
6213.5678216034
 20
5450.4438011114
 10
6214.5010084656
 20
5448.9592056007
 10
6215.3088775677
 20
5447.2662604824
 10
6215.9664142664
 20
5445.3971764198
 10
6216.4529779332
 20
5443.3893224119
 10
6216.752814233
 20
5441.2850380532
 10
6216.8558949856
 20
5439.0994545927
  0
LWPOLYLINE
  5
88
330
1F
100
AcDbEntity
  8
0
  6
Continuous
 62
     7
370
    25
100
AcDbPolyline
 90
       16
 70
   128
 43
0.0
 10
6226.8558949856
 20
5439.0994545927
 10
6226.819653842
 20
5440.6519012906
 10
6226.5674305413
 20
5443.4639507479
 10
6226.0758892382
 20
5446.2268847779
 10
6225.3480639969
 20
5448.9066929259
 10
6224.3885841081
 20
5451.4705417947
 10
6223.2040521853
 20
5453.8853856161
 10
6221.8043185093
 20
5456.1169127744
 10
6220.2040274433
 20
5458.1300039325
 10
6218.4236915265
 20
5459.8906814042
 10
6216.4908197798
 20
5461.3681304852
 10
6214.4390729135
 20
5462.5380690102
 10
6212.3053590274
 20
5463.3854089105
 10
6210.1260802148
 20
5463.9046356732
 10
6208.0699996573
 20
5464.0952239567
 10
6207.7137593618
 20
5464.0994545927
  0
LINE
  5
89
330
1F
100
AcDbEntity
  8
0
  6
Continuous
 62
     7
370
    25
100
AcDbLine
 10
6226.8558949856
 20
5419.0994545927
 30
0.0
 11
6226.8558949856
 21
5439.0994545927
 31
0.0
  0
LINE
  5
8A
330
1F
100
AcDbEntity
  8
0
  6
Continuous
 62
     7
370
    25
100
AcDbLine
 10
6216.8558949856
 20
5439.0994545927
 30
0.0
 11
6216.8558949856
 21
5419.0994545927
 31
0.0
  0
LINE
  5
8B
330
1F
100
AcDbEntity
  8
0
  6
Continuous
 62
     7
370
    25
100
AcDbLine
 10
6207.7137593618
 20
5464.0994545927
 30
0.0
 11
6168.8228863966
 21
5464.0994545927
 31
0.0
  0
LINE
  5
8C
330
1F
100
AcDbEntity
  8
0
  6
Continuous
 62
     7
370
    25
100
AcDbLine
 10
6168.8228863966
 20
5454.0994545927
 30
0.0
 11
6207.7137593618
 21
5454.0994545927
 31
0.0
  0
LWPOLYLINE
  5
8D
330
1F
100
AcDbEntity
  8
0
  6
Continuous
 62
     7
370
    25
100
AcDbPolyline
 90
       13
 70
   128
 43
0.0
 10
6159.6807507728
 20
5439.0994545927
 10
6159.7060884261
 20
5440.1850491511
 10
6159.9059944175
 20
5442.3207547405
 10
6160.2986389601
 20
5444.3839474616
 10
6160.8700199622
 20
5446.3264860558
 10
6161.5995620967
 20
5448.1057772398
 10
6162.4606834622
 20
5449.6852783454
 10
6163.4221237246
 20
5451.0366775563
 10
6164.4488998682
 20
5452.1405710133
 10
6165.5077464127
 20
5452.9905629191
 10
6166.5752218627
 20
5453.5931561311
 10
6167.6493659406
 20
5453.9617147001
 10
6168.8228863966
 20
5454.0994545927
  0
LWPOLYLINE
  5
8E
330
1F
100
AcDbEntity
  8
0
  6
Continuous
 62
     7
370
    25
100
AcDbPolyline
 90
       16
 70
   128
 43
0.0
 10
6168.8228863966
 20
5464.0994545927
 10
6167.4248646451
 20
5464.0342112064
 10
6165.2779078509
 20
5463.6765944961
 10
6163.1905386855
 20
5463.0160804749
 10
6161.1819631278
 20
5462.0620811613
 10
6159.2703402563
 20
5460.8232241121
 10
6157.4751530118
 20
5459.3092111806
 10
6155.8178636649
 20
5457.5334140083
 10
6154.3210872341
 20
5455.5150653706
 10
6153.0066313796
 20
5453.2798696598
 10
6151.8934462817
 20
5450.8587908065
 10
6150.996447199
 20
5448.2859007969
 10
6150.3265575476
 20
5445.5971446658
 10
6149.8907557379
 20
5442.8274810073
 10
6149.6932403623
 20
5440.0111152896
 10
6149.6807507728
 20
5439.0994545927
  0
ARC
  5
8F
330
1F
100
AcDbEntity
  8
0
  6
Continuous
 62
     7
370
    25
100
AcDbCircle
 10
6154.7349931971
 20
5201.0994545927
 30
0.0
 40
9.074242424243112
100
AcDbArc
 50
129.5189414704
 51
156.7716498732
  0
ARC
  5
90
330
1F
100
AcDbEntity
  8
0
  6
Continuous
 62
     7
370
    25
100
AcDbCircle
 10
6154.6265083486
 20
5201.0994545927
 30
0.0
 40
9.074242424243112
100
AcDbArc
 50
23.2394502545
 51
50.4810585296
  0
LINE
  5
91
330
1F
100
AcDbEntity
  8
0
  6
Continuous
 62
     7
370
    25
100
AcDbLine
 10
6149.6807507728
 20
5439.0994545927
 30
0.0
 11
6149.6807507728
 21
5208.0994545927
 31
0.0
  0
LINE
  5
92
330
1F
100
AcDbEntity
  8
0
  6
Continuous
 62
     7
370
    25
100
AcDbLine
 10
6159.6807507728
 20
5208.0994545927
 30
0.0
 11
6159.6807507728
 21
5439.0994545927
 31
0.0
  0
LINE
  5
93
330
1F
100
AcDbEntity
  8
0
  6
Continuous
 62
     7
370
    25
100
AcDbLine
 10
6163.4364588769
 20
5196.0994545927
 30
0.0
 11
6163.4364588769
 21
5202.0728442402
 31
0.0
  0
LINE
  5
94
330
1F
100
AcDbEntity
  8
0
  6
Continuous
 62
     7
370
    25
100
AcDbLine
 10
6145.9250426688
 20
5202.0728442402
 30
0.0
 11
6145.9250426688
 21
5196.0994545927
 31
0.0
  0
LINE
  5
95
330
1F
100
AcDbEntity
  8
0
  6
Continuous
 62
     7
370
    25
100
AcDbLine
 10
6130.9000471767
 20
5164.2994545927
 30
0.0
 11
6130.9000471767
 21
5163.2994545927
 31
0.0
  0
LINE
  5
96
330
1F
100
AcDbEntity
  8
0
  6
Continuous
 62
     7
370
    25
100
AcDbLine
 10
6165.8845636655
 20
5163.2994545927
 30
0.0
 11
6165.8845636655
 21
5164.4244545927
 31
0.0
  0
LINE
  5
97
330
1F
100
AcDbEntity
  8
0
  6
Continuous
 62
     7
370
    25
100
AcDbLine
 10
6119.2401658583
 20
5190.6882705038
 30
0.0
 11
6130.9000471767
 21
5164.2994545927
 31
0.0
  0
LINE
  5
98
330
1F
100
AcDbEntity
  8
0
  6
Continuous
 62
     7
370
    25
100
AcDbLine
 10
6165.8845636655
 20
5164.2994545927
 30
0.0
 11
6165.7864704099
 21
5164.5214607001
 31
0.0
  0
LINE
  5
99
330
1F
100
AcDbEntity
  8
0
  6
Continuous
 62
     7
370
    25
100
AcDbLine
 10
6118.9653103121
 20
5191.9289016687
 30
0.0
 11
6119.042175522
 21
5191.7549391882
 31
0.0
  0
LINE
  5
9A
330
1F
100
AcDbEntity
  8
0
  6
Continuous
 62
     7
370
    25
100
AcDbLine
 10
6111.2386007305
 20
5208.1789570607
 30
0.0
 11
6114.9856957827
 21
5199.6984760992
 31
0.0
  0
LINE
  5
9B
330
1F
100
AcDbEntity
  8
0
  6
Continuous
 62
     7
370
    25
100
AcDbLine
 10
6144.7131324998
 20
5212.8335248708
 30
0.0
 11
6140.9660374476
 21
5221.3140058324
 31
0.0
  0
LWPOLYLINE
  5
9C
330
1F
100
AcDbEntity
  8
0
  6
Continuous
 62
     7
370
    25
100
AcDbPolyline
 90
        8
 70
   128
 43
0.0
 10
6140.9106352961
 20
5221.3372581487
 10
6140.6388956741
 20
5221.9113961861
 10
6139.9112339571
 20
5222.7448227827
 10
6138.9949682496
 20
5223.3844230438
 10
6137.8680878293
 20
5223.8606853018
 10
6136.4831405879
 20
5224.1731635014
 10
6134.8897047974
 20
5224.2959015822
 10
6134.6474820628
 20
5224.2978309619
  0
LWPOLYLINE
  5
9D
330
1F
100
AcDbEntity
  8
0
  6
Continuous
 62
     7
370
    25
100
AcDbPolyline
 90
       13
 70
   128
 43
0.0
 10
6123.0113838836
 20
5221.38978626
 10
6121.6451560813
 20
5220.7641819512
 10
6119.7017797685
 20
5219.7382541179
 10
6117.8730920547
 20
5218.6301123577
 10
6116.1914014657
 20
5217.4563446877
 10
6114.6857990602
 20
5216.2311165592
 10
6113.3820228113
 20
5214.9631897042
 10
6112.3045959512
 20
5213.6511903038
 10
6111.4860323941
 20
5212.2790938358
 10
6111.0422743531
 20
5211.0600366686
 10
6110.8909021363
 20
5209.9194824114
 10
6111.0116730494
 20
5208.8452275176
 10
6111.2794872881
 20
5208.1869536095
  0
ARC
  5
9E
330
1F
100
AcDbEntity
  8
0
  6
Continuous
 62
     7
370
    25
100
AcDbCircle
 10
6135.9195991174
 20
5194.4735881296
 30
0.0
 40
29.85136081183365
100
AcDbArc
 50
92.4424017966
 51
115.6210031413
  0
LINE
  5
9F
330
1F
100
AcDbEntity
  8
0
  6
Continuous
 62
     7
370
    25
100
AcDbLine
 10
6117.5010942742
 20
5200.8099033029
 30
0.0
 11
6119.7948011857
 21
5195.6187518846
 31
0.0
  0
LINE
  5
A0
330
1F
100
AcDbEntity
  8
0
  6
Continuous
 62
     7
370
    25
100
AcDbLine
 10
6144.4914409199
 20
5206.5309462488
 30
0.0
 11
6142.1977340083
 21
5211.7220976671
 31
0.0
  0
LINE
  5
A1
330
1F
100
AcDbEntity
  8
0
  6
Continuous
 62
     7
370
    25
100
AcDbLine
 10
6407.0147333492
 20
5163.2994545927
 30
0.0
 11
6407.0147333492
 21
5164.2994545927
 31
0.0
  0
LINE
  5
A2
330
1F
100
AcDbEntity
  8
0
  6
Continuous
 62
     7
370
    25
100
AcDbLine
 10
6375.0147333492
 20
5164.2994545927
 30
0.0
 11
6375.0147333492
 21
5163.2994545927
 31
0.0
  0
LINE
  5
A3
330
1F
100
AcDbEntity
  8
0
  6
Continuous
 62
     7
370
    25
100
AcDbLine
 10
6406.9620477353
 20
5164.2994545927
 30
0.0
 11
6401.9762027294
 21
5205.5112795675
 31
0.0
  0
LINE
  5
A4
330
1F
100
AcDbEntity
  8
0
  6
Continuous
 62
     7
370
    25
100
AcDbLine
 10
6371.1676340553
 20
5193.7345243904
 30
0.0
 11
6374.7287162407
 21
5164.2994545927
 31
0.0
  0
LINE
  5
A5
330
1F
100
AcDbEntity
  8
0
  6
Continuous
 62
     7
370
    25
100
AcDbLine
 10
6449.0187553361
 20
5162.7994545927
 30
0.0
 11
6099.0187553361
 21
5162.7994545927
 31
0.0
  0
ARC
  5
A6
330
1F
100
AcDbEntity
  8
0
  6
Continuous
 62
     7
370
    25
100
AcDbCircle
 10
6099.5187553361
 20
5162.7994545927
 30
0.0
 40
0.5000000000009095
100
AcDbArc
 50
90.0
 51
180.0
  0
LINE
  5
A7
330
1F
100
AcDbEntity
  8
0
  6
Continuous
 62
     7
370
    25
100
AcDbLine
 10
6099.5187553361
 20
5163.2994545927
 30
0.0
 11
6448.5187553361
 21
5163.2994545927
 31
0.0
  0
ARC
  5
A8
330
1F
100
AcDbEntity
  8
0
  6
Continuous
 62
     7
370
    25
100
AcDbCircle
 10
6448.5187553361
 20
5162.7994545927
 30
0.0
 40
0.5000000000009095
100
AcDbArc
 50
0.0
 51
90.0
  0
LINE
  5
A9
330
1F
100
AcDbEntity
  8
0
  6
Continuous
 62
     7
370
    25
100
AcDbLine
 10
6099.0187553361
 20
4963.2994545927
 30
0.0
 11
6099.0187553361
 21
5162.7994545927
 31
0.0
  0
LINE
  5
AA
330
1F
100
AcDbEntity
  8
0
  6
Continuous
 62
     7
370
    25
100
AcDbLine
 10
6449.0187553361
 20
4963.2994545927
 30
0.0
 11
6449.0187553361
 21
5162.7994545927
 31
0.0
  0
LINE
  5
AB
330
1F
100
AcDbEntity
  8
0
  6
Continuous
 62
     7
370
    25
100
AcDbLine
 10
6099.0187553361
 20
4963.2994545927
 30
0.0
 11
6449.0187553361
 21
4963.2994545927
 31
0.0
  0
LINE
  5
AC
330
1F
100
AcDbEntity
  8
0
  6
Continuous
 62
     7
370
    25
100
AcDbLine
 10
6447.0187553361
 20
5163.2994545927
 30
0.0
 11
6447.0187553361
 21
5164.2994545927
 31
0.0
  0
LINE
  5
AD
330
1F
100
AcDbEntity
  8
0
  6
Continuous
 62
     7
370
    25
100
AcDbLine
 10
6101.0187553361
 20
5164.2994545927
 30
0.0
 11
6101.0187553361
 21
5163.2994545927
 31
0.0
  0
LINE
  5
AE
330
1F
100
AcDbEntity
  8
0
  6
Continuous
 62
     7
370
    25
100
AcDbLine
 10
6449.0187553361
 20
5194.2494545927
 30
0.0
 11
6449.0187553361
 21
5164.2994545927
 31
0.0
  0
LINE
  5
AF
330
1F
100
AcDbEntity
  8
0
  6
Continuous
 62
     7
370
    25
100
AcDbLine
 10
6449.0187553361
 20
5164.2994545927
 30
0.0
 11
6447.0187553361
 21
5164.2994545927
 31
0.0
  0
LINE
  5
B0
330
1F
100
AcDbEntity
  8
0
  6
Continuous
 62
     7
370
    25
100
AcDbLine
 10
6101.0187553361
 20
5164.2994545927
 30
0.0
 11
6101.0187553361
 21
5194.2494545927
 31
0.0
  0
LINE
  5
B1
330
1F
100
AcDbEntity
  8
0
  6
Continuous
 62
     7
370
    25
100
AcDbLine
 10
6101.0187553361
 20
5194.2494545927
 30
0.0
 11
6101.0187553361
 21
5195.2994545927
 31
0.0
  0
LINE
  5
B2
330
1F
100
AcDbEntity
  8
0
  6
Continuous
 62
     7
370
    25
100
AcDbLine
 10
6449.0187553361
 20
5195.2994545927
 30
0.0
 11
6449.0187553361
 21
5194.2494545927
 31
0.0
  0
LINE
  5
B3
330
1F
100
AcDbEntity
  8
0
  6
Continuous
 62
     7
370
    25
100
AcDbLine
 10
6216.8558949856
 20
5419.0994545927
 30
0.0
 11
6226.8558949856
 21
5419.0994545927
 31
0.0
  0
LINE
  5
B4
330
1F
100
AcDbEntity
  8
0
  6
Continuous
 62
     7
370
    25
100
AcDbLine
 10
6150.6360999844
 20
5208.0994545927
 30
0.0
 11
6148.9607507728
 21
5208.0994545927
 31
0.0
  0
LINE
  5
B5
330
1F
100
AcDbEntity
  8
0
  6
Continuous
 62
     7
370
    25
100
AcDbLine
 10
6160.4007507728
 20
5208.0994545927
 30
0.0
 11
6150.6360999844
 21
5208.0994545927
 31
0.0
  0
LINE
  5
B6
330
1F
100
AcDbEntity
  8
0
  6
Continuous
 62
     7
370
    25
100
AcDbLine
 10
6145.9744111162
 20
5202.8524803847
 30
0.0
 11
6145.9591062223
 21
5202.0728442402
 31
0.0
  0
ARC
  5
B7
330
1F
100
AcDbEntity
  8
0
  6
Continuous
 62
     7
370
    25
100
AcDbCircle
 10
6158.4682017675
 20
5202.673180867
 30
0.0
 40
4.922155420718532
100
AcDbArc
 50
2.0875770998
 51
24.0526469093
  0
LWPOLYLINE
  5
B8
330
1F
100
AcDbEntity
  8
0
  6
Continuous
 62
     7
370
    25
100
AcDbPolyline
 90
       11
 70
   128
 43
0.0
 10
6163.3870904295
 20
5202.8524803847
 10
6163.4129166267
 20
5201.5368857087
 10
6163.405950964
 20
5201.491094681
 10
6163.3959911748
 20
5201.4535328166
 10
6163.3902770464
 20
5201.4449410134
 10
6163.3837328092
 20
5201.4449888974
 10
6163.3766910243
 20
5201.4547588598
 10
6163.3656636125
 20
5201.484759358
 10
6163.33055205
 20
5201.6332429826
 10
6163.1819025287
 20
5202.274661923
 10
6163.0120998421
 20
5202.8524803848
  0
LWPOLYLINE
  5
B9
330
1F
100
AcDbEntity
  8
0
  6
Continuous
 62
     7
370
    25
100
AcDbPolyline
 90
        9
 70
   128
 43
0.0
 10
6163.0120998421
 20
5202.8524803848
 10
6162.6183968075
 20
5203.7450443056
 10
6161.8701351288
 20
5204.6691145592
 10
6160.9499929866
 20
5205.1879684836
 10
6160.3376050223
 20
5205.2792936501
 10
6159.3642141086
 20
5205.0444919807
 10
6158.500740237
 20
5204.3672217212
 10
6157.8432217408
 20
5203.323534296
 10
6157.6631102026
 20
5202.8524803847
  0
LWPOLYLINE
  5
BA
330
1F
100
AcDbEntity
  8
0
  6
Continuous
 62
     7
370
    25
100
AcDbPolyline
 90
       11
 70
   128
 43
0.0
 10
6157.6631102026
 20
5202.8524803847
 10
6157.1259883905
 20
5201.536870787
 10
6157.0916480735
 20
5201.4910855269
 10
6157.0483221191
 20
5201.4535297125
 10
6157.0256756867
 20
5201.4449399846
 10
6157.0012606272
 20
5201.4449897232
 10
6156.9764845677
 20
5201.4547618749
 10
6156.9402107211
 20
5201.4847685766
 10
6156.8391540336
 20
5201.6332945204
 10
6156.5252947661
 20
5202.2748832029
 10
6156.2636262781
 20
5202.8524803848
  0
ARC
  5
BB
330
1F
100
AcDbEntity
  8
0
  6
Continuous
 62
     7
370
    25
100
AcDbCircle
 10
6152.610198412
 20
5201.2906086786
 30
0.0
 40
3.973283075602076
100
AcDbArc
 50
23.1471227754
 51
156.8528772251
  0
LWPOLYLINE
  5
BC
330
1F
100
AcDbEntity
  8
0
  6
Continuous
 62
     7
370
    25
100
AcDbPolyline
 90
       11
 70
   128
 43
0.0
 10
6148.956770546
 20
5202.8524803847
 10
6148.3938324904
 20
5201.5368857189
 10
6148.3664558502
 20
5201.4910946873
 10
6148.3330872857
 20
5201.4535328188
 10
6148.3161546276
 20
5201.4449410141
 10
6148.2982827129
 20
5201.4449888969
 10
6148.280549498
 20
5201.4547588577
 10
6148.2553066515
 20
5201.4847593517
 10
6148.1893819665
 20
5201.6332429472
 10
6148.024245182
 20
5202.274661771
 10
6147.9322772088
 20
5202.8524803847
  0
LWPOLYLINE
  5
BD
330
1F
100
AcDbEntity
  8
0
  6
Continuous
 62
     7
370
    25
100
AcDbPolyline
 90
        8
 70
   128
 43
0.0
 10
6147.9322772088
 20
5202.8524803847
 10
6147.7278568643
 20
5204.0076059096
 10
6147.4359743937
 20
5204.8371723711
 10
6147.0894692685
 20
5205.2458458826
 10
6146.7285578517
 20
5205.187443051
 10
6146.3933536494
 20
5204.6713655577
 10
6146.1206461059
 20
5203.7551075774
 10
6145.9744111162
 20
5202.8524803847
  0
LINE
  5
BE
330
1F
100
AcDbEntity
  8
0
  6
Continuous
 62
     7
370
    25
100
AcDbLine
 10
6148.956770546
 20
5202.8524803847
 30
0.0
 11
6148.956770546
 21
5196.0994545927
 31
0.0
  0
LINE
  5
BF
330
1F
100
AcDbEntity
  8
0
  6
Continuous
 62
     7
370
    25
100
AcDbLine
 10
6156.2636262781
 20
5202.8524803848
 30
0.0
 11
6156.2636262781
 21
5196.0994545927
 31
0.0
  0
LINE
  5
C0
330
1F
100
AcDbEntity
  8
0
  6
Continuous
 62
     7
370
    25
100
AcDbLine
 10
6157.6631102026
 20
5202.8524803847
 30
0.0
 11
6157.6631102026
 21
5196.0994545927
 31
0.0
  0
LINE
  5
C1
330
1F
100
AcDbEntity
  8
0
  6
Continuous
 62
     7
370
    25
100
AcDbLine
 10
6163.0120998421
 20
5202.8524803848
 30
0.0
 11
6163.0120998421
 21
5196.0994545927
 31
0.0
  0
LINE
  5
C2
330
1F
100
AcDbEntity
  8
0
  6
Continuous
 62
     7
370
    25
100
AcDbLine
 10
6147.9322772088
 20
5202.8524803847
 30
0.0
 11
6147.9322772088
 21
5196.0994545927
 31
0.0
  0
LINE
  5
C3
330
1F
100
AcDbEntity
  8
0
  6
Continuous
 62
     7
370
    25
100
AcDbLine
 10
6148.4561442285
 20
5196.0994545927
 30
0.0
 11
6148.1774352558
 21
5196.0994545927
 31
0.0
  0
LINE
  5
C4
330
1F
100
AcDbEntity
  8
0
  6
Continuous
 62
     7
370
    25
100
AcDbLine
 10
6145.9744111162
 20
5202.8524803847
 30
0.0
 11
6145.9744111162
 21
5196.0994545927
 31
0.0
  0
LINE
  5
C5
330
1F
100
AcDbEntity
  8
0
  6
Continuous
 62
     7
370
    25
100
AcDbLine
 10
6165.8845622919
 20
5164.2994545927
 30
0.0
 11
6130.9000670299
 21
5164.2994545927
 31
0.0
  0
ARC
  5
C6
330
1F
100
AcDbEntity
  8
0
  6
Continuous
 62
     7
370
    25
100
AcDbCircle
 10
6143.7918314128
 20
5196.791194549
 30
0.0
 40
8.84813261352448
100
AcDbArc
 50
71.3150067084
 51
92.0858898649
  0
LWPOLYLINE
  5
C7
330
1F
100
AcDbEntity
  8
0
  6
Continuous
 62
     7
370
    25
100
AcDbPolyline
 90
       18
 70
   128
 43
0.0
 10
6119.2401658583
 20
5190.6882705038
 10
6119.1466188122
 20
5190.9394231159
 10
6119.0476822433
 20
5191.86836794
 10
6119.2799681791
 20
5192.9154019391
 10
6119.8382877356
 20
5194.0571361037
 10
6120.7101689764
 20
5195.2680659794
 10
6121.8761355156
 20
5196.5211413936
 10
6123.3101415871
 20
5197.7883707123
 10
6124.9801538651
 20
5199.0414461265
 10
6126.8488670349
 20
5200.2523760022
 10
6128.8745371321
 20
5201.3941101668
 10
6131.0119140342
 20
5202.4411441659
 10
6133.2132522731
 20
5203.37008899
 10
6135.42937759
 20
5204.1601935468
 10
6137.6107854075
 20
5204.7938082062
 10
6139.7087466796
 20
5205.2567790636
 10
6141.6763964183
 20
5205.5387641151
 10
6143.4697805798
 20
5205.6334642807
  0
LINE
  5
C8
330
1F
100
AcDbEntity
  8
0
  6
Continuous
 62
     7
370
    25
100
AcDbLine
 10
6153.0585483486
 20
5164.2994545927
 30
0.0
 11
6139.0077388249
 21
5196.0994545927
 31
0.0
  0
LINE
  5
C9
330
1F
100
AcDbEntity
  8
0
  6
Continuous
 62
     7
370
    25
100
AcDbLine
 10
6165.7864704099
 20
5164.2994545927
 30
0.0
 11
6165.8845636655
 21
5164.2994545927
 31
0.0
  0
LINE
  5
CA
330
1F
100
AcDbEntity
  8
0
  6
Continuous
 62
     7
370
    25
100
AcDbLine
 10
6130.9000471767
 20
5164.2994545927
 30
0.0
 11
6153.0585483486
 21
5164.2994545927
 31
0.0
  0
LINE
  5
CB
330
1F
100
AcDbEntity
  8
0
  6
Continuous
 62
     7
370
    25
100
AcDbLine
 10
6153.0585483486
 20
5196.0994545927
 30
0.0
 11
6153.0585483486
 21
5164.2994545927
 31
0.0
  0
LINE
  5
CC
330
1F
100
AcDbEntity
  8
0
  6
Continuous
 62
     7
370
    25
100
AcDbLine
 10
6165.7864704099
 20
5196.0994545927
 30
0.0
 11
6165.7864704099
 21
5164.2994545927
 31
0.0
  0
LINE
  5
CD
330
1F
100
AcDbEntity
  8
0
  6
Continuous
 62
     7
370
    25
100
AcDbLine
 10
6165.7864704099
 20
5196.0994545927
 30
0.0
 11
6153.0585483486
 21
5196.0994545927
 31
0.0
  0
LINE
  5
CE
330
1F
100
AcDbEntity
  8
0
  6
Continuous
 62
     7
370
    25
100
AcDbLine
 10
6165.7864704099
 20
5164.2994545927
 30
0.0
 11
6153.0585483486
 21
5164.2994545927
 31
0.0
  0
LINE
  5
CF
330
1F
100
AcDbEntity
  8
0
  6
Continuous
 62
     7
370
    25
100
AcDbLine
 10
6153.0585483486
 20
5196.0994545927
 30
0.0
 11
6148.4561442285
 21
5196.0994545927
 31
0.0
  0
LINE
  5
D0
330
1F
100
AcDbEntity
  8
0
  6
Continuous
 62
     7
370
    25
100
AcDbLine
 10
6148.1774352558
 20
5196.0994545927
 30
0.0
 11
6139.0077388249
 21
5196.0994545927
 31
0.0
  0
ARC
  5
D1
330
1F
100
AcDbEntity
  8
0
  6
Continuous
 62
     7
370
    25
100
AcDbCircle
 10
6143.3848584813
 20
5199.8294079664
 30
0.0
 40
6.834854578693706
100
AcDbArc
 50
58.9903973538
 51
94.7713588433
  0
LWPOLYLINE
  5
D2
330
1F
100
AcDbEntity
  8
0
  6
Continuous
 62
     7
370
    25
100
AcDbPolyline
 90
       18
 70
   128
 43
0.0
 10
6118.9653103121
 20
5191.9289016687
 10
6118.8732249385
 20
5192.1761300212
 10
6118.7758342535
 20
5193.0905600825
 10
6119.0044907215
 20
5194.1212341753
 10
6119.5540865349
 20
5195.2451287436
 10
6120.4123446314
 20
5196.4371378399
 10
6121.5600929434
 20
5197.6706339508
 10
6122.9716926701
 20
5198.9180628114
 10
6124.6156110062
 20
5200.1515589223
 10
6126.4551255327
 20
5201.3435680186
 10
6128.4491445347
 20
5202.467462587
 10
6130.5531249227
 20
5203.4981366798
 10
6132.7200672515
 20
5204.412566741
 10
6134.9015656104
 20
5205.1903259141
 10
6137.0488889308
 20
5205.8140403444
 10
6139.114069558
 20
5206.2697772822
 10
6141.0509747695
 20
5206.5473563173
 10
6142.8163373035
 20
5206.6405767928
  0
LWPOLYLINE
  5
D3
330
1F
100
AcDbEntity
  8
0
  6
Continuous
 62
     7
370
    25
100
AcDbPolyline
 90
       10
 70
   128
 43
0.0
 10
6139.5938982342
 20
5214.8771885288
 10
6141.1976283508
 20
5214.7810086731
 10
6142.5478581144
 20
5214.4946176051
 10
6143.6144256231
 20
5214.0244128281
 10
6144.3735055213
 20
5213.3808979397
 10
6144.8081412185
 20
5212.5784479992
 10
6144.9086236713
 20
5211.6349884122
 10
6144.6727082678
 20
5210.5715945069
 10
6144.1056649682
 20
5209.4120207459
 10
6143.5675204734
 20
5208.6219766729
  0
LWPOLYLINE
  5
D4
330
1F
100
AcDbEntity
  8
0
  6
Continuous
 62
     7
370
    25
100
AcDbPolyline
 90
       22
 70
   128
 43
0.0
 10
6118.8708807392
 20
5197.7097823088
 10
6118.5011999317
 20
5197.7509922969
 10
6117.1509701681
 20
5198.0373833648
 10
6116.0844026594
 20
5198.5075881419
 10
6115.3253227611
 20
5199.1511030303
 10
6114.890687064
 20
5199.9535529708
 10
6114.7902046112
 20
5200.8970125578
 10
6115.0261200147
 20
5201.9604064631
 10
6115.5931633143
 20
5203.1199802241
 10
6116.4786676995
 20
5204.349830879
 10
6117.6628524658
 20
5205.6224855966
 10
6119.1192648823
 20
5206.9095153734
 10
6120.8153711021
 20
5208.182170091
 10
6122.7132829151
 20
5209.4120207459
 10
6124.7706041076
 20
5210.5715945069
 10
6126.9413775238
 20
5211.6349884122
 10
6129.1771116727
 20
5212.5784479992
 10
6131.4278639477
 20
5213.3808979397
 10
6133.6433562624
 20
5214.0244128281
 10
6135.7740981793
 20
5214.4946176051
 10
6137.7724924452
 20
5214.7810086731
 10
6139.5938982342
 20
5214.8771885288
  0
ARC
  5
D5
330
1F
100
AcDbEntity
  8
0
  6
Continuous
 62
     7
370
    25
100
AcDbCircle
 10
6119.9081005004
 20
5201.7232941728
 30
0.0
 40
2.574482832389039
100
AcDbArc
 50
153.1071972542
 51
200.7803389982
  0
ARC
  5
D6
330
1F
100
AcDbEntity
  8
0
  6
Continuous
 62
     7
370
    25
100
AcDbCircle
 10
6140.2695989297
 20
5210.8407221424
 30
0.0
 40
2.120030117027746
100
AcDbArc
 50
24.5657542173
 51
54.7506038486
  0
LINE
  5
D7
330
1F
100
AcDbEntity
  8
0
  6
Continuous
 62
     7
370
    25
100
AcDbLine
 10
6132.4776037322
 20
5212.5720397294
 30
0.0
 11
6141.4931458679
 21
5212.5720397294
 31
0.0
  0
ARC
  5
D8
330
1F
100
AcDbEntity
  8
0
  6
Continuous
 62
     7
370
    25
100
AcDbCircle
 10
6141.919273237
 20
5178.9230990628
 30
0.0
 40
34.94848109748951
100
AcDbArc
 50
105.6737673163
 51
118.4732319537
  0
LINE
  5
D9
330
1F
100
AcDbEntity
  8
0
  6
Continuous
 62
     7
370
    25
100
AcDbLine
 10
6117.6120367731
 20
5202.887791152
 30
0.0
 11
6125.2576501171
 21
5209.6442098179
 31
0.0
  0
LINE
  5
DA
330
1F
100
AcDbEntity
  8
0
  6
Continuous
 62
     7
370
    25
100
AcDbLine
 10
6135.6375766319
 20
5205.42034231
 30
0.0
 11
6132.4776037322
 21
5212.5720397294
 31
0.0
  0
LINE
  5
DB
330
1F
100
AcDbEntity
  8
0
  6
Continuous
 62
     7
370
    25
100
AcDbLine
 10
6125.2576501171
 20
5209.6442098179
 30
0.0
 11
6128.4325487564
 21
5202.4587322439
 31
0.0
  0
LINE
  5
DC
330
1F
100
AcDbEntity
  8
0
  6
Continuous
 62
     7
370
    25
100
AcDbLine
 10
6120.4449208182
 20
5196.4763660678
 30
0.0
 11
6117.6120367731
 21
5202.887791152
 31
0.0
  0
LINE
  5
DD
330
1F
100
AcDbEntity
  8
0
  6
Continuous
 62
     7
370
    25
100
AcDbLine
 10
6141.4931458679
 20
5212.5720397294
 30
0.0
 11
6144.1433016957
 21
5206.5741678499
 31
0.0
  0
LINE
  5
DE
330
1F
100
AcDbEntity
  8
0
  6
Continuous
 62
     7
370
    25
100
AcDbLine
 10
6407.0147333492
 20
5164.2994545927
 30
0.0
 11
6402.5702247737
 21
5164.2994545927
 31
0.0
  0
LINE
  5
DF
330
1F
100
AcDbEntity
  8
0
  6
Continuous
 62
     7
370
    25
100
AcDbLine
 10
6385.4921305444
 20
5205.6415686854
 30
0.0
 11
6401.9567461247
 21
5205.6415686854
 31
0.0
  0
ELLIPSE
  5
E0
330
1F
100
AcDbEntity
  8
0
  6
Continuous
 62
     7
370
    25
100
AcDbEllipse
 10
6386.5719183923
 20
5199.622901979
 30
0.0
 11
15.24291857425123
 21
6.497007740706067
 31
0.0
210
0.0
220
0.0
230
1.0
 40
0.3609261387
 41
1.48822731345534
 42
6.200207076973966
  0
LWPOLYLINE
  5
E1
330
1F
100
AcDbEntity
  8
0
  6
Continuous
 62
     7
370
    25
100
AcDbPolyline
 90
       17
 70
   128
 43
0.0
 10
6388.079588506
 20
5200.8915686854
 10
6387.7298358044
 20
5200.948659036
 10
6387.5690209204
 20
5201.1112385995
 10
6387.6216264623
 20
5201.3545561111
 10
6387.8796437133
 20
5201.6415686854
 10
6388.3037918858
 20
5201.9285812597
 10
6388.8294982654
 20
5202.1718987713
 10
6389.3767288215
 20
5202.3344783348
 10
6389.8621726624
 20
5202.3915686854
 10
6390.211925364
 20
5202.3344783348
 10
6390.372740248
 20
5202.1718987713
 10
6390.3201347061
 20
5201.9285812597
 10
6390.0621174552
 20
5201.6415686854
 10
6389.6379692827
 20
5201.3545561111
 10
6389.112262903
 20
5201.1112385995
 10
6388.565032347
 20
5200.948659036
 10
6388.079588506
 20
5200.8915686854
  0
LWPOLYLINE
  5
E2
330
1F
100
AcDbEntity
  8
0
  6
Continuous
 62
     7
370
    25
100
AcDbPolyline
 90
       22
 70
   128
 43
0.0
 10
6394.0633193152
 20
5201.6415686854
 10
6393.0999984607
 20
5201.552714297
 10
6392.0110856581
 20
5201.294046234
 10
6390.8933355886
 20
5200.8885482891
 10
6389.8460652512
 20
5200.3722507341
 10
6388.962329211
 20
5199.7910288726
 10
6388.3206512936
 20
5199.1965268175
 10
6387.9780473978
 20
5198.6415686854
 10
6387.9649593832
 20
5198.1754649417
 10
6388.2825501775
 20
5197.8396309496
 10
6388.9026004447
 20
5197.6639070329
 10
6389.7700159977
 20
5197.6639070329
 10
6390.8077231579
 20
5197.8396309496
 10
6391.9235170902
 20
5198.1754649417
 10
6393.0182546072
 20
5198.6415686854
 10
6393.9946634764
 20
5199.1965268175
 10
6394.7659854847
 20
5199.7910288726
 10
6395.2636852869
 20
5200.3722507341
 10
6395.4435400714
 20
5200.8885482891
 10
6395.2895689514
 20
5201.294046234
 10
6394.8154529365
 20
5201.552714297
 10
6394.0633193152
 20
5201.6415686854
  0
LWPOLYLINE
  5
E3
330
1F
100
AcDbEntity
  8
0
  6
Continuous
 62
     7
370
    25
100
AcDbPolyline
 90
       22
 70
   128
 43
0.0
 10
6383.8988220127
 20
5201.6415686854
 10
6382.9355011581
 20
5201.552714297
 10
6381.8465883555
 20
5201.294046234
 10
6380.728838286
 20
5200.8885482891
 10
6379.6815679486
 20
5200.3722507341
 10
6378.7978319084
 20
5199.7910288726
 10
6378.156153991
 20
5199.1965268175
 10
6377.8135500952
 20
5198.6415686854
 10
6377.8004620806
 20
5198.1754649417
 10
6378.1180528749
 20
5197.8396309496
 10
6378.7381031421
 20
5197.6639070329
 10
6379.6055186951
 20
5197.6639070329
 10
6380.6432258553
 20
5197.8396309496
 10
6381.7590197876
 20
5198.1754649417
 10
6382.8537573046
 20
5198.6415686854
 10
6383.8301661738
 20
5199.1965268175
 10
6384.6014881821
 20
5199.7910288726
 10
6385.0991879843
 20
5200.3722507341
 10
6385.2790427688
 20
5200.8885482891
 10
6385.1250716488
 20
5201.294046234
 10
6384.6509556339
 20
5201.552714297
 10
6383.8988220127
 20
5201.6415686854
  0
LWPOLYLINE
  5
E4
330
1F
100
AcDbEntity
  8
0
  6
Continuous
 62
     7
370
    25
100
AcDbPolyline
 90
       17
 70
   128
 43
0.0
 10
6381.5434465993
 20
5195.3915686854
 10
6380.7343735311
 20
5195.296418101
 10
6379.8223226043
 20
5195.0254521619
 10
6378.9461453049
 20
5194.6199229758
 10
6378.2392316841
 20
5194.1415686854
 10
6377.8092029325
 20
5193.6632143949
 10
6377.7215270293
 20
5193.2576852089
 10
6377.989551836
 20
5192.9867192697
 10
6378.5724730054
 20
5192.8915686854
 10
6379.3815460736
 20
5192.9867192697
 10
6380.2935970004
 20
5193.2576852089
 10
6381.1697742998
 20
5193.6632143949
 10
6381.8766879206
 20
5194.1415686854
 10
6382.3067166722
 20
5194.6199229758
 10
6382.3943925754
 20
5195.0254521619
 10
6382.1263677687
 20
5195.296418101
 10
6381.5434465993
 20
5195.3915686854
  0
LINE
  5
E5
330
1F
100
AcDbEntity
  8
0
  6
Continuous
 62
     7
370
    25
100
AcDbLine
 10
6402.5702247737
 20
5164.2994545927
 30
0.0
 11
6374.7287162407
 21
5164.2994545927
 31
0.0
  0
LWPOLYLINE
  5
E6
330
1F
100
AcDbEntity
  8
0
  6
Continuous
 62
     7
370
    25
100
AcDbPolyline
 90
       22
 70
   128
 43
0.0
 10
6379.1452642627
 20
5197.6415686844
 10
6380.1085851173
 20
5197.7304230729
 10
6381.1974979198
 20
5197.9890911359
 10
6382.3152479892
 20
5198.394589081
 10
6383.3625183266
 20
5198.9108866363
 10
6384.2462543666
 20
5199.4921084981
 10
6384.8879322839
 20
5200.0866105535
 10
6385.2305361796
 20
5200.6415686859
 10
6385.2436241941
 20
5201.1076724298
 10
6384.9260333997
 20
5201.4435064221
 10
6384.3059831325
 20
5201.6192303388
 10
6383.4385675795
 20
5201.6192303388
 10
6382.4008604193
 20
5201.4435064221
 10
6381.2850664871
 20
5201.1076724298
 10
6380.1903289701
 20
5200.6415686859
 10
6379.2139201011
 20
5200.0866105535
 10
6378.4425980929
 20
5199.4921084981
 10
6377.9448982908
 20
5198.9108866363
 10
6377.7650435064
 20
5198.394589081
 10
6377.9190146265
 20
5197.9890911359
 10
6378.3931306415
 20
5197.7304230729
 10
6379.1452642627
 20
5197.6415686844
  0
LWPOLYLINE
  5
E7
330
1F
100
AcDbEntity
  8
0
  6
Continuous
 62
     7
370
    25
100
AcDbPolyline
 90
       22
 70
   128
 43
0.0
 10
6389.3097615653
 20
5197.6415686844
 10
6390.2730824199
 20
5197.7304230729
 10
6391.3619952224
 20
5197.9890911359
 10
6392.4797452918
 20
5198.394589081
 10
6393.5270156292
 20
5198.9108866363
 10
6394.4107516692
 20
5199.4921084981
 10
6395.0524295865
 20
5200.0866105535
 10
6395.3950334822
 20
5200.6415686859
 10
6395.4081214967
 20
5201.1076724298
 10
6395.0905307023
 20
5201.4435064221
 10
6394.4704804351
 20
5201.6192303388
 10
6393.6030648821
 20
5201.6192303388
 10
6392.5653577219
 20
5201.4435064221
 10
6391.4495637897
 20
5201.1076724298
 10
6390.3548262727
 20
5200.6415686859
 10
6389.3784174037
 20
5200.0866105535
 10
6388.6070953955
 20
5199.4921084981
 10
6388.1093955934
 20
5198.9108866363
 10
6387.929540809
 20
5198.394589081
 10
6388.0835119291
 20
5197.9890911359
 10
6388.5576279441
 20
5197.7304230729
 10
6389.3097615653
 20
5197.6415686844
  0
LWPOLYLINE
  5
E8
330
1F
100
AcDbEntity
  8
0
  6
Continuous
 62
     7
370
    25
100
AcDbPolyline
 90
       17
 70
   128
 43
0.0
 10
6389.8621726625
 20
5202.3915686853
 10
6390.2119253641
 20
5202.3344783347
 10
6390.3727402481
 20
5202.1718987712
 10
6390.3201347061
 20
5201.9285812596
 10
6390.0621174552
 20
5201.6415686854
 10
6389.6379692827
 20
5201.3545561112
 10
6389.112262903
 20
5201.1112385996
 10
6388.5650323469
 20
5200.9486590361
 10
6388.079588506
 20
5200.8915686855
 10
6387.7298358044
 20
5200.9486590361
 10
6387.5690209204
 20
5201.1112385996
 10
6387.6216264623
 20
5201.3545561112
 10
6387.8796437133
 20
5201.6415686854
 10
6388.3037918858
 20
5201.9285812596
 10
6388.8294982654
 20
5202.1718987712
 10
6389.3767288215
 20
5202.3344783347
 10
6389.8621726625
 20
5202.3915686853
  0
LINE
  5
E9
330
1F
100
AcDbEntity
  8
0
  6
Continuous
 62
     8
370
    25
100
AcDbLine
 10
6447.0187553361
 20
5164.2994545927
 30
0.0
 11
6407.0147333492
 21
5164.2994545927
 31
0.0
  0
LINE
  5
EA
330
1F
100
AcDbEntity
  8
0
  6
Continuous
 62
     8
370
    25
100
AcDbLine
 10
6374.7287162407
 20
5164.2994545927
 30
0.0
 11
6165.8845636655
 21
5164.2994545927
 31
0.0
  0
LINE
  5
EB
330
1F
100
AcDbEntity
  8
0
  6
Continuous
 62
     8
370
    25
100
AcDbLine
 10
6130.9000471767
 20
5164.2994545927
 30
0.0
 11
6101.0187553361
 21
5164.2994545927
 31
0.0
  0
LINE
  5
EC
330
1F
100
AcDbEntity
  8
0
  6
Continuous
 62
     8
370
    25
100
AcDbLine
 10
6449.0187553361
 20
5194.2494545927
 30
0.0
 11
6403.3386688138
 21
5194.2494545927
 31
0.0
  0
LINE
  5
ED
330
1F
100
AcDbEntity
  8
0
  6
Continuous
 62
     8
370
    25
100
AcDbLine
 10
6371.1578107795
 20
5194.2494545927
 30
0.0
 11
6165.7864704099
 21
5194.2494545927
 31
0.0
  0
LINE
  5
EE
330
1F
100
AcDbEntity
  8
0
  6
Continuous
 62
     8
370
    25
100
AcDbLine
 10
6119.0528083236
 20
5194.2494545927
 30
0.0
 11
6101.0187553361
 21
5194.2494545927
 31
0.0
  0
LWPOLYLINE
  5
EF
330
1F
100
AcDbEntity
  8
0
  6
Continuous
 62
     8
370
    25
100
AcDbPolyline
 90
       14
 70
   128
 43
0.0
 10
6207.7123544887
 20
5454.0994549875
 10
6207.4724859955
 20
5454.1111107468
 10
6206.5297811386
 20
5454.3881499821
 10
6205.6748865301
 20
5455.0146051277
 10
6204.9712057923
 20
5455.9440148711
 10
6204.4709277064
 20
5457.1074491435
 10
6204.2111556095
 20
5458.4186213472
 10
6204.2111556095
 20
5459.7802878382
 10
6204.4709277064
 20
5461.091460042
 10
6204.9712057923
 20
5462.2548943143
 10
6205.6748865301
 20
5463.1843040578
 10
6206.5297811386
 20
5463.8107592033
 10
6207.4724859955
 20
5464.0877984387
 10
6207.7158824699
 20
5464.0994536912
  0
LINE
  5
F0
330
1F
100
AcDbEntity
  8
0
  6
Continuous
 62
     8
370
    25
100
AcDbLine
 10
6216.8558970627
 20
5439.0994545927
 30
0.0
 11
6226.8558943942
 21
5439.0994545927
 31
0.0
  0
LWPOLYLINE
  5
F1
330
1F
100
AcDbEntity
  8
0
  6
Continuous
 62
     8
370
    25
100
AcDbPolyline
 90
       14
 70
   128
 43
0.0
 10
6168.8228863966
 20
5454.0994545927
 10
6168.5816130303
 20
5454.1111107468
 10
6167.6389081733
 20
5454.3881499821
 10
6166.7840135648
 20
5455.0146051277
 10
6166.0803328271
 20
5455.9440148711
 10
6165.5800547412
 20
5457.1074491435
 10
6165.3202826442
 20
5458.4186213472
 10
6165.3202826442
 20
5459.7802878382
 10
6165.5800547412
 20
5461.091460042
 10
6166.0803328271
 20
5462.2548943143
 10
6166.7840135648
 20
5463.1843040578
 10
6167.6389081733
 20
5463.8107592033
 10
6168.5816130303
 20
5464.0877984387
 10
6168.8228863966
 20
5464.0994545927
  0
LINE
  5
F2
330
1F
100
AcDbEntity
  8
0
  6
Continuous
 62
     8
370
    25
100
AcDbLine
 10
6159.6807478729
 20
5439.0994545927
 30
0.0
 11
6149.6807514341
 21
5439.0994545927
 31
0.0
  0
LWPOLYLINE
  5
F3
330
1F
100
AcDbEntity
  8
0
  6
Continuous
 62
     8
370
    25
100
AcDbPolyline
 90
        6
 70
   128
 43
0.0
 10
6135.846803182
 20
5223.3576694903
 10
6137.4505332986
 20
5223.2614896347
 10
6138.8007630622
 20
5222.9750985667
 10
6139.8673305709
 20
5222.5048937897
 10
6140.6264104691
 20
5221.8613789013
 10
6140.9660374476
 20
5221.3140058324
  0
LWPOLYLINE
  5
F4
330
1F
100
AcDbEntity
  8
0
  6
Continuous
 62
     8
370
    25
100
AcDbPolyline
 90
       18
 70
   128
 43
0.0
 10
6111.2386007305
 20
5208.1789570607
 10
6111.1435920118
 20
5208.4340339324
 10
6111.043109559
 20
5209.3774935194
 10
6111.2790249625
 20
5210.4408874247
 10
6111.8460682621
 20
5211.6004611856
 10
6112.7315726473
 20
5212.8303118406
 10
6113.9157574136
 20
5214.1029665582
 10
6115.3721698301
 20
5215.389996335
 10
6117.0682760499
 20
5216.6626510525
 10
6118.9661878629
 20
5217.8925017075
 10
6121.0235090554
 20
5219.0520754685
 10
6123.1942824716
 20
5220.1154693737
 10
6125.4300166205
 20
5221.0589289607
 10
6127.6807688955
 20
5221.8613789013
 10
6129.8962612102
 20
5222.5048937897
 10
6132.0270031271
 20
5222.9750985667
 10
6134.025397393
 20
5223.2614896347
 10
6135.846803182
 20
5223.3576694903
  0
ARC
  5
F5
330
1F
100
AcDbEntity
  8
0
  6
Continuous
 62
     7
370
    25
100
AcDbCircle
 10
7004.2095557571
 20
5162.7994545927
 30
0.0
 40
0.5000000000009095
100
AcDbArc
 50
0.0
 51
90.0
  0
LINE
  5
F6
330
1F
100
AcDbEntity
  8
0
  6
Continuous
 62
     7
370
    25
100
AcDbLine
 10
7004.7095557571
 20
4963.2994545927
 30
0.0
 11
7004.7095557571
 21
5162.7994545927
 31
0.0
  0
LINE
  5
F7
330
1F
100
AcDbEntity
  8
0
  6
Continuous
 62
     7
370
    25
100
AcDbLine
 10
6663.8989686194
 20
5163.2994545927
 30
0.0
 11
6663.8989686194
 21
5163.3057045927
 31
0.0
  0
LINE
  5
F8
330
1F
100
AcDbEntity
  8
0
  6
Continuous
 62
     7
370
    25
100
AcDbLine
 10
6663.8136508584
 20
5163.2994545927
 30
0.0
 11
6663.8136508584
 21
5163.3057045927
 31
0.0
  0
ARC
  5
F9
330
1F
100
AcDbEntity
  8
0
  6
Continuous
 62
     7
370
    25
100
AcDbCircle
 10
6710.4257936181
 20
5201.0994545927
 30
0.0
 40
9.074242424243312
100
AcDbArc
 50
129.5189414704
 51
149.9635906854
  0
ARC
  5
FA
330
1F
100
AcDbEntity
  8
0
  6
Continuous
 62
     7
370
    25
100
AcDbCircle
 10
6710.3173087696
 20
5201.0994545927
 30
0.0
 40
9.074242424243112
100
AcDbArc
 50
22.9318726551
 51
50.4810585296
  0
LWPOLYLINE
  5
FB
330
1F
100
AcDbEntity
  8
0
  6
Continuous
 62
     7
370
    25
100
AcDbPolyline
 90
       13
 70
   128
 43
0.0
 10
6715.3715511938
 20
5439.0994545927
 10
6715.3968888471
 20
5440.1850491511
 10
6715.5967948385
 20
5442.3207547405
 10
6715.9894393811
 20
5444.3839474616
 10
6716.5608203832
 20
5446.3264860558
 10
6717.2903625177
 20
5448.1057772398
 10
6718.1514838832
 20
5449.6852783454
 10
6719.1129241456
 20
5451.0366775563
 10
6720.1397002893
 20
5452.1405710133
 10
6721.1985468337
 20
5452.9905629191
 10
6722.2660222837
 20
5453.5931561311
 10
6723.3401663616
 20
5453.9617147001
 10
6724.5136868176
 20
5454.0994545927
  0
LWPOLYLINE
  5
FC
330
1F
100
AcDbEntity
  8
0
  6
Continuous
 62
     7
370
    25
100
AcDbPolyline
 90
       16
 70
   128
 43
0.0
 10
6724.5136868176
 20
5464.0994545927
 10
6723.1156650662
 20
5464.0342112064
 10
6720.968708272
 20
5463.6765944961
 10
6718.8813391065
 20
5463.0160804749
 10
6716.8727635488
 20
5462.0620811613
 10
6714.9611406773
 20
5460.8232241121
 10
6713.1659534328
 20
5459.3092111806
 10
6711.5086640859
 20
5457.5334140083
 10
6710.0118876551
 20
5455.5150653706
 10
6708.6974318006
 20
5453.2798696598
 10
6707.5842467027
 20
5450.8587908065
 10
6706.68724762
 20
5448.2859007969
 10
6706.0173579687
 20
5445.5971446658
 10
6705.5815561589
 20
5442.8274810073
 10
6705.3840407833
 20
5440.0111152896
 10
6705.3715511938
 20
5439.0994545927
  0
LINE
  5
FD
330
1F
100
AcDbEntity
  8
0
  6
Continuous
 62
     7
370
    25
100
AcDbLine
 10
6705.3715511938
 20
5439.0994545927
 30
0.0
 11
6705.3715511938
 21
5208.0994545927
 31
0.0
  0
LINE
  5
FE
330
1F
100
AcDbEntity
  8
0
  6
Continuous
 62
     7
370
    25
100
AcDbLine
 10
6715.3715511938
 20
5208.0994545927
 30
0.0
 11
6715.3715511938
 21
5439.0994545927
 31
0.0
  0
LINE
  5
FF
330
1F
100
AcDbEntity
  8
0
  6
Continuous
 62
     7
370
    25
100
AcDbLine
 10
6719.1272592979
 20
5196.0994545927
 30
0.0
 11
6719.1272592979
 21
5202.0437179681
 31
0.0
  0
LINE
  5
100
330
1F
100
AcDbEntity
  8
0
  6
Continuous
 62
     7
370
    25
100
AcDbLine
 10
6763.4045597828
 20
5464.0994545927
 30
0.0
 11
6724.5136868176
 21
5464.0994545927
 31
0.0
  0
LINE
  5
101
330
1F
100
AcDbEntity
  8
0
  6
Continuous
 62
     7
370
    25
100
AcDbLine
 10
6724.5136868176
 20
5454.0994545927
 30
0.0
 11
6763.4045597828
 21
5454.0994545927
 31
0.0
  0
LWPOLYLINE
  5
102
330
1F
100
AcDbEntity
  8
0
  6
Continuous
 62
     7
370
    25
100
AcDbPolyline
 90
       13
 70
   128
 43
0.0
 10
6763.4045597828
 20
5454.0994545927
 10
6763.8719148927
 20
5454.0776124095
 10
6764.9952997311
 20
5453.8462606665
 10
6766.0663430595
 20
5453.3880666402
 10
6767.1114521524
 20
5452.7069888295
 10
6768.2246770419
 20
5451.6981535699
 10
6769.2586220245
 20
5450.4438011114
 10
6770.1918088866
 20
5448.9592056007
 10
6770.9996779887
 20
5447.2662604824
 10
6771.6572146874
 20
5445.3971764198
 10
6772.1437783543
 20
5443.3893224119
 10
6772.443614654
 20
5441.2850380532
 10
6772.5466954066
 20
5439.0994545927
  0
LWPOLYLINE
  5
103
330
1F
100
AcDbEntity
  8
0
  6
Continuous
 62
     7
370
    25
100
AcDbPolyline
 90
       16
 70
   128
 43
0.0
 10
6782.5466954066
 20
5439.0994545927
 10
6782.510454263
 20
5440.6519012906
 10
6782.2582309624
 20
5443.4639507479
 10
6781.7666896592
 20
5446.2268847779
 10
6781.0388644179
 20
5448.9066929259
 10
6780.0793845291
 20
5451.4705417947
 10
6778.8948526063
 20
5453.8853856161
 10
6777.4951189303
 20
5456.1169127744
 10
6775.8948278643
 20
5458.1300039325
 10
6774.1144919476
 20
5459.8906814042
 10
6772.1816202009
 20
5461.3681304852
 10
6770.1298733345
 20
5462.5380690102
 10
6767.9961594484
 20
5463.3854089105
 10
6765.8168806358
 20
5463.9046356732
 10
6763.7608000783
 20
5464.0952239567
 10
6763.4045597828
 20
5464.0994545927
  0
LINE
  5
104
330
1F
100
AcDbEntity
  8
0
  6
Continuous
 62
     7
370
    25
100
AcDbLine
 10
6782.5466954066
 20
5419.0994545927
 30
0.0
 11
6782.5466954066
 21
5439.0994545927
 31
0.0
  0
LINE
  5
105
330
1F
100
AcDbEntity
  8
0
  6
Continuous
 62
     7
370
    25
100
AcDbLine
 10
6772.5466954066
 20
5439.0994545927
 30
0.0
 11
6772.5466954066
 21
5419.0994545927
 31
0.0
  0
LINE
  5
106
330
1F
100
AcDbEntity
  8
0
  6
Continuous
 62
     7
370
    25
100
AcDbLine
 10
6721.5753640866
 20
5163.2994545927
 30
0.0
 11
6721.5753640866
 21
5164.4244545927
 31
0.0
  0
LINE
  5
107
330
1F
100
AcDbEntity
  8
0
  6
Continuous
 62
     7
370
    25
100
AcDbLine
 10
6686.5908475977
 20
5164.2994545927
 30
0.0
 11
6686.5908475977
 21
5163.2994545927
 31
0.0
  0
LWPOLYLINE
  5
108
330
1F
100
AcDbEntity
  8
0
  6
Continuous
 62
     7
370
    25
100
AcDbPolyline
 90
        8
 70
   128
 43
0.0
 10
6696.6333084147
 20
5221.2699167433
 10
6696.3296960951
 20
5221.9113961861
 10
6695.6020343781
 20
5222.7448227827
 10
6694.6857686706
 20
5223.3844230438
 10
6693.5588882503
 20
5223.8606853018
 10
6692.1739410089
 20
5224.1731635014
 10
6690.5805052184
 20
5224.2959015822
 10
6690.3382824838
 20
5224.2978309619
  0
LWPOLYLINE
  5
109
330
1F
100
AcDbEntity
  8
0
  6
Continuous
 62
     7
370
    25
100
AcDbPolyline
 90
       12
 70
   128
 43
0.0
 10
6676.0732773521
 20
5220.0976009724
 10
6675.3925801895
 20
5219.7382541179
 10
6673.5638924757
 20
5218.6301123577
 10
6671.8822018867
 20
5217.4563446877
 10
6670.3765994812
 20
5216.2311165592
 10
6669.0728232323
 20
5214.9631897042
 10
6667.9953963722
 20
5213.6511903038
 10
6667.1768328151
 20
5212.2790938358
 10
6666.7330747742
 20
5211.0600366686
 10
6666.5817025573
 20
5209.9194824114
 10
6666.7024734704
 20
5208.8452275176
 10
6666.9454066535
 20
5208.2481099907
  0
ARC
  5
10A
330
1F
100
AcDbEntity
  8
0
  6
Continuous
 62
     7
370
    25
100
AcDbCircle
 10
6692.6124506579
 20
5190.3465995001
 30
0.0
 40
34.03918833119121
100
AcDbArc
 50
107.6625399135
 51
119.0705529144
  0
ARC
  5
10B
330
1F
100
AcDbEntity
  8
0
  6
Continuous
 62
     7
370
    25
100
AcDbCircle
 10
6690.9701098054
 20
5198.8012107664
 30
0.0
 40
25.50444759559771
100
AcDbArc
 50
91.419546243
 51
109.9102779983
  0
LINE
  5
10C
330
1F
100
AcDbEntity
  8
0
  6
Continuous
 62
     7
370
    25
100
AcDbLine
 10
6666.9294011515
 20
5208.1789570607
 30
0.0
 11
6670.6764962037
 21
5199.6984760992
 31
0.0
  0
LINE
  5
10D
330
1F
100
AcDbEntity
  8
0
  6
Continuous
 62
     7
370
    25
100
AcDbLine
 10
6700.4039329208
 20
5212.8335248708
 30
0.0
 11
6696.6568378686
 21
5221.3140058324
 31
0.0
  0
LINE
  5
10E
330
1F
100
AcDbEntity
  8
0
  6
Continuous
 62
     7
370
    25
100
AcDbLine
 10
6674.6561107331
 20
5191.9289016687
 30
0.0
 11
6675.2181749909
 21
5190.6568295245
 31
0.0
  0
LINE
  5
10F
330
1F
100
AcDbEntity
  8
0
  6
Continuous
 62
     7
370
    25
100
AcDbLine
 10
6704.0309213474
 20
5203.3877229493
 30
0.0
 11
6703.4688570896
 21
5204.6597950935
 31
0.0
  0
LINE
  5
110
330
1F
100
AcDbEntity
  8
0
  6
Continuous
 62
     7
370
    25
100
AcDbLine
 10
6674.9309662794
 20
5190.6882705038
 30
0.0
 11
6686.5908475977
 21
5164.2994545927
 31
0.0
  0
LINE
  5
111
330
1F
100
AcDbEntity
  8
0
  6
Continuous
 62
     7
370
    25
100
AcDbLine
 10
6721.5753640866
 20
5164.2994545927
 30
0.0
 11
6704.2010578161
 21
5203.6212416021
 31
0.0
  0
LINE
  5
112
330
1F
100
AcDbEntity
  8
0
  6
Continuous
 62
     7
370
    25
100
AcDbLine
 10
6701.4108037784
 20
5203.7504455632
 30
0.0
 11
6699.2583208944
 21
5208.6219766729
 31
0.0
  0
LINE
  5
113
330
1F
100
AcDbEntity
  8
0
  6
Continuous
 62
     7
370
    25
100
AcDbLine
 10
6674.5616811603
 20
5197.7097823088
 30
0.0
 11
6676.7141640443
 21
5192.838251199
 31
0.0
  0
LINE
  5
114
330
1F
100
AcDbEntity
  8
0
  6
Continuous
 62
     7
370
    25
100
AcDbLine
 10
6722.7757892818
 20
5163.2994545927
 30
0.0
 11
6722.7757892818
 21
5164.2994545927
 31
0.0
  0
LINE
  5
115
330
1F
100
AcDbEntity
  8
0
  6
Continuous
 62
     7
370
    25
100
AcDbLine
 10
6723.0864543169
 20
5164.2994545927
 30
0.0
 11
6726.8174453586
 21
5193.3850301825
 31
0.0
  0
LINE
  5
116
330
1F
100
AcDbEntity
  8
0
  6
Continuous
 62
     7
370
    25
100
AcDbLine
 10
6644.7095557571
 20
5163.2994545927
 30
0.0
 11
6829.7095557571
 21
5163.2994545927
 31
0.0
  0
LINE
  5
117
330
1F
100
AcDbEntity
  8
0
  6
Continuous
 62
     7
370
    25
100
AcDbLine
 10
6829.7095557571
 20
5162.7994545927
 30
0.0
 11
6829.7095557571
 21
5163.2994545927
 31
0.0
  0
LINE
  5
118
330
1F
100
AcDbEntity
  8
0
  6
Continuous
 62
     7
370
    25
100
AcDbLine
 10
6829.7095557571
 20
5162.7994545927
 30
0.0
 11
6644.7095557571
 21
5162.7994545927
 31
0.0
  0
LINE
  5
119
330
1F
100
AcDbEntity
  8
0
  6
Continuous
 62
     7
370
    25
100
AcDbLine
 10
6644.7095557571
 20
5162.7994545927
 30
0.0
 11
6644.7095557571
 21
5163.2994545927
 31
0.0
  0
LINE
  5
11A
330
1F
100
AcDbEntity
  8
0
  6
Continuous
 62
     7
370
    25
100
AcDbLine
 10
6829.7095557571
 20
4963.2994545927
 30
0.0
 11
6829.7095557571
 21
5162.7994545927
 31
0.0
  0
LINE
  5
11B
330
1F
100
AcDbEntity
  8
0
  6
Continuous
 62
     7
370
    25
100
AcDbLine
 10
6643.7095557571
 20
4963.2994545927
 30
0.0
 11
6643.7095557571
 21
5162.7994545927
 31
0.0
  0
LINE
  5
11C
330
1F
100
AcDbEntity
  8
0
  6
Continuous
 62
     7
370
    25
100
AcDbLine
 10
6643.7095557571
 20
4963.2994545927
 30
0.0
 11
6829.7095557571
 21
4963.2994545927
 31
0.0
  0
LINE
  5
11D
330
1F
100
AcDbEntity
  8
0
  6
Continuous
 62
     7
370
    25
100
AcDbLine
 10
6643.7095557571
 20
5162.7994545927
 30
0.0
 11
6644.7095557571
 21
5162.7994545927
 31
0.0
  0
LINE
  5
11E
330
1F
100
AcDbEntity
  8
0
  6
Continuous
 62
     7
370
    25
100
AcDbLine
 10
6829.7095557571
 20
5163.2994545927
 30
0.0
 11
7004.2095557571
 21
5163.2994545927
 31
0.0
  0
LINE
  5
11F
330
1F
100
AcDbEntity
  8
0
  6
Continuous
 62
     7
370
    25
100
AcDbLine
 10
6829.7095557571
 20
4963.2994545927
 30
0.0
 11
7004.7095557571
 21
4963.2994545927
 31
0.0
  0
ARC
  5
120
330
1F
100
AcDbEntity
  8
0
  6
Continuous
 62
     7
370
    25
100
AcDbCircle
 10
6644.6595557571
 20
5194.2494545927
 30
0.0
 40
1.050000000000182
100
AcDbArc
 50
0.0
 51
180.0
  0
LINE
  5
121
330
1F
100
AcDbEntity
  8
0
  6
Continuous
 62
     7
370
    25
100
AcDbLine
 10
6644.7095557571
 20
5194.2494545927
 30
0.0
 11
6645.7095557571
 21
5194.2494545927
 31
0.0
  0
ARC
  5
122
330
1F
100
AcDbEntity
  8
0
  6
Continuous
 62
     7
370
    25
100
AcDbCircle
 10
6644.6595557571
 20
5194.2494545927
 30
0.0
 40
0.0500000000001819
100
AcDbArc
 50
0.0
 51
180.0
  0
LINE
  5
123
330
1F
100
AcDbEntity
  8
0
  6
Continuous
 62
     7
370
    25
100
AcDbLine
 10
6644.6095557571
 20
5194.2494545927
 30
0.0
 11
6643.6095557571
 21
5194.2494545927
 31
0.0
  0
LINE
  5
124
330
1F
100
AcDbEntity
  8
0
  6
Continuous
 62
     7
370
    25
100
AcDbLine
 10
6644.7095557571
 20
5164.2994545927
 30
0.0
 11
6644.7095557571
 21
5194.2494545927
 31
0.0
  0
ARC
  5
125
330
1F
100
AcDbEntity
  8
0
  6
Continuous
 62
     7
370
    25
100
AcDbCircle
 10
6646.7095557571
 20
5164.2994545927
 30
0.0
 40
1.0
100
AcDbArc
 50
180.0
 51
270.0
  0
ARC
  5
126
330
1F
100
AcDbEntity
  8
0
  6
Continuous
 62
     7
370
    25
100
AcDbCircle
 10
6646.7095557571
 20
5164.2994545927
 30
0.0
 40
2.0
100
AcDbArc
 50
180.0
 51
210.0
  0
LINE
  5
127
330
1F
100
AcDbEntity
  8
0
  6
Continuous
 62
     7
370
    25
100
AcDbLine
 10
6645.7095557571
 20
5164.2994545927
 30
0.0
 11
6645.7095557571
 21
5194.2494545927
 31
0.0
  0
LINE
  5
128
330
1F
100
AcDbEntity
  8
0
  6
Continuous
 62
     7
370
    25
100
AcDbLine
 10
6644.6095557571
 20
5189.2994545927
 30
0.0
 11
6643.6095557571
 21
5189.2994545927
 31
0.0
  0
LINE
  5
129
330
1F
100
AcDbEntity
  8
0
  6
Continuous
 62
     7
370
    25
100
AcDbLine
 10
6643.6095557571
 20
5194.2494545927
 30
0.0
 11
6643.6095557571
 21
5189.2994545927
 31
0.0
  0
LINE
  5
12A
330
1F
100
AcDbEntity
  8
0
  6
Continuous
 62
     7
370
    25
100
AcDbLine
 10
6644.6095557571
 20
5194.2494545927
 30
0.0
 11
6644.6095557571
 21
5189.2994545927
 31
0.0
  0
LINE
  5
12B
330
1F
100
AcDbEntity
  8
0
  6
Continuous
 62
     7
370
    25
100
AcDbLine
 10
6714.4162019822
 20
5208.0994545927
 30
0.0
 11
6704.6515511938
 21
5208.0994545927
 31
0.0
  0
LINE
  5
12C
330
1F
100
AcDbEntity
  8
0
  6
Continuous
 62
     7
370
    25
100
AcDbLine
 10
6716.0915511938
 20
5208.0994545927
 30
0.0
 11
6714.4162019822
 21
5208.0994545927
 31
0.0
  0
LWPOLYLINE
  5
12D
330
1F
100
AcDbEntity
  8
0
  6
Continuous
 62
     7
370
    25
100
AcDbPolyline
 90
       11
 70
   128
 43
0.0
 10
6708.7886756886
 20
5202.8524803847
 10
6708.1535615684
 20
5201.5368857087
 10
6708.1179281213
 20
5201.491094681
 10
6708.0736471366
 20
5201.4535328166
 10
6708.0507959338
 20
5201.4449410134
 10
6708.026380908
 20
5201.4449888974
 10
6708.0018387782
 20
5201.4547588598
 10
6707.9663241688
 20
5201.484759358
 10
6707.8699292198
 20
5201.6332429826
 10
6707.5934228241
 20
5202.274661923
 10
6707.3891917641
 20
5202.8524803847
  0
LWPOLYLINE
  5
12E
330
1F
100
AcDbEntity
  8
0
  6
Continuous
 62
     7
370
    25
100
AcDbPolyline
 90
        7
 70
   128
 43
0.0
 10
6707.3891917641
 20
5202.8524803847
 10
6706.9954887295
 20
5203.7450443056
 10
6706.2472270509
 20
5204.6691145592
 10
6705.3270849086
 20
5205.1879684836
 10
6704.7146969444
 20
5205.2792936501
 10
6703.7413060306
 20
5205.0444919807
 10
6703.2870824822
 20
5204.6882193584
  0
LWPOLYLINE
  5
12F
330
1F
100
AcDbEntity
  8
0
  6
Continuous
 62
     7
370
    25
100
AcDbPolyline
 90
        3
 70
   128
 43
0.0
 10
6719.1193954221
 20
5202.0437179681
 10
6719.1228207508
 20
5202.2748832029
 10
6719.0778908505
 20
5202.8524803848
  0
LWPOLYLINE
  5
130
330
1F
100
AcDbEntity
  8
0
  6
Continuous
 62
     7
370
    25
100
AcDbPolyline
 90
        8
 70
   128
 43
0.0
 10
6719.0778908505
 20
5202.8524803848
 10
6718.873470506
 20
5204.0076059096
 10
6718.5815880353
 20
5204.8371723711
 10
6718.2350829102
 20
5205.2458458826
 10
6717.8741714934
 20
5205.187443051
 10
6717.5389672911
 20
5204.6713655577
 10
6717.2662597475
 20
5203.7551075774
 10
6717.1200247578
 20
5202.8524803847
  0
LWPOLYLINE
  5
131
330
1F
100
AcDbEntity
  8
0
  6
Continuous
 62
     7
370
    25
100
AcDbPolyline
 90
       11
 70
   128
 43
0.0
 10
6717.1200247578
 20
5202.8524803847
 10
6716.8248338454
 20
5201.5368857189
 10
6716.80098468
 20
5201.4910946873
 10
6716.7702187562
 20
5201.4535328188
 10
6716.7538445743
 20
5201.4449410141
 10
6716.7359695852
 20
5201.4449888969
 10
6716.7176001562
 20
5201.4547588577
 10
6716.6902928347
 20
5201.4847593517
 10
6716.6116878665
 20
5201.6332429472
 10
6716.3447004544
 20
5202.274661771
 10
6716.0955314207
 20
5202.8524803847
  0
ARC
  5
132
330
1F
100
AcDbEntity
  8
0
  6
Continuous
 62
     7
370
    25
100
AcDbCircle
 10
6712.4421035547
 20
5201.2906086786
 30
0.0
 40
3.973283075603403
100
AcDbArc
 50
23.1471227751
 51
156.8528772251
  0
LINE
  5
133
330
1F
100
AcDbEntity
  8
0
  6
Continuous
 62
     7
370
    25
100
AcDbLine
 10
6708.7886756886
 20
5202.8524803847
 30
0.0
 11
6708.7886756886
 21
5196.0994545927
 31
0.0
  0
LINE
  5
134
330
1F
100
AcDbEntity
  8
0
  6
Continuous
 62
     7
370
    25
100
AcDbLine
 10
6716.0955314207
 20
5202.8524803847
 30
0.0
 11
6716.0955314207
 21
5196.0994545927
 31
0.0
  0
LINE
  5
135
330
1F
100
AcDbEntity
  8
0
  6
Continuous
 62
     7
370
    25
100
AcDbLine
 10
6717.1200247578
 20
5202.8524803847
 30
0.0
 11
6717.1200247578
 21
5196.0994545927
 31
0.0
  0
LINE
  5
136
330
1F
100
AcDbEntity
  8
0
  6
Continuous
 62
     7
370
    25
100
AcDbLine
 10
6716.8748667108
 20
5196.0994545927
 30
0.0
 11
6716.5961577382
 21
5196.0994545927
 31
0.0
  0
LINE
  5
137
330
1F
100
AcDbEntity
  8
0
  6
Continuous
 62
     7
370
    25
100
AcDbLine
 10
6719.0778908505
 20
5202.8524803848
 30
0.0
 11
6719.0778908505
 21
5196.0994545927
 31
0.0
  0
LINE
  5
138
330
1F
100
AcDbEntity
  8
0
  6
Continuous
 62
     7
370
    25
100
AcDbLine
 10
6772.5466954066
 20
5419.0994545927
 30
0.0
 11
6782.5466954066
 21
5419.0994545927
 31
0.0
  0
LINE
  5
139
330
1F
100
AcDbEntity
  8
0
  6
Continuous
 62
     7
370
    25
100
AcDbLine
 10
6690.7422251182
 20
5164.2994545927
 30
0.0
 11
6686.5908655696
 21
5164.2994545927
 31
0.0
  0
LINE
  5
13A
330
1F
100
AcDbEntity
  8
0
  6
Continuous
 62
     7
370
    25
100
AcDbLine
 10
6721.575359984
 20
5164.2994545927
 30
0.0
 11
6690.7422251182
 21
5164.2994545927
 31
0.0
  0
LWPOLYLINE
  5
13B
330
1F
100
AcDbEntity
  8
0
  6
Continuous
 62
     7
370
    25
100
AcDbPolyline
 90
       41
 70
   128
 43
0.0
 10
6689.8734921904
 20
5224.1867301033
 10
6688.1396747891
 20
5224.09086678
 10
6686.2315904349
 20
5223.8056372833
 10
6684.1962224971
 20
5223.33806491
 10
6682.0836884893
 20
5222.6996628438
 10
6679.9460060099
 20
5221.9061506623
 10
6677.8358118961
 20
5220.9770672688
 10
6675.8050661304
 20
5219.93528978
 10
6673.9037724131
 20
5218.8064702151
 10
6672.1787469056
 20
5217.6184038581
 10
6670.6724654609
 20
5216.4003448457
 10
6669.4220177273
 20
5215.1822858334
 10
6668.4581938779
 20
5213.9942194764
 10
6667.8047264547
 20
5212.8653999115
 10
6667.4777059943
 20
5211.8236224227
 10
6667.4851848259
 20
5210.8945390292
 10
6667.8269787957
 20
5210.1010268477
 10
6668.4946718019
 20
5209.4626247815
 10
6669.4718230267
 20
5208.9950524082
 10
6670.734371764
 20
5208.7098229115
 10
6672.2512298737
 20
5208.6139595882
 10
6673.985047275
 20
5208.7098229115
 10
6675.8931316292
 20
5208.9950524082
 10
6677.9284995671
 20
5209.4626247815
 10
6680.0410335749
 20
5210.1010268477
 10
6682.1787160542
 20
5210.8945390292
 10
6684.288910168
 20
5211.8236224227
 10
6686.3196559337
 20
5212.8653999115
 10
6688.220949651
 20
5213.9942194764
 10
6689.9459751585
 20
5215.1822858334
 10
6691.4522566032
 20
5216.4003448457
 10
6692.7027043368
 20
5217.6184038581
 10
6693.6665281862
 20
5218.8064702151
 10
6694.3199956094
 20
5219.93528978
 10
6694.6470160698
 20
5220.9770672688
 10
6694.6395372382
 20
5221.9061506623
 10
6694.2977432684
 20
5222.6996628438
 10
6693.6300502622
 20
5223.33806491
 10
6692.6528990374
 20
5223.8056372833
 10
6691.3903503001
 20
5224.09086678
 10
6689.8734921904
 20
5224.1867301033
  0
LWPOLYLINE
  5
13C
330
1F
100
AcDbEntity
  8
0
  6
Continuous
 62
     7
370
    25
100
AcDbPolyline
 90
       23
 70
   128
 43
0.0
 10
6670.6764962037
 20
5199.6984760992
 10
6671.0161231822
 20
5199.1511030303
 10
6671.7752030804
 20
5198.5075881419
 10
6672.8417705891
 20
5198.0373833648
 10
6674.1920003527
 20
5197.7509922969
 10
6675.7957304693
 20
5197.6548124412
 10
6677.6171362583
 20
5197.7509922969
 10
6679.6155305242
 20
5198.0373833648
 10
6681.7462724411
 20
5198.5075881419
 10
6683.9617647558
 20
5199.1511030303
 10
6686.2125170308
 20
5199.9535529708
 10
6688.4482511797
 20
5200.8970125578
 10
6690.6190245959
 20
5201.9604064631
 10
6692.6763457884
 20
5203.1199802241
 10
6694.5742576014
 20
5204.349830879
 10
6696.2703638212
 20
5205.6224855966
 10
6697.7267762377
 20
5206.9095153734
 10
6698.910961004
 20
5208.182170091
 10
6699.7964653892
 20
5209.4120207459
 10
6700.3635086888
 20
5210.5715945069
 10
6700.5994240923
 20
5211.6349884122
 10
6700.4989416395
 20
5212.5784479992
 10
6700.4039329208
 20
5212.8335248708
  0
LWPOLYLINE
  5
13D
330
1F
100
AcDbEntity
  8
0
  6
Continuous
 62
     7
370
    25
100
AcDbPolyline
 90
       30
 70
   128
 43
0.0
 10
6675.4856016067
 20
5195.6187518846
 10
6675.244886956
 20
5195.2451287436
 10
6674.6952911426
 20
5194.1212341753
 10
6674.4666346745
 20
5193.0905600825
 10
6674.5640253595
 20
5192.1761300212
 10
6674.9852876506
 20
5191.3983708481
 10
6675.7210112443
 20
5190.7746564178
 10
6676.7547612912
 20
5190.31891948
 10
6678.0634455236
 20
5190.0413404449
 10
6679.6178300982
 20
5189.9481199694
 10
6681.3831926321
 20
5190.0413404449
 10
6683.3200978436
 20
5190.31891948
 10
6685.3852784709
 20
5190.7746564178
 10
6687.5326017912
 20
5191.3983708481
 10
6689.7141001501
 20
5192.1761300212
 10
6691.881042479
 20
5193.0905600825
 10
6693.985022867
 20
5194.1212341753
 10
6695.979041869
 20
5195.2451287436
 10
6697.8185563954
 20
5196.4371378399
 10
6699.4624747316
 20
5197.6706339508
 10
6700.8740744583
 20
5198.9180628114
 10
6702.0218227702
 20
5200.1515589223
 10
6702.8800808667
 20
5201.3435680186
 10
6703.4296766801
 20
5202.467462587
 10
6703.6583331481
 20
5203.4981366798
 10
6703.5609424631
 20
5204.412566741
 10
6703.139680172
 20
5205.1903259141
 10
6702.4039565784
 20
5205.8140403444
 10
6701.3702065314
 20
5206.2697772822
 10
6700.1822413409
 20
5206.5309462488
  0
ARC
  5
13E
330
1F
100
AcDbEntity
  8
0
  6
Continuous
 62
     7
370
    25
100
AcDbCircle
 10
6678.6422991229
 20
5193.7196267237
 30
0.0
 40
2.120030117018033
100
AcDbArc
 50
204.5657542173
 51
234.7506038487
  0
LINE
  5
13F
330
1F
100
AcDbEntity
  8
0
  6
Continuous
 62
     7
370
    25
100
AcDbLine
 10
6686.4342943204
 20
5191.9883091367
 30
0.0
 11
6677.4187521847
 21
5191.9883091367
 31
0.0
  0
ARC
  5
140
330
1F
100
AcDbEntity
  8
0
  6
Continuous
 62
     7
370
    25
100
AcDbCircle
 10
6676.9926248156
 20
5225.6372498033
 30
0.0
 40
34.94848109739948
100
AcDbArc
 50
285.6737673163
 51
298.4732319538
  0
LINE
  5
141
330
1F
100
AcDbEntity
  8
0
  6
Continuous
 62
     7
370
    25
100
AcDbLine
 10
6693.6542479355
 20
5194.9161390482
 30
0.0
 11
6701.2998612794
 21
5201.6725577141
 31
0.0
  0
ARC
  5
142
330
1F
100
AcDbEntity
  8
0
  6
Continuous
 62
     7
370
    25
100
AcDbCircle
 10
6699.0037975522
 20
5202.8370546933
 30
0.0
 40
2.574482832384572
100
AcDbArc
 50
333.1071972542
 51
20.7803389982
  0
LWPOLYLINE
  5
143
330
1F
100
AcDbEntity
  8
0
  6
Continuous
 62
     7
370
    25
100
AcDbPolyline
 90
        6
 70
   128
 43
0.0
 10
6675.2181749909
 20
5190.6568295245
 10
6675.5473519085
 20
5190.1262987039
 10
6676.2830755021
 20
5189.5025842736
 10
6677.3168255491
 20
5189.0468473358
 10
6678.6255097814
 20
5188.7692683007
 10
6680.179894356
 20
5188.6760478252
  0
LWPOLYLINE
  5
144
330
1F
100
AcDbEntity
  8
0
  6
Continuous
 62
     7
370
    25
100
AcDbPolyline
 90
        7
 70
   128
 43
0.0
 10
6702.1546106619
 20
5198.3855620753
 10
6702.583887028
 20
5198.8794867781
 10
6703.4421451245
 20
5200.0714958744
 10
6703.9917409379
 20
5201.1953904427
 10
6704.220397406
 20
5202.2260645355
 10
6704.123006721
 20
5203.1404945968
 10
6704.0309213474
 20
5203.3877229493
  0
LWPOLYLINE
  5
145
330
1F
100
AcDbEntity
  8
0
  6
Continuous
 62
     7
370
    25
100
AcDbPolyline
 90
       25
 70
   128
 43
0.0
 10
6674.732975943
 20
5191.7549391882
 10
6674.8374192332
 20
5190.9394231159
 10
6675.2653682273
 20
5190.1493185591
 10
6676.0127699733
 20
5189.5157038997
 10
6677.0629287511
 20
5189.0527330423
 10
6678.3923857491
 20
5188.7707479908
 10
6679.9714430947
 20
5188.6760478252
 10
6681.7648272562
 20
5188.7707479908
 10
6683.7324769948
 20
5189.0527330423
 10
6685.8304382669
 20
5189.5157038997
 10
6688.0118460845
 20
5190.1493185591
 10
6690.2279714014
 20
5190.9394231159
 10
6692.4293096403
 20
5191.86836794
 10
6694.5666865424
 20
5192.9154019391
 10
6696.5923566396
 20
5194.0571361037
 10
6698.4610698094
 20
5195.2680659794
 10
6700.1310820874
 20
5196.5211413936
 10
6701.5650881589
 20
5197.7883707123
 10
6702.731054698
 20
5199.0414461265
 10
6703.6029359389
 20
5200.2523760022
 10
6704.1612554954
 20
5201.3941101668
 10
6704.3935414312
 20
5202.4411441659
 10
6704.2946048623
 20
5203.37008899
 10
6703.8666558682
 20
5204.1601935468
 10
6703.5457222996
 20
5204.4858326131
  0
LINE
  5
146
330
1F
100
AcDbEntity
  8
0
  6
Continuous
 62
     7
370
    25
100
AcDbLine
 10
6686.5908475977
 20
5164.2994545927
 30
0.0
 11
6721.5753640866
 21
5164.2994545927
 31
0.0
  0
LINE
  5
147
330
1F
100
AcDbEntity
  8
0
  6
Continuous
 62
     7
370
    25
100
AcDbLine
 10
6683.353953899
 20
5198.9597811529
 30
0.0
 11
6686.4342943204
 21
5191.9883091367
 31
0.0
  0
LINE
  5
148
330
1F
100
AcDbEntity
  8
0
  6
Continuous
 62
     7
370
    25
100
AcDbLine
 10
6693.6542479355
 20
5194.9161390482
 30
0.0
 11
6690.5562871682
 21
5201.927489692
 31
0.0
  0
LINE
  5
149
330
1F
100
AcDbEntity
  8
0
  6
Continuous
 62
     7
370
    25
100
AcDbLine
 10
6698.5892490741
 20
5207.8072553616
 30
0.0
 11
6701.2998612794
 21
5201.6725577141
 31
0.0
  0
LINE
  5
14A
330
1F
100
AcDbEntity
  8
0
  6
Continuous
 62
     7
370
    25
100
AcDbLine
 10
6677.4187521847
 20
5191.9883091367
 30
0.0
 11
6674.9026717589
 21
5197.6827395826
 31
0.0
  0
LINE
  5
14B
330
1F
100
AcDbEntity
  8
0
  6
Continuous
 62
     7
370
    25
100
AcDbLine
 10
6721.477270831
 20
5196.0994545927
 30
0.0
 11
6721.477270831
 21
5164.5214607001
 31
0.0
  0
LINE
  5
14C
330
1F
100
AcDbEntity
  8
0
  6
Continuous
 62
     7
370
    25
100
AcDbLine
 10
6721.477270831
 20
5196.0994545927
 30
0.0
 11
6716.8748667108
 21
5196.0994545927
 31
0.0
  0
LINE
  5
14D
330
1F
100
AcDbEntity
  8
0
  6
Continuous
 62
     7
370
    25
100
AcDbLine
 10
6716.5961577382
 20
5196.0994545927
 30
0.0
 11
6707.5245545629
 21
5196.0994545927
 31
0.0
  0
ELLIPSE
  5
14E
330
1F
100
AcDbEntity
  8
0
  6
Continuous
 62
     7
370
    25
100
AcDbEllipse
 10
6711.4865152585
 20
5199.622901979
 30
0.0
 11
15.17613358622293
 21
-6.794135522937722
 31
0.0
210
0.0
220
0.0
230
1.0
 40
0.3380383383
 41
5.57136508452415
 42
7.483113161316249
  0
LINE
  5
14F
330
1F
100
AcDbEntity
  8
0
  6
Continuous
 62
     7
370
    25
100
AcDbLine
 10
6723.0864543169
 20
5164.2994545927
 30
0.0
 11
6721.5753640866
 21
5164.2994545927
 31
0.0
  0
LWPOLYLINE
  5
150
330
1F
100
AcDbEntity
  8
0
  6
Continuous
 62
     7
370
    25
100
AcDbPolyline
 90
        7
 70
   128
 43
0.0
 10
6719.1272592979
 20
5197.6591938445
 10
6719.1668108102
 20
5197.6639070329
 10
6719.7271278362
 20
5197.8396309496
 10
6719.9798918469
 20
5198.1754649417
 10
6719.9026436508
 20
5198.6415686854
 10
6719.5022470889
 20
5199.1965268175
 10
6719.1272592979
 20
5199.5462578032
  0
LWPOLYLINE
  5
151
330
1F
100
AcDbEntity
  8
0
  6
Continuous
 62
     7
370
    25
100
AcDbPolyline
 90
        7
 70
   128
 43
0.0
 10
6719.1272592979
 20
5197.6591938435
 10
6719.4829015441
 20
5197.7304230729
 10
6719.8940340732
 20
5197.9890911359
 10
6719.9827832354
 20
5198.394589081
 10
6719.7412632781
 20
5198.9108866363
 10
6719.1909343095
 20
5199.4921084981
 10
6719.1272592979
 20
5199.5462578032
  0
LINE
  5
152
330
1F
100
AcDbEntity
  8
0
  6
Continuous
 62
     8
370
    25
100
AcDbLine
 10
7004.7095557571
 20
5162.7994545927
 30
0.0
 11
6829.7095557571
 21
5162.7994545927
 31
0.0
  0
LINE
  5
153
330
1F
100
AcDbEntity
  8
0
  6
Continuous
 62
     8
370
    25
100
AcDbLine
 10
6707.3891917641
 20
5202.8524803847
 30
0.0
 11
6707.3891917641
 21
5196.4058096816
 31
0.0
  0
LINE
  5
154
330
1F
100
AcDbEntity
  8
0
  6
Continuous
 62
     8
370
    25
100
AcDbLine
 10
6715.3715510541
 20
5439.0994545927
 30
0.0
 11
6705.3715517738
 21
5439.0994545927
 31
0.0
  0
LWPOLYLINE
  5
155
330
1F
100
AcDbEntity
  8
0
  6
Continuous
 62
     8
370
    25
100
AcDbPolyline
 90
       14
 70
   128
 43
0.0
 10
6724.5471920343
 20
5454.0996791177
 10
6724.7549601839
 20
5454.1111107468
 10
6725.6976650408
 20
5454.3881499821
 10
6726.5525596493
 20
5455.0146051277
 10
6727.2562403871
 20
5455.9440148711
 10
6727.756518473
 20
5457.1074491435
 10
6728.0162905699
 20
5458.4186213472
 10
6728.0162905699
 20
5459.7802878382
 10
6727.756518473
 20
5461.091460042
 10
6727.2562403871
 20
5462.2548943143
 10
6726.5525596493
 20
5463.1843040578
 10
6725.6976650408
 20
5463.8107592033
 10
6724.7549601839
 20
5464.0877984387
 10
6724.511276371
 20
5464.0994534307
  0
LWPOLYLINE
  5
156
330
1F
100
AcDbEntity
  8
0
  6
Continuous
 62
     8
370
    25
100
AcDbPolyline
 90
       14
 70
   128
 43
0.0
 10
6763.4045597828
 20
5454.0994545927
 10
6763.6458331491
 20
5454.1111107468
 10
6764.5885380061
 20
5454.3881499821
 10
6765.4434326146
 20
5455.0146051277
 10
6766.1471133523
 20
5455.9440148711
 10
6766.6473914382
 20
5457.1074491435
 10
6766.9071635352
 20
5458.4186213472
 10
6766.9071635352
 20
5459.7802878382
 10
6766.6473914382
 20
5461.091460042
 10
6766.1471133523
 20
5462.2548943143
 10
6765.4434326146
 20
5463.1843040578
 10
6764.5885380061
 20
5463.8107592033
 10
6763.6458331491
 20
5464.0877984387
 10
6763.4045597828
 20
5464.0994545927
  0
LINE
  5
157
330
1F
100
AcDbEntity
  8
0
  6
Continuous
 62
     8
370
    25
100
AcDbLine
 10
6772.5467052316
 20
5439.0994545927
 30
0.0
 11
6782.5466947553
 21
5439.0994545927
 31
0.0
  0
LWPOLYLINE
  5
158
330
1F
100
AcDbEntity
  8
0
  6
Continuous
 62
     8
370
    25
100
AcDbPolyline
 90
       23
 70
   128
 43
0.0
 10
6666.9162212775
 20
5208.2093820344
 10
6667.26902813
 20
5207.6315839919
 10
6668.0281080282
 20
5206.9880691034
 10
6669.0946755369
 20
5206.5178643264
 10
6670.4449053005
 20
5206.2314732584
 10
6672.0486354171
 20
5206.1352934028
 10
6673.8700412061
 20
5206.2314732584
 10
6675.8684354719
 20
5206.5178643264
 10
6677.9991773889
 20
5206.9880691034
 10
6680.2146697036
 20
5207.6315839919
 10
6682.4654219786
 20
5208.4340339324
 10
6684.7011561275
 20
5209.3774935194
 10
6686.8719295437
 20
5210.4408874247
 10
6688.9292507362
 20
5211.6004611856
 10
6690.8271625492
 20
5212.8303118406
 10
6692.523268769
 20
5214.1029665582
 10
6693.9796811855
 20
5215.389996335
 10
6695.1638659518
 20
5216.6626510525
 10
6696.049370337
 20
5217.8925017075
 10
6696.6164136366
 20
5219.0520754685
 10
6696.8523290401
 20
5220.1154693737
 10
6696.7518465873
 20
5221.0589289607
 10
6696.6645178298
 20
5221.2964248558
  0
LINE
  5
159
330
1F
100
AcDbEntity
  8
0
  6
Continuous
 62
     7
370
    25
100
AcDbLine
 10
6151.1452168669
 20
4701.6998363439
 30
0.0
 11
6165.2873524906
 21
4687.5577007202
 31
0.0
  0
LINE
  5
15A
330
1F
100
AcDbEntity
  8
0
  6
Continuous
 62
     7
370
    25
100
AcDbLine
 10
6172.3584203025
 20
4694.628768532
 30
0.0
 11
6158.2162846788
 21
4708.7709041558
 31
0.0
  0
LINE
  5
15B
330
1F
100
AcDbEntity
  8
0
  6
Continuous
 62
     7
370
    25
100
AcDbLine
 10
6211.2492932678
 20
4655.7378955668
 30
0.0
 11
6172.3584203025
 21
4694.628768532
 31
0.0
  0
LINE
  5
15C
330
1F
100
AcDbEntity
  8
0
  6
Continuous
 62
     7
370
    25
100
AcDbLine
 10
6165.2873524906
 20
4687.5577007202
 30
0.0
 11
6204.1782254559
 21
4648.6668277549
 31
0.0
  0
LINE
  5
15D
330
1F
100
AcDbEntity
  8
0
  6
Continuous
 62
     7
370
    25
100
AcDbLine
 10
6204.1782254559
 20
4648.6668277549
 30
0.0
 11
6218.3203610796
 21
4634.5246921312
 31
0.0
  0
LINE
  5
15E
330
1F
100
AcDbEntity
  8
0
  6
Continuous
 62
     7
370
    25
100
AcDbLine
 10
6225.3914288915
 20
4641.595759943
 30
0.0
 11
6211.2492932678
 21
4655.7378955668
 31
0.0
  0
LWPOLYLINE
  5
15F
330
1F
100
AcDbEntity
  8
0
  6
Continuous
 62
     7
370
    25
100
AcDbPolyline
 90
       24
 70
   128
 43
0.0
 10
6138.0417914116
 20
4744.7837032749
 10
6137.0468565794
 20
4745.8178109162
 10
6135.4716939838
 20
4747.0007399233
 10
6133.7190892728
 20
4747.9256800213
 10
6131.8216940829
 20
4748.5769332927
 10
6129.8139632783
 20
4748.9429121352
 10
6127.7327192112
 20
4749.0162554529
 10
6125.6171438276
 20
4748.7945299565
 10
6123.5081171225
 20
4748.2809443127
 10
6121.4470793406
 20
4747.4846983745
 10
6119.4747767794
 20
4746.4208596739
 10
6117.6301752475
 20
4745.1098909827
 10
6115.9496405253
 20
4743.5770243095
 10
6114.4663463442
 20
4741.8516278533
 10
6113.2098615795
 20
4739.9667067895
 10
6112.2056756283
 20
4737.9583744465
 10
6111.4747593025
 20
4735.8654297684
 10
6111.0330335181
 20
4733.7289743574
 10
6110.8906792042
 20
4731.5918776824
 10
6111.0513742226
 20
4729.4979638631
 10
6111.5116537838
 20
4727.4907731388
 10
6112.2607261265
 20
4725.611916645
 10
6113.2810379586
 20
4723.8993405545
 10
6114.5242725434
 20
4722.4162106977
  0
LINE
  5
160
330
1F
100
AcDbEntity
  8
0
  6
Continuous
 62
     7
370
    25
100
AcDbLine
 10
6114.6118338948
 20
4722.3233167393
 30
0.0
 11
6118.358928947
 21
4718.5762216871
 31
0.0
  0
LINE
  5
161
330
1F
100
AcDbEntity
  8
0
  6
Continuous
 62
     7
370
    25
100
AcDbLine
 10
6141.3398993355
 20
4741.5571920757
 30
0.0
 11
6137.5928042833
 21
4745.3042871279
 31
0.0
  0
LINE
  5
162
330
1F
100
AcDbEntity
  8
0
  6
Continuous
 62
     7
370
    25
100
AcDbLine
 10
6122.2347516866
 20
4715.4075057287
 30
0.0
 11
6122.7968159445
 21
4714.8454414708
 31
0.0
  0
LINE
  5
163
330
1F
100
AcDbEntity
  8
0
  6
Continuous
 62
     7
370
    25
100
AcDbLine
 10
6145.0706795518
 20
4737.1193050782
 30
0.0
 11
6144.508615294
 21
4737.681369336
 31
0.0
  0
LINE
  5
164
330
1F
100
AcDbEntity
  8
0
  6
Continuous
 62
     7
370
    25
100
AcDbLine
 10
6122.5615031277
 20
4714.7272008969
 30
0.0
 11
6137.0785969221
 21
4700.2101071026
 31
0.0
  0
LINE
  5
165
330
1F
100
AcDbEntity
  8
0
  6
Continuous
 62
     7
370
    25
100
AcDbLine
 10
6159.7060139201
 20
4722.8375241005
 30
0.0
 11
6145.1889201257
 21
4737.3546178949
 31
0.0
  0
LINE
  5
166
330
1F
100
AcDbEntity
  8
0
  6
Continuous
 62
     7
370
    25
100
AcDbLine
 10
6379.2055220314
 20
4719.6294399469
 30
0.0
 11
6374.9320584357
 21
4715.0982775722
 31
0.0
  0
LINE
  5
167
330
1F
100
AcDbEntity
  8
0
  6
Continuous
 62
     7
370
    25
100
AcDbLine
 10
6398.2117783489
 20
4693.1425347981
 30
0.0
 11
6402.4852419446
 21
4697.6736971729
 31
0.0
  0
LINE
  5
168
330
1F
100
AcDbEntity
  8
0
  6
Continuous
 62
     7
370
    25
100
AcDbLine
 10
6101.0187553361
 20
4769.8973656866
 30
0.0
 11
6101.0187553361
 21
4771.9973656866
 31
0.0
  0
LINE
  5
169
330
1F
100
AcDbEntity
  8
0
  6
Continuous
 62
     7
370
    25
100
AcDbLine
 10
6449.0187553361
 20
4771.9973656866
 30
0.0
 11
6101.0187553361
 21
4771.9973656866
 31
0.0
  0
LINE
  5
16A
330
1F
100
AcDbEntity
  8
0
  6
Continuous
 62
     7
370
    25
100
AcDbLine
 10
6449.0187553361
 20
4771.9973656866
 30
0.0
 11
6449.0187553361
 21
4769.8973656866
 31
0.0
  0
LINE
  5
16B
330
1F
100
AcDbEntity
  8
0
  6
Continuous
 62
     7
370
    25
100
AcDbLine
 10
6449.0187553361
 20
4769.8973656866
 30
0.0
 11
6101.0187553361
 21
4769.8973656866
 31
0.0
  0
LINE
  5
16C
330
1F
100
AcDbEntity
  8
0
  6
Continuous
 62
     7
370
    25
100
AcDbLine
 10
6447.0187553361
 20
4768.8973656866
 30
0.0
 11
6447.0187553361
 21
4769.8973656866
 31
0.0
  0
LINE
  5
16D
330
1F
100
AcDbEntity
  8
0
  6
Continuous
 62
     7
370
    25
100
AcDbLine
 10
6101.0187553361
 20
4768.8973656866
 30
0.0
 11
6447.0187553361
 21
4768.8973656866
 31
0.0
  0
LINE
  5
16E
330
1F
100
AcDbEntity
  8
0
  6
Continuous
 62
     7
370
    25
100
AcDbLine
 10
6101.0187553361
 20
4769.8973656866
 30
0.0
 11
6101.0187553361
 21
4768.8973656866
 31
0.0
  0
ARC
  5
16F
330
1F
100
AcDbEntity
  8
0
  6
Continuous
 62
     7
370
    25
100
AcDbCircle
 10
6265.8098562883
 20
4757.2951807242
 30
0.0
 40
1.39325801056106
100
AcDbArc
 50
357.0076979382
 51
91.0595859789
  0
LINE
  5
170
330
1F
100
AcDbEntity
  8
0
  6
Continuous
 62
     7
370
    25
100
AcDbLine
 10
6265.7840918687
 20
4758.6882004939
 30
0.0
 11
6265.7099878648
 21
4758.6818959691
 31
0.0
  0
LINE
  5
171
330
1F
100
AcDbEntity
  8
0
  6
Continuous
 62
     7
370
    25
100
AcDbLine
 10
6265.7099878648
 20
4758.6818959691
 30
0.0
 11
6265.6623938706
 21
4758.6818959691
 31
0.0
  0
ARC
  5
172
330
1F
100
AcDbEntity
  8
0
  6
Continuous
 62
     7
370
    25
100
AcDbCircle
 10
6265.7651778224
 20
4757.1701405754
 30
0.0
 40
1.515245495388413
100
AcDbArc
 50
93.8895428609
 51
181.6254812534
  0
LINE
  5
173
330
1F
100
AcDbEntity
  8
0
  6
Continuous
 62
     7
370
    25
100
AcDbLine
 10
6264.250542064
 20
4757.1271588272
 30
0.0
 11
6264.2357626043
 21
4756.0529608292
 31
0.0
  0
LINE
  5
174
330
1F
100
AcDbEntity
  8
0
  6
Continuous
 62
     7
370
    25
100
AcDbLine
 10
6264.2357626043
 20
4756.0529608292
 30
0.0
 11
6263.5393710028
 21
4756.0519273005
 31
0.0
  0
LINE
  5
175
330
1F
100
AcDbEntity
  8
0
  6
Continuous
 62
     7
370
    25
100
AcDbLine
 10
6263.5393710028
 20
4756.0519273005
 30
0.0
 11
6263.8229712632
 21
4755.196785699
 31
0.0
  0
LINE
  5
176
330
1F
100
AcDbEntity
  8
0
  6
Continuous
 62
     7
370
    25
100
AcDbLine
 10
6263.8229712632
 20
4755.196785699
 30
0.0
 11
6264.1944731349
 21
4755.1915147029
 31
0.0
  0
LINE
  5
177
330
1F
100
AcDbEntity
  8
0
  6
Continuous
 62
     7
370
    25
100
AcDbLine
 10
6264.1944731349
 20
4755.1915147029
 30
0.0
 11
6264.1987106024
 21
4752.4155084366
 31
0.0
  0
LINE
  5
178
330
1F
100
AcDbEntity
  8
0
  6
Continuous
 62
     7
370
    25
100
AcDbLine
 10
6264.1987106024
 20
4752.4155084366
 30
0.0
 11
6265.0178337306
 21
4752.4271356338
 31
0.0
  0
LINE
  5
179
330
1F
100
AcDbEntity
  8
0
  6
Continuous
 62
     7
370
    25
100
AcDbLine
 10
6265.0178337306
 20
4752.4271356338
 30
0.0
 11
6265.0135962632
 21
4755.1819545629
 31
0.0
  0
LINE
  5
17A
330
1F
100
AcDbEntity
  8
0
  6
Continuous
 62
     7
370
    25
100
AcDbLine
 10
6265.0135962632
 20
4755.1819545629
 30
0.0
 11
6265.7163440659
 21
4755.1883107641
 31
0.0
  0
LINE
  5
17B
330
1F
100
AcDbEntity
  8
0
  6
Continuous
 62
     7
370
    25
100
AcDbLine
 10
6265.7163440659
 20
4755.1883107641
 30
0.0
 11
6266.3640564683
 21
4755.1946669652
 31
0.0
  0
LINE
  5
17C
330
1F
100
AcDbEntity
  8
0
  6
Continuous
 62
     7
370
    25
100
AcDbLine
 10
6266.3640564683
 20
4755.1946669652
 30
0.0
 11
6266.3577002671
 21
4752.418660699
 31
0.0
  0
LINE
  5
17D
330
1F
100
AcDbEntity
  8
0
  6
Continuous
 62
     7
370
    25
100
AcDbLine
 10
6266.3577002671
 20
4752.418660699
 30
0.0
 11
6267.1980107326
 21
4752.4302878962
 31
0.0
  0
LINE
  5
17E
330
1F
100
AcDbEntity
  8
0
  6
Continuous
 62
     7
370
    25
100
AcDbLine
 10
6267.1980107326
 20
4752.4302878962
 30
0.0
 11
6267.2012146714
 21
4757.2224501684
 31
0.0
  0
ARC
  5
17F
330
1F
100
AcDbEntity
  8
0
  6
Continuous
 62
     7
370
    25
100
AcDbCircle
 10
6280.0097665353
 20
4757.2919745408
 30
0.0
 40
1.402028238649742
100
AcDbArc
 50
357.3732782631
 51
91.4987318942
  0
LINE
  5
180
330
1F
100
AcDbEntity
  8
0
  6
Continuous
 62
     7
370
    25
100
AcDbLine
 10
6279.9730967346
 20
4758.6935231513
 30
0.0
 11
6279.8556878804
 21
4758.6935231513
 31
0.0
  0
ARC
  5
181
330
1F
100
AcDbEntity
  8
0
  6
Continuous
 62
     7
370
    25
100
AcDbCircle
 10
6279.9618040723
 20
4757.1724012807
 30
0.0
 40
1.524818806040904
100
AcDbArc
 50
93.9905911162
 51
181.4593857112
  0
LINE
  5
182
330
1F
100
AcDbEntity
  8
0
  6
Continuous
 62
     7
370
    25
100
AcDbLine
 10
6278.4374798726
 20
4757.1335666897
 30
0.0
 11
6278.4237339416
 21
4756.0582834866
 31
0.0
  0
LINE
  5
183
330
1F
100
AcDbEntity
  8
0
  6
Continuous
 62
     7
370
    25
100
AcDbLine
 10
6278.4237339416
 20
4756.0582834866
 30
0.0
 11
6277.8925002176
 21
4756.0582834866
 31
0.0
  0
LINE
  5
184
330
1F
100
AcDbEntity
  8
0
  6
Continuous
 62
     7
370
    25
100
AcDbLine
 10
6277.8925002176
 20
4756.0582834866
 30
0.0
 11
6277.7432586812
 21
4756.0571982815
 31
0.0
  0
LINE
  5
185
330
1F
100
AcDbEntity
  8
0
  6
Continuous
 62
     7
370
    25
100
AcDbLine
 10
6277.7432586812
 20
4756.0571982815
 30
0.0
 11
6277.8935337463
 21
4755.5957794176
 31
0.0
  0
LINE
  5
186
330
1F
100
AcDbEntity
  8
0
  6
Continuous
 62
     7
370
    25
100
AcDbLine
 10
6277.8935337463
 20
4755.5957794176
 30
0.0
 11
6278.0205544168
 21
4755.2021083564
 31
0.0
  0
LINE
  5
187
330
1F
100
AcDbEntity
  8
0
  6
Continuous
 62
     7
370
    25
100
AcDbLine
 10
6278.0205544168
 20
4755.2021083564
 30
0.0
 11
6278.3877671447
 21
4755.2179730211
 31
0.0
  0
LINE
  5
188
330
1F
100
AcDbEntity
  8
0
  6
Continuous
 62
     7
370
    25
100
AcDbLine
 10
6278.3877671447
 20
4755.2179730211
 30
0.0
 11
6278.3867336161
 21
4752.4324066148
 31
0.0
  0
LINE
  5
189
330
1F
100
AcDbEntity
  8
0
  6
Continuous
 62
     7
370
    25
100
AcDbLine
 10
6278.3867336161
 20
4752.4324066148
 30
0.0
 11
6279.221721409
 21
4752.4334918199
 31
0.0
  0
LINE
  5
18A
330
1F
100
AcDbEntity
  8
0
  6
Continuous
 62
     7
370
    25
100
AcDbLine
 10
6279.221721409
 20
4752.4334918199
 30
0.0
 11
6279.2280259338
 21
4755.1978708889
 31
0.0
  0
LINE
  5
18B
330
1F
100
AcDbEntity
  8
0
  6
Continuous
 62
     7
370
    25
100
AcDbLine
 10
6279.2280259338
 20
4755.1978708889
 30
0.0
 11
6279.903333551
 21
4755.1989044176
 31
0.0
  0
LINE
  5
18C
330
1F
100
AcDbEntity
  8
0
  6
Continuous
 62
     7
370
    25
100
AcDbLine
 10
6279.903333551
 20
4755.1989044176
 30
0.0
 11
6280.552079482
 21
4755.1999896227
 31
0.0
  0
LINE
  5
18D
330
1F
100
AcDbEntity
  8
0
  6
Continuous
 62
     7
370
    25
100
AcDbLine
 10
6280.552079482
 20
4755.1999896227
 30
0.0
 11
6280.5563169494
 21
4752.4356105536
 31
0.0
  0
LINE
  5
18E
330
1F
100
AcDbEntity
  8
0
  6
Continuous
 62
     7
370
    25
100
AcDbLine
 10
6280.5563169494
 20
4752.4356105536
 30
0.0
 11
6281.4018467346
 21
4752.4366440823
 31
0.0
  0
LINE
  5
18F
330
1F
100
AcDbEntity
  8
0
  6
Continuous
 62
     7
370
    25
100
AcDbLine
 10
6281.4018467346
 20
4752.4366440823
 30
0.0
 11
6281.4103216695
 21
4757.2277211493
 31
0.0
  0
LINE
  5
190
330
1F
100
AcDbEntity
  8
0
  6
Continuous
 62
     7
370
    25
100
AcDbLine
 10
6100.0187553361
 20
4770.8973656866
 30
0.0
 11
6100.0187553361
 21
4767.8973656866
 31
0.0
  0
LINE
  5
191
330
1F
100
AcDbEntity
  8
0
  6
Continuous
 62
     7
370
    25
100
AcDbLine
 10
6100.0187553361
 20
4767.8973656866
 30
0.0
 11
6101.0187553361
 21
4767.8973656866
 31
0.0
  0
LINE
  5
192
330
1F
100
AcDbEntity
  8
0
  6
Continuous
 62
     7
370
    25
100
AcDbLine
 10
6101.0187553361
 20
4767.8973656866
 30
0.0
 11
6101.0187553361
 21
4768.8973656866
 31
0.0
  0
LINE
  5
193
330
1F
100
AcDbEntity
  8
0
  6
Continuous
 62
     7
370
    25
100
AcDbLine
 10
6447.0187553361
 20
4768.8973656866
 30
0.0
 11
6447.0187553361
 21
4767.8973656866
 31
0.0
  0
LINE
  5
194
330
1F
100
AcDbEntity
  8
0
  6
Continuous
 62
     7
370
    25
100
AcDbLine
 10
6447.0187553361
 20
4767.8973656866
 30
0.0
 11
6448.0187553361
 21
4767.8973656866
 31
0.0
  0
LINE
  5
195
330
1F
100
AcDbEntity
  8
0
  6
Continuous
 62
     7
370
    25
100
AcDbLine
 10
6448.0187553361
 20
4767.8973656866
 30
0.0
 11
6448.0187553361
 21
4769.8973656866
 31
0.0
  0
ARC
  5
196
330
1F
100
AcDbEntity
  8
0
  6
Continuous
 62
     7
370
    25
100
AcDbCircle
 10
6274.0187553361
 20
4585.8973656866
 30
0.0
 40
174.5
100
AcDbArc
 50
180.0
 51
0.0
  0
LINE
  5
197
330
1F
100
AcDbEntity
  8
0
  6
Continuous
 62
     7
370
    25
100
AcDbLine
 10
6099.5187553361
 20
4770.8973656866
 30
0.0
 11
6099.5187553361
 21
4585.8973656866
 31
0.0
  0
LINE
  5
198
330
1F
100
AcDbEntity
  8
0
  6
Continuous
 62
     7
370
    25
100
AcDbLine
 10
6100.0187553361
 20
4770.8973656866
 30
0.0
 11
6099.5187553361
 21
4770.8973656866
 31
0.0
  0
LINE
  5
199
330
1F
100
AcDbEntity
  8
0
  6
Continuous
 62
     7
370
    25
100
AcDbLine
 10
6274.9312339282
 20
4755.2137354945
 30
0.0
 11
6273.0538291282
 21
4755.2211253945
 31
0.0
  0
LINE
  5
19A
330
1F
100
AcDbEntity
  8
0
  6
Continuous
 62
     7
370
    25
100
AcDbLine
 10
6274.6370917282
 20
4756.1006065945
 30
0.0
 11
6274.9312339282
 21
4755.2137354945
 31
0.0
  0
LINE
  5
19B
330
1F
100
AcDbEntity
  8
0
  6
Continuous
 62
     7
370
    25
100
AcDbLine
 10
6273.1108798282
 20
4756.0984876945
 30
0.0
 11
6274.6370917282
 21
4756.1006065945
 31
0.0
  0
LINE
  5
19C
330
1F
100
AcDbEntity
  8
0
  6
Continuous
 62
     7
370
    25
100
AcDbLine
 10
6273.1088128282
 20
4757.6785978945
 30
0.0
 11
6273.1108798282
 21
4756.0984876945
 31
0.0
  0
LINE
  5
19D
330
1F
100
AcDbEntity
  8
0
  6
Continuous
 62
     7
370
    25
100
AcDbLine
 10
6274.6772959282
 20
4757.6807167945
 30
0.0
 11
6273.1088128282
 21
4757.6785978945
 31
0.0
  0
LINE
  5
19E
330
1F
100
AcDbEntity
  8
0
  6
Continuous
 62
     7
370
    25
100
AcDbLine
 10
6274.6761589282
 20
4758.5739439945
 30
0.0
 11
6274.6772959282
 21
4757.6807167945
 31
0.0
  0
LINE
  5
19F
330
1F
100
AcDbEntity
  8
0
  6
Continuous
 62
     7
370
    25
100
AcDbLine
 10
6272.2621462282
 20
4758.5697064945
 30
0.0
 11
6274.6761589282
 21
4758.5739439945
 31
0.0
  0
LINE
  5
1A0
330
1F
100
AcDbEntity
  8
0
  6
Continuous
 62
     7
370
    25
100
AcDbLine
 10
6272.2663837282
 20
4756.0815895945
 30
0.0
 11
6272.2621462282
 21
4758.5697064945
 31
0.0
  0
LINE
  5
1A1
330
1F
100
AcDbEntity
  8
0
  6
Continuous
 62
     7
370
    25
100
AcDbLine
 10
6271.5954169282
 20
4756.0805041945
 30
0.0
 11
6272.2663837282
 21
4756.0815895945
 31
0.0
  0
LINE
  5
1A2
330
1F
100
AcDbEntity
  8
0
  6
Continuous
 62
     7
370
    25
100
AcDbLine
 10
6271.5869419282
 20
4758.5686729945
 30
0.0
 11
6271.5954169282
 21
4756.0805041945
 31
0.0
  0
LINE
  5
1A3
330
1F
100
AcDbEntity
  8
0
  6
Continuous
 62
     7
370
    25
100
AcDbLine
 10
6271.4006482282
 20
4758.5686729945
 30
0.0
 11
6271.5869419282
 21
4758.5686729945
 31
0.0
  0
LINE
  5
1A4
330
1F
100
AcDbEntity
  8
0
  6
Continuous
 62
     7
370
    25
100
AcDbLine
 10
6270.6079834282
 20
4758.5675875945
 30
0.0
 11
6271.4006482282
 21
4758.5686729945
 31
0.0
  0
LINE
  5
1A5
330
1F
100
AcDbEntity
  8
0
  6
Continuous
 62
     7
370
    25
100
AcDbLine
 10
6270.6111358282
 20
4756.4667856945
 30
0.0
 11
6270.6079834282
 21
4758.5675875945
 31
0.0
  0
LINE
  5
1A6
330
1F
100
AcDbEntity
  8
0
  6
Continuous
 62
     7
370
    25
100
AcDbLine
 10
6267.8795713282
 20
4758.6427252945
 30
0.0
 11
6270.6111358282
 21
4756.4667856945
 31
0.0
  0
LINE
  5
1A7
330
1F
100
AcDbEntity
  8
0
  6
Continuous
 62
     7
370
    25
100
AcDbLine
 10
6267.8954875282
 20
4752.4155082945
 30
0.0
 11
6267.8795713282
 21
4758.6427252945
 31
0.0
  0
LINE
  5
1A8
330
1F
100
AcDbEntity
  8
0
  6
Continuous
 62
     7
370
    25
100
AcDbLine
 10
6268.7717650282
 20
4752.4176271945
 30
0.0
 11
6267.8954875282
 21
4752.4155082945
 31
0.0
  0
LINE
  5
1A9
330
1F
100
AcDbEntity
  8
0
  6
Continuous
 62
     7
370
    25
100
AcDbLine
 10
6268.7770360282
 20
4756.5916876945
 30
0.0
 11
6268.7717650282
 21
4752.4176271945
 31
0.0
  0
LINE
  5
1AA
330
1F
100
AcDbEntity
  8
0
  6
Continuous
 62
     7
370
    25
100
AcDbLine
 10
6270.6291193282
 20
4755.1851583945
 30
0.0
 11
6268.7770360282
 21
4756.5916876945
 31
0.0
  0
LINE
  5
1AB
330
1F
100
AcDbEntity
  8
0
  6
Continuous
 62
     7
370
    25
100
AcDbLine
 10
6270.6333568282
 20
4752.4049146945
 30
0.0
 11
6270.6291193282
 21
4755.1851583945
 31
0.0
  0
LINE
  5
1AC
330
1F
100
AcDbEntity
  8
0
  6
Continuous
 62
     7
370
    25
100
AcDbLine
 10
6271.4091232282
 20
4752.4155082945
 30
0.0
 11
6270.6333568282
 21
4752.4049146945
 31
0.0
  0
LINE
  5
1AD
330
1F
100
AcDbEntity
  8
0
  6
Continuous
 62
     7
370
    25
100
AcDbLine
 10
6271.5805858282
 20
4752.4218646945
 30
0.0
 11
6271.4091232282
 21
4752.4155082945
 31
0.0
  0
LINE
  5
1AE
330
1F
100
AcDbEntity
  8
0
  6
Continuous
 62
     7
370
    25
100
AcDbLine
 10
6271.5604834282
 20
4755.2031418945
 30
0.0
 11
6271.5805858282
 21
4752.4218646945
 31
0.0
  0
LINE
  5
1AF
330
1F
100
AcDbEntity
  8
0
  6
Continuous
 62
     7
370
    25
100
AcDbLine
 10
6272.2886044282
 20
4755.2042269945
 30
0.0
 11
6271.5604834282
 21
4755.2031418945
 31
0.0
  0
LINE
  5
1B0
330
1F
100
AcDbEntity
  8
0
  6
Continuous
 62
     7
370
    25
100
AcDbLine
 10
6272.2928419282
 20
4752.4388143945
 30
0.0
 11
6272.2886044282
 21
4755.2042269945
 31
0.0
  0
LINE
  5
1B1
330
1F
100
AcDbEntity
  8
0
  6
Continuous
 62
     7
370
    25
100
AcDbLine
 10
6274.6433962282
 20
4752.4419667945
 30
0.0
 11
6272.2928419282
 21
4752.4388143945
 31
0.0
  0
LINE
  5
1B2
330
1F
100
AcDbEntity
  8
0
  6
Continuous
 62
     7
370
    25
100
AcDbLine
 10
6274.6413292282
 20
4753.3415500945
 30
0.0
 11
6274.6433962282
 21
4752.4419667945
 31
0.0
  0
LINE
  5
1B3
330
1F
100
AcDbEntity
  8
0
  6
Continuous
 62
     7
370
    25
100
AcDbLine
 10
6273.0569296282
 20
4753.3383976945
 30
0.0
 11
6274.6413292282
 21
4753.3415500945
 31
0.0
  0
LINE
  5
1B4
330
1F
100
AcDbEntity
  8
0
  6
Continuous
 62
     7
370
    25
100
AcDbLine
 10
6273.0538291282
 20
4755.2211253945
 30
0.0
 11
6273.0569296282
 21
4753.3383976945
 31
0.0
  0
LINE
  5
1B5
330
1F
100
AcDbEntity
  8
0
  6
Continuous
 62
     7
370
    25
100
AcDbLine
 10
6276.1547251282
 20
4758.5760625945
 30
0.0
 11
6276.1579291282
 21
4753.2102919945
 31
0.0
  0
LINE
  5
1B6
330
1F
100
AcDbEntity
  8
0
  6
Continuous
 62
     7
370
    25
100
AcDbLine
 10
6275.2456333282
 20
4758.5697064945
 30
0.0
 11
6276.1547251282
 21
4758.5760625945
 31
0.0
  0
LINE
  5
1B7
330
1F
100
AcDbEntity
  8
0
  6
Continuous
 62
     7
370
    25
100
AcDbLine
 10
6275.2655803282
 20
4752.4324066945
 30
0.0
 11
6275.2456333282
 21
4758.5697064945
 31
0.0
  0
LINE
  5
1B8
330
1F
100
AcDbEntity
  8
0
  6
Continuous
 62
     7
370
    25
100
AcDbLine
 10
6277.8976678282
 20
4752.4313731945
 30
0.0
 11
6275.2655803282
 21
4752.4324066945
 31
0.0
  0
LINE
  5
1B9
330
1F
100
AcDbEntity
  8
0
  6
Continuous
 62
     7
370
    25
100
AcDbLine
 10
6278.0406049282
 20
4752.4313731945
 30
0.0
 11
6277.8976678282
 21
4752.4313731945
 31
0.0
  0
LINE
  5
1BA
330
1F
100
AcDbEntity
  8
0
  6
Continuous
 62
     7
370
    25
100
AcDbLine
 10
6278.0448424282
 20
4753.2187669945
 30
0.0
 11
6278.0406049282
 21
4752.4313731945
 31
0.0
  0
LINE
  5
1BB
330
1F
100
AcDbEntity
  8
0
  6
Continuous
 62
     7
370
    25
100
AcDbLine
 10
6277.8967375282
 20
4753.2177331945
 30
0.0
 11
6278.0448424282
 21
4753.2187669945
 31
0.0
  0
LINE
  5
1BC
330
1F
100
AcDbEntity
  8
0
  6
Continuous
 62
     7
370
    25
100
AcDbLine
 10
6276.1579291282
 20
4753.2102919945
 30
0.0
 11
6277.8967375282
 21
4753.2177331945
 31
0.0
  0
ARC
  5
1BD
330
1F
100
AcDbEntity
  8
0
  6
Continuous
 62
     7
370
    25
100
AcDbCircle
 10
6259.5435537262
 20
4753.4986248245
 30
0.0
 40
3.109567310663168
100
AcDbArc
 50
14.961846676
 51
54.7549362227
  0
LWPOLYLINE
  5
1BE
330
1F
100
AcDbEntity
  8
0
  6
Continuous
 62
     7
370
    25
100
AcDbPolyline
 90
        7
 70
   128
 43
0.0
 10
6261.7190170933
 20
4753.3373125828
 10
6261.9746960659
 20
4753.360526439
 10
6262.1736128921
 20
4753.4267006299
 10
6262.3223536207
 20
4753.5320014471
 10
6262.4275043005
 20
4753.6725951823
 10
6262.5205124723
 20
4753.9556132759
 10
6262.5477003615
 20
4754.3014397801
  0
LINE
  5
1BF
330
1F
100
AcDbEntity
  8
0
  6
Continuous
 62
     7
370
    25
100
AcDbLine
 10
6259.9219691603
 20
4753.3341603204
 30
0.0
 11
6261.7190170933
 21
4753.3373125828
 31
0.0
  0
LINE
  5
1C0
330
1F
100
AcDbEntity
  8
0
  6
Continuous
 62
     7
370
    25
100
AcDbLine
 10
6259.9230543654
 20
4752.4038811863
 30
0.0
 11
6259.9219691603
 21
4753.3341603204
 31
0.0
  0
LINE
  5
1C1
330
1F
100
AcDbEntity
  8
0
  6
Continuous
 62
     7
370
    25
100
AcDbLine
 10
6261.800510827
 20
4752.4070334487
 30
0.0
 11
6259.9230543654
 21
4752.4038811863
 31
0.0
  0
ARC
  5
1C2
330
1F
100
AcDbEntity
  8
0
  6
Continuous
 62
     7
370
    25
100
AcDbCircle
 10
6261.703339424
 20
4754.2307047475
 30
0.0
 40
1.826258275165322
100
AcDbArc
 50
273.0500295178
 51
347.9874998472
  0
ARC
  5
1C3
330
1F
100
AcDbEntity
  8
0
  6
Continuous
 62
     7
370
    25
100
AcDbCircle
 10
6261.3418804885
 20
4754.2158949942
 30
0.0
 40
2.178567792536206
100
AcDbArc
 50
350.3476259221
 51
42.0169705672
  0
LWPOLYLINE
  5
1C4
330
1F
100
AcDbEntity
  8
0
  6
Continuous
 62
     7
370
    25
100
AcDbPolyline
 90
        3
 70
   128
 43
0.0
 10
6262.0915524937
 20
4756.6192311212
 10
6262.6697144308
 20
4756.0343803388
 10
6262.9604400262
 20
4755.674120851
  0
ARC
  5
1C5
330
1F
100
AcDbEntity
  8
0
  6
Continuous
 62
     7
370
    25
100
AcDbCircle
 10
6263.2254898804
 20
4758.2957174756
 30
0.0
 40
2.023961583931559
100
AcDbArc
 50
179.94293404
 51
235.9264701409
  0
LWPOLYLINE
  5
1C6
330
1F
100
AcDbEntity
  8
0
  6
Continuous
 62
     7
370
    25
100
AcDbPolyline
 90
        6
 70
   128
 43
0.0
 10
6262.2894732293
 20
4759.1772145197
 10
6261.8221627627
 20
4759.1087670065
 10
6261.4541509567
 20
4758.9151701015
 10
6261.3184690308
 20
4758.7553903649
 10
6261.2317709292
 20
4758.5507803404
 10
6261.2015293003
 20
4758.2977333185
  0
LINE
  5
1C7
330
1F
100
AcDbEntity
  8
0
  6
Continuous
 62
     7
370
    25
100
AcDbLine
 10
6265.7099879592
 20
4759.1772145197
 30
0.0
 11
6262.2894732293
 21
4759.1772145197
 31
0.0
  0
LINE
  5
1C8
330
1F
100
AcDbEntity
  8
0
  6
Continuous
 62
     7
370
    25
100
AcDbLine
 10
6271.3996148309
 20
4759.180366782
 30
0.0
 11
6265.7099879592
 21
4759.1772145197
 31
0.0
  0
LINE
  5
1C9
330
1F
100
AcDbEntity
  8
0
  6
Continuous
 62
     7
370
    25
100
AcDbLine
 10
6277.8872291701
 20
4759.1898752456
 30
0.0
 11
6271.3996148309
 21
4759.180366782
 31
0.0
  0
LINE
  5
1CA
330
1F
100
AcDbEntity
  8
0
  6
Continuous
 62
     7
370
    25
100
AcDbLine
 10
6279.8980625034
 20
4759.1878081883
 30
0.0
 11
6277.8872291701
 21
4759.1898752456
 31
0.0
  0
LINE
  5
1CB
330
1F
100
AcDbEntity
  8
0
  6
Continuous
 62
     7
370
    25
100
AcDbLine
 10
6281.705704105
 20
4759.1909604506
 30
0.0
 11
6279.8980625034
 21
4759.1878081883
 31
0.0
  0
LINE
  5
1CC
330
1F
100
AcDbEntity
  8
0
  6
Continuous
 62
     7
370
    25
100
AcDbLine
 10
6281.7045672235
 20
4760.10537492
 30
0.0
 11
6281.705704105
 21
4759.1909604506
 31
0.0
  0
LINE
  5
1CD
330
1F
100
AcDbEntity
  8
0
  6
Continuous
 62
     7
370
    25
100
AcDbLine
 10
6279.8957887404
 20
4760.1021709812
 30
0.0
 11
6281.7045672235
 21
4760.10537492
 31
0.0
  0
LINE
  5
1CE
330
1F
100
AcDbEntity
  8
0
  6
Continuous
 62
     7
370
    25
100
AcDbLine
 10
6277.8860922886
 20
4760.1000522475
 30
0.0
 11
6279.8957887404
 21
4760.1021709812
 31
0.0
  0
LINE
  5
1CF
330
1F
100
AcDbEntity
  8
0
  6
Continuous
 62
     7
370
    25
100
AcDbLine
 10
6271.3985296258
 20
4760.0894585789
 30
0.0
 11
6277.8860922886
 21
4760.1000522475
 31
0.0
  0
LINE
  5
1D0
330
1F
100
AcDbEntity
  8
0
  6
Continuous
 62
     7
370
    25
100
AcDbLine
 10
6265.7078692254
 20
4760.0757126479
 30
0.0
 11
6271.3985296258
 21
4760.0894585789
 31
0.0
  0
LINE
  5
1D1
330
1F
100
AcDbEntity
  8
0
  6
Continuous
 62
     7
370
    25
100
AcDbLine
 10
6262.2249293654
 20
4760.0704416518
 30
0.0
 11
6265.7078692254
 21
4760.0757126479
 31
0.0
  0
ARC
  5
1D2
330
1F
100
AcDbEntity
  8
0
  6
Continuous
 62
     7
370
    25
100
AcDbCircle
 10
6262.0863303916
 20
4758.2226266258
 30
0.0
 40
1.853005678857478
100
AcDbArc
 50
85.7104505517
 51
175.7435393215
  0
ARC
  5
1D3
330
1F
100
AcDbEntity
  8
0
  6
Continuous
 62
     7
370
    25
100
AcDbCircle
 10
6262.7975027258
 20
4758.1506641611
 30
0.0
 40
2.567627747277658
100
AcDbArc
 50
175.3200006849
 51
235.3597434077
  0
ARC
  5
1D4
330
1F
100
AcDbEntity
  8
0
  6
Continuous
 62
     7
370
    25
100
AcDbCircle
 10
6288.9100512744
 20
4760.3190153236
 30
0.0
 40
0.7015509914733279
100
AcDbArc
 50
0.4761050662
 51
89.2936033128
  0
LINE
  5
1D5
330
1F
100
AcDbEntity
  8
0
  6
Continuous
 62
     7
370
    25
100
AcDbLine
 10
6288.9187004409
 20
4761.0205129968
 30
0.0
 11
6288.9137395034
 21
4761.0205129968
 31
0.0
  0
ARC
  5
1D6
330
1F
100
AcDbEntity
  8
0
  6
Continuous
 62
     7
370
    25
100
AcDbCircle
 10
6288.9189217732
 20
4760.3300825857
 30
0.0
 40
0.6904498595032846
100
AcDbArc
 50
90.4300456699
 51
180.6018970518
  0
ARC
  5
1D7
330
1F
100
AcDbEntity
  8
0
  6
Continuous
 62
     7
370
    25
100
AcDbCircle
 10
6288.9130801414
 20
4760.3221650156
 30
0.0
 40
0.6845704526051075
100
AcDbArc
 50
179.9443866368
 51
270.2281908816
  0
LINE
  5
1D8
330
1F
100
AcDbEntity
  8
0
  6
Continuous
 62
     7
370
    25
100
AcDbLine
 10
6288.9158065607
 20
4759.6375999922
 30
0.0
 11
6288.920974204
 21
4759.6375999922
 31
0.0
  0
ARC
  5
1D9
330
1F
100
AcDbEntity
  8
0
  6
Continuous
 62
     7
370
    25
100
AcDbCircle
 10
6288.9202826547
 20
4760.3289069713
 30
0.0
 40
0.6913073249212681
100
AcDbArc
 50
270.05731584
 51
359.663329377
  0
ARC
  5
1DA
330
1F
100
AcDbEntity
  8
0
  6
Continuous
 62
     7
370
    25
100
AcDbCircle
 10
6283.8990926574
 20
4754.5740632089
 30
0.0
 40
3.719185213273228
100
AcDbArc
 50
2.3646229321
 51
51.1199972206
  0
LINE
  5
1DB
330
1F
100
AcDbEntity
  8
0
  6
Continuous
 62
     7
370
    25
100
AcDbLine
 10
6286.2335932273
 20
4757.4693085767
 30
0.0
 11
6286.2282188783
 21
4757.4639342277
 31
0.0
  0
LWPOLYLINE
  5
1DC
330
1F
100
AcDbEntity
  8
0
  6
Continuous
 62
     7
370
    25
100
AcDbPolyline
 90
        3
 70
   128
 43
0.0
 10
6286.2282188783
 20
4757.4639342277
 10
6286.1624953861
 20
4757.3918416062
 10
6286.1119469056
 20
4757.3138658684
  0
LINE
  5
1DD
330
1F
100
AcDbEntity
  8
0
  6
Continuous
 62
     7
370
    25
100
AcDbLine
 10
6286.1119469056
 20
4757.3138658684
 30
0.0
 11
6285.9571243145
 21
4757.4460025057
 31
0.0
  0
LWPOLYLINE
  5
1DE
330
1F
100
AcDbEntity
  8
0
  6
Continuous
 62
     7
370
    25
100
AcDbPolyline
 90
        3
 70
   128
 43
0.0
 10
6285.9571243145
 20
4757.4460025057
 10
6286.1008581123
 20
4757.6163639834
 10
6286.2278054668
 20
4757.7244867993
  0
LWPOLYLINE
  5
1DF
330
1F
100
AcDbEntity
  8
0
  6
Continuous
 62
     7
370
    25
100
AcDbPolyline
 90
        3
 70
   128
 43
0.0
 10
6286.2278054668
 20
4757.7244867993
 10
6286.7395229421
 20
4757.9300949046
 10
6287.3051557273
 20
4757.9811119621
  0
LINE
  5
1E0
330
1F
100
AcDbEntity
  8
0
  6
Continuous
 62
     7
370
    25
100
AcDbLine
 10
6287.3051557273
 20
4757.9811119621
 30
0.0
 11
6287.3195217754
 21
4757.9755309074
 31
0.0
  0
LINE
  5
1E1
330
1F
100
AcDbEntity
  8
0
  6
Continuous
 62
     7
370
    25
100
AcDbLine
 10
6287.3195217754
 20
4757.9755309074
 30
0.0
 11
6287.3257229473
 21
4757.9723269686
 31
0.0
  0
LINE
  5
1E2
330
1F
100
AcDbEntity
  8
0
  6
Continuous
 62
     7
370
    25
100
AcDbLine
 10
6287.3257229473
 20
4757.9723269686
 30
0.0
 11
6287.3314073549
 21
4757.984212548
 31
0.0
  0
ARC
  5
1E3
330
1F
100
AcDbEntity
  8
0
  6
Continuous
 62
     7
370
    25
100
AcDbCircle
 10
6287.0282504965
 20
4758.1023845817
 30
0.0
 40
0.3253747229117695
100
AcDbArc
 50
338.7039188615
 51
32.9021244082
  0
LWPOLYLINE
  5
1E4
330
1F
100
AcDbEntity
  8
0
  6
Continuous
 62
     7
370
    25
100
AcDbPolyline
 90
        3
 70
   128
 43
0.0
 10
6287.3014350241
 20
4758.2791299471
 10
6287.1388534077
 20
4758.7328656385
 10
6286.9703957989
 20
4759.0230638664
  0
LWPOLYLINE
  5
1E5
330
1F
100
AcDbEntity
  8
0
  6
Continuous
 62
     7
370
    25
100
AcDbPolyline
 90
        3
 70
   128
 43
0.0
 10
6286.9703957989
 20
4759.0230638664
 10
6287.4525693964
 20
4760.0988279497
 10
6287.5629177715
 20
4761.0076455721
  0
LWPOLYLINE
  5
1E6
330
1F
100
AcDbEntity
  8
0
  6
Continuous
 62
     7
370
    25
100
AcDbPolyline
 90
        3
 70
   128
 43
0.0
 10
6287.5629177715
 20
4761.0076455721
 10
6286.7961389732
 20
4760.8736147
 10
6286.2232579408
 20
4760.6813605786
  0
LWPOLYLINE
  5
1E7
330
1F
100
AcDbEntity
  8
0
  6
Continuous
 62
     7
370
    25
100
AcDbPolyline
 90
        3
 70
   128
 43
0.0
 10
6286.2232579408
 20
4760.6813605786
 10
6286.0489002229
 20
4760.6045507934
 10
6285.9152664043
 20
4760.5374417147
  0
LWPOLYLINE
  5
1E8
330
1F
100
AcDbEntity
  8
0
  6
Continuous
 62
     7
370
    25
100
AcDbPolyline
 90
        3
 70
   128
 43
0.0
 10
6285.9152664043
 20
4760.5374417147
 10
6285.8664656754
 20
4760.5094170084
 10
6285.8251427064
 20
4760.4838532544
  0
LWPOLYLINE
  5
1E9
330
1F
100
AcDbEntity
  8
0
  6
Continuous
 62
     7
370
    25
100
AcDbPolyline
 90
        3
 70
   128
 43
0.0
 10
6285.8251427064
 20
4760.4838532544
 10
6285.7187012548
 20
4760.4201929368
 10
6285.6393142559
 20
4760.3664960767
  0
LWPOLYLINE
  5
1EA
330
1F
100
AcDbEntity
  8
0
  6
Continuous
 62
     7
370
    25
100
AcDbPolyline
 90
        3
 70
   128
 43
0.0
 10
6285.6393142559
 20
4760.3664960767
 10
6285.4525323926
 20
4760.2290000955
 10
6285.3203673158
 20
4760.1108010897
  0
LWPOLYLINE
  5
1EB
330
1F
100
AcDbEntity
  8
0
  6
Continuous
 62
     7
370
    25
100
AcDbPolyline
 90
        3
 70
   128
 43
0.0
 10
6285.3203673158
 20
4760.1108010897
 10
6285.127591833
 20
4760.1381592313
 10
6284.9371348939
 20
4760.1424270663
  0
LINE
  5
1EC
330
1F
100
AcDbEntity
  8
0
  6
Continuous
 62
     7
370
    25
100
AcDbLine
 10
6284.9371348939
 20
4760.1424270663
 30
0.0
 11
6284.9050955059
 21
4760.1368460116
 31
0.0
  0
ARC
  5
1ED
330
1F
100
AcDbEntity
  8
0
  6
Continuous
 62
     7
370
    25
100
AcDbCircle
 10
6284.8256307651
 20
4758.3315737365
 30
0.0
 40
1.80702037402139
100
AcDbArc
 50
87.4795729573
 51
101.1904471725
  0
LINE
  5
1EE
330
1F
100
AcDbEntity
  8
0
  6
Continuous
 62
     7
370
    25
100
AcDbLine
 10
6284.4749408835
 20
4760.1042381828
 30
0.0
 11
6284.4319460918
 21
4760.1361225415
 31
0.0
  0
LWPOLYLINE
  5
1EF
330
1F
100
AcDbEntity
  8
0
  6
Continuous
 62
     7
370
    25
100
AcDbPolyline
 90
        3
 70
   128
 43
0.0
 10
6284.4319460918
 20
4760.1361225415
 10
6283.8457385658
 20
4760.5025223173
 10
6283.3674115866
 20
4760.7301431307
  0
LWPOLYLINE
  5
1F0
330
1F
100
AcDbEntity
  8
0
  6
Continuous
 62
     7
370
    25
100
AcDbPolyline
 90
        3
 70
   128
 43
0.0
 10
6283.3674115866
 20
4760.7301431307
 10
6282.8114983099
 20
4760.9106451351
 10
6282.3570339825
 20
4760.9893521151
  0
LINE
  5
1F1
330
1F
100
AcDbEntity
  8
0
  6
Continuous
 62
     7
370
    25
100
AcDbLine
 10
6282.3570339825
 20
4760.9893521151
 30
0.0
 11
6282.3570339825
 21
4760.9733324211
 31
0.0
  0
LINE
  5
1F2
330
1F
100
AcDbEntity
  8
0
  6
Continuous
 62
     7
370
    25
100
AcDbLine
 10
6282.3570339825
 20
4760.9733324211
 30
0.0
 11
6282.3574473939
 21
4760.6968118319
 31
0.0
  0
LWPOLYLINE
  5
1F3
330
1F
100
AcDbEntity
  8
0
  6
Continuous
 62
     7
370
    25
100
AcDbPolyline
 90
        3
 70
   128
 43
0.0
 10
6282.3574473939
 20
4760.6968118319
 10
6282.5794025423
 20
4759.6699257094
 10
6282.8915749981
 20
4759.0116433749
  0
LWPOLYLINE
  5
1F4
330
1F
100
AcDbEntity
  8
0
  6
Continuous
 62
     7
370
    25
100
AcDbPolyline
 90
        3
 70
   128
 43
0.0
 10
6282.8915749981
 20
4759.0116433749
 10
6282.6892122985
 20
4758.5551033978
 10
6282.594022101
 20
4758.2168081698
  0
LINE
  5
1F5
330
1F
100
AcDbEntity
  8
0
  6
Continuous
 62
     7
370
    25
100
AcDbLine
 10
6282.594022101
 20
4758.2168081698
 30
0.0
 11
6282.5654967103
 21
4758.1649767082
 31
0.0
  0
ARC
  5
1F6
330
1F
100
AcDbEntity
  8
0
  6
Continuous
 62
     7
370
    25
100
AcDbCircle
 10
6283.2065922934
 20
4757.9087781971
 30
0.0
 40
0.690392079710875
100
AcDbArc
 50
158.217062176
 51
164.2128967992
  0
LWPOLYLINE
  5
1F7
330
1F
100
AcDbEntity
  8
0
  6
Continuous
 62
     7
370
    25
100
AcDbPolyline
 90
        3
 70
   128
 43
0.0
 10
6282.5422423158
 20
4758.0966087883
 10
6282.5925794405
 20
4758.0905417337
 10
6282.6327794252
 20
4758.0852399732
  0
LINE
  5
1F8
330
1F
100
AcDbEntity
  8
0
  6
Continuous
 62
     7
370
    25
100
AcDbLine
 10
6282.6327794252
 20
4758.0852399732
 30
0.0
 11
6282.6556204083
 21
4758.0822944165
 31
0.0
  0
LWPOLYLINE
  5
1F9
330
1F
100
AcDbEntity
  8
0
  6
Continuous
 62
     7
370
    25
100
AcDbPolyline
 90
        3
 70
   128
 43
0.0
 10
6282.6556204083
 20
4758.0822944165
 10
6283.0724321328
 20
4757.9943677789
 10
6283.371752407
 20
4757.8851488273
  0
ARC
  5
1FA
330
1F
100
AcDbEntity
  8
0
  6
Continuous
 62
     7
370
    25
100
AcDbCircle
 10
6283.1328055682
 20
4757.1187452225
 30
0.0
 40
0.8027889369714231
100
AcDbArc
 50
338.3190486648
 51
72.6837346183
  0
LWPOLYLINE
  5
1FB
330
1F
100
AcDbEntity
  8
0
  6
Continuous
 62
     7
370
    25
100
AcDbPolyline
 90
        3
 70
   128
 43
0.0
 10
6283.8788015606
 20
4756.8221646151
 10
6283.6064365933
 20
4756.2257226155
 10
6283.3748529929
 20
4755.8114252759
  0
LWPOLYLINE
  5
1FC
330
1F
100
AcDbEntity
  8
0
  6
Continuous
 62
     7
370
    25
100
AcDbPolyline
 90
        3
 70
   128
 43
0.0
 10
6283.3748529929
 20
4755.8114252759
 10
6283.1069075595
 20
4755.1720659215
 10
6282.882479946
 20
4754.3904267407
  0
ARC
  5
1FD
330
1F
100
AcDbEntity
  8
0
  6
Continuous
 62
     7
370
    25
100
AcDbCircle
 10
6285.0102150597
 20
4753.831562918
 30
0.0
 40
2.199905790348549
100
AcDbArc
 50
165.2832984794
 51
222.18484723
  0
LWPOLYLINE
  5
1FE
330
1F
100
AcDbEntity
  8
0
  6
Continuous
 62
     7
370
    25
100
AcDbPolyline
 90
        3
 70
   128
 43
0.0
 10
6283.380123989
 20
4752.3542719556
 10
6283.9280923839
 20
4751.9463261539
 10
6284.4447618471
 20
4751.760561425
  0
LWPOLYLINE
  5
1FF
330
1F
100
AcDbEntity
  8
0
  6
Continuous
 62
     7
370
    25
100
AcDbPolyline
 90
        3
 70
   128
 43
0.0
 10
6284.4447618471
 20
4751.760561425
 10
6284.7236767071
 20
4751.7174432118
 10
6284.9498472963
 20
4751.7079548169
  0
LINE
  5
200
330
1F
100
AcDbEntity
  8
0
  6
Continuous
 62
     7
370
    25
100
AcDbLine
 10
6284.9498472963
 20
4751.7079548169
 30
0.0
 11
6285.0086550762
 21
4751.7080581698
 31
0.0
  0
LWPOLYLINE
  5
201
330
1F
100
AcDbEntity
  8
0
  6
Continuous
 62
     7
370
    25
100
AcDbPolyline
 90
        3
 70
   128
 43
0.0
 10
6285.0086550762
 20
4751.7080581698
 10
6285.3769980578
 20
4751.7419351354
 10
6285.6523367168
 20
4751.7999388664
  0
LWPOLYLINE
  5
202
330
1F
100
AcDbEntity
  8
0
  6
Continuous
 62
     7
370
    25
100
AcDbPolyline
 90
        3
 70
   128
 43
0.0
 10
6285.6523367168
 20
4751.7999388664
 10
6285.7584662777
 20
4751.8275445852
 10
6285.8382685202
 20
4751.8528555331
  0
LWPOLYLINE
  5
203
330
1F
100
AcDbEntity
  8
0
  6
Continuous
 62
     7
370
    25
100
AcDbPolyline
 90
        3
 70
   128
 43
0.0
 10
6285.8382685202
 20
4751.8528555331
 10
6285.8906017277
 20
4751.8710248873
 10
6285.928495571
 20
4751.8851016268
  0
LWPOLYLINE
  5
204
330
1F
100
AcDbEntity
  8
0
  6
Continuous
 62
     7
370
    25
100
AcDbPolyline
 90
        3
 70
   128
 43
0.0
 10
6285.928495571
 20
4751.8851016268
 10
6286.1050352283
 20
4751.960973517
 10
6286.2364871075
 20
4752.0237494947
  0
ARC
  5
205
330
1F
100
AcDbEntity
  8
0
  6
Continuous
 62
     7
370
    25
100
AcDbCircle
 10
6284.9488168432
 20
4754.3375913497
 30
0.0
 40
2.648010354893882
100
AcDbArc
 50
299.0962643318
 51
357.6203956129
  0
LWPOLYLINE
  5
206
330
1F
100
AcDbEntity
  8
0
  6
Continuous
 62
     7
370
    25
100
AcDbPolyline
 90
        3
 70
   128
 43
0.0
 10
6287.5945437481
 20
4754.227645979
 10
6287.6103057181
 20
4754.4190275376
 10
6287.6153176739
 20
4754.5625092603
  0
LINE
  5
207
330
1F
100
AcDbEntity
  8
0
  6
Continuous
 62
     7
370
    25
100
AcDbLine
 10
6287.6153176739
 20
4754.5625092603
 30
0.0
 11
6287.6151109681
 21
4754.7275121086
 31
0.0
  0
LINE
  5
208
330
1F
100
AcDbEntity
  8
0
  6
Continuous
 62
     7
370
    25
100
AcDbLine
 10
6284.4498261374
 20
4751.8507367993
 30
0.0
 11
6284.4445551413
 21
4751.8562145012
 31
0.0
  0
LWPOLYLINE
  5
209
330
1F
100
AcDbEntity
  8
0
  6
Continuous
 62
     7
370
    25
100
AcDbPolyline
 90
        3
 70
   128
 43
0.0
 10
6284.4445551413
 20
4751.8562145012
 10
6283.7564569176
 20
4752.1955773329
 10
6283.3798139304
 20
4752.5250108879
  0
ARC
  5
20A
330
1F
100
AcDbEntity
  8
0
  6
Continuous
 62
     7
370
    25
100
AcDbCircle
 10
6285.6121105117
 20
4754.0172986867
 30
0.0
 40
2.685157518975099
100
AcDbArc
 50
146.408330412
 51
213.7626838309
  0
LWPOLYLINE
  5
20B
330
1F
100
AcDbEntity
  8
0
  6
Continuous
 62
     7
370
    25
100
AcDbPolyline
 90
        3
 70
   128
 43
0.0
 10
6283.3753697572
 20
4755.5029169751
 10
6283.6889527465
 20
4756.1358344596
 10
6283.8369436504
 20
4756.4233775871
  0
LWPOLYLINE
  5
20C
330
1F
100
AcDbEntity
  8
0
  6
Continuous
 62
     7
370
    25
100
AcDbPolyline
 90
        3
 70
   128
 43
0.0
 10
6283.8369436504
 20
4756.4233775871
 10
6284.0281563453
 20
4756.9249477292
 10
6284.0588422507
 20
4757.2108747388
  0
LWPOLYLINE
  5
20D
330
1F
100
AcDbEntity
  8
0
  6
Continuous
 62
     7
370
    25
100
AcDbPolyline
 90
        3
 70
   128
 43
0.0
 10
6284.0588422507
 20
4757.2108747388
 10
6284.3456808788
 20
4756.0553894879
 10
6284.4395942038
 20
4755.1057319165
  0
LWPOLYLINE
  5
20E
330
1F
100
AcDbEntity
  8
0
  6
Continuous
 62
     7
370
    25
100
AcDbPolyline
 90
        3
 70
   128
 43
0.0
 10
6284.4395942038
 20
4755.1057319165
 10
6284.4600995445
 20
4753.3284054729
 10
6284.4498261374
 20
4751.8507367993
  0
LWPOLYLINE
  5
20F
330
1F
100
AcDbEntity
  8
0
  6
Continuous
 62
     7
370
    25
100
AcDbPolyline
 90
        3
 70
   128
 43
0.0
 10
6285.0032807273
 20
4751.7878465812
 10
6284.9617812812
 20
4752.9974647554
 10
6284.9520177064
 20
4753.9415652499
  0
LINE
  5
210
330
1F
100
AcDbEntity
  8
0
  6
Continuous
 62
     7
370
    25
100
AcDbLine
 10
6284.9520177064
 20
4753.9415652499
 30
0.0
 11
6284.9466433575
 21
4753.9042031893
 31
0.0
  0
LWPOLYLINE
  5
211
330
1F
100
AcDbEntity
  8
0
  6
Continuous
 62
     7
370
    25
100
AcDbPolyline
 90
        3
 70
   128
 43
0.0
 10
6284.9466433575
 20
4753.9042031893
 10
6284.8816307875
 20
4752.7810448491
 10
6284.9128469708
 20
4751.7932726066
  0
LWPOLYLINE
  5
212
330
1F
100
AcDbEntity
  8
0
  6
Continuous
 62
     7
370
    25
100
AcDbPolyline
 90
        3
 70
   128
 43
0.0
 10
6284.9128469708
 20
4751.7932726066
 10
6284.7130879299
 20
4751.8069251463
 10
6284.5402598939
 20
4751.8349754875
  0
LWPOLYLINE
  5
213
330
1F
100
AcDbEntity
  8
0
  6
Continuous
 62
     7
370
    25
100
AcDbPolyline
 90
        3
 70
   128
 43
0.0
 10
6284.5402598939
 20
4751.8349754875
 10
6284.5532166985
 20
4754.5332141141
 10
6284.4381472637
 20
4756.0308434074
  0
ARC
  5
214
330
1F
100
AcDbEntity
  8
0
  6
Continuous
 62
     7
370
    25
100
AcDbCircle
 10
6282.0433611003
 20
4756.1169426587
 30
0.0
 40
2.396333417823804
100
AcDbArc
 50
357.9409435732
 51
38.8540510633
  0
ARC
  5
215
330
1F
100
AcDbEntity
  8
0
  6
Continuous
 62
     7
370
    25
100
AcDbCircle
 10
6283.4687636967
 20
4756.1827112291
 30
0.0
 40
1.50358887604758
100
AcDbArc
 50
49.94849985
 51
72.9550939822
  0
LWPOLYLINE
  5
216
330
1F
100
AcDbEntity
  8
0
  6
Continuous
 62
     7
370
    25
100
AcDbPolyline
 90
        3
 70
   128
 43
0.0
 10
6284.4362869122
 20
4757.3336579419
 10
6284.7239411978
 20
4757.1686078225
 10
6284.94168242
 20
4757.1002871737
  0
LINE
  5
217
330
1F
100
AcDbEntity
  8
0
  6
Continuous
 62
     7
370
    25
100
AcDbLine
 10
6284.94168242
 20
4757.1002871737
 30
0.0
 11
6284.9791995098
 21
4757.0952745598
 31
0.0
  0
ARC
  5
218
330
1F
100
AcDbEntity
  8
0
  6
Continuous
 62
     7
370
    25
100
AcDbCircle
 10
6284.820097121
 20
4758.3375336589
 30
0.0
 40
1.252406179890102
100
AcDbArc
 50
277.2984266618
 51
311.1281656327
  0
LWPOLYLINE
  5
219
330
1F
100
AcDbEntity
  8
0
  6
Continuous
 62
     7
370
    25
100
AcDbPolyline
 90
        3
 70
   128
 43
0.0
 10
6285.643861782
 20
4757.3941710441
 10
6285.7498540108
 20
4757.4646584188
 10
6285.8296902325
 20
4757.5165925122
  0
LWPOLYLINE
  5
21A
330
1F
100
AcDbEntity
  8
0
  6
Continuous
 62
     7
370
    25
100
AcDbPolyline
 90
        3
 70
   128
 43
0.0
 10
6285.8296902325
 20
4757.5165925122
 10
6285.8819288911
 20
4757.5483515742
 10
6285.9198139304
 20
4757.5701809725
  0
LWPOLYLINE
  5
21B
330
1F
100
AcDbEntity
  8
0
  6
Continuous
 62
     7
370
    25
100
AcDbPolyline
 90
        3
 70
   128
 43
0.0
 10
6285.9198139304
 20
4757.5701809725
 10
6285.9633136264
 20
4757.5900411862
 10
6285.9940212872
 20
4757.6019103019
  0
LWPOLYLINE
  5
21C
330
1F
100
AcDbEntity
  8
0
  6
Continuous
 62
     7
370
    25
100
AcDbPolyline
 90
        3
 70
   128
 43
0.0
 10
6285.9940212872
 20
4757.6019103019
 10
6285.954283265
 20
4757.5619583178
 10
6285.9199172833
 20
4757.5269794751
  0
LWPOLYLINE
  5
21D
330
1F
100
AcDbEntity
  8
0
  6
Continuous
 62
     7
370
    25
100
AcDbPolyline
 90
        3
 70
   128
 43
0.0
 10
6285.9199172833
 20
4757.5269794751
 10
6285.8692921596
 20
4757.4636878147
 10
6285.8297935853
 20
4757.4102424146
  0
LWPOLYLINE
  5
21E
330
1F
100
AcDbEntity
  8
0
  6
Continuous
 62
     7
370
    25
100
AcDbPolyline
 90
        3
 70
   128
 43
0.0
 10
6285.8297935853
 20
4757.4102424146
 10
6285.7197148272
 20
4757.2283740357
 10
6285.6443785463
 20
4757.0642687004
  0
ARC
  5
21F
330
1F
100
AcDbEntity
  8
0
  6
Continuous
 62
     7
370
    25
100
AcDbCircle
 10
6298.0409410834
 20
4753.829587035
 30
0.0
 40
12.81163253508099
100
AcDbArc
 50
165.3756823683
 51
188.9730509266
  0
LWPOLYLINE
  5
220
330
1F
100
AcDbEntity
  8
0
  6
Continuous
 62
     7
370
    25
100
AcDbPolyline
 90
        3
 70
   128
 43
0.0
 10
6285.3860997377
 20
4751.8313581372
 10
6285.1975223722
 20
4751.7992723678
 10
6285.0032807273
 20
4751.7878465812
  0
ARC
  5
221
330
1F
100
AcDbEntity
  8
0
  6
Continuous
 62
     7
370
    25
100
AcDbCircle
 10
6284.8613266832
 20
4754.4206664102
 30
0.0
 40
2.653144129212318
100
AcDbArc
 50
301.2139727478
 51
352.820943498
  0
LWPOLYLINE
  5
222
330
1F
100
AcDbEntity
  8
0
  6
Continuous
 62
     7
370
    25
100
AcDbPolyline
 90
        3
 70
   128
 43
0.0
 10
6286.2362804017
 20
4752.1515969881
 10
6286.0698008907
 20
4752.0659684155
 10
6285.9282888653
 20
4752.0022004224
  0
LWPOLYLINE
  5
223
330
1F
100
AcDbEntity
  8
0
  6
Continuous
 62
     7
370
    25
100
AcDbPolyline
 90
        3
 70
   128
 43
0.0
 10
6285.9282888653
 20
4752.0022004224
 10
6285.8794117379
 20
4751.9810395832
 10
6285.8381651674
 20
4751.9646833325
  0
LWPOLYLINE
  5
224
330
1F
100
AcDbEntity
  8
0
  6
Continuous
 62
     7
370
    25
100
AcDbPolyline
 90
        3
 70
   128
 43
0.0
 10
6285.8381651674
 20
4751.9646833325
 10
6285.73577913
 20
4751.928815933
 10
6285.652233364
 20
4751.9006562329
  0
LWPOLYLINE
  5
225
330
1F
100
AcDbEntity
  8
0
  6
Continuous
 62
     7
370
    25
100
AcDbPolyline
 90
        3
 70
   128
 43
0.0
 10
6285.652233364
 20
4751.9006562329
 10
6285.5435661712
 20
4751.867740869
 10
6285.4550360984
 20
4751.8417451001
  0
LWPOLYLINE
  5
226
330
1F
100
AcDbEntity
  8
0
  6
Continuous
 62
     7
370
    25
100
AcDbPolyline
 90
        3
 70
   128
 43
0.0
 10
6285.4550360984
 20
4751.8417451001
 10
6285.3699981551
 20
4754.4182754595
 10
6285.5916685853
 20
4756.6546296216
  0
LWPOLYLINE
  5
227
330
1F
100
AcDbEntity
  8
0
  6
Continuous
 62
     7
370
    25
100
AcDbPolyline
 90
        3
 70
   128
 43
0.0
 10
6285.5916685853
 20
4756.6546296216
 10
6285.6230252822
 20
4756.7391646316
 10
6285.6446886049
 20
4756.7986518384
  0
LWPOLYLINE
  5
228
330
1F
100
AcDbEntity
  8
0
  6
Continuous
 62
     7
370
    25
100
AcDbPolyline
 90
        3
 70
   128
 43
0.0
 10
6285.6446886049
 20
4756.7986518384
 10
6285.7463207517
 20
4757.0586412312
 10
6285.8301036439
 20
4757.2346975741
  0
LWPOLYLINE
  5
229
330
1F
100
AcDbEntity
  8
0
  6
Continuous
 62
     7
370
    25
100
AcDbPolyline
 90
        3
 70
   128
 43
0.0
 10
6285.8301036439
 20
4757.2346975741
 10
6285.8800230312
 20
4757.3281521248
 10
6285.920123989
 20
4757.3944811027
  0
LINE
  5
22A
330
1F
100
AcDbEntity
  8
0
  6
Continuous
 62
     7
370
    25
100
AcDbLine
 10
6285.920123989
 20
4757.3944811027
 30
0.0
 11
6285.9240513978
 21
4757.400010481
 31
0.0
  0
LWPOLYLINE
  5
22B
330
1F
100
AcDbEntity
  8
0
  6
Continuous
 62
     7
370
    25
100
AcDbPolyline
 90
        3
 70
   128
 43
0.0
 10
6285.9240513978
 20
4757.400010481
 10
6286.0140508871
 20
4757.3245655423
 10
6286.0848684551
 20
4757.2644115227
  0
LWPOLYLINE
  5
22C
330
1F
100
AcDbEntity
  8
0
  6
Continuous
 62
     7
370
    25
100
AcDbPolyline
 90
        3
 70
   128
 43
0.0
 10
6286.0848684551
 20
4757.2644115227
 10
6285.9926557263
 20
4757.059900962
 10
6285.9210541648
 20
4756.8625755851
  0
LWPOLYLINE
  5
22D
330
1F
100
AcDbEntity
  8
0
  6
Continuous
 62
     7
370
    25
100
AcDbPolyline
 90
        3
 70
   128
 43
0.0
 10
6285.9210541648
 20
4756.8625755851
 10
6285.8704899747
 20
4756.6868080614
 10
6285.8310338197
 20
4756.5380992668
  0
LWPOLYLINE
  5
22E
330
1F
100
AcDbEntity
  8
0
  6
Continuous
 62
     7
370
    25
100
AcDbPolyline
 90
        3
 70
   128
 43
0.0
 10
6285.8310338197
 20
4756.5380992668
 10
6285.7175551922
 20
4756.008461913
 10
6285.6465489564
 20
4755.5433796216
  0
LWPOLYLINE
  5
22F
330
1F
100
AcDbEntity
  8
0
  6
Continuous
 62
     7
370
    25
100
AcDbPolyline
 90
        3
 70
   128
 43
0.0
 10
6285.6465489564
 20
4755.5433796216
 10
6285.5490477888
 20
4753.9880468034
 10
6285.6507864239
 20
4752.7780187004
  0
LWPOLYLINE
  5
230
330
1F
100
AcDbEntity
  8
0
  6
Continuous
 62
     7
370
    25
100
AcDbPolyline
 90
        3
 70
   128
 43
0.0
 10
6285.6507864239
 20
4752.7780187004
 10
6285.677467629
 20
4752.6321090751
 10
6285.6986388002
 20
4752.5175694816
  0
LWPOLYLINE
  5
231
330
1F
100
AcDbEntity
  8
0
  6
Continuous
 62
     7
370
    25
100
AcDbPolyline
 90
        3
 70
   128
 43
0.0
 10
6285.6986388002
 20
4752.5175694816
 10
6285.6729554976
 20
4752.9937633966
 10
6285.6498562481
 20
4753.3577765943
  0
LWPOLYLINE
  5
232
330
1F
100
AcDbEntity
  8
0
  6
Continuous
 62
     7
370
    25
100
AcDbPolyline
 90
        3
 70
   128
 43
0.0
 10
6285.6498562481
 20
4753.3577765943
 10
6285.6272985213
 20
4753.7518984459
 10
6285.6167833314
 20
4754.0753555331
  0
LINE
  5
233
330
1F
100
AcDbEntity
  8
0
  6
Continuous
 62
     7
370
    25
100
AcDbLine
 10
6285.6167833314
 20
4754.0753555331
 30
0.0
 11
6285.6489260723
 21
4754.0704979484
 31
0.0
  0
LWPOLYLINE
  5
234
330
1F
100
AcDbEntity
  8
0
  6
Continuous
 62
     7
370
    25
100
AcDbPolyline
 90
        3
 70
   128
 43
0.0
 10
6285.6489260723
 20
4754.0704979484
 10
6285.7550556331
 20
4754.0446111945
 10
6285.8348578757
 20
4754.0278132154
  0
LWPOLYLINE
  5
235
330
1F
100
AcDbEntity
  8
0
  6
Continuous
 62
     7
370
    25
100
AcDbPolyline
 90
        3
 70
   128
 43
0.0
 10
6285.8348578757
 20
4754.0278132154
 10
6285.8873311007
 20
4754.0159753469
 10
6285.9253949851
 20
4754.0068842603
  0
LWPOLYLINE
  5
236
330
1F
100
AcDbEntity
  8
0
  6
Continuous
 62
     7
370
    25
100
AcDbPolyline
 90
        3
 70
   128
 43
0.0
 10
6285.9253949851
 20
4754.0068842603
 10
6286.0998226191
 20
4753.9798010605
 10
6286.2335932273
 20
4753.9650780266
  0
LWPOLYLINE
  5
237
330
1F
100
AcDbEntity
  8
0
  6
Continuous
 62
     7
370
    25
100
AcDbPolyline
 90
        3
 70
   128
 43
0.0
 10
6286.2335932273
 20
4753.9650780266
 10
6286.8499302598
 20
4753.9769740967
 10
6287.4936713523
 20
4754.0891014641
  0
LWPOLYLINE
  5
238
330
1F
100
AcDbEntity
  8
0
  6
Continuous
 62
     7
370
    25
100
AcDbPolyline
 90
        7
 70
   128
 43
0.0
 10
6280.122338271
 20
4757.8373480211
 10
6280.2245000656
 20
4757.8319362306
 10
6280.3111696964
 20
4757.7959528064
 10
6280.3836110829
 20
4757.732293064
 10
6280.4683600281
 20
4757.591243857
 10
6280.5282049702
 20
4757.4042090847
 10
6280.6038592671
 20
4756.3916481513
  0
LINE
  5
239
330
1F
100
AcDbEntity
  8
0
  6
Continuous
 62
     7
370
    25
100
AcDbLine
 10
6280.6038592671
 20
4756.3916481513
 30
0.0
 11
6280.6038592671
 21
4756.0783856187
 31
0.0
  0
LINE
  5
23A
330
1F
100
AcDbEntity
  8
0
  6
Continuous
 62
     7
370
    25
100
AcDbLine
 10
6280.6038592671
 20
4756.0783856187
 30
0.0
 11
6279.9021966695
 21
4756.0773004137
 31
0.0
  0
LINE
  5
23B
330
1F
100
AcDbEntity
  8
0
  6
Continuous
 62
     7
370
    25
100
AcDbLine
 10
6279.9021966695
 20
4756.0773004137
 30
0.0
 11
6279.1942295471
 21
4756.076266885
 31
0.0
  0
LINE
  5
23C
330
1F
100
AcDbEntity
  8
0
  6
Continuous
 62
     7
370
    25
100
AcDbLine
 10
6279.1942295471
 20
4756.076266885
 30
0.0
 11
6279.1942295471
 21
4756.378935749
 31
0.0
  0
LWPOLYLINE
  5
23D
330
1F
100
AcDbEntity
  8
0
  6
Continuous
 62
     7
370
    25
100
AcDbPolyline
 90
        6
 70
   128
 43
0.0
 10
6279.1942295471
 20
4756.378935749
 10
6279.3238857157
 20
4757.3884800706
 10
6279.4094941853
 20
4757.5772723462
 10
6279.5222327819
 20
4757.7227418059
 10
6279.6650276834
 20
4757.8159458027
 10
6279.8408050679
 20
4757.8479416897
  0
LINE
  5
23E
330
1F
100
AcDbEntity
  8
0
  6
Continuous
 62
     7
370
    25
100
AcDbLine
 10
6279.8408050679
 20
4757.8479416897
 30
0.0
 11
6279.8990960835
 21
4757.8479416897
 31
0.0
  0
LINE
  5
23F
330
1F
100
AcDbEntity
  8
0
  6
Continuous
 62
     7
370
    25
100
AcDbLine
 10
6279.8990960835
 20
4757.8479416897
 30
0.0
 11
6280.122338271
 21
4757.8373480211
 31
0.0
  0
LWPOLYLINE
  5
240
330
1F
100
AcDbEntity
  8
0
  6
Continuous
 62
     7
370
    25
100
AcDbPolyline
 90
        7
 70
   128
 43
0.0
 10
6265.9343669338
 20
4757.8267543676
 10
6266.036428067
 20
4757.8225446822
 10
6266.1228323178
 20
4757.7875259744
 10
6266.1948985118
 20
4757.7246231661
 10
6266.2789988775
 20
4757.5843845322
 10
6266.3382570095
 20
4757.3978593582
 10
6266.4158879299
 20
4756.3863254939
  0
LINE
  5
241
330
1F
100
AcDbEntity
  8
0
  6
Continuous
 62
     7
370
    25
100
AcDbLine
 10
6266.4158879299
 20
4756.3863254939
 30
0.0
 11
6266.4106169338
 21
4756.0720294327
 31
0.0
  0
LINE
  5
242
330
1F
100
AcDbEntity
  8
0
  6
Continuous
 62
     7
370
    25
100
AcDbLine
 10
6266.4106169338
 20
4756.0720294327
 30
0.0
 11
6265.7142253322
 21
4756.0709442276
 31
0.0
  0
LINE
  5
243
330
1F
100
AcDbEntity
  8
0
  6
Continuous
 62
     7
370
    25
100
AcDbLine
 10
6265.7142253322
 20
4756.0709442276
 30
0.0
 11
6265.0072917385
 21
4756.069910699
 31
0.0
  0
LINE
  5
244
330
1F
100
AcDbEntity
  8
0
  6
Continuous
 62
     7
370
    25
100
AcDbLine
 10
6265.0072917385
 20
4756.069910699
 30
0.0
 11
6265.0062065334
 21
4756.373664768
 31
0.0
  0
LWPOLYLINE
  5
245
330
1F
100
AcDbEntity
  8
0
  6
Continuous
 62
     7
370
    25
100
AcDbPolyline
 90
        6
 70
   128
 43
0.0
 10
6265.0062065334
 20
4756.373664768
 10
6265.1332207444
 20
4757.3827762995
 10
6265.2212768804
 20
4757.5716799015
 10
6265.3372110385
 20
4757.717274616
 10
6265.4837017134
 20
4757.8105808554
 10
6265.6634273993
 20
4757.8426190323
  0
LINE
  5
246
330
1F
100
AcDbEntity
  8
0
  6
Continuous
 62
     7
370
    25
100
AcDbLine
 10
6265.6634273993
 20
4757.8426190323
 30
0.0
 11
6265.7121065985
 21
4757.8373480362
 31
0.0
  0
LINE
  5
247
330
1F
100
AcDbEntity
  8
0
  6
Continuous
 62
     7
370
    25
100
AcDbLine
 10
6265.7121065985
 20
4757.8373480362
 30
0.0
 11
6265.9343669338
 21
4757.8267543676
 31
0.0
  0
LWPOLYLINE
  5
248
330
1F
100
AcDbEntity
  8
0
  6
Continuous
 62
     7
370
    25
100
AcDbPolyline
 90
        3
 70
   128
 43
0.0
 10
6289.1275766726
 20
4760.1965322133
 10
6289.0887253353
 20
4760.2451531976
 10
6289.0583302533
 20
4760.2761139191
  0
LINE
  5
249
330
1F
100
AcDbEntity
  8
0
  6
Continuous
 62
     7
370
    25
100
AcDbLine
 10
6289.0583302533
 20
4760.2761139191
 30
0.0
 11
6289.0052068809
 21
4760.302882311
 31
0.0
  0
LWPOLYLINE
  5
24A
330
1F
100
AcDbEntity
  8
0
  6
Continuous
 62
     7
370
    25
100
AcDbPolyline
 90
        3
 70
   128
 43
0.0
 10
6289.0052068809
 20
4760.302882311
 10
6289.0916347201
 20
4760.3296991349
 10
6289.1383253705
 20
4760.3611733266
  0
LINE
  5
24B
330
1F
100
AcDbEntity
  8
0
  6
Continuous
 62
     7
370
    25
100
AcDbLine
 10
6288.6814023562
 20
4760.0204189321
 30
0.0
 11
6288.7661517051
 21
4760.020522285
 31
0.0
  0
LINE
  5
24C
330
1F
100
AcDbEntity
  8
0
  6
Continuous
 62
     7
370
    25
100
AcDbLine
 10
6288.7661517051
 20
4760.020522285
 30
0.0
 11
6288.7657382937
 21
4760.2970428741
 31
0.0
  0
LINE
  5
24D
330
1F
100
AcDbEntity
  8
0
  6
Continuous
 62
     7
370
    25
100
AcDbLine
 10
6288.7657382937
 20
4760.2970428741
 30
0.0
 11
6288.8615463991
 21
4760.297146227
 31
0.0
  0
LINE
  5
24E
330
1F
100
AcDbEntity
  8
0
  6
Continuous
 62
     7
370
    25
100
AcDbLine
 10
6288.8615463991
 20
4760.297146227
 30
0.0
 11
6288.9040244265
 21
4760.2972495799
 31
0.0
  0
LINE
  5
24F
330
1F
100
AcDbEntity
  8
0
  6
Continuous
 62
     7
370
    25
100
AcDbLine
 10
6288.9307928184
 20
4760.2865525584
 30
0.0
 11
6288.9414381635
 21
4760.2810748566
 31
0.0
  0
LINE
  5
250
330
1F
100
AcDbEntity
  8
0
  6
Continuous
 62
     7
370
    25
100
AcDbLine
 10
6288.9414381635
 20
4760.2810748566
 30
0.0
 11
6288.9839161908
 21
4760.2387518585
 31
0.0
  0
LWPOLYLINE
  5
251
330
1F
100
AcDbEntity
  8
0
  6
Continuous
 62
     7
370
    25
100
AcDbPolyline
 90
        3
 70
   128
 43
0.0
 10
6288.9839161908
 20
4760.2387518585
 10
6289.0160966943
 20
4760.1989220193
 10
6289.047891614
 20
4760.1536407745
  0
LINE
  5
252
330
1F
100
AcDbEntity
  8
0
  6
Continuous
 62
     7
370
    25
100
AcDbLine
 10
6289.047891614
 20
4760.1536407745
 30
0.0
 11
6289.1332610801
 21
4760.0210390493
 31
0.0
  0
LINE
  5
253
330
1F
100
AcDbEntity
  8
0
  6
Continuous
 62
     7
370
    25
100
AcDbLine
 10
6289.1332610801
 20
4760.0210390493
 30
0.0
 11
6289.2342368288
 21
4760.0211424021
 31
0.0
  0
LINE
  5
254
330
1F
100
AcDbEntity
  8
0
  6
Continuous
 62
     7
370
    25
100
AcDbLine
 10
6289.2342368288
 20
4760.0211424021
 30
0.0
 11
6289.1275766726
 21
4760.1965322133
 31
0.0
  0
ARC
  5
255
330
1F
100
AcDbEntity
  8
0
  6
Continuous
 62
     7
370
    25
100
AcDbCircle
 10
6288.9156303814
 20
4760.3242867163
 30
0.0
 40
0.6068167046695362
100
AcDbArc
 50
180.1278336833
 51
270.4850536063
  0
ARC
  5
256
330
1F
100
AcDbEntity
  8
0
  6
Continuous
 62
     7
370
    25
100
AcDbCircle
 10
6288.9208981603
 20
4760.3282599341
 30
0.0
 40
0.6121061543019956
100
AcDbArc
 50
90.1863678039
 51
180.4986455647
  0
ARC
  5
257
330
1F
100
AcDbEntity
  8
0
  6
Continuous
 62
     7
370
    25
100
AcDbCircle
 10
6288.9162304204
 20
4760.3248094531
 30
0.0
 40
0.6155592170258051
100
AcDbArc
 50
359.9936761324
 51
89.7508515853
  0
ARC
  5
258
330
1F
100
AcDbEntity
  8
0
  6
Continuous
 62
     7
370
    25
100
AcDbCircle
 10
6288.9185973763
 20
4760.3307092126
 30
0.0
 40
0.6132212959999148
100
AcDbArc
 50
270.2027638076
 51
359.4424045031
  0
LWPOLYLINE
  5
259
330
1F
100
AcDbEntity
  8
0
  6
Continuous
 62
     7
370
    25
100
AcDbPolyline
 90
        3
 70
   128
 43
0.0
 10
6289.159306002
 20
4760.5740285512
 10
6289.1214788668
 20
4760.6127553359
 10
6289.0846852338
 20
4760.6326296255
  0
LWPOLYLINE
  5
25A
330
1F
100
AcDbEntity
  8
0
  6
Continuous
 62
     7
370
    25
100
AcDbPolyline
 90
        3
 70
   128
 43
0.0
 10
6289.0846852338
 20
4760.6326296255
 10
6289.0247765424
 20
4760.6484202564
 10
6288.9568377403
 20
4760.653610257
  0
LWPOLYLINE
  5
25B
330
1F
100
AcDbEntity
  8
0
  6
Continuous
 62
     7
370
    25
100
AcDbPolyline
 90
        3
 70
   128
 43
0.0
 10
6289.1383253705
 20
4760.3611733266
 10
6289.1765557042
 20
4760.4210317802
 10
6289.1857643353
 20
4760.4786855337
  0
LWPOLYLINE
  5
25C
330
1F
100
AcDbEntity
  8
0
  6
Continuous
 62
     7
370
    25
100
AcDbPolyline
 90
        3
 70
   128
 43
0.0
 10
6289.1857643353
 20
4760.4786855337
 10
6289.1767539499
 20
4760.5342733146
 10
6289.159306002
 20
4760.5740285512
  0
LINE
  5
25D
330
1F
100
AcDbEntity
  8
0
  6
Continuous
 62
     7
370
    25
100
AcDbLine
 10
6288.9040244265
 20
4760.2972495799
 30
0.0
 11
6288.9307928184
 21
4760.2865525584
 31
0.0
  0
LINE
  5
25E
330
1F
100
AcDbEntity
  8
0
  6
Continuous
 62
     7
370
    25
100
AcDbLine
 10
6288.9568377403
 20
4760.653610257
 30
0.0
 11
6288.930379407
 21
4760.653610257
 31
0.0
  0
LINE
  5
25F
330
1F
100
AcDbEntity
  8
0
  6
Continuous
 62
     7
370
    25
100
AcDbLine
 10
6288.930379407
 20
4760.653610257
 30
0.0
 11
6288.6803688275
 21
4760.6531968455
 31
0.0
  0
LINE
  5
260
330
1F
100
AcDbEntity
  8
0
  6
Continuous
 62
     7
370
    25
100
AcDbLine
 10
6288.6803688275
 20
4760.6531968455
 30
0.0
 11
6288.6814023562
 21
4760.0204189321
 31
0.0
  0
LINE
  5
261
330
1F
100
AcDbEntity
  8
0
  6
Continuous
 62
     7
370
    25
100
AcDbLine
 10
6449.0187553361
 20
4769.8973656866
 30
0.0
 11
6449.0187553361
 21
4585.8973656866
 31
0.0
  0
LINE
  5
262
330
1F
100
AcDbEntity
  8
0
  6
Continuous
 62
     7
370
    25
100
AcDbLine
 10
6449.0187553361
 20
4585.8973656866
 30
0.0
 11
6448.5187553361
 21
4585.8973656866
 31
0.0
  0
LINE
  5
263
330
1F
100
AcDbEntity
  8
0
  6
Continuous
 62
     7
370
    25
100
AcDbLine
 10
6099.0187553361
 20
4585.8973656866
 30
0.0
 11
6099.5187553361
 21
4585.8973656866
 31
0.0
  0
LINE
  5
264
330
1F
100
AcDbEntity
  8
0
  6
Continuous
 62
     7
370
    25
100
AcDbLine
 10
6099.0187553361
 20
4585.8973656866
 30
0.0
 11
6099.0187553361
 21
4770.8973656866
 31
0.0
  0
LINE
  5
265
330
1F
100
AcDbEntity
  8
0
  6
Continuous
 62
     7
370
    25
100
AcDbLine
 10
6099.0187553361
 20
4770.8973656866
 30
0.0
 11
6099.5187553361
 21
4770.8973656866
 31
0.0
  0
ARC
  5
266
330
1F
100
AcDbEntity
  8
0
  6
Continuous
 62
     7
370
    25
100
AcDbCircle
 10
6286.5853127742
 20
4756.8315526343
 30
0.0
 40
2.114687687094116
100
AcDbArc
 50
260.3918670469
 51
295.2374483231
  0
LWPOLYLINE
  5
267
330
1F
100
AcDbEntity
  8
0
  6
Continuous
 62
     7
370
    25
100
AcDbPolyline
 90
        3
 70
   128
 43
0.0
 10
6286.2323529929
 20
4754.7465290357
 10
6286.057778859
 20
4754.7690871792
 10
6285.9240513978
 20
4754.7938646477
  0
LWPOLYLINE
  5
268
330
1F
100
AcDbEntity
  8
0
  6
Continuous
 62
     7
370
    25
100
AcDbPolyline
 90
        3
 70
   128
 43
0.0
 10
6285.9240513978
 20
4754.7938646477
 10
6285.8734081238
 20
4754.8038897895
 10
6285.8338243471
 20
4754.8151036613
  0
LWPOLYLINE
  5
269
330
1F
100
AcDbEntity
  8
0
  6
Continuous
 62
     7
370
    25
100
AcDbPolyline
 90
        3
 70
   128
 43
0.0
 10
6285.8338243471
 20
4754.8151036613
 10
6285.7362637276
 20
4754.8400542335
 10
6285.6631887676
 20
4754.862645979
  0
LWPOLYLINE
  5
26A
330
1F
100
AcDbEntity
  8
0
  6
Continuous
 62
     7
370
    25
100
AcDbPolyline
 90
        3
 70
   128
 43
0.0
 10
6285.9230178692
 20
4755.4746499667
 10
6286.0919566691
 20
4755.4482497689
 10
6286.2314228171
 20
4755.4379596997
  0
LWPOLYLINE
  5
26B
330
1F
100
AcDbEntity
  8
0
  6
Continuous
 62
     7
370
    25
100
AcDbPolyline
 90
        3
 70
   128
 43
0.0
 10
6287.3690277976
 20
4755.5937124667
 10
6287.4643695286
 20
4755.1765565787
 10
6287.4869534161
 20
4754.9187149081
  0
LWPOLYLINE
  5
26C
330
1F
100
AcDbEntity
  8
0
  6
Continuous
 62
     7
370
    25
100
AcDbPolyline
 90
        3
 70
   128
 43
0.0
 10
6285.6631887676
 20
4754.862645979
 10
6285.6892950861
 20
4755.2522422651
 10
6285.7419436504
 20
4755.5220889315
  0
LWPOLYLINE
  5
26D
330
1F
100
AcDbEntity
  8
0
  6
Continuous
 62
     7
370
    25
100
AcDbPolyline
 90
        3
 70
   128
 43
0.0
 10
6285.7419436504
 20
4755.5220889315
 10
6285.7926438761
 20
4755.5094872639
 10
6285.8327908184
 20
4755.4959406568
  0
LWPOLYLINE
  5
26E
330
1F
100
AcDbEntity
  8
0
  6
Continuous
 62
     7
370
    25
100
AcDbPolyline
 90
        3
 70
   128
 43
0.0
 10
6285.8327908184
 20
4755.4959406568
 10
6285.8829420865
 20
4755.4838100666
 10
6285.9230178692
 20
4755.4746499667
  0
ARC
  5
26F
330
1F
100
AcDbEntity
  8
0
  6
Continuous
 62
     7
370
    25
100
AcDbCircle
 10
6286.5367239645
 20
4757.4404275103
 30
0.0
 40
2.02560759352269
100
AcDbArc
 50
261.3313011464
 51
294.260815327
  0
LWPOLYLINE
  5
270
330
1F
100
AcDbEntity
  8
0
  6
Continuous
 62
     7
370
    25
100
AcDbPolyline
 90
        3
 70
   128
 43
0.0
 10
6287.0434662741
 20
4756.3379564445
 10
6286.5797824876
 20
4756.2043448378
 10
6286.2301825827
 20
4756.1929523755
  0
LWPOLYLINE
  5
271
330
1F
100
AcDbEntity
  8
0
  6
Continuous
 62
     7
370
    25
100
AcDbPolyline
 90
        3
 70
   128
 43
0.0
 10
6286.2301825827
 20
4756.1929523755
 10
6286.0534446599
 20
4756.209891113
 10
6285.9219843405
 20
4756.2297976717
  0
LWPOLYLINE
  5
272
330
1F
100
AcDbEntity
  8
0
  6
Continuous
 62
     7
370
    25
100
AcDbPolyline
 90
        3
 70
   128
 43
0.0
 10
6285.9219843405
 20
4756.2297976717
 10
6285.8819261858
 20
4756.2355116266
 10
6285.8474669252
 20
4756.2403913404
  0
LWPOLYLINE
  5
273
330
1F
100
AcDbEntity
  8
0
  6
Continuous
 62
     7
370
    25
100
AcDbPolyline
 90
        3
 70
   128
 43
0.0
 10
6285.8474669252
 20
4756.2403913404
 10
6285.8846809282
 20
4756.4387448815
 10
6285.9214675762
 20
4756.5915326978
  0
LWPOLYLINE
  5
274
330
1F
100
AcDbEntity
  8
0
  6
Continuous
 62
     7
370
    25
100
AcDbPolyline
 90
        3
 70
   128
 43
0.0
 10
6285.9214675762
 20
4756.5915326978
 10
6285.9577562784
 20
4756.7026768205
 10
6285.9899905254
 20
4756.7937942538
  0
LWPOLYLINE
  5
275
330
1F
100
AcDbEntity
  8
0
  6
Continuous
 62
     7
370
    25
100
AcDbPolyline
 90
        3
 70
   128
 43
0.0
 10
6286.229252407
 20
4756.7941043124
 10
6286.4751575857
 20
4756.8165241515
 10
6286.6862787741
 20
4756.8478478019
  0
LWPOLYLINE
  5
276
330
1F
100
AcDbEntity
  8
0
  6
Continuous
 62
     7
370
    25
100
AcDbPolyline
 90
        3
 70
   128
 43
0.0
 10
6285.9899905254
 20
4756.7937942538
 10
6286.1256885041
 20
4756.7899569686
 10
6286.229252407
 20
4756.7941043124
  0
LWPOLYLINE
  5
277
330
1F
100
AcDbEntity
  8
0
  6
Continuous
 62
     7
370
    25
100
AcDbPolyline
 90
        3
 70
   128
 43
0.0
 10
6286.6862787741
 20
4756.8478478019
 10
6286.9290838432
 20
4756.5434061404
 10
6287.0434662741
 20
4756.3379564445
  0
LWPOLYLINE
  5
278
330
1F
100
AcDbEntity
  8
0
  6
Continuous
 62
     7
370
    25
100
AcDbPolyline
 90
        3
 70
   128
 43
0.0
 10
6286.9224400697
 20
4759.1188202954
 10
6286.8689782952
 20
4759.2076750583
 10
6286.8156765606
 20
4759.2780870598
  0
LWPOLYLINE
  5
279
330
1F
100
AcDbEntity
  8
0
  6
Continuous
 62
     7
370
    25
100
AcDbPolyline
 90
        3
 70
   128
 43
0.0
 10
6286.8156765606
 20
4759.2780870598
 10
6287.1979093337
 20
4760.0694022581
 10
6287.3192117168
 20
4760.7147952303
  0
LWPOLYLINE
  5
27A
330
1F
100
AcDbEntity
  8
0
  6
Continuous
 62
     7
370
    25
100
AcDbPolyline
 90
        3
 70
   128
 43
0.0
 10
6287.3192117168
 20
4760.7147952303
 10
6286.6784585772
 20
4760.4675881759
 10
6286.2240847637
 20
4760.1546227043
  0
LWPOLYLINE
  5
27B
330
1F
100
AcDbEntity
  8
0
  6
Continuous
 62
     7
370
    25
100
AcDbPolyline
 90
        3
 70
   128
 43
0.0
 10
6286.2240847637
 20
4760.1546227043
 10
6286.0667892709
 20
4760.0204541761
 10
6285.9428616192
 20
4759.9043020663
  0
LINE
  5
27C
330
1F
100
AcDbEntity
  8
0
  6
Continuous
 62
     7
370
    25
100
AcDbLine
 10
6285.9428616192
 20
4759.9043020663
 30
0.0
 11
6285.9164032859
 21
4759.9204251131
 31
0.0
  0
LWPOLYLINE
  5
27D
330
1F
100
AcDbEntity
  8
0
  6
Continuous
 62
     7
370
    25
100
AcDbPolyline
 90
        3
 70
   128
 43
0.0
 10
6285.9164032859
 20
4759.9204251131
 10
6285.8634136074
 20
4759.9440192194
 10
6285.8258661765
 20
4759.9626447583
  0
LINE
  5
27E
330
1F
100
AcDbEntity
  8
0
  6
Continuous
 62
     7
370
    25
100
AcDbLine
 10
6285.8258661765
 20
4759.9626447583
 30
0.0
 11
6285.7779104473
 21
4759.978509423
 31
0.0
  0
LINE
  5
27F
330
1F
100
AcDbEntity
  8
0
  6
Continuous
 62
     7
370
    25
100
AcDbLine
 10
6285.7779104473
 20
4759.978509423
 30
0.0
 11
6285.8257628236
 21
4760.0212458325
 31
0.0
  0
LWPOLYLINE
  5
280
330
1F
100
AcDbEntity
  8
0
  6
Continuous
 62
     7
370
    25
100
AcDbPolyline
 90
        3
 70
   128
 43
0.0
 10
6285.8257628236
 20
4760.0212458325
 10
6285.8781141815
 20
4760.0691034344
 10
6285.9160932273
 20
4760.1064602694
  0
LWPOLYLINE
  5
281
330
1F
100
AcDbEntity
  8
0
  6
Continuous
 62
     7
370
    25
100
AcDbPolyline
 90
        3
 70
   128
 43
0.0
 10
6285.9160932273
 20
4760.1064602694
 10
6286.0863045936
 20
4760.2487562486
 10
6286.2237747051
 20
4760.3566775546
  0
LWPOLYLINE
  5
282
330
1F
100
AcDbEntity
  8
0
  6
Continuous
 62
     7
370
    25
100
AcDbPolyline
 90
        3
 70
   128
 43
0.0
 10
6287.5046267559
 20
4760.9115274081
 10
6287.3203274251
 20
4759.9281030139
 10
6286.9224400697
 20
4759.1188202954
  0
LWPOLYLINE
  5
283
330
1F
100
AcDbEntity
  8
0
  6
Continuous
 62
     7
370
    25
100
AcDbPolyline
 90
        3
 70
   128
 43
0.0
 10
6286.2237747051
 20
4760.3566775546
 10
6286.8913928692
 20
4760.7518534731
 10
6287.5046267559
 20
4760.9115274081
  0
LWPOLYLINE
  5
284
330
1F
100
AcDbEntity
  8
0
  6
Continuous
 62
     7
370
    25
100
AcDbPolyline
 90
        3
 70
   128
 43
0.0
 10
6285.8252460593
 20
4760.3990005526
 10
6285.8775456515
 20
4760.428845718
 10
6285.9154731101
 20
4760.4522272779
  0
LWPOLYLINE
  5
285
330
1F
100
AcDbEntity
  8
0
  6
Continuous
 62
     7
370
    25
100
AcDbPolyline
 90
        3
 70
   128
 43
0.0
 10
6285.9154731101
 20
4760.4522272779
 10
6286.0897452617
 20
4760.5416693827
 10
6286.2234646465
 20
4760.6017788729
  0
LWPOLYLINE
  5
286
330
1F
100
AcDbEntity
  8
0
  6
Continuous
 62
     7
370
    25
100
AcDbPolyline
 90
        3
 70
   128
 43
0.0
 10
6286.2234646465
 20
4760.6017788729
 10
6286.4726985747
 20
4760.6909272836
 10
6286.6646780254
 20
4760.7404267407
  0
LWPOLYLINE
  5
287
330
1F
100
AcDbEntity
  8
0
  6
Continuous
 62
     7
370
    25
100
AcDbPolyline
 90
        3
 70
   128
 43
0.0
 10
6286.6646780254
 20
4760.7404267407
 10
6286.4077307259
 20
4760.5959756774
 10
6286.2235679994
 20
4760.4684020012
  0
LWPOLYLINE
  5
288
330
1F
100
AcDbEntity
  8
0
  6
Continuous
 62
     7
370
    25
100
AcDbPolyline
 90
        3
 70
   128
 43
0.0
 10
6286.2235679994
 20
4760.4684020012
 10
6286.0454266604
 20
4760.3323751851
 10
6285.9157831687
 20
4760.2182363924
  0
LWPOLYLINE
  5
289
330
1F
100
AcDbEntity
  8
0
  6
Continuous
 62
     7
370
    25
100
AcDbPolyline
 90
        3
 70
   128
 43
0.0
 10
6285.9157831687
 20
4760.2182363924
 10
6285.8651916603
 20
4760.1675651056
 10
6285.8256594708
 20
4760.1274409009
  0
LWPOLYLINE
  5
28A
330
1F
100
AcDbEntity
  8
0
  6
Continuous
 62
     7
370
    25
100
AcDbPolyline
 90
        3
 70
   128
 43
0.0
 10
6285.8256594708
 20
4760.1274409009
 10
6285.7628617146
 20
4760.0590849501
 10
6285.7138316713
 20
4760.0050711092
  0
LWPOLYLINE
  5
28B
330
1F
100
AcDbEntity
  8
0
  6
Continuous
 62
     7
370
    25
100
AcDbPolyline
 90
        3
 70
   128
 43
0.0
 10
6285.7138316713
 20
4760.0050711092
 10
6285.6742401489
 20
4760.0197886431
 10
6285.6398310202
 20
4760.0314260897
  0
LWPOLYLINE
  5
28C
330
1F
100
AcDbEntity
  8
0
  6
Continuous
 62
     7
370
    25
100
AcDbPolyline
 90
        3
 70
   128
 43
0.0
 10
6285.6398310202
 20
4760.0314260897
 10
6285.513423462
 20
4760.0693245301
 10
6285.4105943666
 20
4760.0952464836
  0
LWPOLYLINE
  5
28D
330
1F
100
AcDbEntity
  8
0
  6
Continuous
 62
     7
370
    25
100
AcDbPolyline
 90
        3
 70
   128
 43
0.0
 10
6285.4105943666
 20
4760.0952464836
 10
6285.5388301163
 20
4760.1984497065
 10
6285.6394176088
 20
4760.2762173495
  0
LWPOLYLINE
  5
28E
330
1F
100
AcDbEntity
  8
0
  6
Continuous
 62
     7
370
    25
100
AcDbPolyline
 90
        3
 70
   128
 43
0.0
 10
6285.6394176088
 20
4760.2762173495
 10
6285.7430903811
 20
4760.3469638306
 10
6285.8252460593
 20
4760.3990005526
  0
LWPOLYLINE
  5
28F
330
1F
100
AcDbEntity
  8
0
  6
Continuous
 62
     7
370
    25
100
AcDbPolyline
 90
        3
 70
   128
 43
0.0
 10
6284.410448696
 20
4760.0828441398
 10
6284.2078988434
 20
4760.0368091732
 10
6284.0655601869
 20
4759.9866742993
  0
LWPOLYLINE
  5
290
330
1F
100
AcDbEntity
  8
0
  6
Continuous
 62
     7
370
    25
100
AcDbPolyline
 90
        3
 70
   128
 43
0.0
 10
6284.0655601869
 20
4759.9866742993
 10
6283.7097551613
 20
4760.3554524279
 10
6283.3676182924
 20
4760.6023989901
  0
LWPOLYLINE
  5
291
330
1F
100
AcDbEntity
  8
0
  6
Continuous
 62
     7
370
    25
100
AcDbPolyline
 90
        3
 70
   128
 43
0.0
 10
6283.3676182924
 20
4760.6023989901
 10
6283.1441528627
 20
4760.722215632
 10
6282.9583409486
 20
4760.7988211092
  0
LWPOLYLINE
  5
292
330
1F
100
AcDbEntity
  8
0
  6
Continuous
 62
     7
370
    25
100
AcDbPolyline
 90
        3
 70
   128
 43
0.0
 10
6282.9583409486
 20
4760.7988211092
 10
6283.1680244706
 20
4760.747069317
 10
6283.3674115866
 20
4760.6714903801
  0
LWPOLYLINE
  5
293
330
1F
100
AcDbEntity
  8
0
  6
Continuous
 62
     7
370
    25
100
AcDbPolyline
 90
        3
 70
   128
 43
0.0
 10
6283.3674115866
 20
4760.6714903801
 10
6283.9254666126
 20
4760.394630638
 10
6284.410448696
 20
4760.0828441398
  0
LWPOLYLINE
  5
294
330
1F
100
AcDbEntity
  8
0
  6
Continuous
 62
     7
370
    25
100
AcDbPolyline
 90
        3
 70
   128
 43
0.0
 10
6282.4527387351
 20
4760.8881696607
 10
6282.974886588
 20
4760.7395296941
 10
6283.3678249981
 20
4760.5278815747
  0
LWPOLYLINE
  5
295
330
1F
100
AcDbEntity
  8
0
  6
Continuous
 62
     7
370
    25
100
AcDbPolyline
 90
        3
 70
   128
 43
0.0
 10
6283.3678249981
 20
4760.5278815747
 10
6283.7368080597
 20
4760.239347781
 10
6284.0124368145
 20
4759.9599059074
  0
LWPOLYLINE
  5
296
330
1F
100
AcDbEntity
  8
0
  6
Continuous
 62
     7
370
    25
100
AcDbPolyline
 90
        3
 70
   128
 43
0.0
 10
6284.0124368145
 20
4759.9599059074
 10
6283.9118778573
 20
4759.9169207201
 10
6283.8369436504
 20
4759.8799624667
  0
LWPOLYLINE
  5
297
330
1F
100
AcDbEntity
  8
0
  6
Continuous
 62
     7
370
    25
100
AcDbPolyline
 90
        3
 70
   128
 43
0.0
 10
6283.8369436504
 20
4759.8799624667
 10
6283.5765469383
 20
4760.1292887674
 10
6283.3681350567
 20
4760.3045877108
  0
LWPOLYLINE
  5
298
330
1F
100
AcDbEntity
  8
0
  6
Continuous
 62
     7
370
    25
100
AcDbPolyline
 90
        3
 70
   128
 43
0.0
 10
6283.3681350567
 20
4760.3045877108
 10
6282.9553862473
 20
4760.5737086615
 10
6282.5914382793
 20
4760.7395482414
  0
LWPOLYLINE
  5
299
330
1F
100
AcDbEntity
  8
0
  6
Continuous
 62
     7
370
    25
100
AcDbPolyline
 90
        3
 70
   128
 43
0.0
 10
6282.5914382793
 20
4760.7395482414
 10
6282.7220381208
 20
4759.8427178183
 10
6283.0034027976
 20
4759.1714269035
  0
LINE
  5
29A
330
1F
100
AcDbEntity
  8
0
  6
Continuous
 62
     7
370
    25
100
AcDbLine
 10
6283.0034027976
 20
4759.1714269035
 30
0.0
 11
6282.9391173158
 21
4759.0809414706
 31
0.0
  0
LWPOLYLINE
  5
29B
330
1F
100
AcDbEntity
  8
0
  6
Continuous
 62
     7
370
    25
100
AcDbPolyline
 90
        3
 70
   128
 43
0.0
 10
6282.9391173158
 20
4759.0809414706
 10
6282.52282899
 20
4760.1214247555
 10
6282.4527387351
 20
4760.8881696607
  0
LWPOLYLINE
  5
29C
330
1F
100
AcDbEntity
  8
0
  6
Continuous
 62
     7
370
    25
100
AcDbPolyline
 90
        3
 70
   128
 43
0.0
 10
6283.3693752911
 20
4759.485877994
 10
6283.9254758135
 20
4759.849871219
 10
6284.4321527976
 20
4760.0031590812
  0
LWPOLYLINE
  5
29D
330
1F
100
AcDbEntity
  8
0
  6
Continuous
 62
     7
370
    25
100
AcDbPolyline
 90
        3
 70
   128
 43
0.0
 10
6284.4321527976
 20
4760.0031590812
 10
6284.705347313
 20
4760.043188112
 10
6284.9267996075
 20
4760.0572643059
  0
LINE
  5
29E
330
1F
100
AcDbEntity
  8
0
  6
Continuous
 62
     7
370
    25
100
AcDbLine
 10
6284.9267996075
 20
4760.0572643059
 30
0.0
 11
6284.9373415997
 21
4760.0572643059
 31
0.0
  0
LWPOLYLINE
  5
29F
330
1F
100
AcDbEntity
  8
0
  6
Continuous
 62
     7
370
    25
100
AcDbPolyline
 90
        3
 70
   128
 43
0.0
 10
6284.9373415997
 20
4760.0572643059
 10
6285.336844309
 20
4760.0323833721
 10
6285.6399343731
 20
4759.9572187329
  0
LWPOLYLINE
  5
2A0
330
1F
100
AcDbEntity
  8
0
  6
Continuous
 62
     7
370
    25
100
AcDbPolyline
 90
        3
 70
   128
 43
0.0
 10
6285.6399343731
 20
4759.9572187329
 10
6285.7461248675
 20
4759.920742924
 10
6285.8259695293
 20
4759.8882306958
  0
LWPOLYLINE
  5
2A1
330
1F
100
AcDbEntity
  8
0
  6
Continuous
 62
     7
370
    25
100
AcDbPolyline
 90
        3
 70
   128
 43
0.0
 10
6285.8259695293
 20
4759.8882306958
 10
6285.8784427543
 20
4759.8664428338
 10
6285.9165066387
 20
4759.8459076978
  0
LWPOLYLINE
  5
2A2
330
1F
100
AcDbEntity
  8
0
  6
Continuous
 62
     7
370
    25
100
AcDbPolyline
 90
        3
 70
   128
 43
0.0
 10
6285.9165066387
 20
4759.8459076978
 10
6286.0932380792
 20
4759.7568072098
 10
6286.2249115866
 20
4759.6762539706
  0
LWPOLYLINE
  5
2A3
330
1F
100
AcDbEntity
  8
0
  6
Continuous
 62
     7
370
    25
100
AcDbPolyline
 90
        3
 70
   128
 43
0.0
 10
6286.2249115866
 20
4759.6762539706
 10
6286.8324426111
 20
4759.1032477241
 10
6287.1040310528
 20
4758.5607665031
  0
LWPOLYLINE
  5
2A4
330
1F
100
AcDbEntity
  8
0
  6
Continuous
 62
     7
370
    25
100
AcDbPolyline
 90
        3
 70
   128
 43
0.0
 10
6287.1040310528
 20
4758.5607665031
 10
6286.6933286103
 20
4758.9081013034
 10
6286.2256350567
 20
4759.176387841
  0
LWPOLYLINE
  5
2A5
330
1F
100
AcDbEntity
  8
0
  6
Continuous
 62
     7
370
    25
100
AcDbPolyline
 90
        3
 70
   128
 43
0.0
 10
6286.2256350567
 20
4759.176387841
 10
6286.0549482605
 20
4759.2554517968
 10
6285.9172301088
 20
4759.3141055331
  0
LWPOLYLINE
  5
2A6
330
1F
100
AcDbEntity
  8
0
  6
Continuous
 62
     7
370
    25
100
AcDbPolyline
 90
        3
 70
   128
 43
0.0
 10
6285.9172301088
 20
4759.3141055331
 10
6285.877171954
 20
4759.3318970623
 10
6285.8427126934
 20
4759.3457315096
  0
LINE
  5
2A7
330
1F
100
AcDbEntity
  8
0
  6
Continuous
 62
     7
370
    25
100
AcDbLine
 10
6285.8427126934
 20
4759.3457315096
 30
0.0
 11
6285.8267963523
 21
4759.3299701978
 31
0.0
  0
LWPOLYLINE
  5
2A8
330
1F
100
AcDbEntity
  8
0
  6
Continuous
 62
     7
370
    25
100
AcDbPolyline
 90
        3
 70
   128
 43
0.0
 10
6285.8267963523
 20
4759.3299701978
 10
6285.7246332131
 20
4759.2373540389
 10
6285.6409679017
 20
4759.1755610181
  0
LWPOLYLINE
  5
2A9
330
1F
100
AcDbEntity
  8
0
  6
Continuous
 62
     7
370
    25
100
AcDbPolyline
 90
        3
 70
   128
 43
0.0
 10
6285.6409679017
 20
4759.1755610181
 10
6285.3176655496
 20
4759.0335484076
 10
6285.0028673158
 20
4758.9991376782
  0
LINE
  5
2AA
330
1F
100
AcDbEntity
  8
0
  6
Continuous
 62
     7
370
    25
100
AcDbLine
 10
6285.0028673158
 20
4758.9991376782
 30
0.0
 11
6284.9388918926
 21
4759.0043053215
 31
0.0
  0
LWPOLYLINE
  5
2AB
330
1F
100
AcDbEntity
  8
0
  6
Continuous
 62
     7
370
    25
100
AcDbPolyline
 90
        3
 70
   128
 43
0.0
 10
6284.9388918926
 20
4759.0043053215
 10
6284.6399369353
 20
4759.0700849781
 10
6284.433393032
 20
4759.1736489901
  0
LWPOLYLINE
  5
2AC
330
1F
100
AcDbEntity
  8
0
  6
Continuous
 62
     7
370
    25
100
AcDbPolyline
 90
        3
 70
   128
 43
0.0
 10
6284.433393032
 20
4759.1736489901
 10
6284.2655770576
 20
4759.2966166277
 10
6284.1617817038
 20
4759.3963227368
  0
LWPOLYLINE
  5
2AD
330
1F
100
AcDbEntity
  8
0
  6
Continuous
 62
     7
370
    25
100
AcDbPolyline
 90
        3
 70
   128
 43
0.0
 10
6284.1617817038
 20
4759.3963227368
 10
6283.7436507403
 20
4759.1876052152
 10
6283.3700987611
 20
4758.9435855135
  0
LWPOLYLINE
  5
2AE
330
1F
100
AcDbEntity
  8
0
  6
Continuous
 62
     7
370
    25
100
AcDbPolyline
 90
        3
 70
   128
 43
0.0
 10
6283.3700987611
 20
4758.9435855135
 10
6283.0092563466
 20
4758.663690531
 10
6282.7222830059
 20
4758.415865787
  0
LWPOLYLINE
  5
2AF
330
1F
100
AcDbEntity
  8
0
  6
Continuous
 62
     7
370
    25
100
AcDbPolyline
 90
        3
 70
   128
 43
0.0
 10
6282.7222830059
 20
4758.415865787
 10
6283.0377521568
 20
4759.0915046757
 10
6283.3693752911
 20
4759.485877994
  0
LWPOLYLINE
  5
2B0
330
1F
100
AcDbEntity
  8
0
  6
Continuous
 62
     7
370
    25
100
AcDbPolyline
 90
        3
 70
   128
 43
0.0
 10
6282.5751085267
 20
4758.113196923
 10
6282.6021784841
 20
4758.1826125897
 10
6282.6550002911
 20
4758.255565494
  0
LINE
  5
2B1
330
1F
100
AcDbEntity
  8
0
  6
Continuous
 62
     7
370
    25
100
AcDbLine
 10
6282.6550002911
 20
4758.255565494
 30
0.0
 11
6282.6517963523
 21
4758.253653466
 31
0.0
  0
LWPOLYLINE
  5
2B2
330
1F
100
AcDbEntity
  8
0
  6
Continuous
 62
     7
370
    25
100
AcDbPolyline
 90
        3
 70
   128
 43
0.0
 10
6282.6517963523
 20
4758.253653466
 10
6283.0599434754
 20
4758.604884031
 10
6283.370202114
 20
4758.8422997062
  0
LWPOLYLINE
  5
2B3
330
1F
100
AcDbEntity
  8
0
  6
Continuous
 62
     7
370
    25
100
AcDbPolyline
 90
        3
 70
   128
 43
0.0
 10
6283.370202114
 20
4758.8422997062
 10
6283.7880866578
 20
4759.1176929687
 10
6284.1305691387
 20
4759.3062507154
  0
LWPOLYLINE
  5
2B4
330
1F
100
AcDbEntity
  8
0
  6
Continuous
 62
     7
370
    25
100
AcDbPolyline
 90
        3
 70
   128
 43
0.0
 10
6284.1305691387
 20
4759.3062507154
 10
6284.2805739981
 20
4759.174359231
 10
6284.4334963848
 20
4759.0778925611
  0
LWPOLYLINE
  5
2B5
330
1F
100
AcDbEntity
  8
0
  6
Continuous
 62
     7
370
    25
100
AcDbPolyline
 90
        3
 70
   128
 43
0.0
 10
6284.4334963848
 20
4759.0778925611
 10
6284.6951077859
 20
4758.9676647102
 10
6284.9389952455
 20
4758.92451691
  0
LINE
  5
2B6
330
1F
100
AcDbEntity
  8
0
  6
Continuous
 62
     7
370
    25
100
AcDbLine
 10
6284.9389952455
 20
4758.92451691
 30
0.0
 11
6285.0029706687
 21
4758.9192459139
 31
0.0
  0
LWPOLYLINE
  5
2B7
330
1F
100
AcDbEntity
  8
0
  6
Continuous
 62
     7
370
    25
100
AcDbPolyline
 90
        3
 70
   128
 43
0.0
 10
6285.0029706687
 20
4758.9192459139
 10
6285.4292487616
 20
4758.9734432433
 10
6285.6411746075
 20
4759.0742752108
  0
LWPOLYLINE
  5
2B8
330
1F
100
AcDbEntity
  8
0
  6
Continuous
 62
     7
370
    25
100
AcDbPolyline
 90
        3
 70
   128
 43
0.0
 10
6285.6411746075
 20
4759.0742752108
 10
6285.7449665613
 20
4759.1567407029
 10
6285.827003058
 20
4759.2288910962
  0
LINE
  5
2B9
330
1F
100
AcDbEntity
  8
0
  6
Continuous
 62
     7
370
    25
100
AcDbLine
 10
6285.827003058
 20
4759.2288910962
 30
0.0
 11
6285.8532546856
 21
4759.2501817863
 31
0.0
  0
LWPOLYLINE
  5
2BA
330
1F
100
AcDbEntity
  8
0
  6
Continuous
 62
     7
370
    25
100
AcDbPolyline
 90
        3
 70
   128
 43
0.0
 10
6285.8532546856
 20
4759.2501817863
 10
6285.8929402012
 20
4759.2373224476
 10
6285.9174368145
 20
4759.223723453
  0
LWPOLYLINE
  5
2BB
330
1F
100
AcDbEntity
  8
0
  6
Continuous
 62
     7
370
    25
100
AcDbPolyline
 90
        3
 70
   128
 43
0.0
 10
6285.9174368145
 20
4759.223723453
 10
6286.0958734681
 20
4759.1386313363
 10
6286.2258417624
 20
4759.0751020337
  0
LWPOLYLINE
  5
2BC
330
1F
100
AcDbEntity
  8
0
  6
Continuous
 62
     7
370
    25
100
AcDbPolyline
 90
        3
 70
   128
 43
0.0
 10
6286.2258417624
 20
4759.0751020337
 10
6286.8931581295
 20
4758.6567998451
 10
6287.2982310853
 20
4758.2135525546
  0
ARC
  5
2BD
330
1F
100
AcDbEntity
  8
0
  6
Continuous
 62
     7
370
    25
100
AcDbCircle
 10
6287.0934110001
 20
4758.1046422258
 30
0.0
 40
0.2319757035291557
100
AcDbArc
 50
335.8935750003
 51
28.0012120043
  0
LWPOLYLINE
  5
2BE
330
1F
100
AcDbEntity
  8
0
  6
Continuous
 62
     7
370
    25
100
AcDbPolyline
 90
        3
 70
   128
 43
0.0
 10
6287.3051557273
 20
4758.0098957349
 10
6286.8058628605
 20
4758.3580204024
 10
6286.2265652325
 20
4758.5914623039
  0
LWPOLYLINE
  5
2BF
330
1F
100
AcDbEntity
  8
0
  6
Continuous
 62
     7
370
    25
100
AcDbPolyline
 90
        3
 70
   128
 43
0.0
 10
6286.2265652325
 20
4758.5914623039
 10
6286.0575681846
 20
4758.6406151139
 10
6285.9182636374
 20
4758.6761083
  0
LWPOLYLINE
  5
2C0
330
1F
100
AcDbEntity
  8
0
  6
Continuous
 62
     7
370
    25
100
AcDbPolyline
 90
        3
 70
   128
 43
0.0
 10
6285.9182636374
 20
4758.6761083
 10
6285.8692892756
 20
4758.6850017727
 10
6285.8278298809
 20
4758.6919212883
  0
LWPOLYLINE
  5
2C1
330
1F
100
AcDbEntity
  8
0
  6
Continuous
 62
     7
370
    25
100
AcDbPolyline
 90
        3
 70
   128
 43
0.0
 10
6285.8278298809
 20
4758.6919212883
 10
6285.7254167105
 20
4758.7116978341
 10
6285.6416913718
 20
4758.723443912
  0
LWPOLYLINE
  5
2C2
330
1F
100
AcDbEntity
  8
0
  6
Continuous
 62
     7
370
    25
100
AcDbPolyline
 90
        3
 70
   128
 43
0.0
 10
6285.6416913718
 20
4758.723443912
 10
6285.2910212472
 20
4758.7615192263
 10
6284.9978030254
 20
4758.7704177889
  0
LINE
  5
2C3
330
1F
100
AcDbEntity
  8
0
  6
Continuous
 62
     7
370
    25
100
AcDbLine
 10
6284.9978030254
 20
4758.7704177889
 30
0.0
 11
6284.9392019512
 21
4758.7703144361
 31
0.0
  0
LWPOLYLINE
  5
2C4
330
1F
100
AcDbEntity
  8
0
  6
Continuous
 62
     7
370
    25
100
AcDbPolyline
 90
        3
 70
   128
 43
0.0
 10
6284.9392019512
 20
4758.7703144361
 10
6284.6447936733
 20
4758.7637656546
 10
6284.4340131491
 20
4758.7480935702
  0
LWPOLYLINE
  5
2C5
330
1F
100
AcDbEntity
  8
0
  6
Continuous
 62
     7
370
    25
100
AcDbPolyline
 90
        3
 70
   128
 43
0.0
 10
6284.4340131491
 20
4758.7480935702
 10
6283.8110952941
 20
4758.639647655
 10
6283.3708222312
 20
4758.4913650546
  0
LWPOLYLINE
  5
2C6
330
1F
100
AcDbEntity
  8
0
  6
Continuous
 62
     7
370
    25
100
AcDbPolyline
 90
        3
 70
   128
 43
0.0
 10
6283.3708222312
 20
4758.4913650546
 10
6282.9490497014
 20
4758.2996424348
 10
6282.5751085267
 20
4758.113196923
  0
ARC
  5
2C7
330
1F
100
AcDbEntity
  8
0
  6
Continuous
 62
     7
370
    25
100
AcDbCircle
 10
6285.6356784944
 20
4758.4531227873
 30
0.0
 40
0.181714180557352
100
AcDbArc
 50
272.1245052647
 51
359.7724224807
  0
LINE
  5
2C8
330
1F
100
AcDbEntity
  8
0
  6
Continuous
 62
     7
370
    25
100
AcDbLine
 10
6285.6424148418
 20
4758.2715335116
 30
0.0
 11
6285.6367304343
 21
4758.2714301587
 31
0.0
  0
ARC
  5
2C9
330
1F
100
AcDbEntity
  8
0
  6
Continuous
 62
     7
370
    25
100
AcDbCircle
 10
6285.6394159978
 20
4758.4501142363
 30
0.0
 40
0.1787042579878426
100
AcDbArc
 50
179.4324893835
 51
269.1389279077
  0
ARC
  5
2CA
330
1F
100
AcDbEntity
  8
0
  6
Continuous
 62
     7
370
    25
100
AcDbCircle
 10
6285.6386849765
 20
4758.4549856095
 30
0.0
 40
0.1779914917926062
100
AcDbArc
 50
90.8288163597
 51
180.9983803911
  0
LINE
  5
2CB
330
1F
100
AcDbEntity
  8
0
  6
Continuous
 62
     7
370
    25
100
AcDbLine
 10
6285.6361103171
 20
4758.632958479
 30
0.0
 11
6285.6417947247
 21
4758.6330618319
 31
0.0
  0
ARC
  5
2CC
330
1F
100
AcDbEntity
  8
0
  6
Continuous
 62
     7
370
    25
100
AcDbCircle
 10
6285.6418929856
 20
4758.4574898403
 30
0.0
 40
0.1755720191364797
100
AcDbArc
 50
358.3390946913
 51
90.0320662532
  0
ARC
  5
2CD
330
1F
100
AcDbEntity
  8
0
  6
Continuous
 62
     7
370
    25
100
AcDbCircle
 10
6284.4350231605
 20
4758.4442186781
 30
0.0
 40
0.181661905769874
100
AcDbArc
 50
90.2533617308
 51
178.1524237867
  0
ARC
  5
2CE
330
1F
100
AcDbEntity
  8
0
  6
Continuous
 62
     7
370
    25
100
AcDbCircle
 10
6284.4346471249
 20
4758.4451535908
 30
0.0
 40
0.1807257221165729
100
AcDbArc
 50
1.6917384857
 51
90.1354582647
  0
ARC
  5
2CF
330
1F
100
AcDbEntity
  8
0
  6
Continuous
 62
     7
370
    25
100
AcDbCircle
 10
6284.434372181
 20
4758.4526482133
 30
0.0
 40
0.1809347767447514
100
AcDbArc
 50
180.8146897129
 51
359.3162346048
  0
LWPOLYLINE
  5
2D0
330
1F
100
AcDbEntity
  8
0
  6
Continuous
 62
     7
370
    25
100
AcDbPolyline
 90
        3
 70
   128
 43
0.0
 10
6283.3715457012
 20
4757.9756342603
 10
6283.0065093366
 20
4758.0811053129
 10
6282.7124644838
 20
4758.1180545077
  0
LWPOLYLINE
  5
2D1
330
1F
100
AcDbEntity
  8
0
  6
Continuous
 62
     7
370
    25
100
AcDbPolyline
 90
        3
 70
   128
 43
0.0
 10
6282.7124644838
 20
4758.1180545077
 10
6283.0441731644
 20
4758.1506655743
 10
6283.3713389955
 20
4758.102913313
  0
LWPOLYLINE
  5
2D2
330
1F
100
AcDbEntity
  8
0
  6
Continuous
 62
     7
370
    25
100
AcDbPolyline
 90
        3
 70
   128
 43
0.0
 10
6283.3713389955
 20
4758.102913313
 10
6283.8748468335
 20
4757.9493844947
 10
6284.3079226543
 20
4757.7695486483
  0
LWPOLYLINE
  5
2D3
330
1F
100
AcDbEntity
  8
0
  6
Continuous
 62
     7
370
    25
100
AcDbPolyline
 90
        3
 70
   128
 43
0.0
 10
6284.3079226543
 20
4757.7695486483
 10
6284.3831975255
 20
4757.8800141214
 10
6284.4352533835
 20
4757.9557388338
  0
LWPOLYLINE
  5
2D4
330
1F
100
AcDbEntity
  8
0
  6
Continuous
 62
     7
370
    25
100
AcDbPolyline
 90
        3
 70
   128
 43
0.0
 10
6284.4352533835
 20
4757.9557388338
 10
6284.7216409367
 20
4758.2311031112
 10
6284.9398220684
 20
4758.3181973299
  0
LWPOLYLINE
  5
2D5
330
1F
100
AcDbEntity
  8
0
  6
Continuous
 62
     7
370
    25
100
AcDbPolyline
 90
        3
 70
   128
 43
0.0
 10
6285.643034959
 20
4757.9471605461
 10
6285.6905834018
 20
4757.8845596201
 10
6285.7276809551
 20
4757.8354877759
  0
LWPOLYLINE
  5
2D6
330
1F
100
AcDbEntity
  8
0
  6
Continuous
 62
     7
370
    25
100
AcDbPolyline
 90
        3
 70
   128
 43
0.0
 10
6286.2272887025
 20
4758.0276724276
 10
6286.7417531877
 20
4758.0960996836
 10
6287.1632522442
 20
4758.0505650871
  0
ARC
  5
2D7
330
1F
100
AcDbEntity
  8
0
  6
Continuous
 62
     7
370
    25
100
AcDbCircle
 10
6285.1859350291
 20
4758.0226374936
 30
0.0
 40
0.6984719944140086
100
AcDbArc
 50
263.0369031455
 51
310.9436339504
  0
LWPOLYLINE
  5
2D8
330
1F
100
AcDbEntity
  8
0
  6
Continuous
 62
     7
370
    25
100
AcDbPolyline
 90
       12
 70
   128
 43
0.0
 10
6285.1012592429
 20
4757.3293171216
 10
6285.0908463661
 20
4757.3315060273
 10
6285.0816345121
 20
4757.3377276628
 10
6285.0737007415
 20
4757.34740627
 10
6285.0671221147
 20
4757.3599660906
 10
6285.0583385342
 20
4757.3914263393
 10
6285.0559002544
 20
4757.427502343
 10
6285.060423759
 20
4757.463588036
 10
6285.0725255316
 20
4757.4950773526
 10
6285.092822056
 20
4757.5173642271
 10
6285.1062360012
 20
4757.5236173529
 10
6285.1219298158
 20
4757.5258425936
  0
LINE
  5
2D9
330
1F
100
AcDbEntity
  8
0
  6
Continuous
 62
     7
370
    25
100
AcDbLine
 10
6285.1219298158
 20
4757.5258425936
 30
0.0
 11
6285.2444029603
 21
4757.5260492993
 31
0.0
  0
ARC
  5
2DA
330
1F
100
AcDbEntity
  8
0
  6
Continuous
 62
     7
370
    25
100
AcDbCircle
 10
6285.2460382311
 20
4757.5991561318
 30
0.0
 40
0.0731251192599688
100
AcDbArc
 50
268.7186082627
 51
352.94894594
  0
ARC
  5
2DB
330
1F
100
AcDbEntity
  8
0
  6
Continuous
 62
     7
370
    25
100
AcDbCircle
 10
6285.2453002479
 20
4757.5799940988
 30
0.0
 40
0.0740142808935664
100
AcDbArc
 50
7.9099988967
 51
90.8546526485
  0
LINE
  5
2DC
330
1F
100
AcDbEntity
  8
0
  6
Continuous
 62
     7
370
    25
100
AcDbLine
 10
6285.2441962546
 20
4757.6540001457
 30
0.0
 11
6284.9408555971
 21
4757.6534833814
 31
0.0
  0
LINE
  5
2DD
330
1F
100
AcDbEntity
  8
0
  6
Continuous
 62
     7
370
    25
100
AcDbLine
 10
6284.9408555971
 20
4757.6534833814
 30
0.0
 11
6284.7550271465
 21
4757.6531216463
 31
0.0
  0
ARC
  5
2DE
330
1F
100
AcDbEntity
  8
0
  6
Continuous
 62
     7
370
    25
100
AcDbCircle
 10
6284.7590754117
 20
4757.5728801533
 30
0.0
 40
0.0803435477204741
100
AcDbArc
 50
92.8881817402
 51
168.2817231365
  0
LWPOLYLINE
  5
2DF
330
1F
100
AcDbEntity
  8
0
  6
Continuous
 62
     7
370
    25
100
AcDbPolyline
 90
        3
 70
   128
 43
0.0
 10
6285.7276809551
 20
4757.8354877759
 10
6285.786347269
 20
4757.8624027602
 10
6285.8291734681
 20
4757.8833401522
  0
LWPOLYLINE
  5
2E0
330
1F
100
AcDbEntity
  8
0
  6
Continuous
 62
     7
370
    25
100
AcDbPolyline
 90
        3
 70
   128
 43
0.0
 10
6285.8291734681
 20
4757.8833401522
 10
6285.8814121268
 20
4757.9062185209
 10
6285.9192971661
 20
4757.9208055656
  0
LWPOLYLINE
  5
2E1
330
1F
100
AcDbEntity
  8
0
  6
Continuous
 62
     7
370
    25
100
AcDbPolyline
 90
        3
 70
   128
 43
0.0
 10
6285.9192971661
 20
4757.9208055656
 10
6286.0918641046
 20
4757.9866727332
 10
6286.2272887025
 20
4758.0276724276
  0
LWPOLYLINE
  5
2E2
330
1F
100
AcDbEntity
  8
0
  6
Continuous
 62
     7
370
    25
100
AcDbPolyline
 90
        3
 70
   128
 43
0.0
 10
6287.1632522442
 20
4758.0505650871
 10
6286.6157953021
 20
4757.9712348017
 10
6286.2275987611
 20
4757.8363662753
  0
LWPOLYLINE
  5
2E3
330
1F
100
AcDbEntity
  8
0
  6
Continuous
 62
     7
370
    25
100
AcDbPolyline
 90
        3
 70
   128
 43
0.0
 10
6286.2275987611
 20
4757.8363662753
 10
6286.0532410432
 20
4757.7515147442
 10
6285.9196072247
 20
4757.6813886548
  0
LWPOLYLINE
  5
2E4
330
1F
100
AcDbEntity
  8
0
  6
Continuous
 62
     7
370
    25
100
AcDbPolyline
 90
        3
 70
   128
 43
0.0
 10
6285.9196072247
 20
4757.6813886548
 10
6285.8708064957
 20
4757.6467150156
 10
6285.8294835267
 20
4757.6230976392
  0
ARC
  5
2E5
330
1F
100
AcDbEntity
  8
0
  6
Continuous
 62
     7
370
    25
100
AcDbCircle
 10
6284.9753177002
 20
4757.533565296
 30
0.0
 40
0.7854345094404788
100
AcDbArc
 50
31.7747674495
 51
92.5902131603
  0
LWPOLYLINE
  5
2E6
330
1F
100
AcDbEntity
  8
0
  6
Continuous
 62
     7
370
    25
100
AcDbPolyline
 90
        3
 70
   128
 43
0.0
 10
6285.8294835267
 20
4757.6230976392
 10
6285.7253523638
 20
4757.5512986654
 10
6285.6436550762
 20
4757.49504344
  0
ARC
  5
2E7
330
1F
100
AcDbEntity
  8
0
  6
Continuous
 62
     7
370
    25
100
AcDbCircle
 10
6284.7493183074
 20
4757.5939957963
 30
0.0
 40
0.0690787506201784
100
AcDbArc
 50
183.9827114949
 51
274.9125292071
  0
LINE
  5
2E8
330
1F
100
AcDbEntity
  8
0
  6
Continuous
 62
     7
370
    25
100
AcDbLine
 10
6284.7552338523
 20
4757.5251708
 30
0.0
 11
6284.8723326478
 21
4757.5253775057
 31
0.0
  0
LWPOLYLINE
  5
2E9
330
1F
100
AcDbEntity
  8
0
  6
Continuous
 62
     7
370
    25
100
AcDbPolyline
 90
       11
 70
   128
 43
0.0
 10
6284.8723326478
 20
4757.5253775057
 10
6284.8853803919
 20
4757.5232592136
 10
6284.8966952596
 20
4757.5172193918
 10
6284.9141227327
 20
4757.4956143031
 10
6284.9246078
 20
4757.4650405273
 10
6284.9281431947
 20
4757.4299763522
 10
6284.9247216497
 20
4757.3949000654
 10
6284.914335898
 20
4757.3642899546
 10
6284.8969786725
 20
4757.3426243076
 10
6284.8856834863
 20
4757.3365451229
 10
6284.8726427064
 20
4757.334381412
  0
LWPOLYLINE
  5
2EA
330
1F
100
AcDbEntity
  8
0
  6
Continuous
 62
     7
370
    25
100
AcDbPolyline
 90
        3
 70
   128
 43
0.0
 10
6284.8726427064
 20
4757.334381412
 10
6284.639777213
 20
4757.3742976046
 10
6284.4360802064
 20
4757.4506017082
  0
LWPOLYLINE
  5
2EB
330
1F
100
AcDbEntity
  8
0
  6
Continuous
 62
     7
370
    25
100
AcDbPolyline
 90
        3
 70
   128
 43
0.0
 10
6284.4360802064
 20
4757.4506017082
 10
6284.0779689666
 20
4757.6298425364
 10
6283.7972561504
 20
4757.7792121411
  0
LWPOLYLINE
  5
2EC
330
1F
100
AcDbEntity
  8
0
  6
Continuous
 62
     7
370
    25
100
AcDbPolyline
 90
        3
 70
   128
 43
0.0
 10
6283.7972561504
 20
4757.7792121411
 10
6283.5592250114
 20
4757.8989432168
 10
6283.3715457012
 20
4757.9756342603
  0
LWPOLYLINE
  5
2ED
330
1F
100
AcDbEntity
  8
0
  6
Continuous
 62
     7
370
    25
100
AcDbPolyline
 90
        3
 70
   128
 43
0.0
 10
6289.0317685671
 20
4760.382257311
 10
6288.9869472244
 20
4760.3743644727
 10
6288.9413348106
 20
4760.3716636424
  0
LINE
  5
2EE
330
1F
100
AcDbEntity
  8
0
  6
Continuous
 62
     7
370
    25
100
AcDbLine
 10
6288.9413348106
 20
4760.3716636424
 30
0.0
 11
6288.9306894655
 21
4760.3716636424
 31
0.0
  0
LINE
  5
2EF
330
1F
100
AcDbEntity
  8
0
  6
Continuous
 62
     7
370
    25
100
AcDbLine
 10
6288.9306894655
 20
4760.3716636424
 30
0.0
 11
6288.7656349408
 21
4760.3714569366
 31
0.0
  0
LINE
  5
2F0
330
1F
100
AcDbEntity
  8
0
  6
Continuous
 62
     7
370
    25
100
AcDbLine
 10
6288.7653248822
 20
4760.5789894887
 30
0.0
 11
6288.930379407
 21
4760.5791961945
 31
0.0
  0
LINE
  5
2F1
330
1F
100
AcDbEntity
  8
0
  6
Continuous
 62
     7
370
    25
100
AcDbLine
 10
6288.7656349408
 20
4760.3714569366
 30
0.0
 11
6288.7653248822
 21
4760.5789894887
 31
0.0
  0
LINE
  5
2F2
330
1F
100
AcDbEntity
  8
0
  6
Continuous
 62
     7
370
    25
100
AcDbLine
 10
6288.930379407
 20
4760.5791961945
 30
0.0
 11
6288.9622120892
 21
4760.5792995473
 31
0.0
  0
LWPOLYLINE
  5
2F3
330
1F
100
AcDbEntity
  8
0
  6
Continuous
 62
     7
370
    25
100
AcDbPolyline
 90
        3
 70
   128
 43
0.0
 10
6288.9622120892
 20
4760.5792995473
 10
6289.028650393
 20
4760.5701795186
 10
6289.0632911908
 20
4760.5526345083
  0
LWPOLYLINE
  5
2F4
330
1F
100
AcDbEntity
  8
0
  6
Continuous
 62
     7
370
    25
100
AcDbPolyline
 90
        3
 70
   128
 43
0.0
 10
6289.0632911908
 20
4760.5526345083
 10
6289.0891116402
 20
4760.5152265458
 10
6289.095227226
 20
4760.4785821808
  0
LINE
  5
2F5
330
1F
100
AcDbEntity
  8
0
  6
Continuous
 62
     7
370
    25
100
AcDbLine
 10
6289.095227226
 20
4760.4785821808
 30
0.0
 11
6289.0795175905
 21
4760.4197227244
 31
0.0
  0
LINE
  5
2F6
330
1F
100
AcDbEntity
  8
0
  6
Continuous
 62
     7
370
    25
100
AcDbLine
 10
6289.0795175905
 20
4760.4197227244
 30
0.0
 11
6289.0317685671
 21
4760.382257311
 31
0.0
  0
ARC
  5
2F7
330
1F
100
AcDbEntity
  8
0
  6
Continuous
 62
     7
370
    25
100
AcDbCircle
 10
6274.0187553361
 20
4585.8973656866
 30
0.0
 40
175.0
100
AcDbArc
 50
180.0
 51
0.0
  0
CIRCLE
  5
2F8
330
1F
100
AcDbEntity
  8
0
  6
Continuous
 62
     7
370
    25
100
AcDbCircle
 10
6256.5187553361
 20
4585.8973656866
 30
0.0
 40
3.999999999999873
  0
CIRCLE
  5
2F9
330
1F
100
AcDbEntity
  8
0
  6
Continuous
 62
     7
370
    25
100
AcDbCircle
 10
6261.6443866653
 20
4598.2717343573
 30
0.0
 40
3.999999999999502
  0
CIRCLE
  5
2FA
330
1F
100
AcDbEntity
  8
0
  6
Continuous
 62
     7
370
    25
100
AcDbCircle
 10
6274.0187553361
 20
4603.3973656866
 30
0.0
 40
3.999999999999936
  0
CIRCLE
  5
2FB
330
1F
100
AcDbEntity
  8
0
  6
Continuous
 62
     7
370
    25
100
AcDbCircle
 10
6286.3931240069
 20
4598.2717343573
 30
0.0
 40
3.99999999999734
  0
CIRCLE
  5
2FC
330
1F
100
AcDbEntity
  8
0
  6
Continuous
 62
     7
370
    25
100
AcDbCircle
 10
6291.5187553361
 20
4585.8973656866
 30
0.0
 40
3.999999999997569
  0
CIRCLE
  5
2FD
330
1F
100
AcDbEntity
  8
0
  6
Continuous
 62
     7
370
    25
100
AcDbCircle
 10
6286.3931240069
 20
4573.5229970158
 30
0.0
 40
4.000000000000869
  0
CIRCLE
  5
2FE
330
1F
100
AcDbEntity
  8
0
  6
Continuous
 62
     7
370
    25
100
AcDbCircle
 10
6274.0187553361
 20
4568.3973656866
 30
0.0
 40
3.999999999999964
  0
CIRCLE
  5
2FF
330
1F
100
AcDbEntity
  8
0
  6
Continuous
 62
     7
370
    25
100
AcDbCircle
 10
6261.6443866653
 20
4573.5229970158
 30
0.0
 40
4.000000000000336
  0
LINE
  5
300
330
1F
100
AcDbEntity
  8
0
  6
Continuous
 62
     7
370
    25
100
AcDbLine
 10
6099.0187553361
 20
4771.8973656866
 30
0.0
 11
6099.0187553361
 21
4770.8973656866
 31
0.0
  0
LINE
  5
301
330
1F
100
AcDbEntity
  8
0
  6
Continuous
 62
     7
370
    25
100
AcDbLine
 10
6099.0187553361
 20
4771.8973656866
 30
0.0
 11
6101.0187553361
 21
4771.8973656866
 31
0.0
  0
LINE
  5
302
330
1F
100
AcDbEntity
  8
0
  6
Continuous
 62
     7
370
    25
100
AcDbLine
 10
6100.0187553361
 20
4770.8973656866
 30
0.0
 11
6101.0187553361
 21
4770.8973656866
 31
0.0
  0
ARC
  5
303
330
1F
100
AcDbEntity
  8
0
  6
Continuous
 62
     7
370
    25
100
AcDbCircle
 10
6274.0187553361
 20
4585.8973656866
 30
0.0
 40
5.250000000000563
100
AcDbArc
 50
98.2132107017
 51
261.7867892983
  0
LINE
  5
304
330
1F
100
AcDbEntity
  8
0
  6
Continuous
 62
     7
370
    25
100
AcDbLine
 10
6273.2687553361
 20
4591.0935181093
 30
0.0
 11
6273.2687553361
 21
4580.7012132638
 31
0.0
  0
ARC
  5
305
330
1F
100
AcDbEntity
  8
0
  6
Continuous
 62
     7
370
    25
100
AcDbCircle
 10
6274.0187553361
 20
4585.8973656866
 30
0.0
 40
5.250000000000563
100
AcDbArc
 50
278.2132107017
 51
81.7867892983
  0
LINE
  5
306
330
1F
100
AcDbEntity
  8
0
  6
Continuous
 62
     7
370
    25
100
AcDbLine
 10
6274.7687553361
 20
4580.7012132638
 30
0.0
 11
6274.7687553361
 21
4591.0935181093
 31
0.0
  0
ARC
  5
307
330
1F
100
AcDbEntity
  8
0
  6
Continuous
 62
     7
370
    25
100
AcDbCircle
 10
6274.0187553361
 20
4585.8973656866
 30
0.0
 40
5.250000000000563
100
AcDbArc
 50
81.7867892983
 51
98.2132107017
  0
ARC
  5
308
330
1F
100
AcDbEntity
  8
0
  6
Continuous
 62
     7
370
    25
100
AcDbCircle
 10
6274.0187553361
 20
4585.8973656866
 30
0.0
 40
5.249999999999662
100
AcDbArc
 50
261.7867892983
 51
278.2132107017
  0
ARC
  5
309
330
1F
100
AcDbEntity
  8
0
  6
Continuous
 62
     7
370
    25
100
AcDbCircle
 10
6154.6807507728
 20
4705.2353702498
 30
0.0
 40
4.999999999999558
100
AcDbArc
 50
45.0
 51
225.0
  0
ARC
  5
30A
330
1F
100
AcDbEntity
  8
0
  6
Continuous
 62
     7
370
    25
100
AcDbCircle
 10
6221.8558949856
 20
4638.0602260371
 30
0.0
 40
5.000000000000201
100
AcDbArc
 50
225.0
 51
45.0
  0
ARC
  5
30B
330
1F
100
AcDbEntity
  8
0
  6
Continuous
 62
     7
370
    25
100
AcDbCircle
 10
6154.6807507728
 20
4705.2353702498
 30
0.0
 40
5.720000000000091
100
AcDbArc
 50
15.9416913332
 51
225.0
  0
ARC
  5
30C
330
1F
100
AcDbEntity
  8
0
  6
Continuous
 62
     7
370
    25
100
AcDbCircle
 10
6154.6807507728
 20
4705.2353702498
 30
0.0
 40
5.720000000000091
100
AcDbArc
 50
225.0
 51
254.0583086668
  0
ARC
  5
30D
330
1F
100
AcDbEntity
  8
0
  6
Continuous
 62
     7
370
    25
100
AcDbCircle
 10
6147.3738950407
 20
4707.1932363425
 30
0.0
 40
1.448852371915361
100
AcDbArc
 50
134.9999999998
 51
195.0
  0
LINE
  5
30E
330
1F
100
AcDbEntity
  8
0
  6
Continuous
 62
     7
370
    25
100
AcDbLine
 10
6146.3494017036
 20
4708.2177296796
 30
0.0
 11
6151.6983913431
 21
4713.5667193191
 31
0.0
  0
ARC
  5
30F
330
1F
100
AcDbEntity
  8
0
  6
Continuous
 62
     7
370
    25
100
AcDbCircle
 10
6152.7228846802
 20
4712.5422259819
 30
0.0
 40
1.448852371917934
100
AcDbArc
 50
74.9999999998
 51
135.0
  0
LINE
  5
310
330
1F
100
AcDbEntity
  8
0
  6
Continuous
 62
     7
370
    25
100
AcDbLine
 10
6153.0978752676
 20
4713.9417099065
 30
0.0
 11
6160.4047309997
 21
4711.9838438138
 31
0.0
  0
ARC
  5
311
330
1F
100
AcDbEntity
  8
0
  6
Continuous
 62
     7
370
    25
100
AcDbCircle
 10
6160.0297404123
 20
4710.5843598893
 30
0.0
 40
1.448852371915498
100
AcDbArc
 50
14.9999999994
 51
75.0
  0
LINE
  5
312
330
1F
100
AcDbEntity
  8
0
  6
Continuous
 62
     7
370
    25
100
AcDbLine
 10
6161.4292243368
 20
4710.9593504767
 30
0.0
 11
6163.3870904295
 21
4703.6524947446
 31
0.0
  0
LINE
  5
313
330
1F
100
AcDbEntity
  8
0
  6
Continuous
 62
     7
370
    25
100
AcDbLine
 10
6156.2636262781
 20
4696.5290305932
 30
0.0
 11
6148.956770546
 21
4698.4868966858
 31
0.0
  0
ARC
  5
314
330
1F
100
AcDbEntity
  8
0
  6
Continuous
 62
     7
370
    25
100
AcDbCircle
 10
6149.3317611333
 20
4699.8863806103
 30
0.0
 40
1.44885237191625
100
AcDbArc
 50
194.9999999997
 51
255.0
  0
LINE
  5
315
330
1F
100
AcDbEntity
  8
0
  6
Continuous
 62
     7
370
    25
100
AcDbLine
 10
6147.9322772088
 20
4699.511390023
 30
0.0
 11
6145.9744111162
 21
4706.8182457551
 31
0.0
  0
ELLIPSE
  5
316
330
1F
100
AcDbEntity
  8
0
  6
Continuous
 62
     7
370
    25
100
AcDbEllipse
 10
6148.3923054211
 20
4711.5238156016
 30
0.0
 11
-13.34088072393752
 21
13.34088072393661
 31
0.0
210
0.0
220
0.0
230
1.0
 40
0.8480480962
 41
3.738999070235118
 42
4.712388980384673
  0
ELLIPSE
  5
317
330
1F
100
AcDbEntity
  8
0
  6
Continuous
 62
     7
370
    25
100
AcDbEllipse
 10
6148.3923054211
 20
4711.5238156016
 30
0.0
 11
-13.34088072393752
 21
13.34088072393661
 31
0.0
210
0.0
220
0.0
230
1.0
 40
0.8480480962
 41
1.570796326794868
 42
2.544186236944396
  0
LINE
  5
318
330
1F
100
AcDbEntity
  8
0
  6
Continuous
 62
     7
370
    25
100
AcDbLine
 10
6138.043460144
 20
4744.8276004963
 30
0.0
 11
6137.5928042833
 21
4745.3042871279
 31
0.0
  0
LWPOLYLINE
  5
319
330
1F
100
AcDbEntity
  8
0
  6
Continuous
 62
     7
370
    25
100
AcDbPolyline
 90
       41
 70
   128
 43
0.0
 10
6134.1826917694
 20
4725.7334292532
 10
6135.6995498791
 20
4727.4672466545
 10
6136.9620986164
 20
4729.3753310088
 10
6137.9392498412
 20
4731.4106989466
 10
6138.6069428474
 20
4733.5232329544
 10
6138.9487368172
 20
4735.6609154338
 10
6138.9562156488
 20
4737.7711095475
 10
6138.6291951884
 20
4739.8018553133
 10
6137.9757277652
 20
4741.7031490306
 10
6137.0119039158
 20
4743.4281745381
 10
6135.7614561822
 20
4744.9344559828
 10
6134.2551747375
 20
4746.1849037164
 10
6132.53014923
 20
4747.1487275658
 10
6130.6288555127
 20
4747.802194989
 10
6128.598109747
 20
4748.1292154493
 10
6126.4879156332
 20
4748.1217366178
 10
6124.3502331538
 20
4747.779942648
 10
6122.237699146
 20
4747.1122496418
 10
6120.2023312082
 20
4746.135098417
 10
6118.294246854
 20
4744.8725496797
 10
6116.5604294527
 20
4743.35569157
 10
6115.043571343
 20
4741.6218741687
 10
6113.7810226057
 20
4739.7137898144
 10
6112.8038713809
 20
4737.6784218766
 10
6112.1361783747
 20
4735.5658878688
 10
6111.7943844049
 20
4733.4282053894
 10
6111.7869055733
 20
4731.3180112757
 10
6112.1139260337
 20
4729.28726551
 10
6112.7673934569
 20
4727.3859717927
 10
6113.7312173063
 20
4725.6609462852
 10
6114.9816650399
 20
4724.1546648405
 10
6116.4879464846
 20
4722.9042171068
 10
6118.2129719921
 20
4721.9403932575
 10
6120.1142657094
 20
4721.2869258342
 10
6122.1450114751
 20
4720.9599053739
 10
6124.2552055889
 20
4720.9673842054
 10
6126.3928880683
 20
4721.3091781753
 10
6128.505422076
 20
4721.9768711814
 10
6130.5407900139
 20
4722.9540224063
 10
6132.4488743681
 20
4724.2165711435
 10
6134.1826917694
 20
4725.7334292532
  0
LWPOLYLINE
  5
31A
330
1F
100
AcDbEntity
  8
0
  6
Continuous
 62
     7
370
    25
100
AcDbPolyline
 90
       12
 70
   128
 43
0.0
 10
6139.5938982342
 20
4720.3222227885
 10
6141.1976283508
 20
4722.1436285775
 10
6142.5478581144
 20
4724.1420228433
 10
6143.6144256231
 20
4726.2727647603
 10
6144.3735055213
 20
4728.488257075
 10
6144.8081412185
 20
4730.73900935
 10
6144.9086236713
 20
4732.9747434988
 10
6144.6727082678
 20
4735.145516915
 10
6144.1056649682
 20
4737.2028381075
 10
6143.2201605829
 20
4739.1007499206
 10
6142.0359758166
 20
4740.7968561404
 10
6141.3398993355
 20
4741.5571920757
  0
LWPOLYLINE
  5
31B
330
1F
100
AcDbEntity
  8
0
  6
Continuous
 62
     7
370
    25
100
AcDbPolyline
 90
       12
 70
   128
 43
0.0
 10
6118.358928947
 20
4718.5762216871
 10
6119.1192648823
 20
4717.880145206
 10
6120.8153711021
 20
4716.6959604397
 10
6122.7132829151
 20
4715.8104560544
 10
6124.7706041076
 20
4715.2434127549
 10
6126.9413775238
 20
4715.0074973514
 10
6129.1771116727
 20
4715.1079798042
 10
6131.4278639477
 20
4715.5426155013
 10
6133.6433562624
 20
4716.3016953996
 10
6135.7740981794
 20
4717.3682629083
 10
6137.7724924452
 20
4718.7184926719
 10
6139.5938982342
 20
4720.3222227885
  0
LINE
  5
31C
330
1F
100
AcDbEntity
  8
0
  6
Continuous
 62
     7
370
    25
100
AcDbLine
 10
6135.9998730813
 20
4714.9007058057
 30
0.0
 11
6134.3049638523
 21
4716.5956150347
 31
0.0
  0
LINE
  5
31D
330
1F
100
AcDbEntity
  8
0
  6
Continuous
 62
     7
370
    25
100
AcDbLine
 10
6143.320505988
 20
4725.6111571703
 30
0.0
 11
6145.015415217
 21
4723.9162479414
 31
0.0
  0
LINE
  5
31E
330
1F
100
AcDbEntity
  8
0
  6
Continuous
 62
     7
370
    25
100
AcDbLine
 10
6135.9998730813
 20
4714.9007058057
 30
0.0
 11
6145.015415217
 21
4723.9162479414
 31
0.0
  0
LINE
  5
31F
330
1F
100
AcDbEntity
  8
0
  6
Continuous
 62
     7
370
    25
100
AcDbLine
 10
6145.6090608584
 20
4731.1362015565
 30
0.0
 11
6144.8997241114
 21
4731.8455383035
 31
0.0
  0
ARC
  5
320
330
1F
100
AcDbEntity
  8
0
  6
Continuous
 62
     7
370
    25
100
AcDbCircle
 10
6133.209133739
 20
4728.5213772801
 30
0.0
 40
12.67262792648933
100
AcDbArc
 50
338.6913539174
 51
11.9077411402
  0
ARC
  5
321
330
1F
100
AcDbEntity
  8
0
  6
Continuous
 62
     7
370
    25
100
AcDbCircle
 10
6131.3947437426
 20
4726.7069872837
 30
0.0
 40
12.67262792651452
100
AcDbArc
 50
258.0922588598
 51
291.3086460826
  0
LINE
  5
322
330
1F
100
AcDbEntity
  8
0
  6
Continuous
 62
     7
370
    25
100
AcDbLine
 10
6128.0705827192
 20
4715.0163969113
 30
0.0
 11
6128.7799194662
 21
4714.3070601642
 31
0.0
  0
LWPOLYLINE
  5
323
330
1F
100
AcDbEntity
  8
0
  6
Continuous
 62
     7
370
    25
100
AcDbPolyline
 90
       13
 70
   128
 43
0.0
 10
6142.8163373035
 20
4717.0997837192
 10
6144.370721878
 20
4718.8651462532
 10
6145.6794061104
 20
4720.8020514646
 10
6146.7131561574
 20
4722.8672320919
 10
6147.448879751
 20
4725.0145554122
 10
6147.8701420421
 20
4727.1960537711
 10
6147.9675327271
 20
4729.3629961
 10
6147.7388762591
 20
4731.466976488
 10
6147.1892804457
 20
4733.46099549
 10
6146.3310223492
 20
4735.3005100164
 10
6145.1832740373
 20
4736.9444283526
 10
6143.7716743106
 20
4738.3560280793
 10
6143.508393005
 20
4738.5699568209
  0
LWPOLYLINE
  5
324
330
1F
100
AcDbEntity
  8
0
  6
Continuous
 62
     7
370
    25
100
AcDbPolyline
 90
       13
 70
   128
 43
0.0
 10
6121.3461642021
 20
4716.4077280172
 10
6121.5600929434
 20
4716.1444467121
 10
6122.9716926701
 20
4714.7328469854
 10
6124.6156110062
 20
4713.5850986735
 10
6126.4551255327
 20
4712.726840577
 10
6128.4491445347
 20
4712.1772447636
 10
6130.5531249227
 20
4711.9485882955
 10
6132.7200672515
 20
4712.0459789805
 10
6134.9015656104
 20
4712.4672412716
 10
6137.0488889308
 20
4713.2029648653
 10
6139.114069558
 20
4714.2367149122
 10
6141.0509747695
 20
4715.5453991446
 10
6142.8163373035
 20
4717.0997837192
  0
LWPOLYLINE
  5
325
330
1F
100
AcDbEntity
  8
0
  6
Continuous
 62
     7
370
    25
100
AcDbPolyline
 90
       12
 70
   128
 43
0.0
 10
6143.3784015613
 20
4716.5377194614
 10
6144.9327861359
 20
4718.3030819953
 10
6146.2414703682
 20
4720.2399872068
 10
6147.2752204152
 20
4722.305167834
 10
6148.0109440089
 20
4724.4524911544
 10
6148.4322062999
 20
4726.6339895133
 10
6148.529596985
 20
4728.8009318422
 10
6148.3009405169
 20
4730.9049122301
 10
6147.7513447035
 20
4732.8989312321
 10
6146.893086607
 20
4734.7384457586
 10
6145.7453382951
 20
4736.3823640947
 10
6145.0706795518
 20
4737.1193050782
  0
LWPOLYLINE
  5
326
330
1F
100
AcDbEntity
  8
0
  6
Continuous
 62
     7
370
    25
100
AcDbPolyline
 90
       12
 70
   128
 43
0.0
 10
6122.7968159445
 20
4714.8454414708
 10
6123.5337569279
 20
4714.1707827276
 10
6125.1776752641
 20
4713.0230344156
 10
6127.0171897905
 20
4712.1647763191
 10
6129.0112087925
 20
4711.6151805057
 10
6131.1151891805
 20
4711.3865240377
 10
6133.2821315094
 20
4711.4839147227
 10
6135.4636298683
 20
4711.9051770138
 10
6137.6109531886
 20
4712.6409006075
 10
6139.6761338159
 20
4713.6746506544
 10
6141.6130390273
 20
4714.9833348868
 10
6143.3784015613
 20
4716.5377194614
  0
LWPOLYLINE
  5
327
330
1F
100
AcDbEntity
  8
0
  6
Continuous
 62
     7
370
    25
100
AcDbPolyline
 90
       13
 70
   128
 43
0.0
 10
6143.4697805798
 20
4716.4463404429
 10
6145.0488379254
 20
4718.2397246044
 10
6146.3782949233
 20
4720.207374343
 10
6147.4284537012
 20
4722.3053356151
 10
6148.1758554471
 20
4724.4867434326
 10
6148.6038044412
 20
4726.7028687496
 10
6148.7027410101
 20
4728.9042069885
 10
6148.4704550744
 20
4731.0415838905
 10
6147.9121355179
 20
4733.0672539878
 10
6147.040254277
 20
4734.9359671575
 10
6145.8742877379
 20
4736.6059794355
 10
6144.4402816663
 20
4738.0399855071
 10
6143.366966369
 20
4738.83830199
  0
LWPOLYLINE
  5
328
330
1F
100
AcDbEntity
  8
0
  6
Continuous
 62
     7
370
    25
100
AcDbPolyline
 90
       13
 70
   128
 43
0.0
 10
6121.0778190327
 20
4716.5491546535
 10
6121.8761355156
 20
4715.4758393563
 10
6123.3101415871
 20
4714.0418332848
 10
6124.9801538651
 20
4712.8758667456
 10
6126.8488670349
 20
4712.0039855048
 10
6128.8745371321
 20
4711.4456659483
 10
6131.0119140342
 20
4711.2133800125
 10
6133.2132522731
 20
4711.3123165814
 10
6135.42937759
 20
4711.7402655755
 10
6137.6107854075
 20
4712.4876673215
 10
6139.7087466796
 20
4713.5378260993
 10
6141.6763964183
 20
4714.8672830973
 10
6143.4697805798
 20
4716.4463404429
  0
ELLIPSE
  5
329
330
1F
100
AcDbEntity
  8
0
  6
Continuous
 62
     7
370
    25
100
AcDbEllipse
 10
6148.3923054211
 20
4711.5238156016
 30
0.0
 11
-13.34088072393752
 21
13.34088072393661
 31
0.0
210
0.0
220
0.0
230
1.0
 40
0.8480480962
 41
3.738999070235118
 42
4.712388980384673
  0
ELLIPSE
  5
32A
330
1F
100
AcDbEntity
  8
0
  6
Continuous
 62
     7
370
    25
100
AcDbEllipse
 10
6148.3923054211
 20
4711.5238156016
 30
0.0
 11
-13.34088072393752
 21
13.34088072393661
 31
0.0
210
0.0
220
0.0
230
1.0
 40
0.8480480962
 41
1.570796326794868
 42
2.544186236944396
  0
ELLIPSE
  5
32B
330
1F
100
AcDbEntity
  8
0
  6
Continuous
 62
     7
370
    25
100
AcDbEllipse
 10
6134.3414958974
 20
4725.5746251252
 30
0.0
 11
-13.34088072393661
 21
13.34088072393752
 31
0.0
210
0.0
220
0.0
230
1.0
 40
0.8480480962
 41
2.54418623694454
 42
3.738999070235187
  0
ELLIPSE
  5
32C
330
1F
100
AcDbEntity
  8
0
  6
Continuous
 62
     7
370
    25
100
AcDbEllipse
 10
6148.3923054211
 20
4711.5238156016
 30
0.0
 11
-13.34088072393752
 21
13.34088072393661
 31
0.0
210
0.0
220
0.0
230
1.0
 40
0.8480480962
 41
3.459416357517592
 42
3.738999070235118
  0
ELLIPSE
  5
32D
330
1F
100
AcDbEntity
  8
0
  6
Continuous
 62
     7
370
    25
100
AcDbEllipse
 10
6148.3923054211
 20
4711.5238156016
 30
0.0
 11
-13.34088072393752
 21
13.34088072393661
 31
0.0
210
0.0
220
0.0
230
1.0
 40
0.8480480962
 41
2.544186236944396
 42
2.823768949661905
  0
LINE
  5
32E
330
1F
100
AcDbEntity
  8
0
  6
Continuous
 62
     7
370
    25
100
AcDbLine
 10
6153.0585483486
 20
4694.1296506127
 30
0.0
 11
6148.7974039127
 21
4698.3907950486
 31
0.0
  0
LINE
  5
32F
330
1F
100
AcDbEntity
  8
0
  6
Continuous
 62
     7
370
    25
100
AcDbLine
 10
6147.8361755716
 20
4699.3520233897
 30
0.0
 11
6139.0077388249
 21
4708.1804601364
 31
0.0
  0
LINE
  5
330
330
1F
100
AcDbEntity
  8
0
  6
Continuous
 62
     7
370
    25
100
AcDbLine
 10
6151.7356608862
 20
4720.9083821978
 30
0.0
 11
6160.5640976329
 21
4712.0799454511
 31
0.0
  0
LINE
  5
331
330
1F
100
AcDbEntity
  8
0
  6
Continuous
 62
     7
370
    25
100
AcDbLine
 10
6161.5253259741
 20
4711.1187171099
 30
0.0
 11
6165.7864704099
 21
4706.8575726741
 31
0.0
  0
LINE
  5
332
330
1F
100
AcDbEntity
  8
0
  6
Continuous
 62
     7
370
    25
100
AcDbLine
 10
6273.2687553361
 20
4565.5732840255
 30
0.0
 11
6270.8613309324
 21
4565.8060375448
 31
0.0
  0
ARC
  5
333
330
1F
100
AcDbEntity
  8
0
  6
Continuous
 62
     7
370
    25
100
AcDbCircle
 10
6274.0187553361
 20
4585.8973656866
 30
0.0
 40
20.33791521682912
100
AcDbArc
 50
215.8951621556
 51
233.7596427172
  0
ARC
  5
334
330
1F
100
AcDbEntity
  8
0
  6
Continuous
 62
     7
370
    25
100
AcDbCircle
 10
6274.0187553361
 20
4585.8973656866
 30
0.0
 40
20.33791521682983
100
AcDbArc
 50
172.2306639657
 51
188.8577278671
  0
ARC
  5
335
330
1F
100
AcDbEntity
  8
0
  6
Continuous
 62
     7
370
    25
100
AcDbCircle
 10
6274.0187553361
 20
4585.8973656866
 30
0.0
 40
20.33791521683039
100
AcDbArc
 50
125.987713697
 51
143.7572225704
  0
ARC
  5
336
330
1F
100
AcDbEntity
  8
0
  6
Continuous
 62
     7
370
    25
100
AcDbCircle
 10
6274.0187553361
 20
4585.8973656866
 30
0.0
 40
20.33791521683024
100
AcDbArc
 50
81.1289618678
 51
98.809477101
  0
ARC
  5
337
330
1F
100
AcDbEntity
  8
0
  6
Continuous
 62
     7
370
    25
100
AcDbCircle
 10
6274.0187553361
 20
4585.8973656866
 30
0.0
 40
20.33791521683008
100
AcDbArc
 50
35.9524344728
 51
53.7209560145
  0
ARC
  5
338
330
1F
100
AcDbEntity
  8
0
  6
Continuous
 62
     7
370
    25
100
AcDbCircle
 10
6274.0187553361
 20
4585.8973656866
 30
0.0
 40
20.33791521683019
100
AcDbArc
 50
350.9919128664
 51
8.757217923
  0
ARC
  5
339
330
1F
100
AcDbEntity
  8
0
  6
Continuous
 62
     7
370
    25
100
AcDbCircle
 10
6274.0187553361
 20
4585.8973656866
 30
0.0
 40
20.3379152168298
100
AcDbArc
 50
306.1234926487
 51
323.9014904753
  0
LINE
  5
33A
330
1F
100
AcDbEntity
  8
0
  6
Continuous
 62
     7
370
    25
100
AcDbLine
 10
6277.040305999
 20
4565.7851547947
 30
0.0
 11
6274.7687553361
 21
4565.5732840255
 31
0.0
  0
LINE
  5
33B
330
1F
100
AcDbEntity
  8
0
  6
Continuous
 62
     7
370
    25
100
AcDbLine
 10
6273.2687553361
 20
4572.2945786469
 30
0.0
 11
6273.2687553361
 21
4564.522803132
 31
0.0
  0
LINE
  5
33C
330
1F
100
AcDbEntity
  8
0
  6
Continuous
 62
     7
370
    25
100
AcDbLine
 10
6274.7687553361
 20
4564.5251186704
 30
0.0
 11
6274.7687553361
 21
4572.2768951812
 31
0.0
  0
ARC
  5
33D
330
1F
100
AcDbEntity
  8
0
  6
Continuous
 62
     7
370
    25
100
AcDbCircle
 10
6391.0147333492
 20
4708.8311321619
 30
0.0
 40
16.00000000000069
100
AcDbArc
 50
316.2052056171
 51
137.1484070104
  0
LINE
  5
33E
330
1F
100
AcDbEntity
  8
0
  6
Continuous
 62
     7
370
    25
100
AcDbLine
 10
6385.4921305444
 20
4719.4683534333
 30
0.0
 11
6401.9567461247
 21
4703.9401225996
 31
0.0
  0
ELLIPSE
  5
33F
330
1F
100
AcDbEntity
  8
0
  6
Continuous
 62
     7
370
    25
100
AcDbEllipse
 10
6382.3787047408
 20
4699.6743329939
 30
0.0
 11
16.04857433291636
 21
17.01633687922458
 31
0.0
210
0.0
220
0.0
230
1.0
 40
0.6840402867
 41
5.497582535349096
 42
7.068788079010111
  0
ELLIPSE
  5
340
330
1F
100
AcDbEntity
  8
0
  6
Continuous
 62
     7
370
    25
100
AcDbEllipse
 10
6386.5719183923
 20
4704.1204061852
 30
0.0
 11
11.63985995662097
 21
-10.9778713870337
 31
0.0
210
0.0
220
0.0
230
1.0
 40
0.9216049851
 41
2.356399098625318
 42
7.068378862143991
  0
ELLIPSE
  5
341
330
1F
100
AcDbEntity
  8
0
  6
Continuous
 62
     7
370
    25
100
AcDbEllipse
 10
6390.845381988
 20
4708.6515685599
 30
0.0
 11
11.14722274825363
 21
11.81942355857609
 31
0.0
210
0.0
220
0.0
230
1.0
 40
0.984807753
 41
4.712388980384769
 42
6.283185307179586
  0
ELLIPSE
  5
342
330
1F
100
AcDbEntity
  8
0
  6
Continuous
 62
     7
370
    25
100
AcDbEllipse
 10
6390.845381988
 20
4708.6515685599
 30
0.0
 11
11.14722274825363
 21
11.81942355857609
 31
0.0
210
0.0
220
0.0
230
1.0
 40
0.984807753
 41
0.0
 42
1.570796326794845
  0
LWPOLYLINE
  5
343
330
1F
100
AcDbEntity
  8
0
  6
Continuous
 62
     7
370
    25
100
AcDbPolyline
 90
       17
 70
   128
 43
0.0
 10
6388.079588506
 20
4705.7189919552
 10
6387.7298358044
 20
4706.1847771453
 10
6387.5690209204
 20
4706.7235243609
 10
6387.6216264623
 20
4707.2532142222
 10
6387.8796437133
 20
4707.6932062495
 10
6388.3037918858
 20
4707.9765156452
 10
6388.8294982654
 20
4708.060011122
 10
6389.3767288215
 20
4707.9309812504
 10
6389.8621726624
 20
4707.6090696588
 10
6390.211925364
 20
4707.1432844687
 10
6390.372740248
 20
4706.6045372531
 10
6390.3201347061
 20
4706.0748473918
 10
6390.0621174552
 20
4705.6348553645
 10
6389.6379692827
 20
4705.3515459688
 10
6389.112262903
 20
4705.268050492
 10
6388.565032347
 20
4705.3970803636
 10
6388.079588506
 20
4705.7189919552
  0
LWPOLYLINE
  5
344
330
1F
100
AcDbEntity
  8
0
  6
Continuous
 62
     7
370
    25
100
AcDbPolyline
 90
       22
 70
   128
 43
0.0
 10
6394.0633193152
 20
4701.8612120752
 10
6393.0999984607
 20
4702.5581970417
 10
6392.0110856581
 20
4702.9693295707
 10
6390.8933355886
 20
4703.0580787328
 10
6389.8460652512
 20
4702.8165587754
 10
6388.962329211
 20
4702.2662298067
 10
6388.3206512936
 20
4701.4559909705
 10
6387.9780473978
 20
4700.4578355432
 10
6387.9649593832
 20
4699.3604540148
 10
6388.2825501775
 20
4698.2613535499
 10
6388.9026004447
 20
4697.2581940481
 10
6389.7700159977
 20
4696.4401106335
 10
6390.8077231579
 20
4695.8797936074
 10
6391.9235170902
 20
4695.6270295967
 10
6393.0182546072
 20
4695.7042777929
 10
6393.9946634764
 20
4696.1046743548
 10
6394.7659854847
 20
4696.7926422906
 10
6395.2636852869
 20
4697.7070526304
 10
6395.4435400714
 20
4698.7666560024
 10
6395.2895689514
 20
4699.8773019972
 10
6394.8154529365
 20
4700.940304844
 10
6394.0633193152
 20
4701.8612120752
  0
LWPOLYLINE
  5
345
330
1F
100
AcDbEntity
  8
0
  6
Continuous
 62
     7
370
    25
100
AcDbPolyline
 90
       22
 70
   128
 43
0.0
 10
6383.8988220127
 20
4711.4476284511
 10
6382.9355011581
 20
4712.1446134177
 10
6381.8465883555
 20
4712.5557459467
 10
6380.728838286
 20
4712.6444951088
 10
6379.6815679486
 20
4712.4029751514
 10
6378.7978319084
 20
4711.8526461826
 10
6378.156153991
 20
4711.0424073465
 10
6377.8135500952
 20
4710.0442519192
 10
6377.8004620806
 20
4708.9468703908
 10
6378.1180528749
 20
4707.8477699259
 10
6378.7381031421
 20
4706.8446104241
 10
6379.6055186951
 20
4706.0265270094
 10
6380.6432258553
 20
4705.4662099834
 10
6381.7590197876
 20
4705.2134459727
 10
6382.8537573046
 20
4705.2906941688
 10
6383.8301661738
 20
4705.6910907307
 10
6384.6014881821
 20
4706.3790586666
 10
6385.0991879843
 20
4707.2934690063
 10
6385.2790427688
 20
4708.3530723783
 10
6385.1250716488
 20
4709.4637183731
 10
6384.6509556339
 20
4710.52672122
 10
6383.8988220127
 20
4711.4476284511
  0
LWPOLYLINE
  5
346
330
1F
100
AcDbEntity
  8
0
  6
Continuous
 62
     7
370
    25
100
AcDbPolyline
 90
       17
 70
   128
 43
0.0
 10
6381.5434465993
 20
4698.7887070422
 10
6380.7343735311
 20
4699.3252263616
 10
6379.8223226043
 20
4699.5402761476
 10
6378.9461453049
 20
4699.4011170196
 10
6378.2392316841
 20
4698.9289346935
 10
6377.8092029325
 20
4698.1956146479
 10
6377.7215270293
 20
4697.3127982124
 10
6377.989551836
 20
4696.4148861864
 10
6378.5724730054
 20
4695.6385775363
 10
6379.3815460736
 20
4695.1020582169
 10
6380.2935970004
 20
4694.8870084309
 10
6381.1697742998
 20
4695.0261675589
 10
6381.8766879206
 20
4695.498349885
 10
6382.3067166722
 20
4696.2316699306
 10
6382.3943925754
 20
4697.1144863661
 10
6382.1263677687
 20
4698.0123983921
 10
6381.5434465993
 20
4698.7887070422
  0
LWPOLYLINE
  5
347
330
1F
100
AcDbEntity
  8
0
  6
Continuous
 62
     7
370
    25
100
AcDbPolyline
 90
       22
 70
   128
 43
0.0
 10
6379.1452642627
 20
4706.4074212421
 10
6380.1085851173
 20
4705.7104362755
 10
6381.1974979198
 20
4705.2993037464
 10
6382.3152479892
 20
4705.2105545842
 10
6383.3625183266
 20
4705.4520745415
 10
6384.2462543666
 20
4706.0024035101
 10
6384.8879322839
 20
4706.8126423462
 10
6385.2305361796
 20
4707.8107977734
 10
6385.2436241941
 20
4708.9081793017
 10
6384.9260333997
 20
4710.0072797665
 10
6384.3059831325
 20
4711.0104392683
 10
6383.4385675795
 20
4711.8285226829
 10
6382.4008604193
 20
4712.388839709
 10
6381.2850664871
 20
4712.6416037198
 10
6380.1903289701
 20
4712.5643555237
 10
6379.2139201011
 20
4712.163958962
 10
6378.4425980929
 20
4711.4759910262
 10
6377.9448982908
 20
4710.5615806866
 10
6377.7650435064
 20
4709.5019773147
 10
6377.9190146265
 20
4708.39133132
 10
6378.3931306415
 20
4707.3283284732
 10
6379.1452642627
 20
4706.4074212421
  0
LWPOLYLINE
  5
348
330
1F
100
AcDbEntity
  8
0
  6
Continuous
 62
     7
370
    25
100
AcDbPolyline
 90
       22
 70
   128
 43
0.0
 10
6389.3097615653
 20
4696.8210048661
 10
6390.2730824199
 20
4696.1240198996
 10
6391.3619952224
 20
4695.7128873705
 10
6392.4797452918
 20
4695.6241382083
 10
6393.5270156292
 20
4695.8656581656
 10
6394.4107516692
 20
4696.4159871342
 10
6395.0524295865
 20
4697.2262259702
 10
6395.3950334822
 20
4698.2243813974
 10
6395.4081214967
 20
4699.3217629257
 10
6395.0905307023
 20
4700.4208633906
 10
6394.4704804351
 20
4701.4240228923
 10
6393.6030648821
 20
4702.242106307
 10
6392.5653577219
 20
4702.802423333
 10
6391.4495637897
 20
4703.0551873438
 10
6390.3548262727
 20
4702.9779391478
 10
6389.3784174037
 20
4702.577542586
 10
6388.6070953955
 20
4701.8895746503
 10
6388.1093955934
 20
4700.9751643107
 10
6387.929540809
 20
4699.9155609387
 10
6388.0835119291
 20
4698.8049149441
 10
6388.5576279441
 20
4697.7419120972
 10
6389.3097615653
 20
4696.8210048661
  0
LWPOLYLINE
  5
349
330
1F
100
AcDbEntity
  8
0
  6
Continuous
 62
     7
370
    25
100
AcDbPolyline
 90
       17
 70
   128
 43
0.0
 10
6389.8621726625
 20
4707.6090696588
 10
6390.2119253641
 20
4707.1432844688
 10
6390.3727402481
 20
4706.6045372532
 10
6390.3201347061
 20
4706.0748473918
 10
6390.0621174552
 20
4705.6348553645
 10
6389.6379692827
 20
4705.3515459687
 10
6389.112262903
 20
4705.2680504919
 10
6388.5650323469
 20
4705.3970803635
 10
6388.079588506
 20
4705.7189919552
 10
6387.7298358044
 20
4706.1847771452
 10
6387.5690209204
 20
4706.7235243608
 10
6387.6216264623
 20
4707.2532142222
 10
6387.8796437133
 20
4707.6932062495
 10
6388.3037918858
 20
4707.9765156453
 10
6388.8294982654
 20
4708.0600111221
 10
6389.3767288215
 20
4707.9309812505
 10
6389.8621726625
 20
4707.6090696588
  0
ARC
  5
34A
330
1F
100
AcDbEntity
  8
0
  6
Continuous
 62
     8
370
    25
100
AcDbCircle
 10
6274.0187553361
 20
4583.3973656866
 30
0.0
 40
140.2711677207471
100
AcDbArc
 50
136.320369022
 51
270.0
  0
ARC
  5
34B
330
1F
100
AcDbEntity
  8
0
  6
Continuous
 62
     8
370
    25
100
AcDbCircle
 10
6274.0187553361
 20
4583.3973656866
 30
0.0
 40
140.2711677207473
100
AcDbArc
 50
270.0
 51
132.2345344391
  0
LINE
  5
34C
330
1F
100
AcDbEntity
  8
0
  6
Continuous
 62
     8
370
    25
100
AcDbLine
 10
6448.5187553361
 20
4585.8973656866
 30
0.0
 11
6448.5187553361
 21
4769.8973656866
 31
0.0
  0
ARC
  5
34D
330
1F
100
AcDbEntity
  8
0
  6
Continuous
 62
     8
370
    25
100
AcDbCircle
 10
6274.0187553361
 20
4583.3973656866
 30
0.0
 40
140.0343563421129
100
AcDbArc
 50
270.0
 51
132.2298541303
  0
ARC
  5
34E
330
1F
100
AcDbEntity
  8
0
  6
Continuous
 62
     8
370
    25
100
AcDbCircle
 10
6274.0187553361
 20
4583.3973656866
 30
0.0
 40
140.0343563421129
100
AcDbArc
 50
136.3226022876
 51
270.0
  0
LINE
  5
34F
330
1F
100
AcDbEntity
  8
0
  6
Continuous
 62
     8
370
    25
100
AcDbLine
 10
6165.2873524906
 20
4687.5577007202
 30
0.0
 11
6172.3584203025
 21
4694.628768532
 31
0.0
  0
LINE
  5
350
330
1F
100
AcDbEntity
  8
0
  6
Continuous
 62
     8
370
    25
100
AcDbLine
 10
6204.1782254559
 20
4648.6668277549
 30
0.0
 11
6211.2492932678
 21
4655.7378955668
 31
0.0
  0
LWPOLYLINE
  5
351
330
1F
100
AcDbEntity
  8
0
  6
Continuous
 62
     8
370
    25
100
AcDbPolyline
 90
       12
 70
   128
 43
0.0
 10
6135.846803182
 20
4724.0693178407
 10
6137.4505332986
 20
4725.8907236297
 10
6138.8007630622
 20
4727.8891178955
 10
6139.8673305709
 20
4730.0198598125
 10
6140.6264104691
 20
4732.2353521272
 10
6141.0610461663
 20
4734.4861044022
 10
6141.1615286191
 20
4736.721838551
 10
6140.9256132156
 20
4738.8926119672
 10
6140.358569916
 20
4740.9499331597
 10
6139.4730655307
 20
4742.8478449728
 10
6138.2888807644
 20
4744.5439511926
 10
6138.043460144
 20
4744.8276004963
  0
LWPOLYLINE
  5
352
330
1F
100
AcDbEntity
  8
0
  6
Continuous
 62
     8
370
    25
100
AcDbPolyline
 90
       12
 70
   128
 43
0.0
 10
6114.5262361861
 20
4722.4098104053
 10
6115.3721698301
 20
4721.6272402582
 10
6117.0682760499
 20
4720.4430554919
 10
6118.9661878629
 20
4719.5575511066
 10
6121.0235090554
 20
4718.9905078071
 10
6123.1942824716
 20
4718.7545924036
 10
6125.4300166205
 20
4718.8550748564
 10
6127.6807688955
 20
4719.2897105535
 10
6129.8962612102
 20
4720.0487904518
 10
6132.0270031271
 20
4721.1153579605
 10
6134.025397393
 20
4722.4655877241
 10
6135.846803182
 20
4724.0693178407
  0
ENDSEC
  0
SECTION
  2
OBJECTS
  0
DICTIONARY
  5
C
330
0
100
AcDbDictionary
281
     1
  3
ACAD_GROUP
350
D
  3
ACAD_LAYOUT
350
1A
  3
ACAD_MLINESTYLE
350
17
  3
ACAD_PLOTSETTINGS
350
19
  3
ACAD_PLOTSTYLENAME
350
E
  3
ACAD_SCALELIST
350
47
  3
DWGPROPS
350
353
  0
DICTIONARY
  5
D
102
{ACAD_REACTORS
330
C
102
}
330
C
100
AcDbDictionary
281
     1
  0
DICTIONARY
  5
1A
102
{ACAD_REACTORS
330
C
102
}
330
C
100
AcDbDictionary
281
     1
  3
Layout1
350
1E
  3
Layout2
350
26
  3
Model
350
22
  0
DICTIONARY
  5
17
102
{ACAD_REACTORS
330
C
102
}
330
C
100
AcDbDictionary
281
     1
  3
Standard
350
18
  0
DICTIONARY
  5
19
102
{ACAD_REACTORS
330
C
102
}
330
C
100
AcDbDictionary
281
     1
  0
ACDBDICTIONARYWDFLT
  5
E
102
{ACAD_REACTORS
330
C
102
}
330
C
100
AcDbDictionary
281
     1
  3
Normal
350
F
100
AcDbDictionaryWithDefault
340
F
  0
DICTIONARY
  5
47
102
{ACAD_REACTORS
330
C
102
}
330
C
100
AcDbDictionary
281
     1
  3
A0
350
48
  3
A1
350
49
  3
A2
350
4A
  3
A3
350
4B
  3
A4
350
4C
  3
A5
350
4D
  3
A6
350
4E
  3
A7
350
4F
  3
A8
350
50
  3
A9
350
51
  3
B0
350
52
  3
B1
350
53
  3
B2
350
54
  3
B3
350
55
  3
B4
350
56
  3
B5
350
57
  3
B6
350
58
  3
B7
350
59
  3
B8
350
5A
  3
B9
350
5B
  3
C0
350
5C
  3
C1
350
5D
  3
C2
350
5E
  3
C3
350
5F
  3
C4
350
60
  3
C5
350
61
  3
C6
350
62
  3
C7
350
63
  3
C8
350
64
  3
C9
350
65
  3
D0
350
66
  3
D1
350
67
  3
D2
350
68
  0
XRECORD
  5
353
102
{ACAD_REACTORS
330
C
102
}
330
C
100
AcDbXrecord
280
     1
  1
DWGPROPS COOKIE
  2

  3

  4

  6

  7

  8
radek.stransky
  9

300
=
301
=
302
=
303
=
304
=
305
=
306
=
307
=
308
=
309
=
 40
0.0
 41
2459543.364973819
 42
2459543.36497419
  1

 90
        0
  0
LAYOUT
  5
1E
102
{ACAD_REACTORS
330
1A
102
}
330
1A
100
AcDbPlotSettings
  1

  2
none_device
  4

  6

 40
0.0
 41
0.0
 42
0.0
 43
0.0
 44
0.0
 45
0.0
 46
0.0
 47
0.0
 48
0.0
 49
0.0
140
0.0
141
0.0
142
1.0
143
1.0
 70
   688
 72
     1
 73
     0
 74
     5
  7

 75
    16
147
1.0
148
0.0
149
0.0
100
AcDbLayout
  1
Layout1
 70
     1
 71
     1
 10
0.0
 20
0.0
 11
420.0
 21
297.0
 12
0.0
 22
0.0
 32
0.0
 14
1.0000000000E+20
 24
1.0000000000E+20
 34
1.0000000000E+20
 15
-1.0000000000E+20
 25
-1.0000000000E+20
 35
-1.0000000000E+20
146
0.0
 13
0.0
 23
0.0
 33
0.0
 16
1.0
 26
0.0
 36
0.0
 17
0.0
 27
1.0
 37
0.0
 76
     0
330
1B
  0
LAYOUT
  5
26
102
{ACAD_REACTORS
330
1A
102
}
330
1A
100
AcDbPlotSettings
  1

  2
none_device
  4

  6

 40
0.0
 41
0.0
 42
0.0
 43
0.0
 44
0.0
 45
0.0
 46
0.0
 47
0.0
 48
0.0
 49
0.0
140
0.0
141
0.0
142
1.0
143
1.0
 70
   688
 72
     1
 73
     0
 74
     5
  7

 75
    16
147
1.0
148
0.0
149
0.0
100
AcDbLayout
  1
Layout2
 70
     1
 71
     2
 10
0.0
 20
0.0
 11
0.0
 21
0.0
 12
0.0
 22
0.0
 32
0.0
 14
0.0
 24
0.0
 34
0.0
 15
0.0
 25
0.0
 35
0.0
146
0.0
 13
0.0
 23
0.0
 33
0.0
 16
1.0
 26
0.0
 36
0.0
 17
0.0
 27
1.0
 37
0.0
 76
     0
330
23
  0
LAYOUT
  5
22
102
{ACAD_REACTORS
330
1A
102
}
330
1A
100
AcDbPlotSettings
  1

  2
none_device
  4
Letter_(8.50_x_11.00_Inches)
  6

 40
6.35
 41
6.35
 42
6.35000508
 43
6.35000508
 44
215.9
 45
279.4
 46
0.0
 47
0.0
 48
0.0
 49
0.0
140
0.0
141
0.0
142
1.0
143
1.0
 70
  1712
 72
     1
 73
     0
 74
     0
  7

 75
     0
147
1.0
148
0.0
149
0.0
100
AcDbLayout
  1
Model
 70
     1
 71
     0
 10
0.0
 20
0.0
 11
20000.0
 21
10000.0
 12
0.0
 22
0.0
 32
0.0
 14
0.0
 24
0.0
 34
0.0
 15
20000.0
 25
10000.0
 35
0.0
146
0.0
 13
0.0
 23
0.0
 33
0.0
 16
1.0
 26
0.0
 36
0.0
 17
0.0
 27
1.0
 37
0.0
 76
     0
330
1F
331
29
  0
MLINESTYLE
  5
18
102
{ACAD_REACTORS
330
17
102
}
330
17
100
AcDbMlineStyle
  2
Standard
 70
     0
  3

 62
   256
 51
90.0
 52
90.0
 71
     2
 49
0.5
 62
   256
  6
BYLAYER
 49
-0.5
 62
   256
  6
BYLAYER
  0
ACDBPLACEHOLDER
  5
F
102
{ACAD_REACTORS
330
E
102
}
330
E
  0
SCALE
  5
48
102
{ACAD_REACTORS
330
47
102
}
330
47
100
AcDbScale
 70
     0
300
1:1
140
1.0
141
1.0
290
     1
  0
SCALE
  5
49
102
{ACAD_REACTORS
330
47
102
}
330
47
100
AcDbScale
 70
     0
300
1:2
140
1.0
141
2.0
290
     0
  0
SCALE
  5
4A
102
{ACAD_REACTORS
330
47
102
}
330
47
100
AcDbScale
 70
     0
300
1:4
140
1.0
141
4.0
290
     0
  0
SCALE
  5
4B
102
{ACAD_REACTORS
330
47
102
}
330
47
100
AcDbScale
 70
     0
300
1:5
140
1.0
141
5.0
290
     0
  0
SCALE
  5
4C
102
{ACAD_REACTORS
330
47
102
}
330
47
100
AcDbScale
 70
     0
300
1:8
140
1.0
141
8.0
290
     0
  0
SCALE
  5
4D
102
{ACAD_REACTORS
330
47
102
}
330
47
100
AcDbScale
 70
     0
300
1:10
140
1.0
141
10.0
290
     0
  0
SCALE
  5
4E
102
{ACAD_REACTORS
330
47
102
}
330
47
100
AcDbScale
 70
     0
300
1:16
140
1.0
141
16.0
290
     0
  0
SCALE
  5
4F
102
{ACAD_REACTORS
330
47
102
}
330
47
100
AcDbScale
 70
     0
300
1:20
140
1.0
141
20.0
290
     0
  0
SCALE
  5
50
102
{ACAD_REACTORS
330
47
102
}
330
47
100
AcDbScale
 70
     0
300
1:30
140
1.0
141
30.0
290
     0
  0
SCALE
  5
51
102
{ACAD_REACTORS
330
47
102
}
330
47
100
AcDbScale
 70
     0
300
1:40
140
1.0
141
40.0
290
     0
  0
SCALE
  5
52
102
{ACAD_REACTORS
330
47
102
}
330
47
100
AcDbScale
 70
     0
300
1:50
140
1.0
141
50.0
290
     0
  0
SCALE
  5
53
102
{ACAD_REACTORS
330
47
102
}
330
47
100
AcDbScale
 70
     0
300
1:100
140
1.0
141
100.0
290
     0
  0
SCALE
  5
54
102
{ACAD_REACTORS
330
47
102
}
330
47
100
AcDbScale
 70
     0
300
2:1
140
2.0
141
1.0
290
     0
  0
SCALE
  5
55
102
{ACAD_REACTORS
330
47
102
}
330
47
100
AcDbScale
 70
     0
300
4:1
140
4.0
141
1.0
290
     0
  0
SCALE
  5
56
102
{ACAD_REACTORS
330
47
102
}
330
47
100
AcDbScale
 70
     0
300
8:1
140
8.0
141
1.0
290
     0
  0
SCALE
  5
57
102
{ACAD_REACTORS
330
47
102
}
330
47
100
AcDbScale
 70
     0
300
10:1
140
10.0
141
1.0
290
     0
  0
SCALE
  5
58
102
{ACAD_REACTORS
330
47
102
}
330
47
100
AcDbScale
 70
     0
300
100:1
140
100.0
141
1.0
290
     0
  0
SCALE
  5
59
102
{ACAD_REACTORS
330
47
102
}
330
47
100
AcDbScale
 70
     0
300
1/128" = 1'-0"
140
0.0078125
141
12.0
290
     0
  0
SCALE
  5
5A
102
{ACAD_REACTORS
330
47
102
}
330
47
100
AcDbScale
 70
     0
300
1/64" = 1'-0"
140
0.015625
141
12.0
290
     0
  0
SCALE
  5
5B
102
{ACAD_REACTORS
330
47
102
}
330
47
100
AcDbScale
 70
     0
300
1/32" = 1'-0"
140
0.03125
141
12.0
290
     0
  0
SCALE
  5
5C
102
{ACAD_REACTORS
330
47
102
}
330
47
100
AcDbScale
 70
     0
300
1/16" = 1'-0"
140
0.0625
141
12.0
290
     0
  0
SCALE
  5
5D
102
{ACAD_REACTORS
330
47
102
}
330
47
100
AcDbScale
 70
     0
300
3/32" = 1'-0"
140
0.09375
141
12.0
290
     0
  0
SCALE
  5
5E
102
{ACAD_REACTORS
330
47
102
}
330
47
100
AcDbScale
 70
     0
300
1/8" = 1'-0"
140
0.125
141
12.0
290
     0
  0
SCALE
  5
5F
102
{ACAD_REACTORS
330
47
102
}
330
47
100
AcDbScale
 70
     0
300
3/16" = 1'-0"
140
0.1875
141
12.0
290
     0
  0
SCALE
  5
60
102
{ACAD_REACTORS
330
47
102
}
330
47
100
AcDbScale
 70
     0
300
1/4" = 1'-0"
140
0.25
141
12.0
290
     0
  0
SCALE
  5
61
102
{ACAD_REACTORS
330
47
102
}
330
47
100
AcDbScale
 70
     0
300
3/8" = 1'-0"
140
0.375
141
12.0
290
     0
  0
SCALE
  5
62
102
{ACAD_REACTORS
330
47
102
}
330
47
100
AcDbScale
 70
     0
300
1/2" = 1'-0"
140
0.5
141
12.0
290
     0
  0
SCALE
  5
63
102
{ACAD_REACTORS
330
47
102
}
330
47
100
AcDbScale
 70
     0
300
3/4" = 1'-0"
140
0.75
141
12.0
290
     0
  0
SCALE
  5
64
102
{ACAD_REACTORS
330
47
102
}
330
47
100
AcDbScale
 70
     0
300
1" = 1'-0"
140
1.0
141
12.0
290
     0
  0
SCALE
  5
65
102
{ACAD_REACTORS
330
47
102
}
330
47
100
AcDbScale
 70
     0
300
1-1/2" = 1'-0"
140
1.5
141
12.0
290
     0
  0
SCALE
  5
66
102
{ACAD_REACTORS
330
47
102
}
330
47
100
AcDbScale
 70
     0
300
3" = 1'-0"
140
3.0
141
12.0
290
     0
  0
SCALE
  5
67
102
{ACAD_REACTORS
330
47
102
}
330
47
100
AcDbScale
 70
     0
300
6" = 1'-0"
140
6.0
141
12.0
290
     0
  0
SCALE
  5
68
102
{ACAD_REACTORS
330
47
102
}
330
47
100
AcDbScale
 70
     0
300
1'-0" = 1'-0"
140
12.0
141
12.0
290
     0
  0
ENDSEC
  0
EOF
