  0
SECTION
  2
HEADER
  9
$ACADVER
  1
AC1015
  9
$ACADMAINTVER
 70
     6
  9
$DWGCODEPAGE
  3
ANSI_1250
  9
$INSBASE
 10
0.0
 20
0.0
 30
0.0
  9
$EXTMIN
 10
0.0
 20
0.0
 30
0.0
  9
$EXTMAX
 10
20000.0
 20
10000.0
 30
0.0
  9
$LIMMIN
 10
0.0
 20
0.0
  9
$LIMMAX
 10
20000.0
 20
10000.0
  9
$ORTHOMODE
 70
     0
  9
$REGENMODE
 70
     1
  9
$FILLMODE
 70
     1
  9
$QTEXTMODE
 70
     0
  9
$MIRRTEXT
 70
     1
  9
$LTSCALE
 40
1.0
  9
$ATTMODE
 70
     1
  9
$TEXTSIZE
 40
2.0
  9
$TRACEWID
 40
1.0
  9
$TEXTSTYLE
  7
Standard
  9
$CLAYER
  8
0
  9
$CELTYPE
  6
ByLayer
  9
$CECOLOR
 62
   256
  9
$CELTSCALE
 40
1.0
  9
$DISPSILH
 70
     0
  9
$DIMSCALE
 40
1.0
  9
$DIMASZ
 40
2.0
  9
$DIMEXO
 40
1.0
  9
$DIMDLI
 40
3.75
  9
$DIMRND
 40
0.0
  9
$DIMDLE
 40
0.0
  9
$DIMEXE
 40
1.0
  9
$DIMTP
 40
0.0
  9
$DIMTM
 40
0.0
  9
$DIMTXT
 40
2.0
  9
$DIMCEN
 40
2.5
  9
$DIMTSZ
 40
0.0
  9
$DIMTOL
 70
     0
  9
$DIMLIM
 70
     0
  9
$DIMTIH
 70
     1
  9
$DIMTOH
 70
     1
  9
$DIMSE1
 70
     0
  9
$DIMSE2
 70
     0
  9
$DIMTAD
 70
     1
  9
$DIMZIN
 70
     0
  9
$DIMBLK
  1

  9
$DIMASO
 70
     1
  9
$DIMSHO
 70
     1
  9
$DIMPOST
  1

  9
$DIMAPOST
  1

  9
$DIMALT
 70
     0
  9
$DIMALTD
 70
     3
  9
$DIMALTF
 40
0.0393700787
  9
$DIMLFAC
 40
1.0
  9
$DIMTOFL
 70
     1
  9
$DIMTVP
 40
0.0
  9
$DIMTIX
 70
     0
  9
$DIMSOXD
 70
     0
  9
$DIMSAH
 70
     0
  9
$DIMBLK1
  1

  9
$DIMBLK2
  1

  9
$DIMSTYLE
  2
ISO-25
  9
$DIMCLRD
 70
     0
  9
$DIMCLRE
 70
     0
  9
$DIMCLRT
 70
     0
  9
$DIMTFAC
 40
1.0
  9
$DIMGAP
 40
1.524
  9
$DIMJUST
 70
     0
  9
$DIMSD1
 70
     0
  9
$DIMSD2
 70
     0
  9
$DIMTOLJ
 70
     0
  9
$DIMTZIN
 70
     0
  9
$DIMALTZ
 70
     0
  9
$DIMALTTZ
 70
     0
  9
$DIMUPT
 70
     0
  9
$DIMDEC
 70
     2
  9
$DIMTDEC
 70
     0
  9
$DIMALTU
 70
     2
  9
$DIMALTTD
 70
     3
  9
$DIMTXSTY
  7
Standard
  9
$DIMAUNIT
 70
     0
  9
$DIMADEC
 70
     2
  9
$DIMALTRND
 40
0.0
  9
$DIMAZIN
 70
     0
  9
$DIMDSEP
 70
    44
  9
$DIMATFIT
 70
     3
  9
$DIMFRAC
 70
     0
  9
$DIMLDRBLK
  1

  9
$DIMLUNIT
 70
     2
  9
$DIMLWD
 70
    -2
  9
$DIMLWE
 70
    -2
  9
$DIMTMOVE
 70
     0
  9
$LUNITS
 70
     2
  9
$LUPREC
 70
     3
  9
$SKETCHINC
 40
1.0
  9
$FILLETRAD
 40
10.0
  9
$AUNITS
 70
     0
  9
$AUPREC
 70
     2
  9
$MENU
  1
.
  9
$ELEVATION
 40
0.0
  9
$PELEVATION
 40
0.0
  9
$THICKNESS
 40
0.0
  9
$LIMCHECK
 70
     0
  9
$CHAMFERA
 40
0.0
  9
$CHAMFERB
 40
0.0
  9
$CHAMFERC
 40
0.0
  9
$CHAMFERD
 40
0.0
  9
$SKPOLY
 70
     0
  9
$TDCREATE
 40
2459543.393814688
  9
$TDUCREATE
 40
2459543.352148021
  9
$TDUPDATE
 40
2459543.393814872
  9
$TDUUPDATE
 40
2459543.352148206
  9
$TDINDWG
 40
0.0000000116
  9
$TDUSRTIMER
 40
0.0000000116
  9
$USRTIMER
 70
     1
  9
$ANGBASE
 50
0.0
  9
$ANGDIR
 70
     0
  9
$PDMODE
 70
     0
  9
$PDSIZE
 40
-1.0
  9
$PLINEWID
 40
0.0
  9
$SPLFRAME
 70
     0
  9
$SPLINETYPE
 70
     6
  9
$SPLINESEGS
 70
     8
  9
$HANDSEED
  5
140
  9
$SURFTAB1
 70
     6
  9
$SURFTAB2
 70
     6
  9
$SURFTYPE
 70
     6
  9
$SURFU
 70
     6
  9
$SURFV
 70
     6
  9
$UCSBASE
  2

  9
$UCSNAME
  2

  9
$UCSORG
 10
0.0
 20
0.0
 30
0.0
  9
$UCSXDIR
 10
1.0
 20
0.0
 30
0.0
  9
$UCSYDIR
 10
0.0
 20
1.0
 30
0.0
  9
$UCSORTHOREF
  2

  9
$UCSORTHOVIEW
 70
     0
  9
$UCSORGTOP
 10
0.0
 20
0.0
 30
0.0
  9
$UCSORGBOTTOM
 10
0.0
 20
0.0
 30
0.0
  9
$UCSORGLEFT
 10
0.0
 20
0.0
 30
0.0
  9
$UCSORGRIGHT
 10
0.0
 20
0.0
 30
0.0
  9
$UCSORGFRONT
 10
0.0
 20
0.0
 30
0.0
  9
$UCSORGBACK
 10
0.0
 20
0.0
 30
0.0
  9
$PUCSBASE
  2

  9
$PUCSNAME
  2

  9
$PUCSORG
 10
0.0
 20
0.0
 30
0.0
  9
$PUCSXDIR
 10
1.0
 20
0.0
 30
0.0
  9
$PUCSYDIR
 10
0.0
 20
1.0
 30
0.0
  9
$PUCSORTHOREF
  2

  9
$PUCSORTHOVIEW
 70
     0
  9
$PUCSORGTOP
 10
0.0
 20
0.0
 30
0.0
  9
$PUCSORGBOTTOM
 10
0.0
 20
0.0
 30
0.0
  9
$PUCSORGLEFT
 10
0.0
 20
0.0
 30
0.0
  9
$PUCSORGRIGHT
 10
0.0
 20
0.0
 30
0.0
  9
$PUCSORGFRONT
 10
0.0
 20
0.0
 30
0.0
  9
$PUCSORGBACK
 10
0.0
 20
0.0
 30
0.0
  9
$USERI1
 70
     0
  9
$USERI2
 70
     0
  9
$USERI3
 70
     0
  9
$USERI4
 70
     0
  9
$USERI5
 70
     0
  9
$USERR1
 40
0.0
  9
$USERR2
 40
0.0
  9
$USERR3
 40
0.0
  9
$USERR4
 40
0.0
  9
$USERR5
 40
0.0
  9
$WORLDVIEW
 70
     1
  9
$SHADEDGE
 70
     3
  9
$SHADEDIF
 70
    70
  9
$TILEMODE
 70
     1
  9
$MAXACTVP
 70
    64
  9
$PINSBASE
 10
0.0
 20
0.0
 30
0.0
  9
$PLIMCHECK
 70
     0
  9
$PEXTMIN
 10
1.0000000000E+20
 20
1.0000000000E+20
 30
1.0000000000E+20
  9
$PEXTMAX
 10
-1.0000000000E+20
 20
-1.0000000000E+20
 30
-1.0000000000E+20
  9
$PLIMMIN
 10
0.0
 20
0.0
  9
$PLIMMAX
 10
420.0
 20
297.0
  9
$UNITMODE
 70
     0
  9
$VISRETAIN
 70
     1
  9
$PLINEGEN
 70
     0
  9
$PSLTSCALE
 70
     1
  9
$TREEDEPTH
 70
  3020
  9
$CMLSTYLE
  2
Standard
  9
$CMLJUST
 70
     0
  9
$CMLSCALE
 40
20.0
  9
$PROXYGRAPHICS
 70
     1
  9
$MEASUREMENT
 70
     1
  9
$CELWEIGHT
370
    -1
  9
$ENDCAPS
280
     0
  9
$JOINSTYLE
280
     0
  9
$LWDISPLAY
290
     1
  9
$INSUNITS
 70
     4
  9
$HYPERLINKBASE
  1

  9
$STYLESHEET
  1

  9
$XEDIT
290
     1
  9
$CEPSNTYPE
380
     0
  9
$PSTYLEMODE
290
     1
  9
$FINGERPRINTGUID
  2
{dcd7bab7-59fa-441d-b586-e2aab0db8f3d}
  9
$VERSIONGUID
  2
{FAEB1C32-E019-11D5-929B-00C0DF256EC4}
  9
$EXTNAMES
290
     1
  9
$PSVPSCALE
 40
0.0
  9
$OLESTARTUP
290
     0
  0
ENDSEC
  0
SECTION
  2
CLASSES
  0
CLASS
  1
ACDBDICTIONARYWDFLT
  2
AcDbDictionaryWithDefault
  3
ObjectDBX Classes
 90
        0
280
     0
281
     0
  0
CLASS
  1
VISUALSTYLE
  2
AcDbVisualStyle
  3
ObjectDBX Classes
 90
     4095
280
     0
281
     0
  0
CLASS
  1
MATERIAL
  2
AcDbMaterial
  3
ObjectDBX Classes
 90
     1153
280
     0
281
     0
  0
CLASS
  1
SCALE
  2
AcDbScale
  3
ObjectDBX Classes
 90
     1153
280
     0
281
     0
  0
CLASS
  1
TABLESTYLE
  2
AcDbTableStyle
  3
ObjectDBX Classes
 90
     4095
280
     0
281
     0
  0
CLASS
  1
MLEADERSTYLE
  2
AcDbMLeaderStyle
  3
ACDB_MLEADERSTYLE_CLASS
 90
     4095
280
     0
281
     0
  0
CLASS
  1
SUN
  2
AcDbSun
  3
SCENEOE
 90
     1153
280
     0
281
     0
  0
CLASS
  1
ACDBPLACEHOLDER
  2
AcDbPlaceHolder
  3
ObjectDBX Classes
 90
        0
280
     0
281
     0
  0
CLASS
  1
LAYOUT
  2
AcDbLayout
  3
ObjectDBX Classes
 90
        0
280
     0
281
     0
  0
ENDSEC
  0
SECTION
  2
TABLES
  0
TABLE
  2
VPORT
  5
8
330
0
100
AcDbSymbolTable
 70
     1
  0
VPORT
  5
29
330
8
100
AcDbSymbolTableRecord
100
AcDbViewportTableRecord
  2
*Active
 70
     0
 10
0.0
 20
0.0
 11
1.0
 21
1.0
 12
10000.0
 22
5000.0
 13
0.0
 23
0.0
 14
10.0
 24
10.0
 15
10.0
 25
10.0
 16
0.0
 26
0.0
 36
1.0
 17
0.0
 27
0.0
 37
0.0
 40
10000.0
 41
2.0
 42
50.0
 43
0.0
 44
0.0
 50
0.0
 51
0.0
 71
     0
 72
  2000
 73
     1
 74
     3
 75
     0
 76
     0
 77
     0
 78
     0
281
     0
 65
     1
110
0.0
120
0.0
130
0.0
111
1.0
121
0.0
131
0.0
112
0.0
122
1.0
132
0.0
 79
     0
146
0.0
  0
ENDTAB
  0
TABLE
  2
LTYPE
  5
5
330
0
100
AcDbSymbolTable
 70
     6
  0
LTYPE
  5
14
330
5
100
AcDbSymbolTableRecord
100
AcDbLinetypeTableRecord
  2
ByBlock
 70
     0
  3

 72
    65
 73
     0
 40
0.0
  0
LTYPE
  5
15
330
5
100
AcDbSymbolTableRecord
100
AcDbLinetypeTableRecord
  2
ByLayer
 70
     0
  3

 72
    65
 73
     0
 40
0.0
  0
LTYPE
  5
16
330
5
100
AcDbSymbolTableRecord
100
AcDbLinetypeTableRecord
  2
Continuous
 70
     0
  3
Solid line
 72
    65
 73
     0
 40
0.0
  0
LTYPE
  5
6E
330
5
100
AcDbSymbolTableRecord
100
AcDbLinetypeTableRecord
  2
HIDDEN
 70
     0
  3
Hidden __ __ __ __ __ __ __ __ __ __ __ __ __ __
 72
    65
 73
     2
 40
1.905
 49
1.27
 74
     0
 49
-0.635
 74
     0
  0
LTYPE
  5
6F
330
5
100
AcDbSymbolTableRecord
100
AcDbLinetypeTableRecord
  2
PHANTOM
 70
     0
  3
Phantom ______  __  __  ______  __  __  ______
 72
    65
 73
     6
 40
12.7
 49
6.35
 74
     0
 49
-1.27
 74
     0
 49
1.27
 74
     0
 49
-1.27
 74
     0
 49
1.27
 74
     0
 49
-1.27
 74
     0
  0
LTYPE
  5
70
330
5
100
AcDbSymbolTableRecord
100
AcDbLinetypeTableRecord
  2
CENTER
 70
     0
  3
Center ____ _ ____ _ ____ _ ____ _ ____ _ ____
 72
    65
 73
     4
 40
10.16
 49
6.35
 74
     0
 49
-1.27
 74
     0
 49
1.27
 74
     0
 49
-1.27
 74
     0
  0
LTYPE
  5
71
330
5
100
AcDbSymbolTableRecord
100
AcDbLinetypeTableRecord
  2
CENTERX2
 70
     0
  3
Center (2x) ________  __  ________  __  _____
 72
    65
 73
     4
 40
20.32
 49
12.7
 74
     0
 49
-2.54
 74
     0
 49
2.54
 74
     0
 49
-2.54
 74
     0
  0
LTYPE
  5
72
330
5
100
AcDbSymbolTableRecord
100
AcDbLinetypeTableRecord
  2
DOT2
 70
     0
  3
Dot (.5x) ........................................
 72
    65
 73
     2
 40
0.635
 49
0.0
 74
     0
 49
-0.635
 74
     0
  0
ENDTAB
  0
TABLE
  2
LAYER
  5
2
330
0
100
AcDbSymbolTable
 70
    13
  0
LAYER
  5
10
330
2
100
AcDbSymbolTableRecord
100
AcDbLayerTableRecord
  2
0
 70
     0
 62
     7
  6
Continuous
370
    -3
390
F
  0
LAYER
  5
73
330
2
100
AcDbSymbolTableRecord
100
AcDbLayerTableRecord
  2
FORMAT
 70
     0
 62
     7
  6
Continuous
370
    -3
390
F
  0
LAYER
  5
74
330
2
100
AcDbSymbolTableRecord
100
AcDbLayerTableRecord
  2
OSA
 70
     0
 62
     7
  6
CENTER
370
    -3
390
F
  0
LAYER
  5
75
330
2
100
AcDbSymbolTableRecord
100
AcDbLayerTableRecord
  2
0_35
 70
     0
 62
     7
  6
Continuous
370
    35
390
F
  0
LAYER
  5
76
330
2
100
AcDbSymbolTableRecord
100
AcDbLayerTableRecord
  2
0_5
 70
     0
 62
     7
  6
Continuous
370
    50
390
F
  0
LAYER
  5
77
330
2
100
AcDbSymbolTableRecord
100
AcDbLayerTableRecord
  2
0_25
 70
     0
 62
     7
  6
Continuous
370
    25
390
F
  0
LAYER
  5
78
330
2
100
AcDbSymbolTableRecord
100
AcDbLayerTableRecord
  2
0_18
 70
     0
 62
     7
  6
Continuous
370
    -3
390
F
  0
LAYER
  5
79
330
2
100
AcDbSymbolTableRecord
100
AcDbLayerTableRecord
  2
SLD-0
 70
     0
 62
   179
  6
Continuous
370
    -3
390
F
  0
LAYER
  5
7A
330
2
100
AcDbSymbolTableRecord
100
AcDbLayerTableRecord
  2
KOTY
 70
     0
 62
     7
  6
Continuous
370
    -3
390
F
  0
LAYER
  5
7B
330
2
100
AcDbSymbolTableRecord
100
AcDbLayerTableRecord
  2
SILNA
 70
     0
 62
   179
  6
Continuous
370
    -3
390
F
  0
LAYER
  5
7C
330
2
100
AcDbSymbolTableRecord
100
AcDbLayerTableRecord
  2
0_18_1
 70
     0
 62
   179
  6
Continuous
370
    -3
390
F
  0
LAYER
  5
7D
330
2
100
AcDbSymbolTableRecord
100
AcDbLayerTableRecord
  2
0_35_1
 70
     0
 62
   179
  6
Continuous
370
    35
390
F
  0
LAYER
  5
7E
330
2
100
AcDbSymbolTableRecord
100
AcDbLayerTableRecord
  2
0_5_1
 70
     0
 62
   179
  6
Continuous
370
    50
390
F
  0
ENDTAB
  0
TABLE
  2
STYLE
  5
3
330
0
100
AcDbSymbolTable
 70
     1
  0
STYLE
  5
11
330
3
100
AcDbSymbolTableRecord
100
AcDbTextStyleTableRecord
  2
Standard
 70
     0
 40
0.0
 41
1.0
 50
0.0
 71
     0
 42
2.0
  3
txt
  4

  0
ENDTAB
  0
TABLE
  2
VIEW
  5
6
330
0
100
AcDbSymbolTable
 70
     0
  0
ENDTAB
  0
TABLE
  2
UCS
  5
7
330
0
100
AcDbSymbolTable
 70
     0
  0
ENDTAB
  0
TABLE
  2
APPID
  5
9
330
0
100
AcDbSymbolTable
 70
     1
  0
APPID
  5
12
330
9
100
AcDbSymbolTableRecord
100
AcDbRegAppTableRecord
  2
ACAD
 70
     0
  0
ENDTAB
  0
TABLE
  2
DIMSTYLE
  5
A
330
0
100
AcDbSymbolTable
 70
     1
100
AcDbDimStyleTable
  0
DIMSTYLE
105
27
330
A
100
AcDbSymbolTableRecord
100
AcDbDimStyleTableRecord
  2
ISO-25
 70
     0
 41
2.5
 42
0.625
 43
3.75
 44
1.25
 73
     0
 74
     0
 77
     1
 78
     8
140
2.5
141
2.5
143
0.0393700787
147
0.625
171
     3
172
     1
178
     0
271
     2
272
     2
274
     3
278
    44
283
     0
284
     8
340
11
  0
ENDTAB
  0
TABLE
  2
BLOCK_RECORD
  5
1
330
0
100
AcDbSymbolTable
 70
     1
  0
BLOCK_RECORD
  5
1F
330
1
100
AcDbSymbolTableRecord
100
AcDbBlockTableRecord
  2
*Model_Space
340
22
  0
BLOCK_RECORD
  5
1B
330
1
100
AcDbSymbolTableRecord
100
AcDbBlockTableRecord
  2
*Paper_Space
340
1E
  0
BLOCK_RECORD
  5
23
330
1
100
AcDbSymbolTableRecord
100
AcDbBlockTableRecord
  2
*Paper_Space0
340
26
  0
ENDTAB
  0
ENDSEC
  0
SECTION
  2
BLOCKS
  0
BLOCK
  5
20
330
1F
100
AcDbEntity
  8
0
100
AcDbBlockBegin
  2
*Model_Space
 70
     0
 10
0.0
 20
0.0
 30
0.0
  3
*Model_Space
  1

  0
ENDBLK
  5
21
330
1F
100
AcDbEntity
  8
0
100
AcDbBlockEnd
  0
BLOCK
  5
1C
330
1B
100
AcDbEntity
 67
     1
  8
0
100
AcDbBlockBegin
  2
*Paper_Space
 70
     0
 10
0.0
 20
0.0
 30
0.0
  3
*Paper_Space
  1

  0
ENDBLK
  5
1D
330
1B
100
AcDbEntity
 67
     1
  8
0
100
AcDbBlockEnd
  0
BLOCK
  5
24
330
23
100
AcDbEntity
  8
0
100
AcDbBlockBegin
  2
*Paper_Space0
 70
     0
 10
0.0
 20
0.0
 30
0.0
  3
*Paper_Space0
  1

  0
ENDBLK
  5
25
330
23
100
AcDbEntity
  8
0
100
AcDbBlockEnd
  0
ENDSEC
  0
SECTION
  2
ENTITIES
  0
LINE
  5
7F
330
1F
100
AcDbEntity
  8
0
  6
Continuous
 62
     7
370
    25
100
AcDbLine
 10
6290.0187553361
 20
5608.3713135489
 30
0.0
 11
6290.0187553361
 21
5643.6947609351
 31
0.0
  0
LINE
  5
80
330
1F
100
AcDbEntity
  8
0
  6
Continuous
 62
     7
370
    25
100
AcDbLine
 10
6258.0187553361
 20
5643.6947609351
 30
0.0
 11
6258.0187553361
 21
5608.3713135489
 31
0.0
  0
LINE
  5
81
330
1F
100
AcDbEntity
  8
0
  6
Continuous
 62
     7
370
    25
100
AcDbLine
 10
6258.0187553361
 20
5608.3713135489
 30
0.0
 11
6258.0187553361
 21
5607.3713135489
 31
0.0
  0
LINE
  5
82
330
1F
100
AcDbEntity
  8
0
  6
Continuous
 62
     7
370
    25
100
AcDbLine
 10
6290.0187553361
 20
5607.3713135489
 30
0.0
 11
6290.0187553361
 21
5608.3713135489
 31
0.0
  0
LINE
  5
83
330
1F
100
AcDbEntity
  8
0
  6
Continuous
 62
     7
370
    25
100
AcDbLine
 10
6103.1387553361
 20
5588.5713135489
 30
0.0
 11
6103.5187553361
 21
5588.5713135489
 31
0.0
  0
LINE
  5
84
330
1F
100
AcDbEntity
  8
0
  6
Continuous
 62
     7
370
    25
100
AcDbLine
 10
6103.5187553361
 20
5596.1713135489
 30
0.0
 11
6103.1387553361
 21
5596.1713135489
 31
0.0
  0
ARC
  5
85
330
1F
100
AcDbEntity
  8
0
  6
Continuous
 62
     7
370
    25
100
AcDbCircle
 10
6105.2040300614
 20
5592.3713135489
 30
0.0
 40
4.324969328315401
100
AcDbArc
 50
206.059831153
 51
241.4762140417
  0
ARC
  5
86
330
1F
100
AcDbEntity
  8
0
  6
Continuous
 62
     7
370
    25
100
AcDbCircle
 10
6105.2040300614
 20
5592.3713135489
 30
0.0
 40
4.324969328313834
100
AcDbArc
 50
118.5237859583
 51
153.940168847
  0
ARC
  5
87
330
1F
100
AcDbEntity
  8
0
  6
Continuous
 62
     7
370
    25
100
AcDbCircle
 10
6442.8334806108
 20
5592.3713135489
 30
0.0
 40
4.324969328314234
100
AcDbArc
 50
26.059831153
 51
61.4762140417
  0
ARC
  5
88
330
1F
100
AcDbEntity
  8
0
  6
Continuous
 62
     7
370
    25
100
AcDbCircle
 10
6442.8334806108
 20
5592.3713135489
 30
0.0
 40
4.324969328314634
100
AcDbArc
 50
298.5237859583
 51
333.940168847
  0
LINE
  5
89
330
1F
100
AcDbEntity
  8
0
  6
Continuous
 62
     7
370
    25
100
AcDbLine
 10
6444.8987553361
 20
5596.1713135489
 30
0.0
 11
6444.5187553361
 21
5596.1713135489
 31
0.0
  0
LINE
  5
8A
330
1F
100
AcDbEntity
  8
0
  6
Continuous
 62
     7
370
    25
100
AcDbLine
 10
6444.5187553361
 20
5588.5713135489
 30
0.0
 11
6444.8987553361
 21
5588.5713135489
 31
0.0
  0
LINE
  5
8B
330
1F
100
AcDbEntity
  8
0
  6
Continuous
 62
     7
370
    25
100
AcDbLine
 10
6064.0187553361
 20
4811.3713135489
 30
0.0
 11
6064.0187553361
 21
4806.3713135489
 31
0.0
  0
LINE
  5
8C
330
1F
100
AcDbEntity
  8
0
  6
Continuous
 62
     7
370
    25
100
AcDbLine
 10
6484.0187553361
 20
4806.3713135489
 30
0.0
 11
6484.0187553361
 21
4811.3713135489
 31
0.0
  0
ARC
  5
8D
330
1F
100
AcDbEntity
  8
0
  6
Continuous
 62
     7
370
    25
100
AcDbCircle
 10
6064.5187553361
 20
4811.3713135489
 30
0.0
 40
0.5
100
AcDbArc
 50
90.0
 51
180.0
  0
ARC
  5
8E
330
1F
100
AcDbEntity
  8
0
  6
Continuous
 62
     7
370
    25
100
AcDbCircle
 10
6483.5187553361
 20
4811.3713135489
 30
0.0
 40
0.5
100
AcDbArc
 50
0.0
 51
90.0
  0
LINE
  5
8F
330
1F
100
AcDbEntity
  8
0
  6
Continuous
 62
     7
370
    25
100
AcDbLine
 10
6444.5187553361
 20
5596.1713135489
 30
0.0
 11
6444.5187553361
 21
5607.3713135489
 31
0.0
  0
LINE
  5
90
330
1F
100
AcDbEntity
  8
0
  6
Continuous
 62
     7
370
    25
100
AcDbLine
 10
6444.5187553361
 20
5570.8713135489
 30
0.0
 11
6444.5187553361
 21
5588.5713135489
 31
0.0
  0
LINE
  5
91
330
1F
100
AcDbEntity
  8
0
  6
Continuous
 62
     7
370
    25
100
AcDbLine
 10
6103.5187553361
 20
5588.5713135489
 30
0.0
 11
6103.5187553361
 21
5570.8713135489
 31
0.0
  0
LINE
  5
92
330
1F
100
AcDbEntity
  8
0
  6
Continuous
 62
     7
370
    25
100
AcDbLine
 10
6103.5187553361
 20
5607.3713135489
 30
0.0
 11
6103.5187553361
 21
5596.1713135489
 31
0.0
  0
LINE
  5
93
330
1F
100
AcDbEntity
  8
0
  6
Continuous
 62
     7
370
    25
100
AcDbLine
 10
6443.5187553361
 20
4811.8713135489
 30
0.0
 11
6443.5187553361
 21
5570.8713135489
 31
0.0
  0
LINE
  5
94
330
1F
100
AcDbEntity
  8
0
  6
Continuous
 62
     7
370
    25
100
AcDbLine
 10
6104.5187553361
 20
5570.8713135489
 30
0.0
 11
6104.5187553361
 21
4811.8713135489
 31
0.0
  0
LINE
  5
95
330
1F
100
AcDbEntity
  8
0
  6
Continuous
 62
     7
370
    25
100
AcDbLine
 10
6262.7027321938
 20
5649.7134276415
 30
0.0
 11
6285.3347784784
 21
5649.7134276415
 31
0.0
  0
ELLIPSE
  5
96
330
1F
100
AcDbEntity
  8
0
  6
Continuous
 62
     7
370
    25
100
AcDbEllipse
 10
6274.0187553361
 20
5643.6947609351
 30
0.0
 11
16.0
 21
0.0
 31
0.0
210
0.0
220
0.0
230
1.0
 40
0.5320888862
 41
2.356399098625471
 42
7.068378862143948
  0
LWPOLYLINE
  5
97
330
1F
100
AcDbEntity
  8
0
  6
Continuous
 62
     7
370
    25
100
AcDbPolyline
 90
       17
 70
   128
 43
0.0
 10
6274.0187553361
 20
5644.9634276415
 10
6273.4447301876
 20
5645.0205179922
 10
6272.9580951643
 20
5645.1830975557
 10
6272.6329360373
 20
5645.4264150673
 10
6272.5187553361
 20
5645.7134276415
 10
6272.6329360373
 20
5646.0004402158
 10
6272.9580951643
 20
5646.2437577274
 10
6273.4447301876
 20
5646.4063372909
 10
6274.0187553361
 20
5646.4634276415
 10
6274.5927804846
 20
5646.4063372909
 10
6275.0794155079
 20
5646.2437577274
 10
6275.4045746349
 20
5646.0004402158
 10
6275.5187553361
 20
5645.7134276415
 10
6275.4045746349
 20
5645.4264150673
 10
6275.0794155079
 20
5645.1830975557
 10
6274.5927804846
 20
5645.0205179922
 10
6274.0187553361
 20
5644.9634276415
  0
LWPOLYLINE
  5
98
330
1F
100
AcDbEntity
  8
0
  6
Continuous
 62
     7
370
    25
100
AcDbPolyline
 90
       22
 70
   128
 43
0.0
 10
6281.0187553361
 20
5645.7134276415
 10
6279.8397346385
 20
5645.6245732531
 10
6278.7654751038
 20
5645.3659051902
 10
6277.8914294062
 20
5644.9604072453
 10
6277.2952603415
 20
5644.4441096903
 10
6277.0299401474
 20
5643.8628878287
 10
6277.1190436874
 20
5643.2683857736
 10
6277.554653721
 20
5642.7134276415
 10
6278.298064385
 20
5642.2473238979
 10
6279.2832203796
 20
5641.9114899057
 10
6280.4225862714
 20
5641.7357659891
 10
6281.6149244008
 20
5641.7357659891
 10
6282.7542902926
 20
5641.9114899057
 10
6283.7394462872
 20
5642.2473238979
 10
6284.4828569512
 20
5642.7134276415
 10
6284.9184669848
 20
5643.2683857736
 10
6285.0075705248
 20
5643.8628878287
 10
6284.7422503307
 20
5644.4441096903
 10
6284.146081266
 20
5644.9604072453
 10
6283.2720355684
 20
5645.3659051902
 10
6282.1977760337
 20
5645.6245732531
 10
6281.0187553361
 20
5645.7134276415
  0
LWPOLYLINE
  5
99
330
1F
100
AcDbEntity
  8
0
  6
Continuous
 62
     7
370
    25
100
AcDbPolyline
 90
       22
 70
   128
 43
0.0
 10
6267.046769638
 20
5645.7134276415
 10
6265.8677489404
 20
5645.6245732531
 10
6264.7934894058
 20
5645.3659051902
 10
6263.9194437082
 20
5644.9604072453
 10
6263.3232746434
 20
5644.4441096903
 10
6263.0579544493
 20
5643.8628878287
 10
6263.1470579893
 20
5643.2683857736
 10
6263.5826680229
 20
5642.7134276415
 10
6264.3260786869
 20
5642.2473238979
 10
6265.3112346816
 20
5641.9114899057
 10
6266.4506005733
 20
5641.7357659891
 10
6267.6429387027
 20
5641.7357659891
 10
6268.7823045945
 20
5641.9114899057
 10
6269.7674605891
 20
5642.2473238979
 10
6270.5108712532
 20
5642.7134276415
 10
6270.9464812867
 20
5643.2683857736
 10
6271.0355848267
 20
5643.8628878287
 10
6270.7702646326
 20
5644.4441096903
 10
6270.1740955679
 20
5644.9604072453
 10
6269.3000498703
 20
5645.3659051902
 10
6268.2257903357
 20
5645.6245732531
 10
6267.046769638
 20
5645.7134276415
  0
LWPOLYLINE
  5
9A
330
1F
100
AcDbEntity
  8
0
  6
Continuous
 62
     7
370
    25
100
AcDbPolyline
 90
       17
 70
   128
 43
0.0
 10
6274.0187553361
 20
5639.4634276415
 10
6273.0620467552
 20
5639.3682770572
 10
6272.2509883831
 20
5639.097311118
 10
6271.7090565048
 20
5638.691781932
 10
6271.5187553361
 20
5638.2134276415
 10
6271.7090565048
 20
5637.7350733511
 10
6272.2509883831
 20
5637.3295441651
 10
6273.0620467552
 20
5637.0585782259
 10
6274.0187553361
 20
5636.9634276415
 10
6274.975463917
 20
5637.0585782259
 10
6275.7865222891
 20
5637.3295441651
 10
6276.3284541674
 20
5637.7350733511
 10
6276.5187553361
 20
5638.2134276415
 10
6276.3284541674
 20
5638.691781932
 10
6275.7865222891
 20
5639.097311118
 10
6274.975463917
 20
5639.3682770572
 10
6274.0187553361
 20
5639.4634276415
  0
LINE
  5
9B
330
1F
100
AcDbEntity
  8
0
  6
Continuous
 62
     7
370
    25
100
AcDbLine
 10
6290.0187553361
 20
5608.3713135489
 30
0.0
 11
6258.0187553361
 21
5608.3713135489
 31
0.0
  0
LWPOLYLINE
  5
9C
330
1F
100
AcDbEntity
  8
0
  6
Continuous
 62
     7
370
    25
100
AcDbPolyline
 90
       22
 70
   128
 43
0.0
 10
6267.046769638
 20
5641.7134276405
 10
6268.2257903357
 20
5641.802282029
 10
6269.3000498703
 20
5642.0609500921
 10
6270.1740955679
 20
5642.4664480372
 10
6270.7702646326
 20
5642.9827455924
 10
6271.0355848267
 20
5643.5639674543
 10
6270.9464812867
 20
5644.1584695097
 10
6270.5108712532
 20
5644.713427642
 10
6269.7674605891
 20
5645.1795313859
 10
6268.7823045945
 20
5645.5153653783
 10
6267.6429387027
 20
5645.691089295
 10
6266.4506005733
 20
5645.691089295
 10
6265.3112346816
 20
5645.5153653783
 10
6264.3260786869
 20
5645.1795313859
 10
6263.5826680229
 20
5644.713427642
 10
6263.1470579893
 20
5644.1584695097
 10
6263.0579544493
 20
5643.5639674543
 10
6263.3232746434
 20
5642.9827455924
 10
6263.9194437082
 20
5642.4664480372
 10
6264.7934894058
 20
5642.0609500921
 10
6265.8677489404
 20
5641.802282029
 10
6267.046769638
 20
5641.7134276405
  0
LWPOLYLINE
  5
9D
330
1F
100
AcDbEntity
  8
0
  6
Continuous
 62
     7
370
    25
100
AcDbPolyline
 90
       22
 70
   128
 43
0.0
 10
6281.0187553361
 20
5641.7134276405
 10
6282.1977760337
 20
5641.802282029
 10
6283.2720355684
 20
5642.0609500921
 10
6284.146081266
 20
5642.4664480372
 10
6284.7422503307
 20
5642.9827455924
 10
6285.0075705248
 20
5643.5639674543
 10
6284.9184669848
 20
5644.1584695097
 10
6284.4828569512
 20
5644.713427642
 10
6283.7394462872
 20
5645.1795313859
 10
6282.7542902926
 20
5645.5153653783
 10
6281.6149244008
 20
5645.691089295
 10
6280.4225862714
 20
5645.691089295
 10
6279.2832203796
 20
5645.5153653783
 10
6278.298064385
 20
5645.1795313859
 10
6277.554653721
 20
5644.713427642
 10
6277.1190436874
 20
5644.1584695097
 10
6277.0299401474
 20
5643.5639674543
 10
6277.2952603415
 20
5642.9827455924
 10
6277.8914294062
 20
5642.4664480372
 10
6278.7654751038
 20
5642.0609500921
 10
6279.8397346385
 20
5641.802282029
 10
6281.0187553361
 20
5641.7134276405
  0
LWPOLYLINE
  5
9E
330
1F
100
AcDbEntity
  8
0
  6
Continuous
 62
     7
370
    25
100
AcDbPolyline
 90
       17
 70
   128
 43
0.0
 10
6274.0187553361
 20
5646.4634276414
 10
6274.5927804846
 20
5646.4063372908
 10
6275.0794155079
 20
5646.2437577273
 10
6275.4045746349
 20
5646.0004402158
 10
6275.5187553361
 20
5645.7134276415
 10
6275.4045746349
 20
5645.4264150673
 10
6275.0794155079
 20
5645.1830975557
 10
6274.5927804846
 20
5645.0205179923
 10
6274.0187553361
 20
5644.9634276417
 10
6273.4447301876
 20
5645.0205179923
 10
6272.9580951643
 20
5645.1830975557
 10
6272.6329360373
 20
5645.4264150673
 10
6272.5187553361
 20
5645.7134276415
 10
6272.6329360373
 20
5646.0004402158
 10
6272.9580951643
 20
5646.2437577273
 10
6273.4447301876
 20
5646.4063372908
 10
6274.0187553361
 20
5646.4634276414
  0
LINE
  5
9F
330
1F
100
AcDbEntity
  8
0
  6
Continuous
 62
     7
370
    25
100
AcDbLine
 10
6103.5187553361
 20
5595.8833670013
 30
0.0
 11
6103.5187553361
 21
5596.1713135489
 31
0.0
  0
LINE
  5
A0
330
1F
100
AcDbEntity
  8
0
  6
Continuous
 62
     7
370
    25
100
AcDbLine
 10
6103.5187553361
 20
5588.5713135489
 30
0.0
 11
6103.5187553361
 21
5595.8833670013
 31
0.0
  0
LINE
  5
A1
330
1F
100
AcDbEntity
  8
0
  6
Continuous
 62
     7
370
    25
100
AcDbLine
 10
6103.1387553361
 20
5595.8833670013
 30
0.0
 11
6103.1387553361
 21
5596.1713135489
 31
0.0
  0
LINE
  5
A2
330
1F
100
AcDbEntity
  8
0
  6
Continuous
 62
     7
370
    25
100
AcDbLine
 10
6103.1387553361
 20
5588.5713135489
 30
0.0
 11
6103.1387553361
 21
5595.8833670013
 31
0.0
  0
LINE
  5
A3
330
1F
100
AcDbEntity
  8
0
  6
Continuous
 62
     7
370
    25
100
AcDbLine
 10
6101.3187553361
 20
5594.1273402751
 30
0.0
 11
6101.3187553361
 21
5594.2713135489
 31
0.0
  0
LINE
  5
A4
330
1F
100
AcDbEntity
  8
0
  6
Continuous
 62
     7
370
    25
100
AcDbLine
 10
6101.3187553361
 20
5590.4713135489
 30
0.0
 11
6101.3187553361
 21
5594.1273402751
 31
0.0
  0
LINE
  5
A5
330
1F
100
AcDbEntity
  8
0
  6
Continuous
 62
     7
370
    25
100
AcDbLine
 10
6446.7187553361
 20
5594.2713135489
 30
0.0
 11
6446.7187553361
 21
5590.4713135489
 31
0.0
  0
LINE
  5
A6
330
1F
100
AcDbEntity
  8
0
  6
Continuous
 62
     7
370
    25
100
AcDbLine
 10
6444.8987553361
 20
5596.1713135489
 30
0.0
 11
6444.8987553361
 21
5588.5713135489
 31
0.0
  0
LINE
  5
A7
330
1F
100
AcDbEntity
  8
0
  6
Continuous
 62
     7
370
    25
100
AcDbLine
 10
6444.5187553361
 20
5596.1713135489
 30
0.0
 11
6444.5187553361
 21
5588.5713135489
 31
0.0
  0
LINE
  5
A8
330
1F
100
AcDbEntity
  8
0
  6
Continuous
 62
     7
370
    25
100
AcDbLine
 10
6064.0187553361
 20
4806.3713135489
 30
0.0
 11
6484.0187553361
 21
4806.3713135489
 31
0.0
  0
LINE
  5
A9
330
1F
100
AcDbEntity
  8
0
  6
Continuous
 62
     7
370
    25
100
AcDbLine
 10
6064.5187553361
 20
4811.8713135489
 30
0.0
 11
6483.5187553361
 21
4811.8713135489
 31
0.0
  0
ARC
  5
AA
330
1F
100
AcDbEntity
  8
0
  6
Continuous
 62
     7
370
    25
100
AcDbCircle
 10
5933.3978541398
 20
5592.373921274
 30
0.0
 40
170.140726415764
100
AcDbArc
 50
359.9991218349
 51
0.8634908649
  0
LWPOLYLINE
  5
AB
330
1F
100
AcDbEntity
  8
0
  6
Continuous
 62
     7
370
    25
100
AcDbPolyline
 90
        7
 70
   128
 43
0.0
 10
6103.518822747
 20
5589.7758504347
 10
6103.5187575608
 20
5589.7714594447
 10
6103.5210598683
 20
5589.9271040982
 10
6103.5266956496
 20
5590.3582521642
 10
6103.5331962653
 20
5591.0163775016
 10
6103.5377125653
 20
5591.8273059973
 10
6103.5385805356
 20
5592.3713135489
  0
LINE
  5
AC
330
1F
100
AcDbEntity
  8
0
  6
Continuous
 62
     7
370
    25
100
AcDbLine
 10
6274.0187553361
 20
5570.8713135489
 30
0.0
 11
6444.5187553361
 21
5570.8713135489
 31
0.0
  0
LINE
  5
AD
330
1F
100
AcDbEntity
  8
0
  6
Continuous
 62
     7
370
    25
100
AcDbLine
 10
6103.5187553361
 20
5570.8713135489
 30
0.0
 11
6274.0187553361
 21
5570.8713135489
 31
0.0
  0
LWPOLYLINE
  5
AE
330
1F
100
AcDbEntity
  8
0
  6
Continuous
 62
     7
370
    25
100
AcDbPolyline
 90
       11
 70
   128
 43
0.0
 10
6444.5182515925
 20
5589.8046530627
 10
6444.518489812
 20
5589.7887844854
 10
6444.5149529653
 20
5590.0339205503
 10
6444.5087387133
 20
5590.5425347302
 10
6444.5025694116
 20
5591.2573738091
 10
6444.4991495126
 20
5592.0978202921
 10
6444.4999779257
 20
5592.9690222044
 10
6444.5046907306
 20
5593.7728010877
 10
6444.5112231509
 20
5594.418648786
 10
6444.5167127346
 20
5594.833726403
 10
6444.5186879252
 20
5594.966776663
  0
LINE
  5
AF
330
1F
100
AcDbEntity
  8
0
  6
Continuous
 62
     7
370
    25
100
AcDbLine
 10
6274.0187553361
 20
5607.3713135489
 30
0.0
 11
6444.5187553361
 21
5607.3713135489
 31
0.0
  0
LINE
  5
B0
330
1F
100
AcDbEntity
  8
0
  6
Continuous
 62
     7
370
    25
100
AcDbLine
 10
6103.5187553361
 20
5607.3713135489
 30
0.0
 11
6274.0187553361
 21
5607.3713135489
 31
0.0
  0
LINE
  5
B1
330
1F
100
AcDbEntity
  8
0
  6
Continuous
 62
     8
370
    25
100
AcDbLine
 10
6484.0187553361
 20
4811.3713135489
 30
0.0
 11
6064.0187553361
 21
4811.3713135489
 31
0.0
  0
LINE
  5
B2
330
1F
100
AcDbEntity
  8
0
  6
Continuous
 62
     7
370
    25
100
AcDbLine
 10
7003.833352896
 20
5608.3713135489
 30
0.0
 11
7008.5606836934
 21
5635.1813387553
 31
0.0
  0
LINE
  5
B3
330
1F
100
AcDbEntity
  8
0
  6
Continuous
 62
     7
370
    25
100
AcDbLine
 10
6976.5360830721
 20
5637.8414589322
 30
0.0
 11
6971.3397013156
 21
5608.3713135489
 31
0.0
  0
LINE
  5
B4
330
1F
100
AcDbEntity
  8
0
  6
Continuous
 62
     7
370
    25
100
AcDbLine
 10
6971.3365271058
 20
5608.3713135489
 30
0.0
 11
6971.3365271058
 21
5607.3713135489
 31
0.0
  0
LINE
  5
B5
330
1F
100
AcDbEntity
  8
0
  6
Continuous
 62
     7
370
    25
100
AcDbLine
 10
7003.3365271058
 20
5607.3713135489
 30
0.0
 11
7003.3365271058
 21
5608.3713135489
 31
0.0
  0
LINE
  5
B6
330
1F
100
AcDbEntity
  8
0
  6
Continuous
 62
     7
370
    25
100
AcDbLine
 10
6886.3365271058
 20
4811.3713135489
 30
0.0
 11
6886.3365271058
 21
4806.3713135489
 31
0.0
  0
LINE
  5
B7
330
1F
100
AcDbEntity
  8
0
  6
Continuous
 62
     7
370
    25
100
AcDbLine
 10
7306.3365271058
 20
4806.3713135489
 30
0.0
 11
7306.3365271058
 21
4811.3713135489
 31
0.0
  0
ARC
  5
B8
330
1F
100
AcDbEntity
  8
0
  6
Continuous
 62
     7
370
    25
100
AcDbCircle
 10
6886.8365271058
 20
4811.3713135489
 30
0.0
 40
0.5000000000009095
100
AcDbArc
 50
90.0
 51
180.0
  0
ARC
  5
B9
330
1F
100
AcDbEntity
  8
0
  6
Continuous
 62
     7
370
    25
100
AcDbCircle
 10
7305.8365271058
 20
4811.3713135489
 30
0.0
 40
0.5
100
AcDbArc
 50
0.0
 51
90.0
  0
LINE
  5
BA
330
1F
100
AcDbEntity
  8
0
  6
Continuous
 62
     7
370
    25
100
AcDbLine
 10
7266.8365271058
 20
5570.8713135489
 30
0.0
 11
7266.8365271058
 21
5607.3713135489
 31
0.0
  0
LINE
  5
BB
330
1F
100
AcDbEntity
  8
0
  6
Continuous
 62
     7
370
    25
100
AcDbLine
 10
6925.8365271058
 20
5607.3713135489
 30
0.0
 11
6925.8365271058
 21
5570.8713135489
 31
0.0
  0
LINE
  5
BC
330
1F
100
AcDbEntity
  8
0
  6
Continuous
 62
     7
370
    25
100
AcDbLine
 10
7265.8365271058
 20
4811.8713135489
 30
0.0
 11
7265.8365271058
 21
5570.8713135489
 31
0.0
  0
LINE
  5
BD
330
1F
100
AcDbEntity
  8
0
  6
Continuous
 62
     7
370
    25
100
AcDbLine
 10
6926.8365271058
 20
5570.8713135489
 30
0.0
 11
6926.8365271058
 21
4811.8713135489
 31
0.0
  0
LINE
  5
BE
330
1F
100
AcDbEntity
  8
0
  6
Continuous
 62
     7
370
    25
100
AcDbLine
 10
6983.3903674023
 20
5649.7134276415
 30
0.0
 11
6976.5360830721
 21
5637.8414589322
 31
0.0
  0
LINE
  5
BF
330
1F
100
AcDbEntity
  8
0
  6
Continuous
 62
     7
370
    25
100
AcDbLine
 10
6983.3903674023
 20
5649.7134276415
 30
0.0
 11
7008.5606836934
 21
5635.1813387553
 31
0.0
  0
LINE
  5
C0
330
1F
100
AcDbEntity
  8
0
  6
Continuous
 62
     7
370
    25
100
AcDbLine
 10
7003.833352896
 20
5608.3713135489
 30
0.0
 11
6987.5865271058
 21
5608.3713135489
 31
0.0
  0
LINE
  5
C1
330
1F
100
AcDbEntity
  8
0
  6
Continuous
 62
     7
370
    25
100
AcDbLine
 10
6971.3365271058
 20
5608.3713135489
 30
0.0
 11
6987.5865271058
 21
5608.3713135489
 31
0.0
  0
CIRCLE
  5
C2
330
1F
100
AcDbEntity
  8
0
  6
Continuous
 62
     7
370
    25
100
AcDbCircle
 10
7096.3365271058
 20
5592.3713135489
 30
0.0
 40
1.899999999999808
  0
CIRCLE
  5
C3
330
1F
100
AcDbEntity
  8
0
  6
Continuous
 62
     7
370
    25
100
AcDbCircle
 10
7096.3365271058
 20
5592.3713135489
 30
0.0
 40
3.799999999999616
  0
LINE
  5
C4
330
1F
100
AcDbEntity
  8
0
  6
Continuous
 62
     7
370
    25
100
AcDbLine
 10
7095.0025238123
 20
5592.9224655662
 30
0.0
 11
7096.1468371074
 21
5593.8021702985
 31
0.0
  0
LINE
  5
C5
330
1F
100
AcDbEntity
  8
0
  6
Continuous
 62
     7
370
    25
100
AcDbLine
 10
7095.1922138107
 20
5591.4916088166
 30
0.0
 11
7095.0025238123
 21
5592.9224655662
 31
0.0
  0
LINE
  5
C6
330
1F
100
AcDbEntity
  8
0
  6
Continuous
 62
     7
370
    25
100
AcDbLine
 10
7096.5262171042
 20
5590.9404567993
 30
0.0
 11
7095.1922138107
 21
5591.4916088166
 31
0.0
  0
LINE
  5
C7
330
1F
100
AcDbEntity
  8
0
  6
Continuous
 62
     7
370
    25
100
AcDbLine
 10
7097.6705303993
 20
5591.8201615315
 30
0.0
 11
7096.5262171042
 21
5590.9404567993
 31
0.0
  0
LINE
  5
C8
330
1F
100
AcDbEntity
  8
0
  6
Continuous
 62
     7
370
    25
100
AcDbLine
 10
7097.4808404009
 20
5593.2510182811
 30
0.0
 11
7097.6705303993
 21
5591.8201615315
 31
0.0
  0
LINE
  5
C9
330
1F
100
AcDbEntity
  8
0
  6
Continuous
 62
     7
370
    25
100
AcDbLine
 10
7096.1468371074
 20
5593.8021702985
 30
0.0
 11
7097.4808404009
 21
5593.2510182811
 31
0.0
  0
ARC
  5
CA
330
1F
100
AcDbEntity
  8
0
  6
Continuous
 62
     7
370
    25
100
AcDbCircle
 10
7096.3365271058
 20
5592.3713135489
 30
0.0
 40
1.249999999999974
100
AcDbArc
 50
307.5517191532
 51
7.5517191532
  0
ARC
  5
CB
330
1F
100
AcDbEntity
  8
0
  6
Continuous
 62
     7
370
    25
100
AcDbCircle
 10
7096.3365271058
 20
5592.3713135489
 30
0.0
 40
1.250000000000376
100
AcDbArc
 50
7.5517191532
 51
67.5517191532
  0
ARC
  5
CC
330
1F
100
AcDbEntity
  8
0
  6
Continuous
 62
     7
370
    25
100
AcDbCircle
 10
7096.3365271058
 20
5592.3713135489
 30
0.0
 40
1.250000000001217
100
AcDbArc
 50
247.5517191532
 51
307.5517191532
  0
ARC
  5
CD
330
1F
100
AcDbEntity
  8
0
  6
Continuous
 62
     7
370
    25
100
AcDbCircle
 10
7096.3365271058
 20
5592.3713135489
 30
0.0
 40
1.250000000001217
100
AcDbArc
 50
187.5517191532
 51
247.5517191532
  0
ARC
  5
CE
330
1F
100
AcDbEntity
  8
0
  6
Continuous
 62
     7
370
    25
100
AcDbCircle
 10
7096.3365271058
 20
5592.3713135489
 30
0.0
 40
1.250000000000695
100
AcDbArc
 50
127.5517191531
 51
187.5517191532
  0
ARC
  5
CF
330
1F
100
AcDbEntity
  8
0
  6
Continuous
 62
     7
370
    25
100
AcDbCircle
 10
7096.3365271058
 20
5592.3713135489
 30
0.0
 40
1.250000000000695
100
AcDbArc
 50
67.5517191532
 51
127.5517191531
  0
LINE
  5
D0
330
1F
100
AcDbEntity
  8
0
  6
Continuous
 62
     7
370
    25
100
AcDbLine
 10
6975.0913928805
 20
4806.3713135489
 30
0.0
 11
7306.3365271058
 21
4806.3713135489
 31
0.0
  0
LINE
  5
D1
330
1F
100
AcDbEntity
  8
0
  6
Continuous
 62
     7
370
    25
100
AcDbLine
 10
6886.3365271058
 20
4806.3713135489
 30
0.0
 11
6975.0913928805
 21
4806.3713135489
 31
0.0
  0
LINE
  5
D2
330
1F
100
AcDbEntity
  8
0
  6
Continuous
 62
     7
370
    25
100
AcDbLine
 10
6975.3800717715
 20
4811.8713135489
 30
0.0
 11
7305.8365271058
 21
4811.8713135489
 31
0.0
  0
LINE
  5
D3
330
1F
100
AcDbEntity
  8
0
  6
Continuous
 62
     7
370
    25
100
AcDbLine
 10
6886.8365271058
 20
4811.8713135489
 30
0.0
 11
6975.3800717715
 21
4811.8713135489
 31
0.0
  0
LINE
  5
D4
330
1F
100
AcDbEntity
  8
0
  6
Continuous
 62
     7
370
    25
100
AcDbLine
 10
6925.8365271058
 20
5570.8713135489
 30
0.0
 11
7266.8365271058
 21
5570.8713135489
 31
0.0
  0
LINE
  5
D5
330
1F
100
AcDbEntity
  8
0
  6
Continuous
 62
     7
370
    25
100
AcDbLine
 10
6925.8365271058
 20
5607.3713135489
 30
0.0
 11
7266.8365271058
 21
5607.3713135489
 31
0.0
  0
LINE
  5
D6
330
1F
100
AcDbEntity
  8
0
  6
Continuous
 62
     8
370
    25
100
AcDbLine
 10
6975.0913928805
 20
4811.3713135489
 30
0.0
 11
6886.3365271058
 21
4811.3713135489
 31
0.0
  0
LINE
  5
D7
330
1F
100
AcDbEntity
  8
0
  6
Continuous
 62
     8
370
    25
100
AcDbLine
 10
7306.3365271058
 20
4811.3713135489
 30
0.0
 11
6975.0913928805
 21
4811.3713135489
 31
0.0
  0
LINE
  5
D8
330
1F
100
AcDbEntity
  8
0
  6
Continuous
 62
     7
370
    25
100
AcDbLine
 10
6258.0187553361
 20
4323.8122658848
 30
0.0
 11
6258.0187553361
 21
4317.583789059
 31
0.0
  0
LINE
  5
D9
330
1F
100
AcDbEntity
  8
0
  6
Continuous
 62
     7
370
    25
100
AcDbLine
 10
6290.0187553361
 20
4317.583789059
 30
0.0
 11
6290.0187553361
 21
4323.8122658848
 31
0.0
  0
LINE
  5
DA
330
1F
100
AcDbEntity
  8
0
  6
Continuous
 62
     7
370
    25
100
AcDbLine
 10
6103.1387553361
 20
4211.2622658848
 30
0.0
 11
6103.5187553361
 21
4211.2622658848
 31
0.0
  0
LINE
  5
DB
330
1F
100
AcDbEntity
  8
0
  6
Continuous
 62
     7
370
    25
100
AcDbLine
 10
6103.5187553361
 20
4218.8622658848
 30
0.0
 11
6103.1387553361
 21
4218.8622658848
 31
0.0
  0
ARC
  5
DC
330
1F
100
AcDbEntity
  8
0
  6
Continuous
 62
     7
370
    25
100
AcDbCircle
 10
6105.2040300614
 20
4215.0622658848
 30
0.0
 40
4.324969328314634
100
AcDbArc
 50
206.059831153
 51
241.4762140417
  0
ARC
  5
DD
330
1F
100
AcDbEntity
  8
0
  6
Continuous
 62
     7
370
    25
100
AcDbCircle
 10
6105.2040300614
 20
4215.0622658848
 30
0.0
 40
4.324969328314602
100
AcDbArc
 50
118.5237859583
 51
153.940168847
  0
LWPOLYLINE
  5
DE
330
1F
100
AcDbEntity
  8
0
  6
Continuous
 62
     7
370
    25
100
AcDbPolyline
 90
        3
 70
   128
 43
0.0
 10
6103.5187553361
 20
4212.8622658848
 10
6103.52259828
 20
4212.9012839492
 10
6103.5320396339
 20
4212.9339404726
  0
LWPOLYLINE
  5
DF
330
1F
100
AcDbEntity
  8
0
  6
Continuous
 62
     7
370
    25
100
AcDbPolyline
 90
        3
 70
   128
 43
0.0
 10
6103.5320396339
 20
4217.190591297
 10
6103.52259828
 20
4217.2232478204
 10
6103.5187553361
 20
4217.2622658848
  0
LINE
  5
E0
330
1F
100
AcDbEntity
  8
0
  6
Continuous
 62
     7
370
    25
100
AcDbLine
 10
6444.8987553361
 20
4218.8622658848
 30
0.0
 11
6444.5187553361
 21
4218.8622658848
 31
0.0
  0
LINE
  5
E1
330
1F
100
AcDbEntity
  8
0
  6
Continuous
 62
     7
370
    25
100
AcDbLine
 10
6444.5187553361
 20
4211.2622658848
 30
0.0
 11
6444.8987553361
 21
4211.2622658848
 31
0.0
  0
ARC
  5
E2
330
1F
100
AcDbEntity
  8
0
  6
Continuous
 62
     7
370
    25
100
AcDbCircle
 10
6442.8334806108
 20
4215.0622658848
 30
0.0
 40
4.324969328314602
100
AcDbArc
 50
26.059831153
 51
61.4762140417
  0
ARC
  5
E3
330
1F
100
AcDbEntity
  8
0
  6
Continuous
 62
     7
370
    25
100
AcDbCircle
 10
6442.8334806108
 20
4215.0622658848
 30
0.0
 40
4.324969328314634
100
AcDbArc
 50
298.5237859583
 51
333.940168847
  0
LWPOLYLINE
  5
E4
330
1F
100
AcDbEntity
  8
0
  6
Continuous
 62
     7
370
    25
100
AcDbPolyline
 90
        3
 70
   128
 43
0.0
 10
6444.5187553361
 20
4217.2622658848
 10
6444.5149123922
 20
4217.2232478204
 10
6444.5054710384
 20
4217.190591297
  0
LWPOLYLINE
  5
E5
330
1F
100
AcDbEntity
  8
0
  6
Continuous
 62
     7
370
    25
100
AcDbPolyline
 90
        3
 70
   128
 43
0.0
 10
6444.5054710384
 20
4212.9339404726
 10
6444.5149123922
 20
4212.9012839492
 10
6444.5187553361
 20
4212.8622658848
  0
ELLIPSE
  5
E6
330
1F
100
AcDbEntity
  8
0
  6
Continuous
 62
     7
370
    25
100
AcDbEllipse
 10
6274.0187553361
 20
4311.4722747172
 30
0.0
 11
0.0
 21
23.39043520130417
 31
0.0
210
0.0
220
0.0
230
1.0
 40
0.6840402867
 41
5.497582535349087
 42
7.06878807901014
  0
ELLIPSE
  5
E7
330
1F
100
AcDbEntity
  8
0
  6
Continuous
 62
     7
370
    25
100
AcDbEllipse
 10
6274.0187553361
 20
4317.583789059
 30
0.0
 11
16.0
 21
0.0
 31
0.0
210
0.0
220
0.0
230
1.0
 40
0.9216049851
 41
2.356399098625442
 42
7.068378862143978
  0
ELLIPSE
  5
E8
330
1F
100
AcDbEntity
  8
0
  6
Continuous
 62
     7
370
    25
100
AcDbEllipse
 10
6274.0187553361
 20
4323.8122658848
 30
0.0
 11
0.0
 21
16.2468257901719
 31
0.0
210
0.0
220
0.0
230
1.0
 40
0.984807753
 41
4.712388980384704
 42
6.283185307179586
  0
ELLIPSE
  5
E9
330
1F
100
AcDbEntity
  8
0
  6
Continuous
 62
     7
370
    25
100
AcDbEllipse
 10
6274.0187553361
 20
4323.8122658848
 30
0.0
 11
0.0
 21
16.2468257901719
 31
0.0
210
0.0
220
0.0
230
1.0
 40
0.984807753
 41
0.0
 42
1.570796326794897
  0
LINE
  5
EA
330
1F
100
AcDbEntity
  8
0
  6
Continuous
 62
     7
370
    25
100
AcDbLine
 10
6262.7027321938
 20
4328.0084255884
 30
0.0
 11
6285.3347784784
 21
4328.0084255884
 31
0.0
  0
LWPOLYLINE
  5
EB
330
1F
100
AcDbEntity
  8
0
  6
Continuous
 62
     7
370
    25
100
AcDbPolyline
 90
       17
 70
   128
 43
0.0
 10
6274.0187553361
 20
4319.7811842524
 10
6273.4447301876
 20
4319.8800676403
 10
6272.9580951643
 20
4320.1616637045
 10
6272.6329360373
 20
4320.583101997
 10
6272.5187553361
 20
4321.0802223581
 10
6272.6329360373
 20
4321.5773427191
 10
6272.9580951643
 20
4321.9987810116
 10
6273.4447301876
 20
4322.2803770759
 10
6274.0187553361
 20
4322.3792604638
 10
6274.5927804846
 20
4322.2803770759
 10
6275.0794155079
 20
4321.9987810116
 10
6275.4045746349
 20
4321.5773427191
 10
6275.5187553361
 20
4321.0802223581
 10
6275.4045746349
 20
4320.583101997
 10
6275.0794155079
 20
4320.1616637045
 10
6274.5927804846
 20
4319.8800676403
 10
6274.0187553361
 20
4319.7811842524
  0
LWPOLYLINE
  5
EC
330
1F
100
AcDbEntity
  8
0
  6
Continuous
 62
     7
370
    25
100
AcDbPolyline
 90
       22
 70
   128
 43
0.0
 10
6281.0187553361
 20
4321.0802223581
 10
6279.8397346385
 20
4320.9263220429
 10
6278.7654751038
 20
4320.4782958155
 10
6277.8914294062
 20
4319.7759527726
 10
6277.2952603415
 20
4318.8816991755
 10
6277.0299401474
 20
4317.8749933808
 10
6277.1190436874
 20
4316.8452856162
 10
6277.554653721
 20
4315.8840699354
 10
6278.298064385
 20
4315.0767545698
 10
6279.2832203796
 20
4314.4950730325
 10
6280.4225862714
 20
4314.1907102807
 10
6281.6149244008
 20
4314.1907102807
 10
6282.7542902926
 20
4314.4950730325
 10
6283.7394462872
 20
4315.0767545698
 10
6284.4828569512
 20
4315.8840699354
 10
6284.9184669848
 20
4316.8452856162
 10
6285.0075705248
 20
4317.8749933808
 10
6284.7422503307
 20
4318.8816991755
 10
6284.146081266
 20
4319.7759527726
 10
6283.2720355684
 20
4320.4782958155
 10
6282.1977760337
 20
4320.9263220429
 10
6281.0187553361
 20
4321.0802223581
  0
LWPOLYLINE
  5
ED
330
1F
100
AcDbEntity
  8
0
  6
Continuous
 62
     7
370
    25
100
AcDbPolyline
 90
       22
 70
   128
 43
0.0
 10
6267.046769638
 20
4321.0802223581
 10
6265.8677489404
 20
4320.9263220429
 10
6264.7934894058
 20
4320.4782958155
 10
6263.9194437082
 20
4319.7759527726
 10
6263.3232746434
 20
4318.8816991755
 10
6263.0579544493
 20
4317.8749933808
 10
6263.1470579893
 20
4316.8452856162
 10
6263.5826680229
 20
4315.8840699354
 10
6264.3260786869
 20
4315.0767545698
 10
6265.3112346816
 20
4314.4950730325
 10
6266.4506005733
 20
4314.1907102807
 10
6267.6429387027
 20
4314.1907102807
 10
6268.7823045945
 20
4314.4950730325
 10
6269.7674605891
 20
4315.0767545698
 10
6270.5108712532
 20
4315.8840699354
 10
6270.9464812867
 20
4316.8452856162
 10
6271.0355848267
 20
4317.8749933808
 10
6270.7702646326
 20
4318.8816991755
 10
6270.1740955679
 20
4319.7759527726
 10
6269.3000498703
 20
4320.4782958155
 10
6268.2257903357
 20
4320.9263220429
 10
6267.046769638
 20
4321.0802223581
  0
LWPOLYLINE
  5
EE
330
1F
100
AcDbEntity
  8
0
  6
Continuous
 62
     7
370
    25
100
AcDbPolyline
 90
       17
 70
   128
 43
0.0
 10
6274.0187553361
 20
4310.2549048108
 10
6273.0620467552
 20
4310.0900991643
 10
6272.2509883831
 20
4309.6207723906
 10
6271.7090565048
 20
4308.9183752364
 10
6271.5187553361
 20
4308.0898413013
 10
6271.7090565048
 20
4307.2613073662
 10
6272.2509883831
 20
4306.5589102121
 10
6273.0620467552
 20
4306.0895834383
 10
6274.0187553361
 20
4305.9247777919
 10
6274.975463917
 20
4306.0895834383
 10
6275.7865222891
 20
4306.5589102121
 10
6276.3284541674
 20
4307.2613073662
 10
6276.5187553361
 20
4308.0898413013
 10
6276.3284541674
 20
4308.9183752364
 10
6275.7865222891
 20
4309.6207723906
 10
6274.975463917
 20
4310.0900991643
 10
6274.0187553361
 20
4310.2549048108
  0
LWPOLYLINE
  5
EF
330
1F
100
AcDbEntity
  8
0
  6
Continuous
 62
     7
370
    25
100
AcDbPolyline
 90
       22
 70
   128
 43
0.0
 10
6267.046769638
 20
4314.1520191284
 10
6268.2257903357
 20
4314.3059194436
 10
6269.3000498703
 20
4314.7539456708
 10
6270.1740955679
 20
4315.4562887137
 10
6270.7702646326
 20
4316.3505423106
 10
6271.0355848267
 20
4317.3572481051
 10
6270.9464812867
 20
4318.3869558695
 10
6270.5108712532
 20
4319.3481715502
 10
6269.7674605891
 20
4320.1554869157
 10
6268.7823045945
 20
4320.7371684529
 10
6267.6429387027
 20
4321.0415312046
 10
6266.4506005733
 20
4321.0415312046
 10
6265.3112346816
 20
4320.7371684529
 10
6264.3260786869
 20
4320.1554869157
 10
6263.5826680229
 20
4319.3481715502
 10
6263.1470579893
 20
4318.3869558695
 10
6263.0579544493
 20
4317.3572481051
 10
6263.3232746434
 20
4316.3505423106
 10
6263.9194437082
 20
4315.4562887137
 10
6264.7934894058
 20
4314.7539456708
 10
6265.8677489404
 20
4314.3059194436
 10
6267.046769638
 20
4314.1520191284
  0
LWPOLYLINE
  5
F0
330
1F
100
AcDbEntity
  8
0
  6
Continuous
 62
     7
370
    25
100
AcDbPolyline
 90
       22
 70
   128
 43
0.0
 10
6281.0187553361
 20
4314.1520191284
 10
6282.1977760337
 20
4314.3059194436
 10
6283.2720355684
 20
4314.7539456708
 10
6284.146081266
 20
4315.4562887137
 10
6284.7422503307
 20
4316.3505423106
 10
6285.0075705248
 20
4317.3572481051
 10
6284.9184669848
 20
4318.3869558695
 10
6284.4828569512
 20
4319.3481715502
 10
6283.7394462872
 20
4320.1554869157
 10
6282.7542902926
 20
4320.7371684529
 10
6281.6149244008
 20
4321.0415312046
 10
6280.4225862714
 20
4321.0415312046
 10
6279.2832203796
 20
4320.7371684529
 10
6278.298064385
 20
4320.1554869157
 10
6277.554653721
 20
4319.3481715502
 10
6277.1190436874
 20
4318.3869558695
 10
6277.0299401474
 20
4317.3572481051
 10
6277.2952603415
 20
4316.3505423106
 10
6277.8914294062
 20
4315.4562887137
 10
6278.7654751038
 20
4314.7539456708
 10
6279.8397346385
 20
4314.3059194436
 10
6281.0187553361
 20
4314.1520191284
  0
LWPOLYLINE
  5
F1
330
1F
100
AcDbEntity
  8
0
  6
Continuous
 62
     7
370
    25
100
AcDbPolyline
 90
       17
 70
   128
 43
0.0
 10
6274.0187553361
 20
4322.3792604638
 10
6274.5927804846
 20
4322.2803770759
 10
6275.0794155079
 20
4321.9987810117
 10
6275.4045746349
 20
4321.5773427192
 10
6275.5187553361
 20
4321.0802223581
 10
6275.4045746349
 20
4320.583101997
 10
6275.0794155079
 20
4320.1616637045
 10
6274.5927804846
 20
4319.8800676402
 10
6274.0187553361
 20
4319.7811842523
 10
6273.4447301876
 20
4319.8800676402
 10
6272.9580951643
 20
4320.1616637045
 10
6272.6329360373
 20
4320.583101997
 10
6272.5187553361
 20
4321.0802223581
 10
6272.6329360373
 20
4321.5773427192
 10
6272.9580951643
 20
4321.9987810117
 10
6273.4447301876
 20
4322.2803770759
 10
6274.0187553361
 20
4322.3792604638
  0
ARC
  5
F2
330
1F
100
AcDbEntity
  8
0
  6
Continuous
 62
     7
370
    25
100
AcDbCircle
 10
6274.0187553361
 20
4324.0622658848
 30
0.0
 40
16.00000000000043
100
AcDbArc
 50
359.5557965752
 51
180.4442050563
  0
LINE
  5
F3
330
1F
100
AcDbEntity
  8
0
  6
Continuous
 62
     7
370
    25
100
AcDbLine
 10
6103.1387553361
 20
4213.6112384738
 30
0.0
 11
6103.1387553361
 21
4218.8622658848
 31
0.0
  0
LINE
  5
F4
330
1F
100
AcDbEntity
  8
0
  6
Continuous
 62
     7
370
    25
100
AcDbLine
 10
6103.1387553361
 20
4211.2622658848
 30
0.0
 11
6103.1387553361
 21
4213.6112384738
 31
0.0
  0
LINE
  5
F5
330
1F
100
AcDbEntity
  8
0
  6
Continuous
 62
     7
370
    25
100
AcDbLine
 10
6103.5187553361
 20
4213.6112384738
 30
0.0
 11
6103.5187553361
 21
4218.8622658848
 31
0.0
  0
LINE
  5
F6
330
1F
100
AcDbEntity
  8
0
  6
Continuous
 62
     7
370
    25
100
AcDbLine
 10
6103.5187553361
 20
4211.2622658848
 30
0.0
 11
6103.5187553361
 21
4213.6112384738
 31
0.0
  0
LINE
  5
F7
330
1F
100
AcDbEntity
  8
0
  6
Continuous
 62
     7
370
    25
100
AcDbLine
 10
6101.3187553361
 20
4214.3367521793
 30
0.0
 11
6101.3187553361
 21
4216.9622658848
 31
0.0
  0
LINE
  5
F8
330
1F
100
AcDbEntity
  8
0
  6
Continuous
 62
     7
370
    25
100
AcDbLine
 10
6101.3187553361
 20
4213.1622658848
 30
0.0
 11
6101.3187553361
 21
4214.3367521793
 31
0.0
  0
LINE
  5
F9
330
1F
100
AcDbEntity
  8
0
  6
Continuous
 62
     7
370
    25
100
AcDbLine
 10
6444.5187553361
 20
4218.8622658848
 30
0.0
 11
6444.5187553361
 21
4211.2622658848
 31
0.0
  0
LINE
  5
FA
330
1F
100
AcDbEntity
  8
0
  6
Continuous
 62
     7
370
    25
100
AcDbLine
 10
6444.8987553361
 20
4218.8622658848
 30
0.0
 11
6444.8987553361
 21
4211.2622658848
 31
0.0
  0
LINE
  5
FB
330
1F
100
AcDbEntity
  8
0
  6
Continuous
 62
     7
370
    25
100
AcDbLine
 10
6446.7187553361
 20
4216.9622658848
 30
0.0
 11
6446.7187553361
 21
4213.1622658848
 31
0.0
  0
CIRCLE
  5
FC
330
1F
100
AcDbEntity
  8
0
  6
Continuous
 62
     7
370
    25
100
AcDbCircle
 10
6274.0187553361
 20
4215.0622658848
 30
0.0
 40
209.5
  0
CIRCLE
  5
FD
330
1F
100
AcDbEntity
  8
0
  6
Continuous
 62
     7
370
    25
100
AcDbCircle
 10
6274.0187553361
 20
4215.0622658848
 30
0.0
 40
209.9999999999995
  0
CIRCLE
  5
FE
330
1F
100
AcDbEntity
  8
0
  6
Continuous
 62
     7
370
    25
100
AcDbCircle
 10
6353.5191803365
 20
4042.4943591792
 30
0.0
 40
5.500000000008263
  0
CIRCLE
  5
FF
330
1F
100
AcDbEntity
  8
0
  6
Continuous
 62
     7
370
    25
100
AcDbCircle
 10
6164.3207767513
 20
4059.92892487
 30
0.0
 40
5.500000000000439
  0
CIRCLE
  5
100
330
1F
100
AcDbEntity
  8
0
  6
Continuous
 62
     7
370
    25
100
AcDbCircle
 10
6084.8203517509
 20
4232.4968315757
 30
0.0
 40
5.500000000002712
  0
CIRCLE
  5
101
330
1F
100
AcDbEntity
  8
0
  6
Continuous
 62
     7
370
    25
100
AcDbCircle
 10
6194.5183303357
 20
4387.6301725905
 30
0.0
 40
5.50000000001106
  0
CIRCLE
  5
102
330
1F
100
AcDbEntity
  8
0
  6
Continuous
 62
     7
370
    25
100
AcDbCircle
 10
6383.7167339209
 20
4370.1956068996
 30
0.0
 40
5.500000000016349
  0
CIRCLE
  5
103
330
1F
100
AcDbEntity
  8
0
  6
Continuous
 62
     7
370
    25
100
AcDbCircle
 10
6463.2171589213
 20
4197.627700194
 30
0.0
 40
5.500000000015081
  0
CIRCLE
  5
104
330
1F
100
AcDbEntity
  8
0
  6
Continuous
 62
     7
370
    25
100
AcDbCircle
 10
6194.5183303357
 20
4387.6301725905
 30
0.0
 40
4.000000000011453
  0
CIRCLE
  5
105
330
1F
100
AcDbEntity
  8
0
  6
Continuous
 62
     7
370
    25
100
AcDbCircle
 10
6383.7167339209
 20
4370.1956068996
 30
0.0
 40
4.000000000016216
  0
CIRCLE
  5
106
330
1F
100
AcDbEntity
  8
0
  6
Continuous
 62
     7
370
    25
100
AcDbCircle
 10
6084.8203517509
 20
4232.4968315757
 30
0.0
 40
4.000000000001837
  0
CIRCLE
  5
107
330
1F
100
AcDbEntity
  8
0
  6
Continuous
 62
     7
370
    25
100
AcDbCircle
 10
6463.2171589213
 20
4197.627700194
 30
0.0
 40
4.000000000014731
  0
CIRCLE
  5
108
330
1F
100
AcDbEntity
  8
0
  6
Continuous
 62
     7
370
    25
100
AcDbCircle
 10
6164.3207767513
 20
4059.92892487
 30
0.0
 40
3.999999999999564
  0
CIRCLE
  5
109
330
1F
100
AcDbEntity
  8
0
  6
Continuous
 62
     7
370
    25
100
AcDbCircle
 10
6353.5191803365
 20
4042.4943591792
 30
0.0
 40
4.000000000008655
  0
ARC
  5
10A
330
1F
100
AcDbEntity
  8
0
  6
Continuous
 62
     7
370
    25
100
AcDbCircle
 10
6274.0187553361
 20
4215.0622658848
 30
0.0
 40
5.250000000000795
100
AcDbArc
 50
162.8473878307
 51
326.4209664272
  0
LINE
  5
10B
330
1F
100
AcDbEntity
  8
0
  6
Continuous
 62
     7
370
    25
100
AcDbLine
 10
6269.0022616456
 20
4216.6105846677
 30
0.0
 11
6278.3926547048
 21
4212.1585606118
 31
0.0
  0
ARC
  5
10C
330
1F
100
AcDbEntity
  8
0
  6
Continuous
 62
     7
370
    25
100
AcDbCircle
 10
6274.0187553361
 20
4215.0622658848
 30
0.0
 40
5.25000000000026
100
AcDbArc
 50
342.8473878307
 51
146.4209664272
  0
LINE
  5
10D
330
1F
100
AcDbEntity
  8
0
  6
Continuous
 62
     7
370
    25
100
AcDbLine
 10
6279.0352490266
 20
4213.5139471019
 30
0.0
 11
6269.6448559674
 21
4217.9659711579
 31
0.0
  0
ARC
  5
10E
330
1F
100
AcDbEntity
  8
0
  6
Continuous
 62
     7
370
    25
100
AcDbCircle
 10
6274.0187553361
 20
4215.0622658848
 30
0.0
 40
5.250000000000795
100
AcDbArc
 50
326.4209664272
 51
342.8473878307
  0
ARC
  5
10F
330
1F
100
AcDbEntity
  8
0
  6
Continuous
 62
     7
370
    25
100
AcDbCircle
 10
6274.0187553361
 20
4215.0622658848
 30
0.0
 40
5.249999999999992
100
AcDbArc
 50
146.4209664272
 51
162.8473878307
  0
LWPOLYLINE
  5
110
330
1F
100
AcDbEntity
  8
0
  6
Continuous
 62
     7
370
    25
100
AcDbPolyline
 90
        3
 70
   128
 43
0.0
 10
6274.0187553361
 20
4200.0622658848
 10
6271.7290160728
 20
4200.2380595281
 10
6271.5332867421
 20
4200.2696175125
  0
ARC
  5
111
330
1F
100
AcDbEntity
  8
0
  6
Continuous
 62
     7
370
    25
100
AcDbCircle
 10
6274.0187553361
 20
4215.0622658848
 30
0.0
 40
15.00000000000061
100
AcDbArc
 50
215.2764276605
 51
234.9448864101
  0
ARC
  5
112
330
1F
100
AcDbEntity
  8
0
  6
Continuous
 62
     7
370
    25
100
AcDbCircle
 10
6274.0187553361
 20
4215.0622658848
 30
0.0
 40
15.0000000000004
100
AcDbArc
 50
170.5812580992
 51
189.4215366457
  0
ARC
  5
113
330
1F
100
AcDbEntity
  8
0
  6
Continuous
 62
     7
370
    25
100
AcDbCircle
 10
6274.0187553361
 20
4215.0622658848
 30
0.0
 40
14.99999999999947
100
AcDbArc
 50
125.4278182498
 51
144.6805802185
  0
ARC
  5
114
330
1F
100
AcDbEntity
  8
0
  6
Continuous
 62
     7
370
    25
100
AcDbCircle
 10
6274.0187553361
 20
4215.0622658848
 30
0.0
 40
14.99999999999947
100
AcDbArc
 50
80.1707734921
 51
99.7593400686
  0
ARC
  5
115
330
1F
100
AcDbEntity
  8
0
  6
Continuous
 62
     7
370
    25
100
AcDbCircle
 10
6274.0187553361
 20
4215.0622658848
 30
0.0
 40
15.00000000000018
100
AcDbArc
 50
35.5144657177
 51
54.4852466919
  0
ARC
  5
116
330
1F
100
AcDbEntity
  8
0
  6
Continuous
 62
     7
370
    25
100
AcDbCircle
 10
6274.0187553361
 20
4215.0622658848
 30
0.0
 40
15.00000000000012
100
AcDbArc
 50
350.1243101272
 51
9.7242277703
  0
ARC
  5
117
330
1F
100
AcDbEntity
  8
0
  6
Continuous
 62
     7
370
    25
100
AcDbCircle
 10
6274.0187553361
 20
4215.0622658848
 30
0.0
 40
15.00000000000026
100
AcDbArc
 50
305.3683673253
 51
324.3848316863
  0
LWPOLYLINE
  5
118
330
1F
100
AcDbEntity
  8
0
  6
Continuous
 62
     7
370
    25
100
AcDbPolyline
 90
        3
 70
   128
 43
0.0
 10
6276.6302385342
 20
4200.2913432492
 10
6276.3084945994
 20
4200.2380595281
 10
6274.0187553361
 20
4200.0622658848
  0
ARC
  5
119
330
1F
100
AcDbEntity
  8
0
  6
Continuous
 62
     7
370
    25
100
AcDbCircle
 10
6267.0000003927
 20
3833.8845654016
 30
0.0
 40
488.3190326492506
100
AcDbArc
 50
87.0631967051
 51
87.298182227
  0
ARC
  5
11A
330
1F
100
AcDbEntity
  8
0
  6
Continuous
 62
     7
370
    25
100
AcDbCircle
 10
6341.7566622712
 20
4316.4494766543
 30
0.0
 40
52.00000000000086
100
AcDbArc
 50
136.5295241585
 51
174.2483200869
  0
LINE
  5
11B
330
1F
100
AcDbEntity
  8
0
  6
Continuous
 62
     7
370
    25
100
AcDbLine
 10
6304.0187553361
 20
4352.2244732323
 30
0.0
 11
6304.0187553361
 21
4351.0852973348
 31
0.0
  0
LWPOLYLINE
  5
11C
330
1F
100
AcDbEntity
  8
0
  6
Continuous
 62
     7
370
    25
100
AcDbPolyline
 90
        7
 70
   128
 43
0.0
 10
6294.9267450282
 20
4333.9697178346
 10
6296.9632777889
 20
4338.7609908268
 10
6299.4125468694
 20
4343.3952276317
 10
6302.2620567547
 20
4347.9889963991
 10
6303.3951325066
 20
4349.786224824
 10
6303.959026915
 20
4350.8838056597
 10
6304.0187553361
 20
4351.0852973348
  0
ARC
  5
11D
330
1F
100
AcDbEntity
  8
0
  6
Continuous
 62
     7
370
    25
100
AcDbCircle
 10
6341.7566622712
 20
4316.4494766543
 30
0.0
 40
50.00000000000056
100
AcDbArc
 50
159.4879220722
 51
174.130916549
  0
LINE
  5
11E
330
1F
100
AcDbEntity
  8
0
  6
Continuous
 62
     7
370
    25
100
AcDbLine
 10
6304.0187553361
 20
4336.5489815748
 30
0.0
 11
6303.2141882571
 21
4334.4150863569
 31
0.0
  0
LWPOLYLINE
  5
11F
330
1F
100
AcDbEntity
  8
0
  6
Continuous
 62
     7
370
    25
100
AcDbPolyline
 90
        9
 70
   128
 43
0.0
 10
6294.9267450282
 20
4333.9697178346
 10
6295.2821169425
 20
4334.5079167074
 10
6295.8948877067
 20
4334.9256122638
 10
6296.7429587747
 20
4335.2077410167
 10
6297.7957458915
 20
4335.3441284677
 10
6299.015282062
 20
4335.329856033
 10
6300.3575867675
 20
4335.1654384238
 10
6301.7742520486
 20
4334.8568050845
 10
6303.2141882571
 20
4334.4150863569
  0
LINE
  5
120
330
1F
100
AcDbEntity
  8
0
  6
Continuous
 62
     7
370
    25
100
AcDbLine
 10
6304.0187553361
 20
4351.0852973348
 30
0.0
 11
6304.0187553361
 21
4336.5489815748
 31
0.0
  0
ARC
  5
121
330
1F
100
AcDbEntity
  8
0
  6
Continuous
 62
     7
370
    25
100
AcDbCircle
 10
6206.280848401
 20
4316.4494766543
 30
0.0
 40
52.00000000000069
100
AcDbArc
 50
5.7516799131
 51
43.4704758415
  0
ARC
  5
122
330
1F
100
AcDbEntity
  8
0
  6
Continuous
 62
     7
370
    25
100
AcDbCircle
 10
6281.0375102916
 20
3833.8845651566
 30
0.0
 40
488.3190328946113
100
AcDbArc
 50
92.7018177731
 51
92.9368032949
  0
ARC
  5
123
330
1F
100
AcDbEntity
  8
0
  6
Continuous
 62
     7
370
    25
100
AcDbCircle
 10
6206.280848401
 20
4316.4494766543
 30
0.0
 40
50.00000000000088
100
AcDbArc
 50
5.869083451
 51
20.5120779278
  0
LINE
  5
124
330
1F
100
AcDbEntity
  8
0
  6
Continuous
 62
     7
370
    25
100
AcDbLine
 10
6252.7899614557
 20
4334.7238220354
 30
0.0
 11
6253.110765644
 21
4333.9697178346
 31
0.0
  0
LINE
  5
125
330
1F
100
AcDbEntity
  8
0
  6
Continuous
 62
     7
370
    25
100
AcDbLine
 10
6244.0187553361
 20
4351.0852973348
 30
0.0
 11
6244.0187553361
 21
4352.2244732323
 31
0.0
  0
LWPOLYLINE
  5
126
330
1F
100
AcDbEntity
  8
0
  6
Continuous
 62
     7
370
    25
100
AcDbPolyline
 90
        9
 70
   128
 43
0.0
 10
6253.110765644
 20
4333.9697178346
 10
6252.7553937297
 20
4334.5079167074
 10
6252.1426229655
 20
4334.9256122638
 10
6251.2945518975
 20
4335.2077410167
 10
6250.2417647807
 20
4335.3441284677
 10
6249.0222286102
 20
4335.329856033
 10
6247.6799239047
 20
4335.1654384238
 10
6246.2632586236
 20
4334.8568050845
 10
6244.8233224151
 20
4334.4150863569
  0
LINE
  5
127
330
1F
100
AcDbEntity
  8
0
  6
Continuous
 62
     7
370
    25
100
AcDbLine
 10
6244.8233224151
 20
4334.4150863569
 30
0.0
 11
6244.0187553361
 21
4336.5489815748
 31
0.0
  0
LINE
  5
128
330
1F
100
AcDbEntity
  8
0
  6
Continuous
 62
     7
370
    25
100
AcDbLine
 10
6244.0187553361
 20
4336.5489815748
 30
0.0
 11
6244.0187553361
 21
4351.0852973348
 31
0.0
  0
ARC
  5
129
330
1F
100
AcDbEntity
  8
0
  6
Continuous
 62
     7
370
    25
100
AcDbCircle
 10
6274.0187553361
 20
4321.5622658848
 30
0.0
 40
18.0
100
AcDbArc
 50
318.3918678989
 51
0.0
  0
ARC
  5
12A
330
1F
100
AcDbEntity
  8
0
  6
Continuous
 62
     7
370
    25
100
AcDbCircle
 10
6274.0187553361
 20
4321.5622658848
 30
0.0
 40
18.0
100
AcDbArc
 50
180.0
 51
221.6081321013
  0
ARC
  5
12B
330
1F
100
AcDbEntity
  8
0
  6
Continuous
 62
     7
370
    25
100
AcDbCircle
 10
6274.0187553361
 20
4215.0622658848
 30
0.0
 40
140.9999999999989
100
AcDbArc
 50
102.2844938563
 51
77.7155061437
  0
CIRCLE
  5
12C
330
1F
100
AcDbEntity
  8
0
  6
Continuous
 62
     7
370
    25
100
AcDbCircle
 10
6274.0187553361
 20
4215.0622658848
 30
0.0
 40
170.5000000000009
  0
LINE
  5
12D
330
1F
100
AcDbEntity
  8
0
  6
Continuous
 62
     7
370
    25
100
AcDbLine
 10
6244.0187553361
 20
4352.8338159233
 30
0.0
 11
6244.0187553361
 21
4352.2244732323
 31
0.0
  0
LINE
  5
12E
330
1F
100
AcDbEntity
  8
0
  6
Continuous
 62
     7
370
    25
100
AcDbLine
 10
6304.0187553361
 20
4352.2244732323
 30
0.0
 11
6304.0187553361
 21
4352.8338159233
 31
0.0
  0
LWPOLYLINE
  5
12F
330
1F
100
AcDbEntity
  8
0
  6
Continuous
 62
     7
370
    25
100
AcDbPolyline
 90
        3
 70
   128
 43
0.0
 10
6247.2973549205
 20
4324.0565229977
 10
6246.3832717619
 20
4329.3005891543
 10
6244.8233224151
 20
4334.4150863569
  0
ARC
  5
130
330
1F
100
AcDbEntity
  8
0
  6
Continuous
 62
     7
370
    25
100
AcDbCircle
 10
6274.0187553361
 20
4324.5216633116
 30
0.0
 40
26.72544846545813
100
AcDbArc
 50
180.9972488415
 51
359.0027511585
  0
ARC
  5
131
330
1F
100
AcDbEntity
  8
0
  6
Continuous
 62
     7
370
    25
100
AcDbCircle
 10
6343.7112705539
 20
4319.2680598447
 30
0.0
 40
43.23709156171972
100
AcDbArc
 50
159.4928158875
 51
173.6415080745
  0
CIRCLE
  5
132
330
1F
100
AcDbEntity
  8
0
  6
Continuous
 62
     7
370
    25
100
AcDbCircle
 10
6256.2687553361
 20
4215.0622658848
 30
0.0
 40
3.999999999997377
  0
CIRCLE
  5
133
330
1F
100
AcDbEntity
  8
0
  6
Continuous
 62
     7
370
    25
100
AcDbCircle
 10
6261.46760997
 20
4227.6134112509
 30
0.0
 40
4.000000000001318
  0
CIRCLE
  5
134
330
1F
100
AcDbEntity
  8
0
  6
Continuous
 62
     7
370
    25
100
AcDbCircle
 10
6274.0187553361
 20
4232.8122658848
 30
0.0
 40
3.999999999999949
  0
CIRCLE
  5
135
330
1F
100
AcDbEntity
  8
0
  6
Continuous
 62
     7
370
    25
100
AcDbCircle
 10
6286.5699007022
 20
4227.6134112509
 30
0.0
 40
4.00000000000228
  0
CIRCLE
  5
136
330
1F
100
AcDbEntity
  8
0
  6
Continuous
 62
     7
370
    25
100
AcDbCircle
 10
6291.7687553361
 20
4215.0622658848
 30
0.0
 40
3.999999999999961
  0
CIRCLE
  5
137
330
1F
100
AcDbEntity
  8
0
  6
Continuous
 62
     7
370
    25
100
AcDbCircle
 10
6286.5699007022
 20
4202.5111205188
 30
0.0
 40
4.000000000001961
  0
CIRCLE
  5
138
330
1F
100
AcDbEntity
  8
0
  6
Continuous
 62
     7
370
    25
100
AcDbCircle
 10
6274.0187553361
 20
4197.3122658848
 30
0.0
 40
3.999999999999292
  0
CIRCLE
  5
139
330
1F
100
AcDbEntity
  8
0
  6
Continuous
 62
     7
370
    25
100
AcDbCircle
 10
6261.46760997
 20
4202.5111205188
 30
0.0
 40
3.999999999997245
  0
LINE
  5
13A
330
1F
100
AcDbEntity
  8
0
  6
Continuous
 62
     7
370
    25
100
AcDbLine
 10
6244.0187553361
 20
4352.5744732323
 30
0.0
 11
6244.0187553361
 21
4352.8338159233
 31
0.0
  0
LINE
  5
13B
330
1F
100
AcDbEntity
  8
0
  6
Continuous
 62
     7
370
    25
100
AcDbLine
 10
6304.0187553361
 20
4352.5744732323
 30
0.0
 11
6304.0187553361
 21
4352.8338159233
 31
0.0
  0
LWPOLYLINE
  5
13C
330
1F
100
AcDbEntity
  8
0
  6
Continuous
 62
     7
370
    25
100
AcDbPolyline
 90
        7
 70
   128
 43
0.0
 10
6292.0247060171
 20
4321.6198274294
 10
6292.3843465842
 20
4322.3850768512
 10
6293.6063991709
 20
4323.2271430719
 10
6295.5525877746
 20
4323.8294696432
 10
6298.0025131743
 20
4324.1196215114
 10
6300.6787212862
 20
4324.0619418053
 10
6300.7401557517
 20
4324.0565229977
  0
LWPOLYLINE
  5
13D
330
1F
100
AcDbEntity
  8
0
  6
Continuous
 62
     7
370
    25
100
AcDbPolyline
 90
        7
 70
   128
 43
0.0
 10
6256.0128046551
 20
4321.6198274294
 10
6255.653164088
 20
4322.3850768511
 10
6254.4311115013
 20
4323.2271430719
 10
6252.4849228976
 20
4323.8294696432
 10
6250.0349974979
 20
4324.1196215114
 10
6247.358789386
 20
4324.0619418053
 10
6247.2973549205
 20
4324.0565229977
  0
LWPOLYLINE
  5
13E
330
1F
100
AcDbEntity
  8
0
  6
Continuous
 62
     8
370
    25
100
AcDbPolyline
 90
        7
 70
   128
 43
0.0
 10
6244.0187553361
 20
4351.0852973348
 10
6244.0784837572
 20
4350.8838056597
 10
6244.6423781656
 20
4349.786224824
 10
6245.7754539175
 20
4347.9889963991
 10
6248.6249638028
 20
4343.3952276317
 10
6251.0583864279
 20
4338.7941803735
 10
6252.7899614557
 20
4334.7238220354
  0
ENDSEC
  0
SECTION
  2
OBJECTS
  0
DICTIONARY
  5
C
330
0
100
AcDbDictionary
281
     1
  3
ACAD_GROUP
350
D
  3
ACAD_LAYOUT
350
1A
  3
ACAD_MLINESTYLE
350
17
  3
ACAD_PLOTSETTINGS
350
19
  3
ACAD_PLOTSTYLENAME
350
E
  3
ACAD_SCALELIST
350
47
  3
DWGPROPS
350
13F
  0
DICTIONARY
  5
D
102
{ACAD_REACTORS
330
C
102
}
330
C
100
AcDbDictionary
281
     1
  0
DICTIONARY
  5
1A
102
{ACAD_REACTORS
330
C
102
}
330
C
100
AcDbDictionary
281
     1
  3
Layout1
350
1E
  3
Layout2
350
26
  3
Model
350
22
  0
DICTIONARY
  5
17
102
{ACAD_REACTORS
330
C
102
}
330
C
100
AcDbDictionary
281
     1
  3
Standard
350
18
  0
DICTIONARY
  5
19
102
{ACAD_REACTORS
330
C
102
}
330
C
100
AcDbDictionary
281
     1
  0
ACDBDICTIONARYWDFLT
  5
E
102
{ACAD_REACTORS
330
C
102
}
330
C
100
AcDbDictionary
281
     1
  3
Normal
350
F
100
AcDbDictionaryWithDefault
340
F
  0
DICTIONARY
  5
47
102
{ACAD_REACTORS
330
C
102
}
330
C
100
AcDbDictionary
281
     1
  3
A0
350
48
  3
A1
350
49
  3
A2
350
4A
  3
A3
350
4B
  3
A4
350
4C
  3
A5
350
4D
  3
A6
350
4E
  3
A7
350
4F
  3
A8
350
50
  3
A9
350
51
  3
B0
350
52
  3
B1
350
53
  3
B2
350
54
  3
B3
350
55
  3
B4
350
56
  3
B5
350
57
  3
B6
350
58
  3
B7
350
59
  3
B8
350
5A
  3
B9
350
5B
  3
C0
350
5C
  3
C1
350
5D
  3
C2
350
5E
  3
C3
350
5F
  3
C4
350
60
  3
C5
350
61
  3
C6
350
62
  3
C7
350
63
  3
C8
350
64
  3
C9
350
65
  3
D0
350
66
  3
D1
350
67
  3
D2
350
68
  0
XRECORD
  5
13F
102
{ACAD_REACTORS
330
C
102
}
330
C
100
AcDbXrecord
280
     1
  1
DWGPROPS COOKIE
  2

  3

  4

  6

  7

  8
radek.stransky
  9

300
=
301
=
302
=
303
=
304
=
305
=
306
=
307
=
308
=
309
=
 40
0.0
 41
2459543.352148021
 42
2459543.352148206
  1

 90
        0
  0
LAYOUT
  5
1E
102
{ACAD_REACTORS
330
1A
102
}
330
1A
100
AcDbPlotSettings
  1

  2
none_device
  4

  6

 40
0.0
 41
0.0
 42
0.0
 43
0.0
 44
0.0
 45
0.0
 46
0.0
 47
0.0
 48
0.0
 49
0.0
140
0.0
141
0.0
142
1.0
143
1.0
 70
   688
 72
     1
 73
     0
 74
     5
  7

 75
    16
147
1.0
148
0.0
149
0.0
100
AcDbLayout
  1
Layout1
 70
     1
 71
     1
 10
0.0
 20
0.0
 11
420.0
 21
297.0
 12
0.0
 22
0.0
 32
0.0
 14
1.0000000000E+20
 24
1.0000000000E+20
 34
1.0000000000E+20
 15
-1.0000000000E+20
 25
-1.0000000000E+20
 35
-1.0000000000E+20
146
0.0
 13
0.0
 23
0.0
 33
0.0
 16
1.0
 26
0.0
 36
0.0
 17
0.0
 27
1.0
 37
0.0
 76
     0
330
1B
  0
LAYOUT
  5
26
102
{ACAD_REACTORS
330
1A
102
}
330
1A
100
AcDbPlotSettings
  1

  2
none_device
  4

  6

 40
0.0
 41
0.0
 42
0.0
 43
0.0
 44
0.0
 45
0.0
 46
0.0
 47
0.0
 48
0.0
 49
0.0
140
0.0
141
0.0
142
1.0
143
1.0
 70
   688
 72
     1
 73
     0
 74
     5
  7

 75
    16
147
1.0
148
0.0
149
0.0
100
AcDbLayout
  1
Layout2
 70
     1
 71
     2
 10
0.0
 20
0.0
 11
0.0
 21
0.0
 12
0.0
 22
0.0
 32
0.0
 14
0.0
 24
0.0
 34
0.0
 15
0.0
 25
0.0
 35
0.0
146
0.0
 13
0.0
 23
0.0
 33
0.0
 16
1.0
 26
0.0
 36
0.0
 17
0.0
 27
1.0
 37
0.0
 76
     0
330
23
  0
LAYOUT
  5
22
102
{ACAD_REACTORS
330
1A
102
}
330
1A
100
AcDbPlotSettings
  1

  2
none_device
  4
Letter_(8.50_x_11.00_Inches)
  6

 40
6.35
 41
6.35
 42
6.35000508
 43
6.35000508
 44
215.9
 45
279.4
 46
0.0
 47
0.0
 48
0.0
 49
0.0
140
0.0
141
0.0
142
1.0
143
1.0
 70
  1712
 72
     1
 73
     0
 74
     0
  7

 75
     0
147
1.0
148
0.0
149
0.0
100
AcDbLayout
  1
Model
 70
     1
 71
     0
 10
0.0
 20
0.0
 11
20000.0
 21
10000.0
 12
0.0
 22
0.0
 32
0.0
 14
0.0
 24
0.0
 34
0.0
 15
20000.0
 25
10000.0
 35
0.0
146
0.0
 13
0.0
 23
0.0
 33
0.0
 16
1.0
 26
0.0
 36
0.0
 17
0.0
 27
1.0
 37
0.0
 76
     0
330
1F
331
29
  0
MLINESTYLE
  5
18
102
{ACAD_REACTORS
330
17
102
}
330
17
100
AcDbMlineStyle
  2
Standard
 70
     0
  3

 62
   256
 51
90.0
 52
90.0
 71
     2
 49
0.5
 62
   256
  6
BYLAYER
 49
-0.5
 62
   256
  6
BYLAYER
  0
ACDBPLACEHOLDER
  5
F
102
{ACAD_REACTORS
330
E
102
}
330
E
  0
SCALE
  5
48
102
{ACAD_REACTORS
330
47
102
}
330
47
100
AcDbScale
 70
     0
300
1:1
140
1.0
141
1.0
290
     1
  0
SCALE
  5
49
102
{ACAD_REACTORS
330
47
102
}
330
47
100
AcDbScale
 70
     0
300
1:2
140
1.0
141
2.0
290
     0
  0
SCALE
  5
4A
102
{ACAD_REACTORS
330
47
102
}
330
47
100
AcDbScale
 70
     0
300
1:4
140
1.0
141
4.0
290
     0
  0
SCALE
  5
4B
102
{ACAD_REACTORS
330
47
102
}
330
47
100
AcDbScale
 70
     0
300
1:5
140
1.0
141
5.0
290
     0
  0
SCALE
  5
4C
102
{ACAD_REACTORS
330
47
102
}
330
47
100
AcDbScale
 70
     0
300
1:8
140
1.0
141
8.0
290
     0
  0
SCALE
  5
4D
102
{ACAD_REACTORS
330
47
102
}
330
47
100
AcDbScale
 70
     0
300
1:10
140
1.0
141
10.0
290
     0
  0
SCALE
  5
4E
102
{ACAD_REACTORS
330
47
102
}
330
47
100
AcDbScale
 70
     0
300
1:16
140
1.0
141
16.0
290
     0
  0
SCALE
  5
4F
102
{ACAD_REACTORS
330
47
102
}
330
47
100
AcDbScale
 70
     0
300
1:20
140
1.0
141
20.0
290
     0
  0
SCALE
  5
50
102
{ACAD_REACTORS
330
47
102
}
330
47
100
AcDbScale
 70
     0
300
1:30
140
1.0
141
30.0
290
     0
  0
SCALE
  5
51
102
{ACAD_REACTORS
330
47
102
}
330
47
100
AcDbScale
 70
     0
300
1:40
140
1.0
141
40.0
290
     0
  0
SCALE
  5
52
102
{ACAD_REACTORS
330
47
102
}
330
47
100
AcDbScale
 70
     0
300
1:50
140
1.0
141
50.0
290
     0
  0
SCALE
  5
53
102
{ACAD_REACTORS
330
47
102
}
330
47
100
AcDbScale
 70
     0
300
1:100
140
1.0
141
100.0
290
     0
  0
SCALE
  5
54
102
{ACAD_REACTORS
330
47
102
}
330
47
100
AcDbScale
 70
     0
300
2:1
140
2.0
141
1.0
290
     0
  0
SCALE
  5
55
102
{ACAD_REACTORS
330
47
102
}
330
47
100
AcDbScale
 70
     0
300
4:1
140
4.0
141
1.0
290
     0
  0
SCALE
  5
56
102
{ACAD_REACTORS
330
47
102
}
330
47
100
AcDbScale
 70
     0
300
8:1
140
8.0
141
1.0
290
     0
  0
SCALE
  5
57
102
{ACAD_REACTORS
330
47
102
}
330
47
100
AcDbScale
 70
     0
300
10:1
140
10.0
141
1.0
290
     0
  0
SCALE
  5
58
102
{ACAD_REACTORS
330
47
102
}
330
47
100
AcDbScale
 70
     0
300
100:1
140
100.0
141
1.0
290
     0
  0
SCALE
  5
59
102
{ACAD_REACTORS
330
47
102
}
330
47
100
AcDbScale
 70
     0
300
1/128" = 1'-0"
140
0.0078125
141
12.0
290
     0
  0
SCALE
  5
5A
102
{ACAD_REACTORS
330
47
102
}
330
47
100
AcDbScale
 70
     0
300
1/64" = 1'-0"
140
0.015625
141
12.0
290
     0
  0
SCALE
  5
5B
102
{ACAD_REACTORS
330
47
102
}
330
47
100
AcDbScale
 70
     0
300
1/32" = 1'-0"
140
0.03125
141
12.0
290
     0
  0
SCALE
  5
5C
102
{ACAD_REACTORS
330
47
102
}
330
47
100
AcDbScale
 70
     0
300
1/16" = 1'-0"
140
0.0625
141
12.0
290
     0
  0
SCALE
  5
5D
102
{ACAD_REACTORS
330
47
102
}
330
47
100
AcDbScale
 70
     0
300
3/32" = 1'-0"
140
0.09375
141
12.0
290
     0
  0
SCALE
  5
5E
102
{ACAD_REACTORS
330
47
102
}
330
47
100
AcDbScale
 70
     0
300
1/8" = 1'-0"
140
0.125
141
12.0
290
     0
  0
SCALE
  5
5F
102
{ACAD_REACTORS
330
47
102
}
330
47
100
AcDbScale
 70
     0
300
3/16" = 1'-0"
140
0.1875
141
12.0
290
     0
  0
SCALE
  5
60
102
{ACAD_REACTORS
330
47
102
}
330
47
100
AcDbScale
 70
     0
300
1/4" = 1'-0"
140
0.25
141
12.0
290
     0
  0
SCALE
  5
61
102
{ACAD_REACTORS
330
47
102
}
330
47
100
AcDbScale
 70
     0
300
3/8" = 1'-0"
140
0.375
141
12.0
290
     0
  0
SCALE
  5
62
102
{ACAD_REACTORS
330
47
102
}
330
47
100
AcDbScale
 70
     0
300
1/2" = 1'-0"
140
0.5
141
12.0
290
     0
  0
SCALE
  5
63
102
{ACAD_REACTORS
330
47
102
}
330
47
100
AcDbScale
 70
     0
300
3/4" = 1'-0"
140
0.75
141
12.0
290
     0
  0
SCALE
  5
64
102
{ACAD_REACTORS
330
47
102
}
330
47
100
AcDbScale
 70
     0
300
1" = 1'-0"
140
1.0
141
12.0
290
     0
  0
SCALE
  5
65
102
{ACAD_REACTORS
330
47
102
}
330
47
100
AcDbScale
 70
     0
300
1-1/2" = 1'-0"
140
1.5
141
12.0
290
     0
  0
SCALE
  5
66
102
{ACAD_REACTORS
330
47
102
}
330
47
100
AcDbScale
 70
     0
300
3" = 1'-0"
140
3.0
141
12.0
290
     0
  0
SCALE
  5
67
102
{ACAD_REACTORS
330
47
102
}
330
47
100
AcDbScale
 70
     0
300
6" = 1'-0"
140
6.0
141
12.0
290
     0
  0
SCALE
  5
68
102
{ACAD_REACTORS
330
47
102
}
330
47
100
AcDbScale
 70
     0
300
1'-0" = 1'-0"
140
12.0
141
12.0
290
     0
  0
ENDSEC
  0
EOF
