  0
SECTION
  2
HEADER
  9
$ACADVER
  1
AC1015
  9
$ACADMAINTVER
 70
     6
  9
$DWGCODEPAGE
  3
ANSI_1250
  9
$INSBASE
 10
0.0
 20
0.0
 30
0.0
  9
$EXTMIN
 10
0.0
 20
0.0
 30
0.0
  9
$EXTMAX
 10
20000.0
 20
10000.0
 30
0.0
  9
$LIMMIN
 10
0.0
 20
0.0
  9
$LIMMAX
 10
20000.0
 20
10000.0
  9
$ORTHOMODE
 70
     0
  9
$REGENMODE
 70
     1
  9
$FILLMODE
 70
     1
  9
$QTEXTMODE
 70
     0
  9
$MIRRTEXT
 70
     1
  9
$LTSCALE
 40
1.0
  9
$ATTMODE
 70
     1
  9
$TEXTSIZE
 40
2.0
  9
$TRACEWID
 40
1.0
  9
$TEXTSTYLE
  7
Standard
  9
$CLAYER
  8
0
  9
$CELTYPE
  6
ByLayer
  9
$CECOLOR
 62
   256
  9
$CELTSCALE
 40
1.0
  9
$DISPSILH
 70
     0
  9
$DIMSCALE
 40
1.0
  9
$DIMASZ
 40
2.0
  9
$DIMEXO
 40
1.0
  9
$DIMDLI
 40
3.75
  9
$DIMRND
 40
0.0
  9
$DIMDLE
 40
0.0
  9
$DIMEXE
 40
1.0
  9
$DIMTP
 40
0.0
  9
$DIMTM
 40
0.0
  9
$DIMTXT
 40
2.0
  9
$DIMCEN
 40
2.5
  9
$DIMTSZ
 40
0.0
  9
$DIMTOL
 70
     0
  9
$DIMLIM
 70
     0
  9
$DIMTIH
 70
     1
  9
$DIMTOH
 70
     1
  9
$DIMSE1
 70
     0
  9
$DIMSE2
 70
     0
  9
$DIMTAD
 70
     1
  9
$DIMZIN
 70
     0
  9
$DIMBLK
  1

  9
$DIMASO
 70
     1
  9
$DIMSHO
 70
     1
  9
$DIMPOST
  1

  9
$DIMAPOST
  1

  9
$DIMALT
 70
     0
  9
$DIMALTD
 70
     3
  9
$DIMALTF
 40
0.0393700787
  9
$DIMLFAC
 40
1.0
  9
$DIMTOFL
 70
     1
  9
$DIMTVP
 40
0.0
  9
$DIMTIX
 70
     0
  9
$DIMSOXD
 70
     0
  9
$DIMSAH
 70
     0
  9
$DIMBLK1
  1

  9
$DIMBLK2
  1

  9
$DIMSTYLE
  2
ISO-25
  9
$DIMCLRD
 70
     0
  9
$DIMCLRE
 70
     0
  9
$DIMCLRT
 70
     0
  9
$DIMTFAC
 40
1.0
  9
$DIMGAP
 40
1.524
  9
$DIMJUST
 70
     0
  9
$DIMSD1
 70
     0
  9
$DIMSD2
 70
     0
  9
$DIMTOLJ
 70
     0
  9
$DIMTZIN
 70
     0
  9
$DIMALTZ
 70
     0
  9
$DIMALTTZ
 70
     0
  9
$DIMUPT
 70
     0
  9
$DIMDEC
 70
     2
  9
$DIMTDEC
 70
     0
  9
$DIMALTU
 70
     2
  9
$DIMALTTD
 70
     3
  9
$DIMTXSTY
  7
Standard
  9
$DIMAUNIT
 70
     0
  9
$DIMADEC
 70
     2
  9
$DIMALTRND
 40
0.0
  9
$DIMAZIN
 70
     0
  9
$DIMDSEP
 70
    44
  9
$DIMATFIT
 70
     3
  9
$DIMFRAC
 70
     0
  9
$DIMLDRBLK
  1

  9
$DIMLUNIT
 70
     2
  9
$DIMLWD
 70
    -2
  9
$DIMLWE
 70
    -2
  9
$DIMTMOVE
 70
     0
  9
$LUNITS
 70
     2
  9
$LUPREC
 70
     3
  9
$SKETCHINC
 40
1.0
  9
$FILLETRAD
 40
10.0
  9
$AUNITS
 70
     0
  9
$AUPREC
 70
     2
  9
$MENU
  1
.
  9
$ELEVATION
 40
0.0
  9
$PELEVATION
 40
0.0
  9
$THICKNESS
 40
0.0
  9
$LIMCHECK
 70
     0
  9
$CHAMFERA
 40
0.0
  9
$CHAMFERB
 40
0.0
  9
$CHAMFERC
 40
0.0
  9
$CHAMFERD
 40
0.0
  9
$SKPOLY
 70
     0
  9
$TDCREATE
 40
2459345.459993113
  9
$TDUCREATE
 40
2459345.37665978
  9
$TDUPDATE
 40
2459345.459993287
  9
$TDUUPDATE
 40
2459345.376659954
  9
$TDINDWG
 40
0.0000000116
  9
$TDUSRTIMER
 40
0.0000000116
  9
$USRTIMER
 70
     1
  9
$ANGBASE
 50
0.0
  9
$ANGDIR
 70
     0
  9
$PDMODE
 70
     0
  9
$PDSIZE
 40
-1.0
  9
$PLINEWID
 40
0.0
  9
$SPLFRAME
 70
     0
  9
$SPLINETYPE
 70
     6
  9
$SPLINESEGS
 70
     8
  9
$HANDSEED
  5
17B
  9
$SURFTAB1
 70
     6
  9
$SURFTAB2
 70
     6
  9
$SURFTYPE
 70
     6
  9
$SURFU
 70
     6
  9
$SURFV
 70
     6
  9
$UCSBASE
  2

  9
$UCSNAME
  2

  9
$UCSORG
 10
0.0
 20
0.0
 30
0.0
  9
$UCSXDIR
 10
1.0
 20
0.0
 30
0.0
  9
$UCSYDIR
 10
0.0
 20
1.0
 30
0.0
  9
$UCSORTHOREF
  2

  9
$UCSORTHOVIEW
 70
     0
  9
$UCSORGTOP
 10
0.0
 20
0.0
 30
0.0
  9
$UCSORGBOTTOM
 10
0.0
 20
0.0
 30
0.0
  9
$UCSORGLEFT
 10
0.0
 20
0.0
 30
0.0
  9
$UCSORGRIGHT
 10
0.0
 20
0.0
 30
0.0
  9
$UCSORGFRONT
 10
0.0
 20
0.0
 30
0.0
  9
$UCSORGBACK
 10
0.0
 20
0.0
 30
0.0
  9
$PUCSBASE
  2

  9
$PUCSNAME
  2

  9
$PUCSORG
 10
0.0
 20
0.0
 30
0.0
  9
$PUCSXDIR
 10
1.0
 20
0.0
 30
0.0
  9
$PUCSYDIR
 10
0.0
 20
1.0
 30
0.0
  9
$PUCSORTHOREF
  2

  9
$PUCSORTHOVIEW
 70
     0
  9
$PUCSORGTOP
 10
0.0
 20
0.0
 30
0.0
  9
$PUCSORGBOTTOM
 10
0.0
 20
0.0
 30
0.0
  9
$PUCSORGLEFT
 10
0.0
 20
0.0
 30
0.0
  9
$PUCSORGRIGHT
 10
0.0
 20
0.0
 30
0.0
  9
$PUCSORGFRONT
 10
0.0
 20
0.0
 30
0.0
  9
$PUCSORGBACK
 10
0.0
 20
0.0
 30
0.0
  9
$USERI1
 70
     0
  9
$USERI2
 70
     0
  9
$USERI3
 70
     0
  9
$USERI4
 70
     0
  9
$USERI5
 70
     0
  9
$USERR1
 40
0.0
  9
$USERR2
 40
0.0
  9
$USERR3
 40
0.0
  9
$USERR4
 40
0.0
  9
$USERR5
 40
0.0
  9
$WORLDVIEW
 70
     1
  9
$SHADEDGE
 70
     3
  9
$SHADEDIF
 70
    70
  9
$TILEMODE
 70
     1
  9
$MAXACTVP
 70
    64
  9
$PINSBASE
 10
0.0
 20
0.0
 30
0.0
  9
$PLIMCHECK
 70
     0
  9
$PEXTMIN
 10
1.0000000000E+20
 20
1.0000000000E+20
 30
1.0000000000E+20
  9
$PEXTMAX
 10
-1.0000000000E+20
 20
-1.0000000000E+20
 30
-1.0000000000E+20
  9
$PLIMMIN
 10
0.0
 20
0.0
  9
$PLIMMAX
 10
420.0
 20
297.0
  9
$UNITMODE
 70
     0
  9
$VISRETAIN
 70
     1
  9
$PLINEGEN
 70
     0
  9
$PSLTSCALE
 70
     1
  9
$TREEDEPTH
 70
  3020
  9
$CMLSTYLE
  2
Standard
  9
$CMLJUST
 70
     0
  9
$CMLSCALE
 40
20.0
  9
$PROXYGRAPHICS
 70
     1
  9
$MEASUREMENT
 70
     1
  9
$CELWEIGHT
370
    -1
  9
$ENDCAPS
280
     0
  9
$JOINSTYLE
280
     0
  9
$LWDISPLAY
290
     1
  9
$INSUNITS
 70
     4
  9
$HYPERLINKBASE
  1

  9
$STYLESHEET
  1

  9
$XEDIT
290
     1
  9
$CEPSNTYPE
380
     0
  9
$PSTYLEMODE
290
     1
  9
$FINGERPRINTGUID
  2
{a0a3a646-e27b-4660-bf40-ccaa2489e8a5}
  9
$VERSIONGUID
  2
{FAEB1C32-E019-11D5-929B-00C0DF256EC4}
  9
$EXTNAMES
290
     1
  9
$PSVPSCALE
 40
0.0
  9
$OLESTARTUP
290
     0
  0
ENDSEC
  0
SECTION
  2
CLASSES
  0
CLASS
  1
ACDBDICTIONARYWDFLT
  2
AcDbDictionaryWithDefault
  3
ObjectDBX Classes
 90
        0
280
     0
281
     0
  0
CLASS
  1
VISUALSTYLE
  2
AcDbVisualStyle
  3
ObjectDBX Classes
 90
     4095
280
     0
281
     0
  0
CLASS
  1
MATERIAL
  2
AcDbMaterial
  3
ObjectDBX Classes
 90
     1153
280
     0
281
     0
  0
CLASS
  1
SCALE
  2
AcDbScale
  3
ObjectDBX Classes
 90
     1153
280
     0
281
     0
  0
CLASS
  1
TABLESTYLE
  2
AcDbTableStyle
  3
ObjectDBX Classes
 90
     4095
280
     0
281
     0
  0
CLASS
  1
MLEADERSTYLE
  2
AcDbMLeaderStyle
  3
ACDB_MLEADERSTYLE_CLASS
 90
     4095
280
     0
281
     0
  0
CLASS
  1
SUN
  2
AcDbSun
  3
SCENEOE
 90
     1153
280
     0
281
     0
  0
CLASS
  1
ACDBPLACEHOLDER
  2
AcDbPlaceHolder
  3
ObjectDBX Classes
 90
        0
280
     0
281
     0
  0
CLASS
  1
LAYOUT
  2
AcDbLayout
  3
ObjectDBX Classes
 90
        0
280
     0
281
     0
  0
ENDSEC
  0
SECTION
  2
TABLES
  0
TABLE
  2
VPORT
  5
8
330
0
100
AcDbSymbolTable
 70
     1
  0
VPORT
  5
29
330
8
100
AcDbSymbolTableRecord
100
AcDbViewportTableRecord
  2
*Active
 70
     0
 10
0.0
 20
0.0
 11
1.0
 21
1.0
 12
10000.0
 22
5000.0
 13
0.0
 23
0.0
 14
10.0
 24
10.0
 15
10.0
 25
10.0
 16
0.0
 26
0.0
 36
1.0
 17
0.0
 27
0.0
 37
0.0
 40
10000.0
 41
2.0
 42
50.0
 43
0.0
 44
0.0
 50
0.0
 51
0.0
 71
     0
 72
  2000
 73
     1
 74
     3
 75
     0
 76
     0
 77
     0
 78
     0
281
     0
 65
     1
110
0.0
120
0.0
130
0.0
111
1.0
121
0.0
131
0.0
112
0.0
122
1.0
132
0.0
 79
     0
146
0.0
  0
ENDTAB
  0
TABLE
  2
LTYPE
  5
5
330
0
100
AcDbSymbolTable
 70
     6
  0
LTYPE
  5
14
330
5
100
AcDbSymbolTableRecord
100
AcDbLinetypeTableRecord
  2
ByBlock
 70
     0
  3

 72
    65
 73
     0
 40
0.0
  0
LTYPE
  5
15
330
5
100
AcDbSymbolTableRecord
100
AcDbLinetypeTableRecord
  2
ByLayer
 70
     0
  3

 72
    65
 73
     0
 40
0.0
  0
LTYPE
  5
16
330
5
100
AcDbSymbolTableRecord
100
AcDbLinetypeTableRecord
  2
Continuous
 70
     0
  3
Solid line
 72
    65
 73
     0
 40
0.0
  0
LTYPE
  5
6E
330
5
100
AcDbSymbolTableRecord
100
AcDbLinetypeTableRecord
  2
HIDDEN
 70
     0
  3
Hidden __ __ __ __ __ __ __ __ __ __ __ __ __ __
 72
    65
 73
     2
 40
1.905
 49
1.27
 74
     0
 49
-0.635
 74
     0
  0
LTYPE
  5
6F
330
5
100
AcDbSymbolTableRecord
100
AcDbLinetypeTableRecord
  2
PHANTOM
 70
     0
  3
Phantom ______  __  __  ______  __  __  ______
 72
    65
 73
     6
 40
12.7
 49
6.35
 74
     0
 49
-1.27
 74
     0
 49
1.27
 74
     0
 49
-1.27
 74
     0
 49
1.27
 74
     0
 49
-1.27
 74
     0
  0
LTYPE
  5
70
330
5
100
AcDbSymbolTableRecord
100
AcDbLinetypeTableRecord
  2
CENTER
 70
     0
  3
Center ____ _ ____ _ ____ _ ____ _ ____ _ ____
 72
    65
 73
     4
 40
10.16
 49
6.35
 74
     0
 49
-1.27
 74
     0
 49
1.27
 74
     0
 49
-1.27
 74
     0
  0
LTYPE
  5
71
330
5
100
AcDbSymbolTableRecord
100
AcDbLinetypeTableRecord
  2
CENTERX2
 70
     0
  3
Center (2x) ________  __  ________  __  _____
 72
    65
 73
     4
 40
20.32
 49
12.7
 74
     0
 49
-2.54
 74
     0
 49
2.54
 74
     0
 49
-2.54
 74
     0
  0
LTYPE
  5
72
330
5
100
AcDbSymbolTableRecord
100
AcDbLinetypeTableRecord
  2
DOT2
 70
     0
  3
Dot (.5x) ........................................
 72
    65
 73
     2
 40
0.635
 49
0.0
 74
     0
 49
-0.635
 74
     0
  0
ENDTAB
  0
TABLE
  2
LAYER
  5
2
330
0
100
AcDbSymbolTable
 70
    13
  0
LAYER
  5
10
330
2
100
AcDbSymbolTableRecord
100
AcDbLayerTableRecord
  2
0
 70
     0
 62
     7
  6
Continuous
370
    -3
390
F
  0
LAYER
  5
73
330
2
100
AcDbSymbolTableRecord
100
AcDbLayerTableRecord
  2
FORMAT
 70
     0
 62
     7
  6
Continuous
370
    -3
390
F
  0
LAYER
  5
74
330
2
100
AcDbSymbolTableRecord
100
AcDbLayerTableRecord
  2
OSA
 70
     0
 62
     7
  6
CENTER
370
    -3
390
F
  0
LAYER
  5
75
330
2
100
AcDbSymbolTableRecord
100
AcDbLayerTableRecord
  2
0_35
 70
     0
 62
     7
  6
Continuous
370
    35
390
F
  0
LAYER
  5
76
330
2
100
AcDbSymbolTableRecord
100
AcDbLayerTableRecord
  2
0_5
 70
     0
 62
     7
  6
Continuous
370
    50
390
F
  0
LAYER
  5
77
330
2
100
AcDbSymbolTableRecord
100
AcDbLayerTableRecord
  2
0_25
 70
     0
 62
     7
  6
Continuous
370
    25
390
F
  0
LAYER
  5
78
330
2
100
AcDbSymbolTableRecord
100
AcDbLayerTableRecord
  2
0_18
 70
     0
 62
     7
  6
Continuous
370
    -3
390
F
  0
LAYER
  5
79
330
2
100
AcDbSymbolTableRecord
100
AcDbLayerTableRecord
  2
SLD-0
 70
     0
 62
   179
  6
Continuous
370
    -3
390
F
  0
LAYER
  5
7A
330
2
100
AcDbSymbolTableRecord
100
AcDbLayerTableRecord
  2
KOTY
 70
     0
 62
     7
  6
Continuous
370
    -3
390
F
  0
LAYER
  5
7B
330
2
100
AcDbSymbolTableRecord
100
AcDbLayerTableRecord
  2
SILNA
 70
     0
 62
   179
  6
Continuous
370
    -3
390
F
  0
LAYER
  5
7C
330
2
100
AcDbSymbolTableRecord
100
AcDbLayerTableRecord
  2
0_18_1
 70
     0
 62
   179
  6
Continuous
370
    -3
390
F
  0
LAYER
  5
7D
330
2
100
AcDbSymbolTableRecord
100
AcDbLayerTableRecord
  2
0_35_1
 70
     0
 62
   179
  6
Continuous
370
    35
390
F
  0
LAYER
  5
7E
330
2
100
AcDbSymbolTableRecord
100
AcDbLayerTableRecord
  2
0_5_1
 70
     0
 62
   179
  6
Continuous
370
    50
390
F
  0
ENDTAB
  0
TABLE
  2
STYLE
  5
3
330
0
100
AcDbSymbolTable
 70
     1
  0
STYLE
  5
11
330
3
100
AcDbSymbolTableRecord
100
AcDbTextStyleTableRecord
  2
Standard
 70
     0
 40
0.0
 41
1.0
 50
0.0
 71
     0
 42
2.0
  3
txt
  4

  0
ENDTAB
  0
TABLE
  2
VIEW
  5
6
330
0
100
AcDbSymbolTable
 70
     0
  0
ENDTAB
  0
TABLE
  2
UCS
  5
7
330
0
100
AcDbSymbolTable
 70
     0
  0
ENDTAB
  0
TABLE
  2
APPID
  5
9
330
0
100
AcDbSymbolTable
 70
     1
  0
APPID
  5
12
330
9
100
AcDbSymbolTableRecord
100
AcDbRegAppTableRecord
  2
ACAD
 70
     0
  0
ENDTAB
  0
TABLE
  2
DIMSTYLE
  5
A
330
0
100
AcDbSymbolTable
 70
     1
100
AcDbDimStyleTable
  0
DIMSTYLE
105
27
330
A
100
AcDbSymbolTableRecord
100
AcDbDimStyleTableRecord
  2
ISO-25
 70
     0
 41
2.5
 42
0.625
 43
3.75
 44
1.25
 73
     0
 74
     0
 77
     1
 78
     8
140
2.5
141
2.5
143
0.0393700787
147
0.625
171
     3
172
     1
178
     0
271
     2
272
     2
274
     3
278
    44
283
     0
284
     8
340
11
  0
ENDTAB
  0
TABLE
  2
BLOCK_RECORD
  5
1
330
0
100
AcDbSymbolTable
 70
     1
  0
BLOCK_RECORD
  5
1F
330
1
100
AcDbSymbolTableRecord
100
AcDbBlockTableRecord
  2
*Model_Space
340
22
  0
BLOCK_RECORD
  5
1B
330
1
100
AcDbSymbolTableRecord
100
AcDbBlockTableRecord
  2
*Paper_Space
340
1E
  0
BLOCK_RECORD
  5
23
330
1
100
AcDbSymbolTableRecord
100
AcDbBlockTableRecord
  2
*Paper_Space0
340
26
  0
ENDTAB
  0
ENDSEC
  0
SECTION
  2
BLOCKS
  0
BLOCK
  5
20
330
1F
100
AcDbEntity
  8
0
100
AcDbBlockBegin
  2
*Model_Space
 70
     0
 10
0.0
 20
0.0
 30
0.0
  3
*Model_Space
  1

  0
ENDBLK
  5
21
330
1F
100
AcDbEntity
  8
0
100
AcDbBlockEnd
  0
BLOCK
  5
1C
330
1B
100
AcDbEntity
 67
     1
  8
0
100
AcDbBlockBegin
  2
*Paper_Space
 70
     0
 10
0.0
 20
0.0
 30
0.0
  3
*Paper_Space
  1

  0
ENDBLK
  5
1D
330
1B
100
AcDbEntity
 67
     1
  8
0
100
AcDbBlockEnd
  0
BLOCK
  5
24
330
23
100
AcDbEntity
  8
0
100
AcDbBlockBegin
  2
*Paper_Space0
 70
     0
 10
0.0
 20
0.0
 30
0.0
  3
*Paper_Space0
  1

  0
ENDBLK
  5
25
330
23
100
AcDbEntity
  8
0
100
AcDbBlockEnd
  0
ENDSEC
  0
SECTION
  2
ENTITIES
  0
LINE
  5
7F
330
1F
100
AcDbEntity
  8
0
  6
Continuous
 62
     7
370
    25
100
AcDbLine
 10
6448.570132569
 20
5140.8407746012
 30
0.0
 11
6447.070132569
 21
5142.3407746012
 31
0.0
  0
LINE
  5
80
330
1F
100
AcDbEntity
  8
0
  6
Continuous
 62
     7
370
    25
100
AcDbLine
 10
6422.070132569
 20
5142.3407746012
 30
0.0
 11
6420.570132569
 21
5140.8407746012
 31
0.0
  0
LINE
  5
81
330
1F
100
AcDbEntity
  8
0
  6
Continuous
 62
     7
370
    25
100
AcDbLine
 10
6448.570132569
 20
5140.3407746012
 30
0.0
 11
6448.570132569
 21
5140.8407746012
 31
0.0
  0
LINE
  5
82
330
1F
100
AcDbEntity
  8
0
  6
Continuous
 62
     7
370
    25
100
AcDbLine
 10
6420.570132569
 20
5140.8407746012
 30
0.0
 11
6420.570132569
 21
5140.3407746012
 31
0.0
  0
LINE
  5
83
330
1F
100
AcDbEntity
  8
0
  6
Continuous
 62
     7
370
    25
100
AcDbLine
 10
6425.320132569
 20
5078.7519398363
 30
0.0
 11
6425.320132569
 21
5078.3983864457
 31
0.0
  0
LINE
  5
84
330
1F
100
AcDbEntity
  8
0
  6
Continuous
 62
     7
370
    25
100
AcDbLine
 10
6443.820132569
 20
5078.3983864457
 30
0.0
 11
6443.820132569
 21
5078.7519398363
 31
0.0
  0
LINE
  5
85
330
1F
100
AcDbEntity
  8
0
  6
Continuous
 62
     7
370
    25
100
AcDbLine
 10
6442.070132569
 20
5078.3983864457
 30
0.0
 11
6442.070132569
 21
5079.1054932269
 31
0.0
  0
LINE
  5
86
330
1F
100
AcDbEntity
  8
0
  6
Continuous
 62
     7
370
    25
100
AcDbLine
 10
6427.070132569
 20
5079.1054932269
 30
0.0
 11
6427.070132569
 21
5078.3983864457
 31
0.0
  0
LINE
  5
87
330
1F
100
AcDbEntity
  8
0
  6
Continuous
 62
     7
370
    25
100
AcDbLine
 10
6459.470132569
 20
5139.3407746012
 30
0.0
 11
6458.470132569
 21
5140.3407746012
 31
0.0
  0
LINE
  5
88
330
1F
100
AcDbEntity
  8
0
  6
Continuous
 62
     7
370
    25
100
AcDbLine
 10
6410.670132569
 20
5140.3407746012
 30
0.0
 11
6409.670132569
 21
5139.3407746012
 31
0.0
  0
LINE
  5
89
330
1F
100
AcDbEntity
  8
0
  6
Continuous
 62
     7
370
    25
100
AcDbLine
 10
6409.670132569
 20
5137.6407746012
 30
0.0
 11
6409.970132569
 21
5137.3407746012
 31
0.0
  0
LINE
  5
8A
330
1F
100
AcDbEntity
  8
0
  6
Continuous
 62
     7
370
    25
100
AcDbLine
 10
6459.170132569
 20
5137.3407746012
 30
0.0
 11
6459.470132569
 21
5137.6407746012
 31
0.0
  0
LINE
  5
8B
330
1F
100
AcDbEntity
  8
0
  6
Continuous
 62
     7
370
    25
100
AcDbLine
 10
6409.670132569
 20
5139.3407746012
 30
0.0
 11
6409.670132569
 21
5137.6407746012
 31
0.0
  0
LINE
  5
8C
330
1F
100
AcDbEntity
  8
0
  6
Continuous
 62
     7
370
    25
100
AcDbLine
 10
6459.470132569
 20
5137.6407746012
 30
0.0
 11
6459.470132569
 21
5139.3407746012
 31
0.0
  0
LINE
  5
8D
330
1F
100
AcDbEntity
  8
0
  6
Continuous
 62
     7
370
    25
100
AcDbLine
 10
6409.820132569
 20
5137.1407746012
 30
0.0
 11
6409.820132569
 21
4988.5407746012
 31
0.0
  0
LINE
  5
8E
330
1F
100
AcDbEntity
  8
0
  6
Continuous
 62
     7
370
    25
100
AcDbLine
 10
6459.320132569
 20
4988.5407746012
 30
0.0
 11
6459.320132569
 21
5137.1407746012
 31
0.0
  0
LINE
  5
8F
330
1F
100
AcDbEntity
  8
0
  6
Continuous
 62
     7
370
    25
100
AcDbLine
 10
6459.320132569
 20
5137.1407746012
 30
0.0
 11
6459.120132569
 21
5137.3407746012
 31
0.0
  0
LINE
  5
90
330
1F
100
AcDbEntity
  8
0
  6
Continuous
 62
     7
370
    25
100
AcDbLine
 10
6410.020132569
 20
5137.3407746012
 30
0.0
 11
6409.820132569
 21
5137.1407746012
 31
0.0
  0
LINE
  5
91
330
1F
100
AcDbEntity
  8
0
  6
Continuous
 62
     7
370
    25
100
AcDbLine
 10
6409.820132569
 20
4988.5407746012
 30
0.0
 11
6410.020132569
 21
4988.3407746012
 31
0.0
  0
LINE
  5
92
330
1F
100
AcDbEntity
  8
0
  6
Continuous
 62
     7
370
    25
100
AcDbLine
 10
6459.120132569
 20
4988.3407746012
 30
0.0
 11
6459.320132569
 21
4988.5407746012
 31
0.0
  0
LINE
  5
93
330
1F
100
AcDbEntity
  8
0
  6
Continuous
 62
     7
370
    25
100
AcDbLine
 10
6464.570132569
 20
4984.3407746012
 30
0.0
 11
6464.570132569
 21
4986.4011015348
 31
0.0
  0
LINE
  5
94
330
1F
100
AcDbEntity
  8
0
  6
Continuous
 62
     7
370
    25
100
AcDbLine
 10
6404.570132569
 20
4986.4011015348
 30
0.0
 11
6404.570132569
 21
4984.3407746012
 31
0.0
  0
LINE
  5
95
330
1F
100
AcDbEntity
  8
0
  6
Continuous
 62
     7
370
    25
100
AcDbLine
 10
6464.570132569
 20
4986.4011015348
 30
0.0
 11
6464.0871696559
 21
4987.2376178385
 31
0.0
  0
LINE
  5
96
330
1F
100
AcDbEntity
  8
0
  6
Continuous
 62
     7
370
    25
100
AcDbLine
 10
6405.0530954822
 20
4987.2376178385
 30
0.0
 11
6404.570132569
 21
4986.4011015348
 31
0.0
  0
LINE
  5
97
330
1F
100
AcDbEntity
  8
0
  6
Continuous
 62
     7
370
    25
100
AcDbLine
 10
6464.0871696559
 20
4987.2376178385
 30
0.0
 11
6459.970132569
 21
4988.3407746012
 31
0.0
  0
LINE
  5
98
330
1F
100
AcDbEntity
  8
0
  6
Continuous
 62
     7
370
    25
100
AcDbLine
 10
6409.170132569
 20
4988.3407746012
 30
0.0
 11
6405.0530954822
 21
4987.2376178385
 31
0.0
  0
LINE
  5
99
330
1F
100
AcDbEntity
  8
0
  6
Continuous
 62
     7
370
    25
100
AcDbLine
 10
6422.070132569
 20
5142.3407746012
 30
0.0
 11
6447.070132569
 21
5142.3407746012
 31
0.0
  0
LINE
  5
9A
330
1F
100
AcDbEntity
  8
0
  6
Continuous
 62
     7
370
    25
100
AcDbLine
 10
6448.570132569
 20
5140.8407746012
 30
0.0
 11
6420.570132569
 21
5140.8407746012
 31
0.0
  0
ARC
  5
9B
330
1F
100
AcDbEntity
  8
0
  6
Continuous
 62
     7
370
    25
100
AcDbCircle
 10
6430.0618994782
 20
5078.7426626839
 30
0.0
 40
4.741775984462858
100
AcDbArc
 50
161.8291098021
 51
179.8879023343
  0
ARC
  5
9C
330
1F
100
AcDbEntity
  8
0
  6
Continuous
 62
     7
370
    25
100
AcDbCircle
 10
6439.0836876422
 20
5078.7435190809
 30
0.0
 40
4.736452412289614
100
AcDbArc
 50
0.1018640023
 51
18.1811238613
  0
ARC
  5
9D
330
1F
100
AcDbEntity
  8
0
  6
Continuous
 62
     7
370
    25
100
AcDbCircle
 10
6434.5628924011
 20
5084.6635001592
 30
0.0
 40
12.80655589294158
100
AcDbArc
 50
255.8536949078
 51
272.9335791868
  0
ARC
  5
9E
330
1F
100
AcDbEntity
  8
0
  6
Continuous
 62
     7
370
    25
100
AcDbCircle
 10
6434.6308996911
 20
5083.6088192848
 30
0.0
 40
12.45578059462662
100
AcDbArc
 50
273.2728416264
 51
286.8978847609
  0
LINE
  5
9F
330
1F
100
AcDbEntity
  8
0
  6
Continuous
 62
     7
370
    25
100
AcDbLine
 10
6438.2513824483
 20
5072.3979323243
 30
0.0
 11
6438.2513824483
 21
5071.6908255431
 31
0.0
  0
ARC
  5
A0
330
1F
100
AcDbEntity
  8
0
  6
Continuous
 62
     7
370
    25
100
AcDbCircle
 10
6435.3676779153
 20
5082.0454578805
 30
0.0
 40
10.06928503864555
100
AcDbArc
 50
286.6417277582
 51
305.3861985819
  0
ARC
  5
A1
330
1F
100
AcDbEntity
  8
0
  6
Continuous
 62
     7
370
    25
100
AcDbCircle
 10
6437.465483463
 20
5078.5551728057
 30
0.0
 40
6.576558404975299
100
AcDbArc
 50
309.3327489519
 51
330.2215658006
  0
LINE
  5
A2
330
1F
100
AcDbEntity
  8
0
  6
Continuous
 62
     7
370
    25
100
AcDbLine
 10
6443.1736234433
 20
5075.9960495859
 30
0.0
 11
6443.1736234433
 21
5075.2889428048
 31
0.0
  0
ARC
  5
A3
330
1F
100
AcDbEntity
  8
0
  6
Continuous
 62
     7
370
    25
100
AcDbCircle
 10
6438.9383402908
 20
5078.4239969419
 30
0.0
 40
4.881859455746699
100
AcDbArc
 50
330.1757830485
 51
359.6994218935
  0
LINE
  5
A4
330
1F
100
AcDbEntity
  8
0
  6
Continuous
 62
     7
370
    25
100
AcDbLine
 10
6440.5422581242
 20
5083.3207997255
 30
0.0
 11
6440.5422581242
 21
5082.6860877867
 31
0.0
  0
ARC
  5
A5
330
1F
100
AcDbEntity
  8
0
  6
Continuous
 62
     7
370
    25
100
AcDbCircle
 10
6435.1809972674
 20
5073.5966351625
 30
0.0
 40
10.55278479749895
100
AcDbArc
 50
59.4664851876
 51
74.6889829521
  0
LINE
  5
A6
330
1F
100
AcDbEntity
  8
0
  6
Continuous
 62
     7
370
    25
100
AcDbLine
 10
6437.9675499376
 20
5084.3059161287
 30
0.0
 11
6437.9675499376
 21
5083.7748664036
 31
0.0
  0
LINE
  5
A7
330
1F
100
AcDbEntity
  8
0
  6
Continuous
 62
     7
370
    25
100
AcDbLine
 10
6433.7982549251
 20
5084.7074567142
 30
0.0
 11
6433.7982549251
 21
5084.209205136
 31
0.0
  0
ARC
  5
A8
330
1F
100
AcDbEntity
  8
0
  6
Continuous
 62
     7
370
    25
100
AcDbCircle
 10
6434.5093654469
 20
5071.7737400444
 30
0.0
 40
12.4557805945303
100
AcDbArc
 50
93.2728416263
 51
106.8978847609
  0
LINE
  5
A9
330
1F
100
AcDbEntity
  8
0
  6
Continuous
 62
     7
370
    25
100
AcDbLine
 10
6430.8888826898
 20
5084.2295391886
 30
0.0
 11
6430.8888826898
 21
5083.691733786
 31
0.0
  0
LINE
  5
AA
330
1F
100
AcDbEntity
  8
0
  6
Continuous
 62
     7
370
    25
100
AcDbLine
 10
6427.5064071813
 20
5082.6213169239
 30
0.0
 11
6427.7449873672
 21
5082.8131283959
 31
0.0
  0
LINE
  5
AB
330
1F
100
AcDbEntity
  8
0
  6
Continuous
 62
     7
370
    25
100
AcDbLine
 10
6427.5064071813
 20
5082.6213169239
 30
0.0
 11
6427.5064071813
 21
5081.9142101427
 31
0.0
  0
ARC
  5
AC
330
1F
100
AcDbEntity
  8
0
  6
Continuous
 62
     7
370
    25
100
AcDbCircle
 10
6431.6747816751
 20
5076.8273865234
 30
0.0
 40
6.576558405005783
100
AcDbArc
 50
129.332748952
 51
150.2215658006
  0
LINE
  5
AD
330
1F
100
AcDbEntity
  8
0
  6
Continuous
 62
     7
370
    25
100
AcDbLine
 10
6425.9666416947
 20
5080.8007233056
 30
0.0
 11
6425.9666416947
 21
5080.0936165244
 31
0.0
  0
ARC
  5
AE
330
1F
100
AcDbEntity
  8
0
  6
Continuous
 62
     7
370
    25
100
AcDbCircle
 10
6430.1615093581
 20
5078.3886597472
 30
0.0
 40
4.838901251563314
100
AcDbArc
 50
150.100947763
 51
186.3605162396
  0
LINE
  5
AF
330
1F
100
AcDbEntity
  8
0
  6
Continuous
 62
     7
370
    25
100
AcDbLine
 10
6425.3523939688
 20
5077.8525865295
 30
0.0
 11
6425.3523939688
 21
5077.1454797483
 31
0.0
  0
ARC
  5
B0
330
1F
100
AcDbEntity
  8
0
  6
Continuous
 62
     7
370
    25
100
AcDbCircle
 10
6430.3858001756
 20
5077.7772173528
 30
0.0
 40
5.072895666574608
100
AcDbArc
 50
187.1537274672
 51
212.0099799122
  0
ARC
  5
B1
330
1F
100
AcDbEntity
  8
0
  6
Continuous
 62
     7
370
    25
100
AcDbCircle
 10
6432.3992037219
 20
5079.9628945088
 30
0.0
 40
7.581142739041059
100
AcDbArc
 50
219.2415880112
 51
239.907230903
  0
LINE
  5
B2
330
1F
100
AcDbEntity
  8
0
  6
Continuous
 62
     7
370
    25
100
AcDbLine
 10
6428.5980070138
 20
5073.4035783237
 30
0.0
 11
6428.5980070138
 21
5072.6964715425
 31
0.0
  0
ARC
  5
B3
330
1F
100
AcDbEntity
  8
0
  6
Continuous
 62
     7
370
    25
100
AcDbCircle
 10
6433.9592678707
 20
5081.7859241665
 30
0.0
 40
10.55278479741228
100
AcDbArc
 50
239.4664851875
 51
254.6889829522
  0
ARC
  5
B4
330
1F
100
AcDbEntity
  8
0
  6
Continuous
 62
     7
370
    25
100
AcDbCircle
 10
6430.7216917792
 20
5078.4001682212
 30
0.0
 40
4.389988946869948
100
AcDbArc
 50
142.8706663065
 51
198.9391016612
  0
ARC
  5
B5
330
1F
100
AcDbEntity
  8
0
  6
Continuous
 62
     7
370
    25
100
AcDbCircle
 10
6433.5641482352
 20
5075.7494280627
 30
0.0
 40
8.312210239317269
100
AcDbArc
 50
108.6074780031
 51
132.564385303
  0
ARC
  5
B6
330
1F
100
AcDbEntity
  8
0
  6
Continuous
 62
     7
370
    25
100
AcDbCircle
 10
6434.5818942249
 20
5072.8988397839
 30
0.0
 40
11.33437355798494
100
AcDbArc
 50
73.9936466238
 51
93.3379076722
  0
LWPOLYLINE
  5
B7
330
1F
100
AcDbEntity
  8
0
  6
Continuous
 62
     7
370
    25
100
AcDbPolyline
 90
       30
 70
   128
 43
0.0
 10
6440.4043204851
 20
5082.52299257
 10
6440.8033198303
 20
5082.2200272299
 10
6441.4680689851
 20
5081.5984624761
 10
6442.0097243011
 20
5080.9197922898
 10
6442.4186199263
 20
5080.1961275565
 10
6442.6874591088
 20
5079.4403820904
 10
6442.8114444068
 20
5078.6660421874
 10
6442.7883632999
 20
5077.8869259613
 10
6442.6186276709
 20
5077.1169367597
 10
6442.3052664561
 20
5076.3698150581
 10
6441.8538715938
 20
5075.658893261
 10
6441.2724982361
 20
5074.9968577847
 10
6440.5715210043
 20
5074.3955226679
 10
6439.7634488537
 20
5073.86561875
 10
6438.862701851
 20
5073.416602179
 10
6437.8853538477
 20
5073.0564856664
 10
6436.8488456421
 20
5072.7916954996
 10
6435.7716737478
 20
5072.6269568657
 10
6434.6730603227
 20
5072.5652095293
 10
6433.5726101494
 20
5072.6075553732
 10
6432.4899607873
 20
5072.7532387347
 10
6431.4444321399
 20
5072.9996598909
 10
6430.4546816908
 20
5073.3424214504
 10
6429.53837156
 20
5073.775406825
 10
6428.7118533237
 20
5074.2908893804
 10
6427.9898762193
 20
5074.8796703183
 10
6427.3853239453
 20
5075.5312428288
 10
6426.9089847514
 20
5076.2339795851
 10
6426.5693589218
 20
5076.9753402331
 10
6426.5693589218
 20
5076.9753402331
  0
LINE
  5
B8
330
1F
100
AcDbEntity
  8
0
  6
Continuous
 62
     7
370
    25
100
AcDbLine
 10
6442.7384133892
 20
5076.1800888504
 30
0.0
 11
6443.1736234433
 21
5075.9960495859
 31
0.0
  0
ARC
  5
B9
330
1F
100
AcDbEntity
  8
0
  6
Continuous
 62
     7
370
    25
100
AcDbCircle
 10
6437.3058021774
 20
5079.2132906323
 30
0.0
 40
6.222023595889325
100
AcDbArc
 50
308.7303444163
 51
330.8239703362
  0
LINE
  5
BA
330
1F
100
AcDbEntity
  8
0
  6
Continuous
 62
     7
370
    25
100
AcDbLine
 10
6438.2513824483
 20
5072.3979323243
 30
0.0
 11
6438.1276817322
 21
5072.7456727633
 31
0.0
  0
ARC
  5
BB
330
1F
100
AcDbEntity
  8
0
  6
Continuous
 62
     7
370
    25
100
AcDbCircle
 10
6434.6269017565
 20
5083.9906631614
 30
0.0
 40
11.77732013205384
100
AcDbArc
 50
272.8783648798
 51
287.2923615076
  0
ARC
  5
BC
330
1F
100
AcDbEntity
  8
0
  6
Continuous
 62
     7
370
    25
100
AcDbCircle
 10
6433.9939082927
 20
5082.2672075081
 30
0.0
 40
9.97887469806992
100
AcDbArc
 50
239.0259192752
 51
255.1295488645
  0
LINE
  5
BD
330
1F
100
AcDbEntity
  8
0
  6
Continuous
 62
     7
370
    25
100
AcDbLine
 10
6428.8582778376
 20
5073.7113183042
 30
0.0
 11
6428.5980070138
 21
5073.4035783237
 31
0.0
  0
ARC
  5
BE
330
1F
100
AcDbEntity
  8
0
  6
Continuous
 62
     7
370
    25
100
AcDbCircle
 10
6430.6157957811
 20
5078.4786702006
 30
0.0
 40
4.801925345761044
100
AcDbArc
 50
186.4402066723
 51
212.7235007071
  0
LINE
  5
BF
330
1F
100
AcDbEntity
  8
0
  6
Continuous
 62
     7
370
    25
100
AcDbLine
 10
6425.3523939688
 20
5077.8525865295
 30
0.0
 11
6425.8441732137
 21
5077.9400561446
 31
0.0
  0
LINE
  5
C0
330
1F
100
AcDbEntity
  8
0
  6
Continuous
 62
     7
370
    25
100
AcDbLine
 10
6427.9416172355
 20
5082.4372776595
 30
0.0
 11
6427.5064071813
 21
5082.6213169239
 31
0.0
  0
LINE
  5
C1
330
1F
100
AcDbEntity
  8
0
  6
Continuous
 62
     7
370
    25
100
AcDbLine
 10
6433.8711910145
 20
5084.7112781184
 30
0.0
 11
6433.9219556412
 21
5084.5685714782
 31
0.0
  0
LINE
  5
C2
330
1F
100
AcDbEntity
  8
0
  6
Continuous
 62
     7
370
    25
100
AcDbLine
 10
6437.7072791138
 20
5084.1742332043
 30
0.0
 11
6437.8447736739
 21
5084.3368045315
 31
0.0
  0
LINE
  5
C3
330
1F
100
AcDbEntity
  8
0
  6
Continuous
 62
     7
370
    25
100
AcDbLine
 10
6433.7982549251
 20
5084.209205136
 30
0.0
 11
6433.9219556412
 21
5083.861464697
 31
0.0
  0
ARC
  5
C4
330
1F
100
AcDbEntity
  8
0
  6
Continuous
 62
     7
370
    25
100
AcDbCircle
 10
6434.5133633816
 20
5072.0990029489
 30
0.0
 40
11.77732013205203
100
AcDbArc
 50
92.8783648798
 51
107.2923615076
  0
LINE
  5
C5
330
1F
100
AcDbEntity
  8
0
  6
Continuous
 62
     7
370
    25
100
AcDbLine
 10
6430.8888826898
 20
5083.691733786
 30
0.0
 11
6431.0125834058
 21
5083.343993347
 31
0.0
  0
LINE
  5
C6
330
1F
100
AcDbEntity
  8
0
  6
Continuous
 62
     7
370
    25
100
AcDbLine
 10
6433.9219556412
 20
5084.5685714782
 30
0.0
 11
6433.9219556412
 21
5083.861464697
 31
0.0
  0
LINE
  5
C7
330
1F
100
AcDbEntity
  8
0
  6
Continuous
 62
     7
370
    25
100
AcDbLine
 10
6440.2819873004
 20
5082.3783478061
 30
0.0
 11
6440.5422581242
 21
5082.6860877867
 31
0.0
  0
ARC
  5
C8
330
1F
100
AcDbEntity
  8
0
  6
Continuous
 62
     7
370
    25
100
AcDbCircle
 10
6435.1463568454
 20
5073.8224586022
 30
0.0
 40
9.978874698114964
100
AcDbArc
 50
59.0259192753
 51
75.1295488645
  0
LINE
  5
C9
330
1F
100
AcDbEntity
  8
0
  6
Continuous
 62
     7
370
    25
100
AcDbLine
 10
6437.7072791138
 20
5083.4671264231
 30
0.0
 11
6437.9675499376
 21
5083.7748664036
 31
0.0
  0
LWPOLYLINE
  5
CA
330
1F
100
AcDbEntity
  8
0
  6
Continuous
 62
     7
370
    25
100
AcDbPolyline
 90
        3
 70
   128
 43
0.0
 10
6426.5693589218
 20
5077.6824470143
 10
6426.3725070876
 20
5078.4492019557
 10
6426.335298023
 20
5078.7519398363
  0
ARC
  5
CB
330
1F
100
AcDbEntity
  8
0
  6
Continuous
 62
     7
370
    25
100
AcDbCircle
 10
6437.2708869469
 20
5079.5835690424
 30
0.0
 40
5.596217512172038
100
AcDbArc
 50
296.5061651593
 51
351.4538728854
  0
ARC
  5
CC
330
1F
100
AcDbEntity
  8
0
  6
Continuous
 62
     7
370
    25
100
AcDbCircle
 10
6432.1821425141
 20
5079.9279425185
 30
0.0
 40
6.045294840847191
100
AcDbArc
 50
201.8047716281
 51
242.2976877656
  0
LINE
  5
CD
330
1F
100
AcDbEntity
  8
0
  6
Continuous
 62
     7
370
    25
100
AcDbLine
 10
6437.7072791138
 20
5084.1742332043
 30
0.0
 11
6437.7072791138
 21
5083.4671264231
 31
0.0
  0
LWPOLYLINE
  5
CE
330
1F
100
AcDbEntity
  8
0
  6
Continuous
 62
     7
370
    25
100
AcDbPolyline
 90
        3
 70
   128
 43
0.0
 10
6425.3505881117
 20
5079.2822699222
 10
6425.3356487923
 20
5079.4339118935
 10
6425.3295805225
 20
5079.5170514707
  0
LWPOLYLINE
  5
CF
330
1F
100
AcDbEntity
  8
0
  6
Continuous
 62
     7
370
    25
100
AcDbPolyline
 90
        3
 70
   128
 43
0.0
 10
6443.8106846155
 20
5079.5170514707
 10
6443.7989213783
 20
5079.3699053542
 10
6443.7896770263
 20
5079.2822699222
  0
LWPOLYLINE
  5
D0
330
1F
100
AcDbEntity
  8
0
  6
Continuous
 62
     7
370
    25
100
AcDbPolyline
 90
       46
 70
   128
 43
0.0
 10
6427.2967019807
 20
5077.1047080706
 10
6427.1128640995
 20
5077.8330781346
 10
6427.0741734666
 20
5078.5724512817
 10
6427.181383151
 20
5079.3084364549
 10
6427.4324064384
 20
5080.0267085397
 10
6427.8223574458
 20
5080.7132871872
 10
6428.3436462205
 20
5081.3548089249
 10
6428.9861264694
 20
5081.938787262
 10
6429.7372930454
 20
5082.4538557243
 10
6430.5825253454
 20
5082.8899890901
 10
6431.5053718842
 20
5083.2386985196
 10
6432.4878705036
 20
5083.4931967803
 10
6433.5108979856
 20
5083.6485303532
 10
6434.5545422639
 20
5083.7016758468
 10
6435.5984899897
 20
5083.6515988446
 10
6436.6224219081
 20
5083.4992740386
 10
6437.6064083489
 20
5083.2476662577
 10
6438.5312971354
 20
5082.9016727612
 10
6439.3790863594
 20
5082.468027919
 10
6440.1332747679
 20
5081.9551721347
 10
6440.7791829416
 20
5081.3730875628
 10
6441.3042390124
 20
5080.7331038172
 10
6441.6982233612
 20
5080.0476774538
 10
6441.9534675309
 20
5079.3301495169
 10
6442.0650034839
 20
5078.5944858717
 10
6442.0306602998
 20
5077.8550053742
 10
6441.8511064298
 20
5077.1261011712
 10
6441.5298366854
 20
5076.4219605539
 10
6441.0731042171
 20
5075.7562888184
 10
6440.4897988026
 20
5075.1420425079
 10
6439.7912738183
 20
5074.591177228
 10
6438.9911252587
 20
5074.114414945
 10
6438.1049271051
 20
5073.7210352943
 10
6437.1499281967
 20
5073.4186949634
 10
6436.1447165008
 20
5073.2132786628
 10
6435.1088573198
 20
5073.1087845872
 10
6434.0625124743
 20
5073.107246595
 10
6433.0260478765
 20
5073.2086946215
 10
6432.0196371309
 20
5073.411154096
 10
6431.0628688778
 20
5073.7106843754
 10
6430.1743655231
 20
5074.1014554434
 10
6429.3714207738
 20
5074.5758613857
 10
6428.6696630361
 20
5075.1246684302
 10
6428.0827512262
 20
5075.7371946721
 10
6427.6221089149
 20
5076.4015179848
 10
6427.2967019807
 20
5077.1047080706
  0
ARC
  5
D1
330
1F
100
AcDbEntity
  8
0
  6
Continuous
 62
     7
370
    25
100
AcDbCircle
 10
6431.8789969771
 20
5078.8144147345
 30
0.0
 40
4.817665781684265
100
AcDbArc
 50
121.3599836415
 51
176.5361373398
  0
ARC
  5
D2
330
1F
100
AcDbEntity
  8
0
  6
Continuous
 62
     7
370
    25
100
AcDbCircle
 10
6437.5897386097
 20
5078.951630089
 30
0.0
 40
4.483035121031905
100
AcDbArc
 50
1.9668460862
 51
51.7867872968
  0
LINE
  5
D3
330
1F
100
AcDbEntity
  8
0
  6
Continuous
 62
     7
370
    25
100
AcDbLine
 10
6427.9416172355
 20
5082.4372776595
 30
0.0
 11
6427.9416172355
 21
5081.7301708783
 31
0.0
  0
LINE
  5
D4
330
1F
100
AcDbEntity
  8
0
  6
Continuous
 62
     7
370
    25
100
AcDbLine
 10
6427.9416172355
 20
5081.7301708783
 30
0.0
 11
6427.5064071813
 21
5081.9142101427
 31
0.0
  0
ARC
  5
D5
330
1F
100
AcDbEntity
  8
0
  6
Continuous
 62
     7
370
    25
100
AcDbCircle
 10
6431.8344629606
 20
5076.876375478
 30
0.0
 40
6.222023595852789
100
AcDbArc
 50
128.7303444163
 51
150.8239703363
  0
LINE
  5
D6
330
1F
100
AcDbEntity
  8
0
  6
Continuous
 62
     7
370
    25
100
AcDbLine
 10
6426.4018517489
 20
5079.9095772599
 30
0.0
 11
6425.9666416947
 21
5080.0936165244
 31
0.0
  0
LINE
  5
D7
330
1F
100
AcDbEntity
  8
0
  6
Continuous
 62
     7
370
    25
100
AcDbLine
 10
6425.8441732137
 20
5077.9400561446
 30
0.0
 11
6425.8441732137
 21
5077.2329493635
 31
0.0
  0
LINE
  5
D8
330
1F
100
AcDbEntity
  8
0
  6
Continuous
 62
     7
370
    25
100
AcDbLine
 10
6425.3523939688
 20
5077.1454797483
 30
0.0
 11
6425.8441732137
 21
5077.2329493635
 31
0.0
  0
ARC
  5
D9
330
1F
100
AcDbEntity
  8
0
  6
Continuous
 62
     7
370
    25
100
AcDbCircle
 10
6430.6157957811
 20
5077.7715634194
 30
0.0
 40
4.801925345762246
100
AcDbArc
 50
186.4402066723
 51
212.7235007071
  0
LINE
  5
DA
330
1F
100
AcDbEntity
  8
0
  6
Continuous
 62
     7
370
    25
100
AcDbLine
 10
6426.5759882151
 20
5075.882819308
 30
0.0
 11
6426.5759882151
 21
5075.1757125269
 31
0.0
  0
LINE
  5
DB
330
1F
100
AcDbEntity
  8
0
  6
Continuous
 62
     7
370
    25
100
AcDbLine
 10
6426.0842089701
 20
5075.0882429117
 30
0.0
 11
6426.5759882151
 21
5075.1757125269
 31
0.0
  0
LINE
  5
DC
330
1F
100
AcDbEntity
  8
0
  6
Continuous
 62
     7
370
    25
100
AcDbLine
 10
6442.7384133892
 20
5076.1800888504
 30
0.0
 11
6442.7384133892
 21
5075.4729820692
 31
0.0
  0
LINE
  5
DD
330
1F
100
AcDbEntity
  8
0
  6
Continuous
 62
     7
370
    25
100
AcDbLine
 10
6442.7384133892
 20
5075.4729820692
 30
0.0
 11
6443.1736234433
 21
5075.2889428048
 31
0.0
  0
ARC
  5
DE
330
1F
100
AcDbEntity
  8
0
  6
Continuous
 62
     7
370
    25
100
AcDbCircle
 10
6437.3058021774
 20
5078.5061838511
 30
0.0
 40
6.222023595905664
100
AcDbArc
 50
308.7303444164
 51
330.8239703362
  0
LINE
  5
DF
330
1F
100
AcDbEntity
  8
0
  6
Continuous
 62
     7
370
    25
100
AcDbLine
 10
6441.1986479026
 20
5073.6523884508
 30
0.0
 11
6441.6338579568
 21
5073.4683491864
 31
0.0
  0
LINE
  5
E0
330
1F
100
AcDbEntity
  8
0
  6
Continuous
 62
     7
370
    25
100
AcDbLine
 10
6441.1986479026
 20
5074.359495232
 30
0.0
 11
6441.1986479026
 21
5073.6523884508
 31
0.0
  0
LINE
  5
E1
330
1F
100
AcDbEntity
  8
0
  6
Continuous
 62
     7
370
    25
100
AcDbLine
 10
6428.8582778376
 20
5073.7113183042
 30
0.0
 11
6428.8582778376
 21
5073.004211523
 31
0.0
  0
LINE
  5
E2
330
1F
100
AcDbEntity
  8
0
  6
Continuous
 62
     7
370
    25
100
AcDbLine
 10
6431.4329860243
 20
5072.6225396872
 30
0.0
 11
6431.4329860243
 21
5071.915432906
 31
0.0
  0
ARC
  5
E3
330
1F
100
AcDbEntity
  8
0
  6
Continuous
 62
     7
370
    25
100
AcDbCircle
 10
6433.9939082927
 20
5081.560100727
 30
0.0
 40
9.978874698148342
100
AcDbArc
 50
239.0259192753
 51
255.1295488645
  0
LINE
  5
E4
330
1F
100
AcDbEntity
  8
0
  6
Continuous
 62
     7
370
    25
100
AcDbLine
 10
6428.8582778376
 20
5073.004211523
 30
0.0
 11
6428.5980070138
 21
5072.6964715425
 31
0.0
  0
LINE
  5
E5
330
1F
100
AcDbEntity
  8
0
  6
Continuous
 62
     7
370
    25
100
AcDbLine
 10
6431.4329860243
 20
5071.915432906
 30
0.0
 11
6431.1727152005
 21
5071.6076929255
 31
0.0
  0
LINE
  5
E6
330
1F
100
AcDbEntity
  8
0
  6
Continuous
 62
     7
370
    25
100
AcDbLine
 10
6438.1276817322
 20
5072.7456727633
 30
0.0
 11
6438.1276817322
 21
5072.0385659821
 31
0.0
  0
LINE
  5
E7
330
1F
100
AcDbEntity
  8
0
  6
Continuous
 62
     7
370
    25
100
AcDbLine
 10
6438.2513824483
 20
5071.6908255431
 30
0.0
 11
6438.1276817322
 21
5072.0385659821
 31
0.0
  0
LINE
  5
E8
330
1F
100
AcDbEntity
  8
0
  6
Continuous
 62
     7
370
    25
100
AcDbLine
 10
6435.342010213
 20
5071.1733541931
 30
0.0
 11
6435.2183094969
 21
5071.5210946321
 31
0.0
  0
ARC
  5
E9
330
1F
100
AcDbEntity
  8
0
  6
Continuous
 62
     7
370
    25
100
AcDbCircle
 10
6434.6269017565
 20
5083.2835563802
 30
0.0
 40
11.77732013201156
100
AcDbArc
 50
272.8783648797
 51
287.2923615076
  0
LINE
  5
EA
330
1F
100
AcDbEntity
  8
0
  6
Continuous
 62
     7
370
    25
100
AcDbLine
 10
6435.2183094969
 20
5072.2282014133
 30
0.0
 11
6435.2183094969
 21
5071.5210946321
 31
0.0
  0
LINE
  5
EB
330
1F
100
AcDbEntity
  8
0
  6
Continuous
 62
     7
370
    25
100
AcDbLine
 10
6410.670132569
 20
5140.3407746012
 30
0.0
 11
6458.470132569
 21
5140.3407746012
 31
0.0
  0
LINE
  5
EC
330
1F
100
AcDbEntity
  8
0
  6
Continuous
 62
     7
370
    25
100
AcDbLine
 10
6409.670132569
 20
5139.3407746012
 30
0.0
 11
6459.470132569
 21
5139.3407746012
 31
0.0
  0
LINE
  5
ED
330
1F
100
AcDbEntity
  8
0
  6
Continuous
 62
     7
370
    25
100
AcDbLine
 10
6409.670132569
 20
5137.6407746012
 30
0.0
 11
6459.470132569
 21
5137.6407746012
 31
0.0
  0
LINE
  5
EE
330
1F
100
AcDbEntity
  8
0
  6
Continuous
 62
     7
370
    25
100
AcDbLine
 10
6409.970132569
 20
5137.3407746012
 30
0.0
 11
6459.170132569
 21
5137.3407746012
 31
0.0
  0
ARC
  5
EF
330
1F
100
AcDbEntity
  8
0
  6
Continuous
 62
     7
370
    25
100
AcDbCircle
 10
6434.570132569
 20
5081.8407746012
 30
0.0
 40
12.95000000000063
100
AcDbArc
 50
26.3603643512
 51
153.6396356488
  0
LINE
  5
F0
330
1F
100
AcDbEntity
  8
0
  6
Continuous
 62
     7
370
    25
100
AcDbLine
 10
6422.9666848055
 20
5087.5907746012
 30
0.0
 11
6446.1735803325
 21
5087.5907746012
 31
0.0
  0
ARC
  5
F1
330
1F
100
AcDbEntity
  8
0
  6
Continuous
 62
     7
370
    25
100
AcDbCircle
 10
6434.570132569
 20
5081.8407746012
 30
0.0
 40
13.94999999999955
100
AcDbArc
 50
160.0925511025
 51
19.9074488975
  0
LINE
  5
F2
330
1F
100
AcDbEntity
  8
0
  6
Continuous
 62
     7
370
    25
100
AcDbLine
 10
6422.9666848055
 20
5087.5907746012
 30
0.0
 11
6421.4537306234
 21
5086.5907746012
 31
0.0
  0
LINE
  5
F3
330
1F
100
AcDbEntity
  8
0
  6
Continuous
 62
     7
370
    25
100
AcDbLine
 10
6447.6865345147
 20
5086.5907746012
 30
0.0
 11
6446.1735803325
 21
5087.5907746012
 31
0.0
  0
LWPOLYLINE
  5
F4
330
1F
100
AcDbEntity
  8
0
  6
Continuous
 62
     7
370
    25
100
AcDbPolyline
 90
       53
 70
   128
 43
0.0
 10
6434.570132569
 20
5070.6539053005
 10
6435.7697558312
 20
5070.705215683
 10
6436.9518858849
 20
5070.8583986096
 10
6438.0992846121
 20
5071.1112203283
 10
6439.1952203554
 20
5071.4599941291
 10
6440.2237119041
 20
5071.8996341047
 10
6441.1697615353
 20
5072.4237293141
 10
6442.0195737151
 20
5073.0246372692
 10
6442.7607562683
 20
5073.6935953788
 10
6443.3825010843
 20
5074.4208487272
 10
6443.8757417236
 20
5075.1957923231
 10
6444.2332856271
 20
5076.0071257438
 10
6444.4499189994
 20
5076.843017921
 10
6444.5224828382
 20
5077.6912796646
 10
6444.4499189994
 20
5078.5395414081
 10
6444.2332856271
 20
5079.3754335853
 10
6443.8757417236
 20
5080.186767006
 10
6443.3825010843
 20
5080.9617106019
 10
6442.7607562683
 20
5081.6889639503
 10
6442.0195737151
 20
5082.3579220599
 10
6441.1697615353
 20
5082.958830015
 10
6440.2237119041
 20
5083.4829252245
 10
6439.1952203554
 20
5083.9225652
 10
6438.0992846121
 20
5084.2713390008
 10
6436.9518858849
 20
5084.5241607195
 10
6435.7697558312
 20
5084.6773436461
 10
6434.570132569
 20
5084.7286540286
 10
6433.3705093069
 20
5084.6773436461
 10
6432.1883792531
 20
5084.5241607195
 10
6431.040980526
 20
5084.2713390008
 10
6429.9450447826
 20
5083.9225652
 10
6428.916553234
 20
5083.4829252245
 10
6427.9705036028
 20
5082.958830015
 10
6427.120691423
 20
5082.3579220599
 10
6426.3795088698
 20
5081.6889639503
 10
6425.7577640538
 20
5080.9617106019
 10
6425.2645234145
 20
5080.186767006
 10
6424.906979511
 20
5079.3754335853
 10
6424.6903461387
 20
5078.5395414081
 10
6424.6177822998
 20
5077.6912796646
 10
6424.6903461387
 20
5076.843017921
 10
6424.906979511
 20
5076.0071257438
 10
6425.2645234145
 20
5075.1957923231
 10
6425.7577640538
 20
5074.4208487272
 10
6426.3795088698
 20
5073.6935953788
 10
6427.120691423
 20
5073.0246372692
 10
6427.9705036028
 20
5072.4237293141
 10
6428.916553234
 20
5071.8996341047
 10
6429.9450447826
 20
5071.4599941291
 10
6431.040980526
 20
5071.1112203283
 10
6432.1883792531
 20
5070.8583986096
 10
6433.3705093069
 20
5070.705215683
 10
6434.570132569
 20
5070.6539053005
  0
ARC
  5
F5
330
1F
100
AcDbEntity
  8
0
  6
Continuous
 62
     7
370
    25
100
AcDbCircle
 10
6434.570132569
 20
5081.8407746012
 30
0.0
 40
13.94999999999955
100
AcDbArc
 50
19.9074488975
 51
160.0925511025
  0
LINE
  5
F6
330
1F
100
AcDbEntity
  8
0
  6
Continuous
 62
     7
370
    25
100
AcDbLine
 10
6434.570132569
 20
5071.7692603721
 30
0.0
 11
6435.2183094969
 21
5071.7851235722
 31
0.0
  0
ARC
  5
F7
330
1F
100
AcDbEntity
  8
0
  6
Continuous
 62
     7
370
    25
100
AcDbCircle
 10
6435.4135247254
 20
5082.0262183641
 30
0.0
 40
10.13013211687823
100
AcDbArc
 50
286.2685753195
 51
304.8256223132
  0
ARC
  5
F8
330
1F
100
AcDbEntity
  8
0
  6
Continuous
 62
     7
370
    25
100
AcDbCircle
 10
6438.8300544769
 20
5078.4145577471
 30
0.0
 40
5.08795752539727
100
AcDbArc
 50
328.6159712309
 51
44.6463461014
  0
ARC
  5
F9
330
1F
100
AcDbEntity
  8
0
  6
Continuous
 62
     7
370
    25
100
AcDbCircle
 10
6430.3447563129
 20
5078.3847287323
 30
0.0
 40
5.133497915955267
100
AcDbArc
 50
135.3877416031
 51
193.466329585
  0
ARC
  5
FA
330
1F
100
AcDbEntity
  8
0
  6
Continuous
 62
     7
370
    25
100
AcDbCircle
 10
6432.4770651252
 20
5080.1042022134
 30
0.0
 40
7.842354919288978
100
AcDbArc
 50
219.2267717758
 51
240.3546945378
  0
ARC
  5
FB
330
1F
100
AcDbEntity
  8
0
  6
Continuous
 62
     7
370
    25
100
AcDbCircle
 10
6434.549792288
 20
5084.6694588225
 30
0.0
 40
12.90021448600239
100
AcDbArc
 50
256.0184832729
 51
270.090340571
  0
LINE
  5
FC
330
1F
100
AcDbEntity
  8
0
  6
Continuous
 62
     7
370
    25
100
AcDbLine
 10
6443.8106846155
 20
5079.0474883738
 30
0.0
 11
6443.8614255361
 21
5079.2822699222
 31
0.0
  0
LINE
  5
FD
330
1F
100
AcDbEntity
  8
0
  6
Continuous
 62
     7
370
    25
100
AcDbLine
 10
6425.278839602
 20
5079.2822699222
 30
0.0
 11
6425.3295805225
 21
5079.0474883738
 31
0.0
  0
ARC
  5
FE
330
1F
100
AcDbEntity
  8
0
  6
Continuous
 62
     7
370
    25
100
AcDbCircle
 10
6434.5255381026
 20
5081.7968027032
 30
0.0
 40
13.95609934942077
100
AcDbArc
 50
125.2571204219
 51
270.1830797417
  0
ARC
  5
FF
330
1F
100
AcDbEntity
  8
0
  6
Continuous
 62
     7
370
    25
100
AcDbCircle
 10
6434.9371099751
 20
5081.7362728222
 30
0.0
 40
13.64609458519088
100
AcDbArc
 50
305.3762230506
 51
21.8946917535
  0
LWPOLYLINE
  5
100
330
1F
100
AcDbEntity
  8
0
  6
Continuous
 62
     7
370
    25
100
AcDbPolyline
 90
        3
 70
   128
 43
0.0
 10
6438.562739369
 20
5068.4752814868
 10
6437.0428166128
 20
5068.0634447735
 10
6434.570132569
 20
5067.8407746012
  0
LINE
  5
101
330
1F
100
AcDbEntity
  8
0
  6
Continuous
 62
     7
370
    25
100
AcDbLine
 10
6434.570132569
 20
5137.1407746012
 30
0.0
 11
6409.820132569
 21
5137.1407746012
 31
0.0
  0
LINE
  5
102
330
1F
100
AcDbEntity
  8
0
  6
Continuous
 62
     7
370
    25
100
AcDbLine
 10
6459.320132569
 20
5137.1407746012
 30
0.0
 11
6434.570132569
 21
5137.1407746012
 31
0.0
  0
LINE
  5
103
330
1F
100
AcDbEntity
  8
0
  6
Continuous
 62
     7
370
    25
100
AcDbLine
 10
6409.820132569
 20
4988.5407746012
 30
0.0
 11
6459.320132569
 21
4988.5407746012
 31
0.0
  0
LINE
  5
104
330
1F
100
AcDbEntity
  8
0
  6
Continuous
 62
     7
370
    25
100
AcDbLine
 10
6426.5857728577
 20
5093.3407746012
 30
0.0
 11
6426.6737726482
 21
5093.3407746012
 31
0.0
  0
LINE
  5
105
330
1F
100
AcDbEntity
  8
0
  6
Continuous
 62
     7
370
    25
100
AcDbLine
 10
6442.4664924899
 20
5093.3407746012
 30
0.0
 11
6442.5544922804
 21
5093.3407746012
 31
0.0
  0
LINE
  5
106
330
1F
100
AcDbEntity
  8
0
  6
Continuous
 62
     7
370
    25
100
AcDbLine
 10
6464.570132569
 20
4984.3407746012
 30
0.0
 11
6404.570132569
 21
4984.3407746012
 31
0.0
  0
LINE
  5
107
330
1F
100
AcDbEntity
  8
0
  6
Continuous
 62
     7
370
    25
100
AcDbLine
 10
6464.570132569
 20
4986.4011015348
 30
0.0
 11
6404.570132569
 21
4986.4011015348
 31
0.0
  0
LINE
  5
108
330
1F
100
AcDbEntity
  8
0
  6
Continuous
 62
     7
370
    25
100
AcDbLine
 10
6464.0657430965
 20
4987.2376178385
 30
0.0
 11
6464.0871696559
 21
4987.2376178385
 31
0.0
  0
LINE
  5
109
330
1F
100
AcDbEntity
  8
0
  6
Continuous
 62
     7
370
    25
100
AcDbLine
 10
6405.0530954822
 20
4987.2376178385
 30
0.0
 11
6464.0657430965
 21
4987.2376178385
 31
0.0
  0
LINE
  5
10A
330
1F
100
AcDbEntity
  8
0
  6
Continuous
 62
     7
370
    25
100
AcDbLine
 10
6459.970132569
 20
4988.3407746012
 30
0.0
 11
6409.170132569
 21
4988.3407746012
 31
0.0
  0
LINE
  5
10B
330
1F
100
AcDbEntity
  8
0
  6
Continuous
 62
     7
370
    25
100
AcDbLine
 10
6676.5218372784
 20
5140.3407746012
 30
0.0
 11
6676.5218372784
 21
5140.8407746012
 31
0.0
  0
LINE
  5
10C
330
1F
100
AcDbEntity
  8
0
  6
Continuous
 62
     7
370
    25
100
AcDbLine
 10
6648.5218372784
 20
5140.8407746012
 30
0.0
 11
6648.5218372784
 21
5140.3407746012
 31
0.0
  0
LINE
  5
10D
330
1F
100
AcDbEntity
  8
0
  6
Continuous
 62
     7
370
    25
100
AcDbLine
 10
6676.5218372784
 20
5140.8407746012
 30
0.0
 11
6675.0218372784
 21
5142.3407746012
 31
0.0
  0
LINE
  5
10E
330
1F
100
AcDbEntity
  8
0
  6
Continuous
 62
     7
370
    25
100
AcDbLine
 10
6650.0218372784
 20
5142.3407746012
 30
0.0
 11
6648.5218372784
 21
5140.8407746012
 31
0.0
  0
LINE
  5
10F
330
1F
100
AcDbEntity
  8
0
  6
Continuous
 62
     7
370
    25
100
AcDbLine
 10
6637.6218372784
 20
5139.3407746012
 30
0.0
 11
6637.6218372784
 21
5137.6407746012
 31
0.0
  0
LINE
  5
110
330
1F
100
AcDbEntity
  8
0
  6
Continuous
 62
     7
370
    25
100
AcDbLine
 10
6687.4218372784
 20
5137.6407746012
 30
0.0
 11
6687.4218372784
 21
5139.3407746012
 31
0.0
  0
LINE
  5
111
330
1F
100
AcDbEntity
  8
0
  6
Continuous
 62
     7
370
    25
100
AcDbLine
 10
6687.4218372784
 20
5139.3407746012
 30
0.0
 11
6686.4218372784
 21
5140.3407746012
 31
0.0
  0
LINE
  5
112
330
1F
100
AcDbEntity
  8
0
  6
Continuous
 62
     7
370
    25
100
AcDbLine
 10
6638.6218372784
 20
5140.3407746012
 30
0.0
 11
6637.6218372784
 21
5139.3407746012
 31
0.0
  0
LINE
  5
113
330
1F
100
AcDbEntity
  8
0
  6
Continuous
 62
     7
370
    25
100
AcDbLine
 10
6637.6218372784
 20
5137.6407746012
 30
0.0
 11
6637.9218372784
 21
5137.3407746012
 31
0.0
  0
LINE
  5
114
330
1F
100
AcDbEntity
  8
0
  6
Continuous
 62
     7
370
    25
100
AcDbLine
 10
6687.1218372784
 20
5137.3407746012
 30
0.0
 11
6687.4218372784
 21
5137.6407746012
 31
0.0
  0
LINE
  5
115
330
1F
100
AcDbEntity
  8
0
  6
Continuous
 62
     7
370
    25
100
AcDbLine
 10
6687.2436667405
 20
5067.8907746012
 30
0.0
 11
6732.8218372784
 21
5067.8907746012
 31
0.0
  0
LINE
  5
116
330
1F
100
AcDbEntity
  8
0
  6
Continuous
 62
     7
370
    25
100
AcDbLine
 10
6751.5218372784
 20
5095.7907746012
 30
0.0
 11
6687.2436670476
 21
5095.7907746012
 31
0.0
  0
LINE
  5
117
330
1F
100
AcDbEntity
  8
0
  6
Continuous
 62
     7
370
    25
100
AcDbLine
 10
6752.5218372784
 20
5094.7907746012
 30
0.0
 11
6751.5218372784
 21
5095.7907746012
 31
0.0
  0
LINE
  5
118
330
1F
100
AcDbEntity
  8
0
  6
Continuous
 62
     7
370
    25
100
AcDbLine
 10
6637.7718372784
 20
5132.9061152826
 30
0.0
 11
6637.7718372784
 21
4988.5407746012
 31
0.0
  0
LINE
  5
119
330
1F
100
AcDbEntity
  8
0
  6
Continuous
 62
     7
370
    25
100
AcDbLine
 10
6637.7718372784
 20
5137.1407746012
 30
0.0
 11
6637.7718372784
 21
5135.3907746012
 31
0.0
  0
LINE
  5
11A
330
1F
100
AcDbEntity
  8
0
  6
Continuous
 62
     7
370
    25
100
AcDbLine
 10
6687.2718372784
 20
5095.8351642779
 30
0.0
 11
6687.2718372784
 21
5137.1407746012
 31
0.0
  0
LINE
  5
11B
330
1F
100
AcDbEntity
  8
0
  6
Continuous
 62
     7
370
    25
100
AcDbLine
 10
6687.2718372784
 20
4988.5407746012
 30
0.0
 11
6687.2718372784
 21
5067.8407746012
 31
0.0
  0
LINE
  5
11C
330
1F
100
AcDbEntity
  8
0
  6
Continuous
 62
     7
370
    25
100
AcDbLine
 10
6687.2718372784
 20
5137.1407746012
 30
0.0
 11
6687.0718372784
 21
5137.3407746012
 31
0.0
  0
LINE
  5
11D
330
1F
100
AcDbEntity
  8
0
  6
Continuous
 62
     7
370
    25
100
AcDbLine
 10
6637.9718372784
 20
5137.3407746012
 30
0.0
 11
6637.7718372784
 21
5137.1407746012
 31
0.0
  0
LINE
  5
11E
330
1F
100
AcDbEntity
  8
0
  6
Continuous
 62
     7
370
    25
100
AcDbLine
 10
6637.7718372784
 20
4988.5407746012
 30
0.0
 11
6637.9718372784
 21
4988.3407746012
 31
0.0
  0
LINE
  5
11F
330
1F
100
AcDbEntity
  8
0
  6
Continuous
 62
     7
370
    25
100
AcDbLine
 10
6687.0718372784
 20
4988.3407746012
 30
0.0
 11
6687.2718372784
 21
4988.5407746012
 31
0.0
  0
LINE
  5
120
330
1F
100
AcDbEntity
  8
0
  6
Continuous
 62
     7
370
    25
100
AcDbLine
 10
6692.5218372784
 20
4986.4011015348
 30
0.0
 11
6692.0388743652
 21
4987.2376178385
 31
0.0
  0
LINE
  5
121
330
1F
100
AcDbEntity
  8
0
  6
Continuous
 62
     7
370
    25
100
AcDbLine
 10
6633.0048001915
 20
4987.2376178385
 30
0.0
 11
6632.5218372784
 21
4986.4011015348
 31
0.0
  0
LINE
  5
122
330
1F
100
AcDbEntity
  8
0
  6
Continuous
 62
     7
370
    25
100
AcDbLine
 10
6692.5218372784
 20
4984.3407746012
 30
0.0
 11
6692.5218372784
 21
4986.4011015348
 31
0.0
  0
LINE
  5
123
330
1F
100
AcDbEntity
  8
0
  6
Continuous
 62
     7
370
    25
100
AcDbLine
 10
6632.5218372784
 20
4986.4011015348
 30
0.0
 11
6632.5218372784
 21
4984.3407746012
 31
0.0
  0
LINE
  5
124
330
1F
100
AcDbEntity
  8
0
  6
Continuous
 62
     7
370
    25
100
AcDbLine
 10
6692.0388743652
 20
4987.2376178385
 30
0.0
 11
6687.9218372784
 21
4988.3407746012
 31
0.0
  0
LINE
  5
125
330
1F
100
AcDbEntity
  8
0
  6
Continuous
 62
     7
370
    25
100
AcDbLine
 10
6637.1218372784
 20
4988.3407746012
 30
0.0
 11
6633.0048001915
 21
4987.2376178385
 31
0.0
  0
LINE
  5
126
330
1F
100
AcDbEntity
  8
0
  6
Continuous
 62
     7
370
    25
100
AcDbLine
 10
6676.5218372784
 20
5140.8407746012
 30
0.0
 11
6648.5218372784
 21
5140.8407746012
 31
0.0
  0
LINE
  5
127
330
1F
100
AcDbEntity
  8
0
  6
Continuous
 62
     7
370
    25
100
AcDbLine
 10
6650.0218372784
 20
5142.3407746012
 30
0.0
 11
6675.0218372784
 21
5142.3407746012
 31
0.0
  0
LINE
  5
128
330
1F
100
AcDbEntity
  8
0
  6
Continuous
 62
     7
370
    25
100
AcDbLine
 10
6637.6218372784
 20
5139.3407746012
 30
0.0
 11
6687.4218372784
 21
5139.3407746012
 31
0.0
  0
LINE
  5
129
330
1F
100
AcDbEntity
  8
0
  6
Continuous
 62
     7
370
    25
100
AcDbLine
 10
6637.6218372784
 20
5137.6407746012
 30
0.0
 11
6687.4218372784
 21
5137.6407746012
 31
0.0
  0
LINE
  5
12A
330
1F
100
AcDbEntity
  8
0
  6
Continuous
 62
     7
370
    25
100
AcDbLine
 10
6638.6218372784
 20
5140.3407746012
 30
0.0
 11
6686.4218372784
 21
5140.3407746012
 31
0.0
  0
LINE
  5
12B
330
1F
100
AcDbEntity
  8
0
  6
Continuous
 62
     7
370
    25
100
AcDbLine
 10
6637.9218372784
 20
5137.3407746012
 30
0.0
 11
6687.1218372784
 21
5137.3407746012
 31
0.0
  0
LINE
  5
12C
330
1F
100
AcDbEntity
  8
0
  6
Continuous
 62
     7
370
    25
100
AcDbLine
 10
6751.5218372784
 20
5086.5907746012
 30
0.0
 11
6751.5218372784
 21
5095.7907746012
 31
0.0
  0
LINE
  5
12D
330
1F
100
AcDbEntity
  8
0
  6
Continuous
 62
     7
370
    25
100
AcDbLine
 10
6751.5218372784
 20
5086.5907746012
 30
0.0
 11
6732.8218372784
 21
5067.8907746012
 31
0.0
  0
LINE
  5
12E
330
1F
100
AcDbEntity
  8
0
  6
Continuous
 62
     7
370
    25
100
AcDbLine
 10
6752.5218372784
 20
5087.5907746012
 30
0.0
 11
6752.5218372784
 21
5094.7907746012
 31
0.0
  0
LINE
  5
12F
330
1F
100
AcDbEntity
  8
0
  6
Continuous
 62
     7
370
    25
100
AcDbLine
 10
6752.5218372784
 20
5087.5907746012
 30
0.0
 11
6751.5218372784
 21
5086.5907746012
 31
0.0
  0
LWPOLYLINE
  5
130
330
1F
100
AcDbEntity
  8
0
  6
Continuous
 62
     7
370
    25
100
AcDbPolyline
 90
       21
 70
   128
 43
0.0
 10
6687.2718372784
 20
5067.8407746012
 10
6687.1800765624
 20
5068.0036410618
 10
6686.9027223801
 20
5068.5041686482
 10
6686.482559602
 20
5069.2887343579
 10
6685.9344957698
 20
5070.3695027608
 10
6685.282714966
 20
5071.7662992742
 10
6684.5903356245
 20
5073.4469602564
 10
6683.8921955391
 20
5075.5059729318
 10
6683.3150571178
 20
5077.8664204031
 10
6683.0357691182
 20
5079.7770644647
 10
6682.9317384804
 20
5081.8011882902
 10
6683.0228885065
 20
5083.7722510981
 10
6683.3016712854
 20
5085.7444909534
 10
6683.718692594
 20
5087.5630272409
 10
6684.2475400925
 20
5089.2868247464
 10
6684.9122780835
 20
5091.0478012358
 10
6685.600588537
 20
5092.6141798038
 10
6686.2801676726
 20
5094.0020147978
 10
6686.8386767407
 20
5095.0599342355
 10
6687.1592453897
 20
5095.6407520811
 10
6687.2686788283
 20
5095.8351642779
  0
ARC
  5
131
330
1F
100
AcDbEntity
  8
0
  6
Continuous
 62
     7
370
    25
100
AcDbCircle
 10
6613.0399651416
 20
5134.1408093833
 30
0.0
 40
24.76343902684008
100
AcDbArc
 50
357.1420728552
 51
2.8933048533
  0
LINE
  5
132
330
1F
100
AcDbEntity
  8
0
  6
Continuous
 62
     7
370
    25
100
AcDbLine
 10
6687.2718372784
 20
5137.1407746012
 30
0.0
 11
6637.7718372784
 21
5137.1407746012
 31
0.0
  0
LINE
  5
133
330
1F
100
AcDbEntity
  8
0
  6
Continuous
 62
     7
370
    25
100
AcDbLine
 10
6637.7718372784
 20
4988.5407746012
 30
0.0
 11
6687.2718372784
 21
4988.5407746012
 31
0.0
  0
LINE
  5
134
330
1F
100
AcDbEntity
  8
0
  6
Continuous
 62
     7
370
    25
100
AcDbLine
 10
6692.5218372784
 20
4986.4011015348
 30
0.0
 11
6632.5218372784
 21
4986.4011015348
 31
0.0
  0
LINE
  5
135
330
1F
100
AcDbEntity
  8
0
  6
Continuous
 62
     7
370
    25
100
AcDbLine
 10
6633.0048001915
 20
4987.2376178385
 30
0.0
 11
6692.0388743652
 21
4987.2376178385
 31
0.0
  0
LINE
  5
136
330
1F
100
AcDbEntity
  8
0
  6
Continuous
 62
     7
370
    25
100
AcDbLine
 10
6661.3789661455
 20
4984.3407746012
 30
0.0
 11
6632.5218372784
 21
4984.3407746012
 31
0.0
  0
LINE
  5
137
330
1F
100
AcDbEntity
  8
0
  6
Continuous
 62
     7
370
    25
100
AcDbLine
 10
6692.5218372784
 20
4984.3407746012
 30
0.0
 11
6661.3789661455
 21
4984.3407746012
 31
0.0
  0
LINE
  5
138
330
1F
100
AcDbEntity
  8
0
  6
Continuous
 62
     7
370
    25
100
AcDbLine
 10
6661.5542063859
 20
4988.3407746012
 30
0.0
 11
6637.1218372784
 21
4988.3407746012
 31
0.0
  0
LINE
  5
139
330
1F
100
AcDbEntity
  8
0
  6
Continuous
 62
     7
370
    25
100
AcDbLine
 10
6687.9218372784
 20
4988.3407746012
 30
0.0
 11
6661.5542063859
 21
4988.3407746012
 31
0.0
  0
LINE
  5
13A
330
1F
100
AcDbEntity
  8
0
  6
Continuous
 62
     7
370
    25
100
AcDbLine
 10
6420.620132569
 20
4768.502990187
 30
0.0
 11
6420.620132569
 21
4704.8783992738
 31
0.0
  0
LINE
  5
13B
330
1F
100
AcDbEntity
  8
0
  6
Continuous
 62
     7
370
    25
100
AcDbLine
 10
6448.520132569
 20
4704.8783992738
 30
0.0
 11
6448.520132569
 21
4768.502990187
 31
0.0
  0
ARC
  5
13C
330
1F
100
AcDbEntity
  8
0
  6
Continuous
 62
     7
370
    25
100
AcDbCircle
 10
6433.8182250223
 20
4790.1996724572
 30
0.0
 40
0.6676186886570576
100
AcDbArc
 50
180.0
 51
0.0
  0
LINE
  5
13D
330
1F
100
AcDbEntity
  8
0
  6
Continuous
 62
     7
370
    25
100
AcDbLine
 10
6434.485843711
 20
4793.1407039918
 30
0.0
 11
6434.485843711
 21
4790.1996724572
 31
0.0
  0
ARC
  5
13E
330
1F
100
AcDbEntity
  8
0
  6
Continuous
 62
     7
370
    25
100
AcDbCircle
 10
6434.7259538273
 20
4793.1407039918
 30
0.0
 40
0.2401101162877239
100
AcDbArc
 50
90.0
 51
180.0
  0
LINE
  5
13F
330
1F
100
AcDbEntity
  8
0
  6
Continuous
 62
     7
370
    25
100
AcDbLine
 10
6435.3503670062
 20
4793.3808141081
 30
0.0
 11
6434.7259538273
 21
4793.3808141081
 31
0.0
  0
ARC
  5
140
330
1F
100
AcDbEntity
  8
0
  6
Continuous
 62
     7
370
    25
100
AcDbCircle
 10
6435.3503670062
 20
4793.1407039918
 30
0.0
 40
0.2401101162877239
100
AcDbArc
 50
0.0
 51
90.0
  0
LINE
  5
141
330
1F
100
AcDbEntity
  8
0
  6
Continuous
 62
     7
370
    25
100
AcDbLine
 10
6435.5904771224
 20
4790.1996724572
 30
0.0
 11
6435.5904771224
 21
4793.1407039918
 31
0.0
  0
ARC
  5
142
330
1F
100
AcDbEntity
  8
0
  6
Continuous
 62
     7
370
    25
100
AcDbCircle
 10
6436.2580958111
 20
4790.1996724572
 30
0.0
 40
0.6676186886570576
100
AcDbArc
 50
180.0
 51
0.0
  0
LINE
  5
143
330
1F
100
AcDbEntity
  8
0
  6
Continuous
 62
     7
370
    25
100
AcDbLine
 10
6436.9257144998
 20
4792.6315497566
 30
0.0
 11
6436.9257144998
 21
4790.1996724572
 31
0.0
  0
ARC
  5
144
330
1F
100
AcDbEntity
  8
0
  6
Continuous
 62
     7
370
    25
100
AcDbCircle
 10
6437.165824616
 20
4792.6315497566
 30
0.0
 40
0.2401101162877239
100
AcDbArc
 50
90.0
 51
180.0
  0
LINE
  5
145
330
1F
100
AcDbEntity
  8
0
  6
Continuous
 62
     7
370
    25
100
AcDbLine
 10
6437.9129441579
 20
4792.8716598729
 30
0.0
 11
6437.165824616
 21
4792.8716598729
 31
0.0
  0
ARC
  5
146
330
1F
100
AcDbEntity
  8
0
  6
Continuous
 62
     7
370
    25
100
AcDbCircle
 10
6437.9129441579
 20
4792.6315497566
 30
0.0
 40
0.2401101162877239
100
AcDbArc
 50
0.0
 51
90.0
  0
LINE
  5
147
330
1F
100
AcDbEntity
  8
0
  6
Continuous
 62
     7
370
    25
100
AcDbLine
 10
6438.1530542742
 20
4790.1996724572
 30
0.0
 11
6438.1530542742
 21
4792.6315497566
 31
0.0
  0
ARC
  5
148
330
1F
100
AcDbEntity
  8
0
  6
Continuous
 62
     7
370
    25
100
AcDbCircle
 10
6438.8206729629
 20
4790.1996724572
 30
0.0
 40
0.6676186886570576
100
AcDbArc
 50
180.0
 51
0.0
  0
LINE
  5
149
330
1F
100
AcDbEntity
  8
0
  6
Continuous
 62
     7
370
    25
100
AcDbLine
 10
6439.4882916515
 20
4791.7151994479
 30
0.0
 11
6439.4882916515
 21
4790.1996724572
 31
0.0
  0
ARC
  5
14A
330
1F
100
AcDbEntity
  8
0
  6
Continuous
 62
     7
370
    25
100
AcDbCircle
 10
6439.7284017678
 20
4791.7151994479
 30
0.0
 40
0.2401101162877239
100
AcDbArc
 50
90.0
 51
180.0
  0
LINE
  5
14B
330
1F
100
AcDbEntity
  8
0
  6
Continuous
 62
     7
370
    25
100
AcDbLine
 10
6440.3904294924
 20
4791.9553095642
 30
0.0
 11
6439.7284017678
 21
4791.9553095642
 31
0.0
  0
ARC
  5
14C
330
1F
100
AcDbEntity
  8
0
  6
Continuous
 62
     7
370
    25
100
AcDbCircle
 10
6440.3904294924
 20
4791.7151994479
 30
0.0
 40
0.2401101162877239
100
AcDbArc
 50
0.0
 51
90.0
  0
LINE
  5
14D
330
1F
100
AcDbEntity
  8
0
  6
Continuous
 62
     7
370
    25
100
AcDbLine
 10
6440.6305396087
 20
4783.8320371671
 30
0.0
 11
6440.6305396087
 21
4791.7151994479
 31
0.0
  0
ARC
  5
14E
330
1F
100
AcDbEntity
  8
0
  6
Continuous
 62
     7
370
    25
100
AcDbCircle
 10
6437.104539058
 20
4783.8320371671
 30
0.0
 40
3.526000550637946
100
AcDbArc
 50
270.0
 51
0.0
  0
LINE
  5
14F
330
1F
100
AcDbEntity
  8
0
  6
Continuous
 62
     7
370
    25
100
AcDbLine
 10
6434.737314651
 20
4780.3060366165
 30
0.0
 11
6437.104539058
 21
4780.3060366165
 31
0.0
  0
ARC
  5
150
330
1F
100
AcDbEntity
  8
0
  6
Continuous
 62
     7
370
    25
100
AcDbCircle
 10
6434.737314651
 20
4785.5989669442
 30
0.0
 40
5.292930327734211
100
AcDbArc
 50
180.0
 51
270.0
  0
LINE
  5
151
330
1F
100
AcDbEntity
  8
0
  6
Continuous
 62
     7
370
    25
100
AcDbLine
 10
6429.4443843233
 20
4790.0450747063
 30
0.0
 11
6429.4443843233
 21
4785.5989669442
 31
0.0
  0
ARC
  5
152
330
1F
100
AcDbEntity
  8
0
  6
Continuous
 62
     7
370
    25
100
AcDbCircle
 10
6429.10107028
 20
4788.5444323436
 30
0.0
 40
1.53941288587157
100
AcDbArc
 50
0.0
 51
77.1137478469
  0
LINE
  5
153
330
1F
100
AcDbEntity
  8
0
  6
Continuous
 62
     7
370
    25
100
AcDbLine
 10
6430.6404831659
 20
4786.5900114615
 30
0.0
 11
6430.6404831659
 21
4788.5444323436
 31
0.0
  0
ARC
  5
154
330
1F
100
AcDbEntity
  8
0
  6
Continuous
 62
     7
370
    25
100
AcDbCircle
 10
6431.3081018545
 20
4786.5900114615
 30
0.0
 40
0.6676186886570576
100
AcDbArc
 50
180.0
 51
0.0
  0
LINE
  5
155
330
1F
100
AcDbEntity
  8
0
  6
Continuous
 62
     7
370
    25
100
AcDbLine
 10
6433.1506063337
 20
4790.1996724572
 30
0.0
 11
6433.1506063337
 21
4797.8705127313
 31
0.0
  0
ARC
  5
156
330
1F
100
AcDbEntity
  8
0
  6
Continuous
 62
     7
370
    25
100
AcDbCircle
 10
6432.5631634384
 20
4797.8705127313
 30
0.0
 40
0.5874428952447488
100
AcDbArc
 50
0.0
 51
180.0
  0
LINE
  5
157
330
1F
100
AcDbEntity
  8
0
  6
Continuous
 62
     7
370
    25
100
AcDbLine
 10
6431.9757205432
 20
4797.8705127313
 30
0.0
 11
6431.9757205432
 21
4786.5900114615
 31
0.0
  0
CIRCLE
  5
158
330
1F
100
AcDbEntity
  8
0
  6
Continuous
 62
     7
370
    25
100
AcDbCircle
 10
6434.570132569
 20
4789.1283992738
 30
0.0
 40
12.50000000000091
  0
LINE
  5
159
330
1F
100
AcDbEntity
  8
0
  6
Continuous
 62
     7
370
    25
100
AcDbLine
 10
6434.1802063337
 20
4794.3247930868
 30
0.0
 11
6434.1802063337
 21
4797.8705127313
 31
0.0
  0
ARC
  5
15A
330
1F
100
AcDbEntity
  8
0
  6
Continuous
 62
     7
370
    25
100
AcDbCircle
 10
6429.10107028
 20
4788.5444323436
 30
0.0
 40
2.569012885870544
100
AcDbArc
 50
44.0944057145
 51
105.4941474424
  0
LINE
  5
15B
330
1F
100
AcDbEntity
  8
0
  6
Continuous
 62
     7
370
    25
100
AcDbLine
 10
6428.4147843233
 20
4791.0200815096
 30
0.0
 11
6428.4147843233
 21
4785.5989669442
 31
0.0
  0
ARC
  5
15C
330
1F
100
AcDbEntity
  8
0
  6
Continuous
 62
     7
370
    25
100
AcDbCircle
 10
6434.737314651
 20
4785.5989669442
 30
0.0
 40
6.322530327734057
100
AcDbArc
 50
180.0
 51
270.0
  0
LINE
  5
15D
330
1F
100
AcDbEntity
  8
0
  6
Continuous
 62
     7
370
    25
100
AcDbLine
 10
6434.737314651
 20
4779.2764366165
 30
0.0
 11
6437.104539058
 21
4779.2764366165
 31
0.0
  0
ARC
  5
15E
330
1F
100
AcDbEntity
  8
0
  6
Continuous
 62
     7
370
    25
100
AcDbCircle
 10
6437.104539058
 20
4783.8320371671
 30
0.0
 40
4.555600550637791
100
AcDbArc
 50
270.0
 51
0.0
  0
LINE
  5
15F
330
1F
100
AcDbEntity
  8
0
  6
Continuous
 62
     7
370
    25
100
AcDbLine
 10
6441.6601396087
 20
4783.8320371671
 30
0.0
 11
6441.6601396087
 21
4791.6688076954
 31
0.0
  0
ARC
  5
160
330
1F
100
AcDbEntity
  8
0
  6
Continuous
 62
     7
370
    25
100
AcDbCircle
 10
6440.3065283624
 20
4791.6688076954
 30
0.0
 40
1.353611246209766
100
AcDbArc
 50
0.0
 51
90.0
  0
LINE
  5
161
330
1F
100
AcDbEntity
  8
0
  6
Continuous
 62
     7
370
    25
100
AcDbLine
 10
6440.3065283624
 20
4793.0224189416
 30
0.0
 11
6439.8123028978
 21
4793.0224189416
 31
0.0
  0
ARC
  5
162
330
1F
100
AcDbEntity
  8
0
  6
Continuous
 62
     7
370
    25
100
AcDbCircle
 10
6439.8123028978
 20
4791.6688076954
 30
0.0
 40
1.353611246210064
100
AcDbArc
 50
90.0
 51
118.7365577358
  0
ARC
  5
163
330
1F
100
AcDbEntity
  8
0
  6
Continuous
 62
     7
370
    25
100
AcDbCircle
 10
6437.829043028
 20
4792.6173876188
 30
0.0
 40
1.353611246208857
100
AcDbArc
 50
10.1404867648
 51
90.0
  0
LINE
  5
164
330
1F
100
AcDbEntity
  8
0
  6
Continuous
 62
     7
370
    25
100
AcDbLine
 10
6437.829043028
 20
4793.9709988651
 30
0.0
 11
6437.249725746
 21
4793.9709988651
 31
0.0
  0
ARC
  5
165
330
1F
100
AcDbEntity
  8
0
  6
Continuous
 62
     7
370
    25
100
AcDbCircle
 10
6437.249725746
 20
4792.6173876188
 30
0.0
 40
1.353611246208857
100
AcDbArc
 50
90.0
 51
124.7440022271
  0
ARC
  5
166
330
1F
100
AcDbEntity
  8
0
  6
Continuous
 62
     7
370
    25
100
AcDbCircle
 10
6435.2664658762
 20
4793.126541854
 30
0.0
 40
1.353611246208857
100
AcDbArc
 50
26.4592691593
 51
90.0
  0
LINE
  5
167
330
1F
100
AcDbEntity
  8
0
  6
Continuous
 62
     7
370
    25
100
AcDbLine
 10
6435.2664658762
 20
4794.4801531002
 30
0.0
 11
6434.8098549572
 21
4794.4801531002
 31
0.0
  0
ARC
  5
168
330
1F
100
AcDbEntity
  8
0
  6
Continuous
 62
     7
370
    25
100
AcDbCircle
 10
6434.8098549572
 20
4793.126541854
 30
0.0
 40
1.353611246209766
100
AcDbArc
 50
90.0
 51
117.7207121261
  0
LINE
  5
169
330
1F
100
AcDbEntity
  8
0
  6
Continuous
 62
     7
370
    25
100
AcDbLine
 10
6430.9461205432
 20
4797.8705127313
 30
0.0
 11
6430.9461205432
 21
4790.3320611457
 31
0.0
  0
ARC
  5
16A
330
1F
100
AcDbEntity
  8
0
  6
Continuous
 62
     7
370
    25
100
AcDbCircle
 10
6432.5631634384
 20
4797.8705127313
 30
0.0
 40
1.617042895244595
100
AcDbArc
 50
0.0
 51
180.0
  0
CIRCLE
  5
16B
330
1F
100
AcDbEntity
  8
0
  6
Continuous
 62
     7
370
    25
100
AcDbCircle
 10
6434.570132569
 20
4789.1283992738
 30
0.0
 40
14.00000000000091
  0
CIRCLE
  5
16C
330
1F
100
AcDbEntity
  8
0
  6
Continuous
 62
     7
370
    25
100
AcDbCircle
 10
6434.570132569
 20
4789.1283992738
 30
0.0
 40
23.90000000000055
  0
CIRCLE
  5
16D
330
1F
100
AcDbEntity
  8
0
  6
Continuous
 62
     7
370
    25
100
AcDbCircle
 10
6434.570132569
 20
4789.1283992738
 30
0.0
 40
24.90000000000055
  0
LINE
  5
16E
330
1F
100
AcDbEntity
  8
0
  6
Continuous
 62
     7
370
    25
100
AcDbLine
 10
6421.4537306234
 20
4700.1283992738
 30
0.0
 11
6447.6865345147
 21
4700.1283992738
 31
0.0
  0
ARC
  5
16F
330
1F
100
AcDbEntity
  8
0
  6
Continuous
 62
     7
370
    25
100
AcDbCircle
 10
6434.570132569
 20
4704.8783992738
 30
0.0
 40
13.94999999999982
100
AcDbArc
 50
180.0
 51
199.9074488975
  0
ARC
  5
170
330
1F
100
AcDbEntity
  8
0
  6
Continuous
 62
     7
370
    25
100
AcDbCircle
 10
6434.570132569
 20
4704.8783992738
 30
0.0
 40
13.95000000000073
100
AcDbArc
 50
340.0925511025
 51
0.0
  0
LINE
  5
171
330
1F
100
AcDbEntity
  8
0
  6
Continuous
 62
     7
370
    25
100
AcDbLine
 10
6422.9666848055
 20
4699.1283992738
 30
0.0
 11
6446.1735803325
 21
4699.1283992738
 31
0.0
  0
LINE
  5
172
330
1F
100
AcDbEntity
  8
0
  6
Continuous
 62
     7
370
    25
100
AcDbLine
 10
6422.9666848055
 20
4699.1283992738
 30
0.0
 11
6421.4537306234
 21
4700.1283992738
 31
0.0
  0
LINE
  5
173
330
1F
100
AcDbEntity
  8
0
  6
Continuous
 62
     7
370
    25
100
AcDbLine
 10
6447.6865345147
 20
4700.1283992738
 30
0.0
 11
6446.1735803325
 21
4699.1283992738
 31
0.0
  0
ARC
  5
174
330
1F
100
AcDbEntity
  8
0
  6
Continuous
 62
     7
370
    25
100
AcDbCircle
 10
6434.570132569
 20
4789.1283992738
 30
0.0
 40
25.39999999999985
100
AcDbArc
 50
303.3130106878
 51
177.8167486155
  0
ARC
  5
175
330
1F
100
AcDbEntity
  8
0
  6
Continuous
 62
     7
370
    25
100
AcDbCircle
 10
6434.570132569
 20
4789.1283992738
 30
0.0
 40
25.39999999999956
100
AcDbArc
 50
177.8167486155
 51
236.6869893122
  0
ARC
  5
176
330
1F
100
AcDbEntity
  8
0
  6
Continuous
 62
     7
370
    25
100
AcDbCircle
 10
6434.570132569
 20
4789.1283992738
 30
0.0
 40
29.51703708685621
100
AcDbArc
 50
357.8167486155
 51
241.7962522017
  0
ARC
  5
177
330
1F
100
AcDbEntity
  8
0
  6
Continuous
 62
     7
370
    25
100
AcDbCircle
 10
6434.570132569
 20
4789.1283992738
 30
0.0
 40
29.51703708685621
100
AcDbArc
 50
298.2037477983
 51
357.8167486155
  0
ARC
  5
178
330
1F
100
AcDbEntity
  8
0
  6
Continuous
 62
     7
370
    25
100
AcDbCircle
 10
6434.570132569
 20
4789.1283992738
 30
0.0
 40
30.00000000000033
100
AcDbArc
 50
297.7102220493
 51
357.8167486155
  0
ARC
  5
179
330
1F
100
AcDbEntity
  8
0
  6
Continuous
 62
     7
370
    25
100
AcDbCircle
 10
6434.570132569
 20
4789.1283992738
 30
0.0
 40
30.00000000000033
100
AcDbArc
 50
357.8167486155
 51
242.2897779507
  0
ENDSEC
  0
SECTION
  2
OBJECTS
  0
DICTIONARY
  5
C
330
0
100
AcDbDictionary
281
     1
  3
ACAD_GROUP
350
D
  3
ACAD_LAYOUT
350
1A
  3
ACAD_MLINESTYLE
350
17
  3
ACAD_PLOTSETTINGS
350
19
  3
ACAD_PLOTSTYLENAME
350
E
  3
ACAD_SCALELIST
350
47
  3
DWGPROPS
350
17A
  0
DICTIONARY
  5
D
102
{ACAD_REACTORS
330
C
102
}
330
C
100
AcDbDictionary
281
     1
  0
DICTIONARY
  5
1A
102
{ACAD_REACTORS
330
C
102
}
330
C
100
AcDbDictionary
281
     1
  3
Layout1
350
1E
  3
Layout2
350
26
  3
Model
350
22
  0
DICTIONARY
  5
17
102
{ACAD_REACTORS
330
C
102
}
330
C
100
AcDbDictionary
281
     1
  3
Standard
350
18
  0
DICTIONARY
  5
19
102
{ACAD_REACTORS
330
C
102
}
330
C
100
AcDbDictionary
281
     1
  0
ACDBDICTIONARYWDFLT
  5
E
102
{ACAD_REACTORS
330
C
102
}
330
C
100
AcDbDictionary
281
     1
  3
Normal
350
F
100
AcDbDictionaryWithDefault
340
F
  0
DICTIONARY
  5
47
102
{ACAD_REACTORS
330
C
102
}
330
C
100
AcDbDictionary
281
     1
  3
A0
350
48
  3
A1
350
49
  3
A2
350
4A
  3
A3
350
4B
  3
A4
350
4C
  3
A5
350
4D
  3
A6
350
4E
  3
A7
350
4F
  3
A8
350
50
  3
A9
350
51
  3
B0
350
52
  3
B1
350
53
  3
B2
350
54
  3
B3
350
55
  3
B4
350
56
  3
B5
350
57
  3
B6
350
58
  3
B7
350
59
  3
B8
350
5A
  3
B9
350
5B
  3
C0
350
5C
  3
C1
350
5D
  3
C2
350
5E
  3
C3
350
5F
  3
C4
350
60
  3
C5
350
61
  3
C6
350
62
  3
C7
350
63
  3
C8
350
64
  3
C9
350
65
  3
D0
350
66
  3
D1
350
67
  3
D2
350
68
  0
XRECORD
  5
17A
102
{ACAD_REACTORS
330
C
102
}
330
C
100
AcDbXrecord
280
     1
  1
DWGPROPS COOKIE
  2

  3

  4

  6

  7

  8
radek.stransky
  9

300
=
301
=
302
=
303
=
304
=
305
=
306
=
307
=
308
=
309
=
 40
0.0
 41
2459345.37665978
 42
2459345.376659954
  1

 90
        0
  0
LAYOUT
  5
1E
102
{ACAD_REACTORS
330
1A
102
}
330
1A
100
AcDbPlotSettings
  1

  2
none_device
  4

  6

 40
0.0
 41
0.0
 42
0.0
 43
0.0
 44
0.0
 45
0.0
 46
0.0
 47
0.0
 48
0.0
 49
0.0
140
0.0
141
0.0
142
1.0
143
1.0
 70
   688
 72
     1
 73
     0
 74
     5
  7

 75
    16
147
1.0
148
0.0
149
0.0
100
AcDbLayout
  1
Layout1
 70
     1
 71
     1
 10
0.0
 20
0.0
 11
420.0
 21
297.0
 12
0.0
 22
0.0
 32
0.0
 14
1.0000000000E+20
 24
1.0000000000E+20
 34
1.0000000000E+20
 15
-1.0000000000E+20
 25
-1.0000000000E+20
 35
-1.0000000000E+20
146
0.0
 13
0.0
 23
0.0
 33
0.0
 16
1.0
 26
0.0
 36
0.0
 17
0.0
 27
1.0
 37
0.0
 76
     0
330
1B
  0
LAYOUT
  5
26
102
{ACAD_REACTORS
330
1A
102
}
330
1A
100
AcDbPlotSettings
  1

  2
none_device
  4

  6

 40
0.0
 41
0.0
 42
0.0
 43
0.0
 44
0.0
 45
0.0
 46
0.0
 47
0.0
 48
0.0
 49
0.0
140
0.0
141
0.0
142
1.0
143
1.0
 70
   688
 72
     1
 73
     0
 74
     5
  7

 75
    16
147
1.0
148
0.0
149
0.0
100
AcDbLayout
  1
Layout2
 70
     1
 71
     2
 10
0.0
 20
0.0
 11
0.0
 21
0.0
 12
0.0
 22
0.0
 32
0.0
 14
0.0
 24
0.0
 34
0.0
 15
0.0
 25
0.0
 35
0.0
146
0.0
 13
0.0
 23
0.0
 33
0.0
 16
1.0
 26
0.0
 36
0.0
 17
0.0
 27
1.0
 37
0.0
 76
     0
330
23
  0
LAYOUT
  5
22
102
{ACAD_REACTORS
330
1A
102
}
330
1A
100
AcDbPlotSettings
  1

  2
none_device
  4
Letter_(8.50_x_11.00_Inches)
  6

 40
6.35
 41
6.35
 42
6.35000508
 43
6.35000508
 44
215.9
 45
279.4
 46
0.0
 47
0.0
 48
0.0
 49
0.0
140
0.0
141
0.0
142
1.0
143
1.0
 70
  1712
 72
     1
 73
     0
 74
     0
  7

 75
     0
147
1.0
148
0.0
149
0.0
100
AcDbLayout
  1
Model
 70
     1
 71
     0
 10
0.0
 20
0.0
 11
20000.0
 21
10000.0
 12
0.0
 22
0.0
 32
0.0
 14
0.0
 24
0.0
 34
0.0
 15
20000.0
 25
10000.0
 35
0.0
146
0.0
 13
0.0
 23
0.0
 33
0.0
 16
1.0
 26
0.0
 36
0.0
 17
0.0
 27
1.0
 37
0.0
 76
     0
330
1F
331
29
  0
MLINESTYLE
  5
18
102
{ACAD_REACTORS
330
17
102
}
330
17
100
AcDbMlineStyle
  2
Standard
 70
     0
  3

 62
   256
 51
90.0
 52
90.0
 71
     2
 49
0.5
 62
   256
  6
BYLAYER
 49
-0.5
 62
   256
  6
BYLAYER
  0
ACDBPLACEHOLDER
  5
F
102
{ACAD_REACTORS
330
E
102
}
330
E
  0
SCALE
  5
48
102
{ACAD_REACTORS
330
47
102
}
330
47
100
AcDbScale
 70
     0
300
1:1
140
1.0
141
1.0
290
     1
  0
SCALE
  5
49
102
{ACAD_REACTORS
330
47
102
}
330
47
100
AcDbScale
 70
     0
300
1:2
140
1.0
141
2.0
290
     0
  0
SCALE
  5
4A
102
{ACAD_REACTORS
330
47
102
}
330
47
100
AcDbScale
 70
     0
300
1:4
140
1.0
141
4.0
290
     0
  0
SCALE
  5
4B
102
{ACAD_REACTORS
330
47
102
}
330
47
100
AcDbScale
 70
     0
300
1:5
140
1.0
141
5.0
290
     0
  0
SCALE
  5
4C
102
{ACAD_REACTORS
330
47
102
}
330
47
100
AcDbScale
 70
     0
300
1:8
140
1.0
141
8.0
290
     0
  0
SCALE
  5
4D
102
{ACAD_REACTORS
330
47
102
}
330
47
100
AcDbScale
 70
     0
300
1:10
140
1.0
141
10.0
290
     0
  0
SCALE
  5
4E
102
{ACAD_REACTORS
330
47
102
}
330
47
100
AcDbScale
 70
     0
300
1:16
140
1.0
141
16.0
290
     0
  0
SCALE
  5
4F
102
{ACAD_REACTORS
330
47
102
}
330
47
100
AcDbScale
 70
     0
300
1:20
140
1.0
141
20.0
290
     0
  0
SCALE
  5
50
102
{ACAD_REACTORS
330
47
102
}
330
47
100
AcDbScale
 70
     0
300
1:30
140
1.0
141
30.0
290
     0
  0
SCALE
  5
51
102
{ACAD_REACTORS
330
47
102
}
330
47
100
AcDbScale
 70
     0
300
1:40
140
1.0
141
40.0
290
     0
  0
SCALE
  5
52
102
{ACAD_REACTORS
330
47
102
}
330
47
100
AcDbScale
 70
     0
300
1:50
140
1.0
141
50.0
290
     0
  0
SCALE
  5
53
102
{ACAD_REACTORS
330
47
102
}
330
47
100
AcDbScale
 70
     0
300
1:100
140
1.0
141
100.0
290
     0
  0
SCALE
  5
54
102
{ACAD_REACTORS
330
47
102
}
330
47
100
AcDbScale
 70
     0
300
2:1
140
2.0
141
1.0
290
     0
  0
SCALE
  5
55
102
{ACAD_REACTORS
330
47
102
}
330
47
100
AcDbScale
 70
     0
300
4:1
140
4.0
141
1.0
290
     0
  0
SCALE
  5
56
102
{ACAD_REACTORS
330
47
102
}
330
47
100
AcDbScale
 70
     0
300
8:1
140
8.0
141
1.0
290
     0
  0
SCALE
  5
57
102
{ACAD_REACTORS
330
47
102
}
330
47
100
AcDbScale
 70
     0
300
10:1
140
10.0
141
1.0
290
     0
  0
SCALE
  5
58
102
{ACAD_REACTORS
330
47
102
}
330
47
100
AcDbScale
 70
     0
300
100:1
140
100.0
141
1.0
290
     0
  0
SCALE
  5
59
102
{ACAD_REACTORS
330
47
102
}
330
47
100
AcDbScale
 70
     0
300
1/128" = 1'-0"
140
0.0078125
141
12.0
290
     0
  0
SCALE
  5
5A
102
{ACAD_REACTORS
330
47
102
}
330
47
100
AcDbScale
 70
     0
300
1/64" = 1'-0"
140
0.015625
141
12.0
290
     0
  0
SCALE
  5
5B
102
{ACAD_REACTORS
330
47
102
}
330
47
100
AcDbScale
 70
     0
300
1/32" = 1'-0"
140
0.03125
141
12.0
290
     0
  0
SCALE
  5
5C
102
{ACAD_REACTORS
330
47
102
}
330
47
100
AcDbScale
 70
     0
300
1/16" = 1'-0"
140
0.0625
141
12.0
290
     0
  0
SCALE
  5
5D
102
{ACAD_REACTORS
330
47
102
}
330
47
100
AcDbScale
 70
     0
300
3/32" = 1'-0"
140
0.09375
141
12.0
290
     0
  0
SCALE
  5
5E
102
{ACAD_REACTORS
330
47
102
}
330
47
100
AcDbScale
 70
     0
300
1/8" = 1'-0"
140
0.125
141
12.0
290
     0
  0
SCALE
  5
5F
102
{ACAD_REACTORS
330
47
102
}
330
47
100
AcDbScale
 70
     0
300
3/16" = 1'-0"
140
0.1875
141
12.0
290
     0
  0
SCALE
  5
60
102
{ACAD_REACTORS
330
47
102
}
330
47
100
AcDbScale
 70
     0
300
1/4" = 1'-0"
140
0.25
141
12.0
290
     0
  0
SCALE
  5
61
102
{ACAD_REACTORS
330
47
102
}
330
47
100
AcDbScale
 70
     0
300
3/8" = 1'-0"
140
0.375
141
12.0
290
     0
  0
SCALE
  5
62
102
{ACAD_REACTORS
330
47
102
}
330
47
100
AcDbScale
 70
     0
300
1/2" = 1'-0"
140
0.5
141
12.0
290
     0
  0
SCALE
  5
63
102
{ACAD_REACTORS
330
47
102
}
330
47
100
AcDbScale
 70
     0
300
3/4" = 1'-0"
140
0.75
141
12.0
290
     0
  0
SCALE
  5
64
102
{ACAD_REACTORS
330
47
102
}
330
47
100
AcDbScale
 70
     0
300
1" = 1'-0"
140
1.0
141
12.0
290
     0
  0
SCALE
  5
65
102
{ACAD_REACTORS
330
47
102
}
330
47
100
AcDbScale
 70
     0
300
1-1/2" = 1'-0"
140
1.5
141
12.0
290
     0
  0
SCALE
  5
66
102
{ACAD_REACTORS
330
47
102
}
330
47
100
AcDbScale
 70
     0
300
3" = 1'-0"
140
3.0
141
12.0
290
     0
  0
SCALE
  5
67
102
{ACAD_REACTORS
330
47
102
}
330
47
100
AcDbScale
 70
     0
300
6" = 1'-0"
140
6.0
141
12.0
290
     0
  0
SCALE
  5
68
102
{ACAD_REACTORS
330
47
102
}
330
47
100
AcDbScale
 70
     0
300
1'-0" = 1'-0"
140
12.0
141
12.0
290
     0
  0
ENDSEC
  0
EOF
