  0
SECTION
  2
HEADER
  9
$ACADVER
  1
AC1015
  9
$ACADMAINTVER
 70
     6
  9
$DWGCODEPAGE
  3
ANSI_1250
  9
$INSBASE
 10
0.0
 20
0.0
 30
0.0
  9
$EXTMIN
 10
0.0
 20
0.0
 30
0.0
  9
$EXTMAX
 10
20000.0
 20
10000.0
 30
0.0
  9
$LIMMIN
 10
0.0
 20
0.0
  9
$LIMMAX
 10
20000.0
 20
10000.0
  9
$ORTHOMODE
 70
     0
  9
$REGENMODE
 70
     1
  9
$FILLMODE
 70
     1
  9
$QTEXTMODE
 70
     0
  9
$MIRRTEXT
 70
     1
  9
$LTSCALE
 40
1.0
  9
$ATTMODE
 70
     1
  9
$TEXTSIZE
 40
2.0
  9
$TRACEWID
 40
1.0
  9
$TEXTSTYLE
  7
STANDARD
  9
$CLAYER
  8
0
  9
$CELTYPE
  6
ByLayer
  9
$CECOLOR
 62
   256
  9
$CELTSCALE
 40
1.0
  9
$DISPSILH
 70
     0
  9
$DIMSCALE
 40
1.0
  9
$DIMASZ
 40
2.0
  9
$DIMEXO
 40
1.0
  9
$DIMDLI
 40
3.75
  9
$DIMRND
 40
0.0
  9
$DIMDLE
 40
0.0
  9
$DIMEXE
 40
1.0
  9
$DIMTP
 40
0.0
  9
$DIMTM
 40
0.0
  9
$DIMTXT
 40
2.0
  9
$DIMCEN
 40
2.5
  9
$DIMTSZ
 40
0.0
  9
$DIMTOL
 70
     0
  9
$DIMLIM
 70
     0
  9
$DIMTIH
 70
     1
  9
$DIMTOH
 70
     1
  9
$DIMSE1
 70
     0
  9
$DIMSE2
 70
     0
  9
$DIMTAD
 70
     1
  9
$DIMZIN
 70
     0
  9
$DIMBLK
  1

  9
$DIMASO
 70
     1
  9
$DIMSHO
 70
     1
  9
$DIMPOST
  1

  9
$DIMAPOST
  1

  9
$DIMALT
 70
     0
  9
$DIMALTD
 70
     3
  9
$DIMALTF
 40
0.0393700787
  9
$DIMLFAC
 40
1.0
  9
$DIMTOFL
 70
     1
  9
$DIMTVP
 40
0.0
  9
$DIMTIX
 70
     0
  9
$DIMSOXD
 70
     0
  9
$DIMSAH
 70
     0
  9
$DIMBLK1
  1

  9
$DIMBLK2
  1

  9
$DIMSTYLE
  2
ISO-25
  9
$DIMCLRD
 70
     0
  9
$DIMCLRE
 70
     0
  9
$DIMCLRT
 70
     0
  9
$DIMTFAC
 40
1.0
  9
$DIMGAP
 40
1.524
  9
$DIMJUST
 70
     0
  9
$DIMSD1
 70
     0
  9
$DIMSD2
 70
     0
  9
$DIMTOLJ
 70
     0
  9
$DIMTZIN
 70
     0
  9
$DIMALTZ
 70
     0
  9
$DIMALTTZ
 70
     0
  9
$DIMUPT
 70
     0
  9
$DIMDEC
 70
     2
  9
$DIMTDEC
 70
     0
  9
$DIMALTU
 70
     2
  9
$DIMALTTD
 70
     3
  9
$DIMTXSTY
  7
STANDARD
  9
$DIMAUNIT
 70
     0
  9
$DIMADEC
 70
     2
  9
$DIMALTRND
 40
0.0
  9
$DIMAZIN
 70
     0
  9
$DIMDSEP
 70
    44
  9
$DIMATFIT
 70
     3
  9
$DIMFRAC
 70
     0
  9
$DIMLDRBLK
  1

  9
$DIMLUNIT
 70
     2
  9
$DIMLWD
 70
    -2
  9
$DIMLWE
 70
    -2
  9
$DIMTMOVE
 70
     0
  9
$LUNITS
 70
     2
  9
$LUPREC
 70
     3
  9
$SKETCHINC
 40
1.0
  9
$FILLETRAD
 40
0.0
  9
$AUNITS
 70
     0
  9
$AUPREC
 70
     2
  9
$MENU
  1
.
  9
$ELEVATION
 40
0.0
  9
$PELEVATION
 40
0.0
  9
$THICKNESS
 40
0.0
  9
$LIMCHECK
 70
     0
  9
$CHAMFERA
 40
0.0
  9
$CHAMFERB
 40
0.0
  9
$CHAMFERC
 40
0.0
  9
$CHAMFERD
 40
0.0
  9
$SKPOLY
 70
     0
  9
$TDCREATE
 40
2460969.293517303
  9
$TDUCREATE
 40
2460969.21018397
  9
$TDUPDATE
 40
2460969.293519225
  9
$TDUUPDATE
 40
2460969.210185891
  9
$TDINDWG
 40
0.0000000116
  9
$TDUSRTIMER
 40
0.0000000116
  9
$USRTIMER
 70
     1
  9
$ANGBASE
 50
0.0
  9
$ANGDIR
 70
     0
  9
$PDMODE
 70
     0
  9
$PDSIZE
 40
-1.0
  9
$PLINEWID
 40
0.0
  9
$SPLFRAME
 70
     0
  9
$SPLINETYPE
 70
     6
  9
$SPLINESEGS
 70
     8
  9
$HANDSEED
  5
2D9
  9
$SURFTAB1
 70
     6
  9
$SURFTAB2
 70
     6
  9
$SURFTYPE
 70
     6
  9
$SURFU
 70
     6
  9
$SURFV
 70
     6
  9
$UCSBASE
  2

  9
$UCSNAME
  2

  9
$UCSORG
 10
0.0
 20
0.0
 30
0.0
  9
$UCSXDIR
 10
1.0
 20
0.0
 30
0.0
  9
$UCSYDIR
 10
0.0
 20
1.0
 30
0.0
  9
$UCSORTHOREF
  2

  9
$UCSORTHOVIEW
 70
     0
  9
$UCSORGTOP
 10
0.0
 20
0.0
 30
0.0
  9
$UCSORGBOTTOM
 10
0.0
 20
0.0
 30
0.0
  9
$UCSORGLEFT
 10
0.0
 20
0.0
 30
0.0
  9
$UCSORGRIGHT
 10
0.0
 20
0.0
 30
0.0
  9
$UCSORGFRONT
 10
0.0
 20
0.0
 30
0.0
  9
$UCSORGBACK
 10
0.0
 20
0.0
 30
0.0
  9
$PUCSBASE
  2

  9
$PUCSNAME
  2

  9
$PUCSORG
 10
0.0
 20
0.0
 30
0.0
  9
$PUCSXDIR
 10
1.0
 20
0.0
 30
0.0
  9
$PUCSYDIR
 10
0.0
 20
1.0
 30
0.0
  9
$PUCSORTHOREF
  2

  9
$PUCSORTHOVIEW
 70
     0
  9
$PUCSORGTOP
 10
0.0
 20
0.0
 30
0.0
  9
$PUCSORGBOTTOM
 10
0.0
 20
0.0
 30
0.0
  9
$PUCSORGLEFT
 10
0.0
 20
0.0
 30
0.0
  9
$PUCSORGRIGHT
 10
0.0
 20
0.0
 30
0.0
  9
$PUCSORGFRONT
 10
0.0
 20
0.0
 30
0.0
  9
$PUCSORGBACK
 10
0.0
 20
0.0
 30
0.0
  9
$USERI1
 70
     0
  9
$USERI2
 70
     0
  9
$USERI3
 70
     0
  9
$USERI4
 70
     0
  9
$USERI5
 70
     0
  9
$USERR1
 40
0.0
  9
$USERR2
 40
0.0
  9
$USERR3
 40
0.0
  9
$USERR4
 40
0.0
  9
$USERR5
 40
0.0
  9
$WORLDVIEW
 70
     1
  9
$SHADEDGE
 70
     3
  9
$SHADEDIF
 70
    70
  9
$TILEMODE
 70
     1
  9
$MAXACTVP
 70
    64
  9
$PINSBASE
 10
0.0
 20
0.0
 30
0.0
  9
$PLIMCHECK
 70
     0
  9
$PEXTMIN
 10
1.0000000000E+20
 20
1.0000000000E+20
 30
1.0000000000E+20
  9
$PEXTMAX
 10
-1.0000000000E+20
 20
-1.0000000000E+20
 30
-1.0000000000E+20
  9
$PLIMMIN
 10
0.0
 20
0.0
  9
$PLIMMAX
 10
420.0
 20
297.0
  9
$UNITMODE
 70
     0
  9
$VISRETAIN
 70
     1
  9
$PLINEGEN
 70
     0
  9
$PSLTSCALE
 70
     1
  9
$TREEDEPTH
 70
  3020
  9
$CMLSTYLE
  2
Standard
  9
$CMLJUST
 70
     0
  9
$CMLSCALE
 40
20.0
  9
$PROXYGRAPHICS
 70
     1
  9
$MEASUREMENT
 70
     1
  9
$CELWEIGHT
370
    -1
  9
$ENDCAPS
280
     0
  9
$JOINSTYLE
280
     0
  9
$LWDISPLAY
290
     1
  9
$INSUNITS
 70
     4
  9
$HYPERLINKBASE
  1

  9
$STYLESHEET
  1

  9
$XEDIT
290
     1
  9
$CEPSNTYPE
380
     0
  9
$PSTYLEMODE
290
     1
  9
$FINGERPRINTGUID
  2
{bf79279a-926b-4e94-ac24-85100a14fd6a}
  9
$VERSIONGUID
  2
{FAEB1C32-E019-11D5-929B-00C0DF256EC4}
  9
$EXTNAMES
290
     1
  9
$PSVPSCALE
 40
0.0
  9
$OLESTARTUP
290
     0
  0
ENDSEC
  0
SECTION
  2
CLASSES
  0
CLASS
  1
ACDBDICTIONARYWDFLT
  2
AcDbDictionaryWithDefault
  3
ObjectDBX Classes
 90
        0
280
     0
281
     0
  0
CLASS
  1
VISUALSTYLE
  2
AcDbVisualStyle
  3
ObjectDBX Classes
 90
     4095
280
     0
281
     0
  0
CLASS
  1
MATERIAL
  2
AcDbMaterial
  3
ObjectDBX Classes
 90
     1153
280
     0
281
     0
  0
CLASS
  1
SCALE
  2
AcDbScale
  3
ObjectDBX Classes
 90
     1153
280
     0
281
     0
  0
CLASS
  1
TABLESTYLE
  2
AcDbTableStyle
  3
ObjectDBX Classes
 90
     4095
280
     0
281
     0
  0
CLASS
  1
MLEADERSTYLE
  2
AcDbMLeaderStyle
  3
ACDB_MLEADERSTYLE_CLASS
 90
     4095
280
     0
281
     0
  0
CLASS
  1
SUN
  2
AcDbSun
  3
SCENEOE
 90
     1153
280
     0
281
     0
  0
CLASS
  1
ACDBPLACEHOLDER
  2
AcDbPlaceHolder
  3
ObjectDBX Classes
 90
        0
280
     0
281
     0
  0
CLASS
  1
LAYOUT
  2
AcDbLayout
  3
ObjectDBX Classes
 90
        0
280
     0
281
     0
  0
ENDSEC
  0
SECTION
  2
TABLES
  0
TABLE
  2
VPORT
  5
8
330
0
100
AcDbSymbolTable
 70
     1
  0
VPORT
  5
29
330
8
100
AcDbSymbolTableRecord
100
AcDbViewportTableRecord
  2
*Active
 70
     0
 10
0.0
 20
0.0
 11
1.0
 21
1.0
 12
10000.0
 22
5000.0
 13
0.0
 23
0.0
 14
10.0
 24
10.0
 15
10.0
 25
10.0
 16
0.0
 26
0.0
 36
1.0
 17
0.0
 27
0.0
 37
0.0
 40
10000.0
 41
2.0
 42
50.0
 43
0.0
 44
0.0
 50
0.0
 51
0.0
 71
     0
 72
  2000
 73
     1
 74
     3
 75
     0
 76
     0
 77
     0
 78
     0
281
     0
 65
     1
110
0.0
120
0.0
130
0.0
111
1.0
121
0.0
131
0.0
112
0.0
122
1.0
132
0.0
 79
     0
146
0.0
  0
ENDTAB
  0
TABLE
  2
LTYPE
  5
5
330
0
100
AcDbSymbolTable
 70
    10
  0
LTYPE
  5
14
330
5
100
AcDbSymbolTableRecord
100
AcDbLinetypeTableRecord
  2
ByBlock
 70
     0
  3

 72
    65
 73
     0
 40
0.0
  0
LTYPE
  5
15
330
5
100
AcDbSymbolTableRecord
100
AcDbLinetypeTableRecord
  2
ByLayer
 70
     0
  3

 72
    65
 73
     0
 40
0.0
  0
LTYPE
  5
16
330
5
100
AcDbSymbolTableRecord
100
AcDbLinetypeTableRecord
  2
Continuous
 70
     0
  3
Solid line
 72
    65
 73
     0
 40
0.0
  0
LTYPE
  5
5E
330
5
100
AcDbSymbolTableRecord
100
AcDbLinetypeTableRecord
  2
SLD-Plná
 70
     0
  3
SolidWorks Line Style
 72
    65
 73
     0
 40
0.0
  0
LTYPE
  5
5F
330
5
100
AcDbSymbolTableRecord
100
AcDbLinetypeTableRecord
  2
SLD-Čárkovaná
 70
     0
  3
SolidWorks Line Style
 72
    65
 73
     2
 40
1.905
 49
1.27
 74
     0
 49
-0.635
 74
     0
  0
LTYPE
  5
60
330
5
100
AcDbSymbolTableRecord
100
AcDbLinetypeTableRecord
  2
SLD-Dvojitě-čerchovaná
 70
     0
  3
SolidWorks Line Style
 72
    65
 73
     6
 40
12.7
 49
6.35
 74
     0
 49
-1.27
 74
     0
 49
1.27
 74
     0
 49
-1.27
 74
     0
 49
1.27
 74
     0
 49
-1.27
 74
     0
  0
LTYPE
  5
61
330
5
100
AcDbSymbolTableRecord
100
AcDbLinetypeTableRecord
  2
SLD-Čerchovaná
 70
     0
  3
SolidWorks Line Style
 72
    65
 73
     4
 40
10.16
 49
6.35
 74
     0
 49
-1.27
 74
     0
 49
1.27
 74
     0
 49
-1.27
 74
     0
  0
LTYPE
  5
62
330
5
100
AcDbSymbolTableRecord
100
AcDbLinetypeTableRecord
  2
SLD-Osa
 70
     0
  3
SolidWorks Line Style
 72
    65
 73
     4
 40
19.05
 49
15.24
 74
     0
 49
-1.27
 74
     0
 49
1.27
 74
     0
 49
-1.27
 74
     0
  0
LTYPE
  5
63
330
5
100
AcDbSymbolTableRecord
100
AcDbLinetypeTableRecord
  2
SLD-Tečkovaná
 70
     0
  3
SolidWorks Line Style
 72
    65
 73
     2
 40
0.635
 49
0.0
 74
     0
 49
-0.635
 74
     0
  0
LTYPE
  5
64
330
5
100
AcDbSymbolTableRecord
100
AcDbLinetypeTableRecord
  2
SLD-Hrubá-tenká-čerchovaná
 70
     0
  3
SolidWorks Line Style
 72
    65
 73
     4
 40
10.16
 49
6.35
 74
     0
 49
-1.27
 74
     0
 49
1.27
 74
     0
 49
-1.27
 74
     0
  0
LTYPE
  5
65
330
5
100
AcDbSymbolTableRecord
100
AcDbLinetypeTableRecord
  2
SLD-Řez-1
 70
     0
  3
SolidWorks Line Style
 72
    65
 73
     4
 40
8.128
 49
5.08
 74
     0
 49
-1.016
 74
     0
 49
1.016
 74
     0
 49
-1.016
 74
     0
  0
LTYPE
  5
66
330
5
100
AcDbSymbolTableRecord
100
AcDbLinetypeTableRecord
  2
SLD-Řez-2
 70
     0
  3
SolidWorks Line Style
 72
    65
 73
     2
 40
5080.0
 49
0.0
 74
     0
 49
-5080.0
 74
     0
  0
ENDTAB
  0
TABLE
  2
LAYER
  5
2
330
0
100
AcDbSymbolTable
 70
    13
  0
LAYER
  5
10
330
2
100
AcDbSymbolTableRecord
100
AcDbLayerTableRecord
  2
0
 70
     0
 62
     7
  6
Continuous
370
    -3
390
F
  0
LAYER
  5
67
330
2
100
AcDbSymbolTableRecord
100
AcDbLayerTableRecord
  2
FORMAT
 70
     0
 62
     7
  6
SLD-Plná
370
    -3
390
F
  0
LAYER
  5
68
330
2
100
AcDbSymbolTableRecord
100
AcDbLayerTableRecord
  2
OSA
 70
     0
 62
     7
  6
SLD-Hrubá-tenká-čerchovaná
370
    -3
390
F
  0
LAYER
  5
69
330
2
100
AcDbSymbolTableRecord
100
AcDbLayerTableRecord
  2
0_35
 70
     0
 62
     7
  6
SLD-Plná
370
    35
390
F
  0
LAYER
  5
6A
330
2
100
AcDbSymbolTableRecord
100
AcDbLayerTableRecord
  2
0_5
 70
     0
 62
     7
  6
SLD-Plná
370
    50
390
F
  0
LAYER
  5
6B
330
2
100
AcDbSymbolTableRecord
100
AcDbLayerTableRecord
  2
0_25
 70
     0
 62
     7
  6
SLD-Plná
370
    25
390
F
  0
LAYER
  5
6C
330
2
100
AcDbSymbolTableRecord
100
AcDbLayerTableRecord
  2
0_18
 70
     0
 62
     7
  6
SLD-Plná
370
    -3
390
F
  0
LAYER
  5
6D
330
2
100
AcDbSymbolTableRecord
100
AcDbLayerTableRecord
  2
SLD-0
 70
     0
 62
   179
  6
SLD-Plná
370
    -3
390
F
  0
LAYER
  5
6E
330
2
100
AcDbSymbolTableRecord
100
AcDbLayerTableRecord
  2
KOTY
 70
     0
 62
     7
  6
SLD-Plná
370
    -3
390
F
  0
LAYER
  5
6F
330
2
100
AcDbSymbolTableRecord
100
AcDbLayerTableRecord
  2
SILNA
 70
     0
 62
   179
  6
SLD-Plná
370
    -3
390
F
  0
LAYER
  5
70
330
2
100
AcDbSymbolTableRecord
100
AcDbLayerTableRecord
  2
0_18_1
 70
     0
 62
   179
  6
SLD-Plná
370
    -3
390
F
  0
LAYER
  5
71
330
2
100
AcDbSymbolTableRecord
100
AcDbLayerTableRecord
  2
0_35_1
 70
     0
 62
   179
  6
SLD-Plná
370
    35
390
F
  0
LAYER
  5
72
330
2
100
AcDbSymbolTableRecord
100
AcDbLayerTableRecord
  2
0_5_1
 70
     0
 62
   179
  6
SLD-Plná
370
    50
390
F
  0
ENDTAB
  0
TABLE
  2
STYLE
  5
3
330
0
100
AcDbSymbolTable
 70
     1
  0
STYLE
  5
11
330
3
100
AcDbSymbolTableRecord
100
AcDbTextStyleTableRecord
  2
STANDARD
 70
     0
 40
0.0
 41
1.0
 50
0.0
 71
     0
 42
2.0
  3
SWISOP1.TTF
  4

1001
ACAD
1000
SWISOP1
1071
        2
  0
ENDTAB
  0
TABLE
  2
VIEW
  5
6
330
0
100
AcDbSymbolTable
 70
     0
  0
ENDTAB
  0
TABLE
  2
UCS
  5
7
330
0
100
AcDbSymbolTable
 70
     0
  0
ENDTAB
  0
TABLE
  2
APPID
  5
9
330
0
100
AcDbSymbolTable
 70
     1
  0
APPID
  5
12
330
9
100
AcDbSymbolTableRecord
100
AcDbRegAppTableRecord
  2
ACAD
 70
     0
  0
ENDTAB
  0
TABLE
  2
DIMSTYLE
  5
A
330
0
100
AcDbSymbolTable
 70
     1
100
AcDbDimStyleTable
  0
DIMSTYLE
105
27
330
A
100
AcDbSymbolTableRecord
100
AcDbDimStyleTableRecord
  2
ISO-25
 70
     0
 41
2.5
 42
0.625
 43
3.75
 44
1.25
 73
     0
 74
     0
 77
     1
 78
     8
140
2.5
141
2.5
143
0.0393700787
147
0.625
171
     3
172
     1
178
     0
271
     2
272
     2
274
     3
278
    44
283
     0
284
     8
340
11
  0
ENDTAB
  0
TABLE
  2
BLOCK_RECORD
  5
1
330
0
100
AcDbSymbolTable
 70
     1
  0
BLOCK_RECORD
  5
1F
330
1
100
AcDbSymbolTableRecord
100
AcDbBlockTableRecord
  2
*Model_Space
340
22
  0
BLOCK_RECORD
  5
1B
330
1
100
AcDbSymbolTableRecord
100
AcDbBlockTableRecord
  2
*Paper_Space
340
1E
  0
BLOCK_RECORD
  5
23
330
1
100
AcDbSymbolTableRecord
100
AcDbBlockTableRecord
  2
*Paper_Space0
340
26
  0
ENDTAB
  0
ENDSEC
  0
SECTION
  2
BLOCKS
  0
BLOCK
  5
20
330
1F
100
AcDbEntity
  8
0
100
AcDbBlockBegin
  2
*Model_Space
 70
     0
 10
0.0
 20
0.0
 30
0.0
  3
*Model_Space
  1

  0
ENDBLK
  5
21
330
1F
100
AcDbEntity
  8
0
100
AcDbBlockEnd
  0
BLOCK
  5
1C
330
1B
100
AcDbEntity
 67
     1
  8
0
100
AcDbBlockBegin
  2
*Paper_Space
 70
     0
 10
0.0
 20
0.0
 30
0.0
  3
*Paper_Space
  1

  0
ENDBLK
  5
1D
330
1B
100
AcDbEntity
 67
     1
  8
0
100
AcDbBlockEnd
  0
BLOCK
  5
24
330
23
100
AcDbEntity
  8
0
100
AcDbBlockBegin
  2
*Paper_Space0
 70
     0
 10
0.0
 20
0.0
 30
0.0
  3
*Paper_Space0
  1

  0
ENDBLK
  5
25
330
23
100
AcDbEntity
  8
0
100
AcDbBlockEnd
  0
ENDSEC
  0
SECTION
  2
ENTITIES
  0
SPLINE
  5
73
330
1F
100
AcDbEntity
  8
0
  6
SLD-Plná
 62
     7
370
    25
100
AcDbSpline
210
0.0
220
0.0
230
1.0
 70
     8
 71
     3
 72
     9
 73
     5
 74
     0
 42
0.00000001
 43
0.00000001
 40
0.0
 40
0.0
 40
0.0
 40
0.0
 40
0.5219097378699225
 40
1.0
 40
1.0
 40
1.0
 40
1.0
 10
8365.957658186679
 20
6410.40672472713
 30
0.0
 10
8365.913446412978
 20
6409.707000827035
 30
0.0
 10
8365.82873488052
 20
6408.366301757205
 30
0.0
 10
8365.90285235958
 20
6407.033023942193
 30
0.0
 10
8365.938287204572
 20
6406.39559680212
 30
0.0
  0
SPLINE
  5
74
330
1F
100
AcDbEntity
  8
0
  6
SLD-Plná
 62
     7
370
    25
100
AcDbSpline
210
0.0
220
0.0
230
1.0
 70
     8
 71
     3
 72
     9
 73
     5
 74
     0
 42
0.00000001
 43
0.00000001
 40
0.0
 40
0.0
 40
0.0
 40
0.0
 40
0.4780909637227315
 40
1.0
 40
1.0
 40
1.0
 40
1.0
 10
8662.658961901994
 20
6406.395594538
 30
0.0
 10
8662.694398417823
 20
6407.033036627431
 30
0.0
 10
8662.768519282923
 20
6408.366343754737
 30
0.0
 10
8662.683804115228
 20
6409.707072412536
 30
0.0
 10
8662.639590503697
 20
6410.406810814238
 30
0.0
  0
SPLINE
  5
75
330
1F
100
AcDbEntity
  8
0
  6
SLD-Plná
 62
     7
370
    25
100
AcDbSpline
210
0.0
220
0.0
230
1.0
 70
     8
 71
     3
 72
    15
 73
    11
 74
     0
 42
0.00000001
 43
0.00000001
 40
0.0
 40
0.0
 40
0.0
 40
0.0
 40
0.1205692576721099
 40
0.2470861637238098
 40
0.3735549211687778
 40
0.5000000000001085
 40
0.6264450788314398
 40
0.7529138362764071
 40
0.8794307423281115
 40
1.0
 40
1.0
 40
1.0
 40
1.0
 10
8619.77422075608
 20
6459.841549217053
 30
0.0
 10
8611.37315238409
 20
6461.261145838539
 30
0.0
 10
8594.156593243768
 20
6464.170367393107
 30
0.0
 10
8567.896643558586
 20
6467.058148093031
 30
0.0
 10
8541.126158874758
 20
6468.886027307555
 30
0.0
 10
8514.298627771572
 20
6469.48130628463
 30
0.0
 10
8487.471096668387
 20
6468.886027307556
 30
0.0
 10
8460.700611984557
 20
6467.058148093033
 30
0.0
 10
8434.44066229939
 20
6464.170367393115
 30
0.0
 10
8417.224103159086
 20
6461.261145838549
 30
0.0
 10
8408.82303478711
 20
6459.841549217066
 30
0.0
  0
LINE
  5
76
330
1F
100
AcDbEntity
  8
0
  6
SLD-Plná
 62
     7
370
    25
100
AcDbLine
 10
8656.4855216449
 20
6432.8781424302
 30
0.0
 11
8656.2638571081
 21
6433.268110161
 31
0.0
  0
SPLINE
  5
77
330
1F
100
AcDbEntity
  8
0
  6
SLD-Plná
 62
     7
370
    25
100
AcDbSpline
210
0.0
220
0.0
230
1.0
 70
     8
 71
     3
 72
    18
 73
    14
 74
     0
 42
0.00000001
 43
0.00000001
 40
0.0
 40
0.0
 40
0.0
 40
0.0
 40
0.0411282408221577
 40
0.1399192730001839
 40
0.2387099401044191
 40
0.3375016937945659
 40
0.4362959559404469
 40
0.5350940824891303
 40
0.6338973296670137
 40
0.73270682332155
 40
0.8315235322143332
 40
0.9303482458971805
 40
1.0
 40
1.0
 40
1.0
 40
1.0
 10
8653.537473805936
 20
6437.691725707124
 30
0.0
 10
8653.224639503362
 20
6438.164752965223
 30
0.0
 10
8652.16036961701
 20
6439.774003172367
 30
0.0
 10
8650.07325692565
 20
6442.327258555665
 30
0.0
 10
8647.301237839643
 20
6445.331606845582
 30
0.0
 10
8644.28997265404
 20
6448.101552223204
 30
0.0
 10
8641.0773728584
 20
6450.634302953079
 30
0.0
 10
8637.677118482401
 20
6452.911394847336
 30
0.0
 10
8634.110649761255
 20
6454.919634132373
 30
0.0
 10
8630.399195400514
 20
6456.649443545949
 30
0.0
 10
8626.562961546972
 20
6458.081005800571
 30
0.0
 10
8623.01856722861
 20
6459.127516898153
 30
0.0
 10
8620.737274700301
 20
6459.587590072533
 30
0.0
 10
8619.794139861906
 20
6459.777794105372
 30
0.0
  0
SPLINE
  5
78
330
1F
100
AcDbEntity
  8
0
  6
SLD-Plná
 62
     7
370
    25
100
AcDbSpline
210
0.0
220
0.0
230
1.0
 70
     8
 71
     3
 72
    18
 73
    14
 74
     0
 42
0.00000001
 43
0.00000001
 40
0.0
 40
0.0
 40
0.0
 40
0.0
 40
0.0463059212968366
 40
0.1469812235375135
 40
0.2476668091612871
 40
0.3483430799889777
 40
0.449010168401147
 40
0.5496684409649787
 40
0.6503184806648464
 40
0.7509610743785092
 40
0.8515971946887715
 40
0.9522279764110007
 40
1.0
 40
1.0
 40
1.0
 40
1.0
 10
8408.802126397242
 20
6459.782461731073
 30
0.0
 10
8408.186003178513
 20
6459.661434109109
 30
0.0
 10
8406.230345197793
 20
6459.277276155658
 30
0.0
 10
8402.98826152991
 20
6458.387749793501
 30
0.0
 10
8399.124386992413
 20
6457.027722966932
 30
0.0
 10
8395.379504665547
 20
6455.367574854416
 30
0.0
 10
8391.774548374942
 20
6453.426044882806
 30
0.0
 10
8388.330973038721
 20
6451.21255687141
 30
0.0
 10
8385.070356399186
 20
6448.739993523931
 30
0.0
 10
8382.007226188605
 20
6446.026264877593
 30
0.0
 10
8379.177676990565
 20
6443.074873862357
 30
0.0
 10
8376.994707786835
 20
6440.497546331653
 30
0.0
 10
8375.856648113404
 20
6438.841814114748
 30
0.0
 10
8375.490297804521
 20
6438.308820965748
 30
0.0
  0
SPLINE
  5
79
330
1F
100
AcDbEntity
  8
0
  6
SLD-Plná
 62
     7
370
    25
100
AcDbSpline
210
0.0
220
0.0
230
1.0
 70
     8
 71
     3
 72
     9
 73
     5
 74
     0
 42
0.00000001
 43
0.00000001
 40
0.0
 40
0.0
 40
0.0
 40
0.0
 40
0.7693765141758874
 40
1.0
 40
1.0
 40
1.0
 40
1.0
 10
8373.086191332904
 20
6434.583094010433
 30
0.0
 10
8372.765282091328
 20
6434.077235365357
 30
0.0
 10
8372.348179105125
 20
6433.419743700671
 30
0.0
 10
8372.01030288396
 20
6432.719232281552
 30
0.0
 10
8371.932380692058
 20
6432.557677896216
 30
0.0
  0
SPLINE
  5
7A
330
1F
100
AcDbEntity
  8
0
  6
SLD-Plná
 62
     7
370
    25
100
AcDbSpline
210
0.0
220
0.0
230
1.0
 70
     8
 71
     3
 72
    45
 73
    41
 74
     0
 42
0.00000001
 43
0.00000001
 40
0.0
 40
0.0
 40
0.0
 40
0.0
 40
0.0221079710703738
 40
0.052038730402778
 40
0.0897925531221108
 40
0.1324539412938658
 40
0.1820408180673469
 40
0.2385542761527689
 40
0.2610786640772279
 40
0.2795567060227248
 40
0.2980350822888684
 40
0.3165138017157461
 40
0.3349928715965861
 40
0.4273926252927772
 40
0.4394934000564871
 40
0.4515943294405905
 40
0.4636954123677191
 40
0.4757966474975316
 40
0.4878980332284225
 40
0.4999995676991281
 40
0.5155942388163806
 40
0.5351188318504866
 40
0.5610585409986677
 40
0.5934138797071834
 40
0.6303799592624141
 40
0.659844015673467
 40
0.6752218088719905
 40
0.6897668778803542
 40
0.7034791832439679
 40
0.7163586883592027
 40
0.7284053595486671
 40
0.7396191660763051
 40
0.7500000801132404
 40
0.7597619953255688
 40
0.7756629019938707
 40
0.7977030242774447
 40
0.825882638402723
 40
0.8730062144352242
 40
0.9310453866311007
 40
1.0
 40
1.0
 40
1.0
 40
1.0
 10
8619.853693652969
 20
6455.995162204784
 30
0.0
 10
8619.083366518185
 20
6456.1015171962
 30
0.0
 10
8617.270136079198
 20
6456.351860328443
 30
0.0
 10
8614.138352101132
 20
6456.765168023479
 30
0.0
 10
8610.286116852098
 20
6457.25019445556
 30
0.0
 10
8605.74251522909
 20
6457.787446677459
 30
0.0
 10
8600.536975142222
 20
6458.35839081179
 30
0.0
 10
8596.030186474993
 20
6458.80858117454
 30
0.0
 10
8592.610363356585
 20
6459.125570500137
 30
0.0
 10
8590.523468670646
 20
6459.311250933896
 30
0.0
 10
8588.577752035171
 20
6459.477877203009
 30
0.0
 10
8586.631253535379
 20
6459.638099381383
 30
0.0
 10
8582.087520595074
 20
6459.997059778389
 30
0.0
 10
8577.763015026252
 20
6460.295925077655
 30
0.0
 10
8573.659353153831
 20
6460.541924359031
 30
0.0
 10
8572.38146227877
 20
6460.615825613741
 30
0.0
 10
8571.103310242535
 20
6460.68704412564
 30
0.0
 10
8569.824901764116
 20
6460.755585333146
 30
0.0
 10
8568.546243555393
 20
6460.8214526005
 30
0.0
 10
8567.144290600161
 20
6460.89073786858
 30
0.0
 10
8565.480519663755
 20
6460.968956343082
 30
0.0
 10
8563.328657222693
 20
6461.063595587502
 30
0.0
 10
8560.585281738675
 20
6461.173536803719
 30
0.0
 10
8557.225820606967
 20
6461.291432739702
 30
0.0
 10
8553.740684002423
 20
6461.393220256857
 30
0.0
 10
8550.853521899815
 20
6461.46136820128
 30
0.0
 10
8548.75719764284
 20
6461.502964996335
 30
0.0
 10
8547.21669295244
 20
6461.529677476452
 30
0.0
 10
8545.764211975997
 20
6461.551440003109
 30
0.0
 10
8544.39979688569
 20
6461.56886414737
 30
0.0
 10
8543.123485160853
 20
6461.58252221252
 30
0.0
 10
8541.935309495324
 20
6461.592948328974
 30
0.0
 10
8540.827743624672
 20
6461.600689135725
 30
0.0
 10
8539.554531133295
 20
6461.607476772451
 30
0.0
 10
8537.869323490024
 20
6461.612904107593
 30
0.0
 10
8535.533199791626
 20
6461.613126090986
 30
0.0
 10
8532.093467021954
 20
6461.599430429141
 30
0.0
 10
8527.380824782147
 20
6461.550942623871
 30
0.0
 10
8521.225992654801
 20
6461.439743924439
 30
0.0
 10
8516.736380620072
 20
6461.299816602772
 30
0.0
 10
8514.298627775284
 20
6461.223839386073
 30
0.0
  0
SPLINE
  5
7B
330
1F
100
AcDbEntity
  8
0
  6
SLD-Plná
 62
     7
370
    25
100
AcDbSpline
210
0.0
220
0.0
230
1.0
 70
     8
 71
     3
 72
    38
 73
    34
 74
     0
 42
0.00000001
 43
0.00000001
 40
0.0
 40
0.0
 40
0.0
 40
0.0
 40
0.1400160660493853
 40
0.2800216070908128
 40
0.403212578615053
 40
0.4153110811694303
 40
0.427409431708841
 40
0.439507630425114
 40
0.4516056778012013
 40
0.4637035746124678
 40
0.4758013219279506
 40
0.4878989211116371
 40
0.4999963734945914
 40
0.5130081135541341
 40
0.5317130258561207
 40
0.5578915715823475
 40
0.5915431071365188
 40
0.6299181076966469
 40
0.6573635937229123
 40
0.7122214700207329
 40
0.7188430762694619
 40
0.7253345007146357
 40
0.7316957462766615
 40
0.737926815797838
 40
0.7440277120405466
 40
0.7499984376857941
 40
0.8181108161634375
 40
0.8756432135792273
 40
0.9225974562947054
 40
0.9508719499434392
 40
0.9731971265644641
 40
0.9895731246274776
 40
1.0
 40
1.0
 40
1.0
 40
1.0
 10
8514.298627767861
 20
6461.223839386074
 30
0.0
 10
8509.348599798253
 20
6461.361868159026
 30
0.0
 10
8499.44891595265
 20
6461.637915329306
 30
0.0
 10
8485.201530191192
 20
6461.626647551669
 30
0.0
 10
8475.483830063464
 20
6461.423064558009
 30
0.0
 10
8470.285309696308
 20
6461.252452131119
 30
0.0
 10
8469.005326300889
 20
6461.207834588603
 30
0.0
 10
8467.725547439326
 20
6461.160578437512
 30
0.0
 10
8466.445978302549
 20
6461.110687137012
 30
0.0
 10
8465.166624760199
 20
6461.058153473568
 30
0.0
 10
8463.88749277318
 20
6461.002973635667
 30
0.0
 10
8462.60858727022
 20
6460.945140876321
 30
0.0
 10
8461.297699533472
 20
6460.883132815972
 30
0.0
 10
8459.754287465632
 20
6460.806754211043
 30
0.0
 10
8457.715323872917
 20
6460.700242500439
 30
0.0
 10
8454.950413737339
 20
6460.54501377732
 30
0.0
 10
8451.494663313468
 20
6460.332925348783
 30
0.0
 10
8447.996487434844
 20
6460.096060497939
 30
0.0
 10
8443.755120054673
 20
6459.784127745187
 30
0.0
 10
8440.632206695303
 20
6459.531537312385
 30
0.0
 10
8438.246734343891
 20
6459.325381874843
 30
0.0
 10
8437.563370002825
 20
6459.265515988723
 30
0.0
 10
8436.893802373725
 20
6459.206081077116
 30
0.0
 10
8436.238026321567
 20
6459.147123204144
 30
0.0
 10
8435.596036711824
 20
6459.088687507
 30
0.0
 10
8432.783860439364
 20
6458.829636410704
 30
0.0
 10
8428.171653229798
 20
6458.373698340773
 30
0.0
 10
8422.132631822256
 20
6457.706781893881
 30
0.0
 10
8417.493933761165
 20
6457.149257325787
 30
0.0
 10
8414.089006516027
 20
6456.715933097058
 30
0.0
 10
8411.753109231362
 20
6456.40732846026
 30
0.0
 10
8410.040631605798
 20
6456.175072084913
 30
0.0
 10
8409.106830101948
 20
6456.04554927315
 30
0.0
 10
8408.743561890175
 20
6455.995162204787
 30
0.0
  0
LINE
  5
7C
330
1F
100
AcDbEntity
  8
0
  6
SLD-Plná
 62
     7
370
    25
100
AcDbLine
 10
8408.7435744566
 20
6455.9950921331
 30
0.0
 11
8408.7435744566
 21
6459.6332290751
 31
0.0
  0
SPLINE
  5
7D
330
1F
100
AcDbEntity
  8
0
  6
SLD-Plná
 62
     7
370
    25
100
AcDbSpline
210
0.0
220
0.0
230
1.0
 70
     8
 71
     3
 72
    42
 73
    38
 74
     0
 42
0.00000001
 43
0.00000001
 40
0.0
 40
0.0
 40
0.0
 40
0.0
 40
0.0137117665787894
 40
0.0327642017607722
 40
0.0571539961123932
 40
0.0868771712553226
 40
0.1219292708071169
 40
0.1623055958054965
 40
0.1977620663699435
 40
0.2216255574588467
 40
0.2446296072835773
 40
0.2676298833955186
 40
0.2906267124945396
 40
0.3136204427671337
 40
0.3264957329891569
 40
0.3393702204360678
 40
0.3511550003381947
 40
0.3590594610828267
 40
0.369186674828665
 40
0.3815364158192547
 40
0.3952159038627784
 40
0.4108707878940321
 40
0.4287751618062293
 40
0.4471174631320824
 40
0.4628753578106624
 40
0.4774108279331205
 40
0.4887276499493761
 40
0.4968259162834119
 40
0.5058056967075923
 40
0.519357170245553
 40
0.5329087415566728
 40
0.5464604796165456
 40
0.5600124534642549
 40
0.6626301559968547
 40
0.7799788392784037
 40
0.8899309142358168
 40
1.0
 40
1.0
 40
1.0
 40
1.0
 10
8619.853681086586
 20
6459.633229077279
 30
0.0
 10
8618.89917327683
 20
6459.802407334008
 30
0.0
 10
8616.618381353963
 20
6460.206657982902
 30
0.0
 10
8612.634578754258
 20
6460.883414237742
 30
0.0
 10
8607.528249490319
 20
6461.712400887539
 30
0.0
 10
8601.295233923633
 20
6462.661993353052
 30
0.0
 10
8593.931681075515
 20
6463.697465266056
 30
0.0
 10
8586.151899366778
 20
6464.68530223875
 30
0.0
 10
8579.145247533013
 20
6465.479396106001
 30
0.0
 10
8573.35265808606
 20
6466.074296393063
 30
0.0
 10
8568.432262677527
 20
6466.538382148293
 30
0.0
 10
8563.569107244539
 20
6466.957148837943
 30
0.0
 10
8558.703228481683
 20
6467.336302419675
 30
0.0
 10
8554.5488001091
 20
6467.626074765816
 30
0.0
 10
8551.107237589606
 20
6467.844232538207
 30
0.0
 10
8548.456302519771
 20
6468.000184249956
 30
0.0
 10
8546.155836496893
 20
6468.125472956803
 30
0.0
 10
8544.04904415981
 20
6468.232900206463
 30
0.0
 10
8541.901970121773
 20
6468.33555781513
 30
0.0
 10
8539.346272934916
 20
6468.447621723768
 30
0.0
 10
8536.399253569056
 20
6468.563322849882
 30
0.0
 10
8533.058847253924
 20
6468.677205876461
 30
0.0
 10
8529.38798977108
 20
6468.780670403044
 30
0.0
 10
8525.709217437709
 20
6468.860900714652
 30
0.0
 10
8522.268351578648
 20
6468.91531734299
 30
0.0
 10
8519.32430367927
 20
6468.946209963638
 30
0.0
 10
8516.922106478985
 20
6468.960511694625
 30
0.0
 10
8514.912977931031
 20
6468.965625680374
 30
0.0
 10
8512.745724925851
 20
6468.964634511363
 30
0.0
 10
8510.192631712784
 20
6468.953372865748
 30
0.0
 10
8507.316145144972
 20
6468.92699236728
 30
0.0
 10
8504.439786529794
 20
6468.886926735762
 30
0.0
 10
8495.262840937477
 20
6468.71526953323
 30
0.0
 10
8478.748490895256
 20
6468.072002633654
 30
0.0
 10
8455.475730868106
 20
6466.24098037747
 30
0.0
 10
8431.765674720109
 20
6463.479495240401
 30
0.0
 10
8416.420328178785
 20
6460.915772274747
 30
0.0
 10
8408.743574456557
 20
6459.633229077281
 30
0.0
  0
LINE
  5
7E
330
1F
100
AcDbEntity
  8
0
  6
SLD-Plná
 62
     7
370
    25
100
AcDbLine
 10
8619.8536810866
 20
6455.9950921331
 30
0.0
 11
8619.8536810866
 21
6459.6332290732
 31
0.0
  0
SPLINE
  5
7F
330
1F
100
AcDbEntity
  8
0
  6
SLD-Plná
 62
     7
370
    25
100
AcDbSpline
210
0.0
220
0.0
230
1.0
 70
     8
 71
     3
 72
    15
 73
    11
 74
     0
 42
0.00000001
 43
0.00000001
 40
0.0
 40
0.0
 40
0.0
 40
0.0
 40
0.1277697331098058
 40
0.2552571419764979
 40
0.3821310105955906
 40
0.5080090381636374
 40
0.6326566062585263
 40
0.756020002568106
 40
0.8783164383025865
 40
1.0
 40
1.0
 40
1.0
 40
1.0
 10
8408.743561890175
 20
6455.995162204787
 30
0.0
 10
8408.666382921283
 20
6455.801217651565
 30
0.0
 10
8408.51219552071
 20
6455.413757091444
 30
0.0
 10
8408.372043082954
 20
6454.416149555882
 30
0.0
 10
8408.30562485944
 20
6453.165235574094
 30
0.0
 10
8408.322046856832
 20
6451.676631712453
 30
0.0
 10
8408.41822922628
 20
6450.014961131516
 30
0.0
 10
8408.59323237313
 20
6448.237637488255
 30
0.0
 10
8408.835360331896
 20
6446.401361090606
 30
0.0
 10
8409.047476330612
 20
6445.194716143727
 30
0.0
 10
8409.15326791389
 20
6444.59290920715
 30
0.0
  0
SPLINE
  5
80
330
1F
100
AcDbEntity
  8
0
  6
SLD-Plná
 62
     7
370
    25
100
AcDbSpline
210
0.0
220
0.0
230
1.0
 70
     8
 71
     3
 72
    22
 73
    18
 74
     0
 42
0.00000001
 43
0.00000001
 40
0.0
 40
0.0
 40
0.0
 40
0.0
 40
0.0624989813872232
 40
0.1250005366953093
 40
0.1868394859038731
 40
0.2500087640410561
 40
0.3292798030940809
 40
0.4125330794220112
 40
0.4999586534852097
 40
0.576602911374934
 40
0.6599254052169063
 40
0.7499378518381318
 40
0.788566271957922
 40
0.8302476824939793
 40
0.8749841408350868
 40
0.9232844131882858
 40
0.9999999999999999
 40
0.9999999999999999
 40
0.9999999999999999
 40
0.9999999999999999
 10
8514.29860621994
 20
6449.861592089521
 30
0.0
 10
8514.298653996011
 20
6450.169571284057
 30
0.0
 10
8514.298749550122
 20
6450.785542356762
 30
0.0
 10
8514.29853887364
 20
6451.724567615077
 30
0.0
 10
8514.298597608764
 20
6452.665590141683
 30
0.0
 10
8514.298658218167
 20
6453.679251363403
 30
0.0
 10
8514.29847047653
 20
6454.77039886449
 30
0.0
 10
8514.298453703248
 20
6455.922241415973
 30
0.0
 10
8514.298735997232
 20
6456.985919398515
 30
0.0
 10
8514.29838575809
 20
6457.962895343141
 30
0.0
 10
8514.298412449974
 20
6458.854054370587
 30
0.0
 10
8514.298665446662
 20
6459.513492548425
 30
0.0
 10
8514.298603113477
 20
6459.980740496555
 30
0.0
 10
8514.298591590228
 20
6460.294711676913
 30
0.0
 10
8514.298672099083
 20
6460.596831749284
 30
0.0
 10
8514.298413915421
 20
6460.932054614407
 30
0.0
 10
8514.298546442833
 20
6461.112877804795
 30
0.0
 10
8514.298627767861
 20
6461.223839384009
 30
0.0
  0
SPLINE
  5
81
330
1F
100
AcDbEntity
  8
0
  6
SLD-Plná
 62
     7
370
    25
100
AcDbSpline
210
0.0
220
0.0
230
1.0
 70
     8
 71
     3
 72
    23
 73
    19
 74
     0
 42
0.00000001
 43
0.00000001
 40
0.0
 40
0.0
 40
0.0
 40
0.0
 40
0.029933426750229
 40
0.0583698205071121
 40
0.0878509357889318
 40
0.1170999559195026
 40
0.1463502548455663
 40
0.1756186750485111
 40
0.3135971586792171
 40
0.5599921627042092
 40
0.8064480850882121
 40
0.8340997467020935
 40
0.8617299239655323
 40
0.8899541960391709
 40
0.9177554897081711
 40
0.9440696619207621
 40
0.9712806533958404
 40
1.0
 40
1.0
 40
1.0
 40
1.0
 10
8409.153295392236
 20
6444.592948481464
 30
0.0
 10
8410.192882767209
 20
6444.735421958695
 30
0.0
 10
8412.220065588106
 20
6445.01324351793
 30
0.0
 10
8415.274435214646
 20
6445.410015747964
 30
0.0
 10
8418.307176705855
 20
6445.789070474971
 30
0.0
 10
8421.370653544054
 20
6446.154953589848
 30
0.0
 10
8424.42899004197
 20
6446.503742545152
 30
0.0
 10
8431.280965114773
 20
6447.248410471236
 30
0.0
 10
8445.733531727257
 20
6448.599294309514
 30
0.0
 10
8467.856315185805
 20
6449.915811374251
 30
0.0
 10
8486.162250281306
 20
6450.245896010967
 30
0.0
 10
8496.779877632796
 20
6450.203366911475
 30
0.0
 10
8499.718654216607
 20
6450.178537185192
 30
0.0
 10
8502.662957307362
 20
6450.140491359793
 30
0.0
 10
8505.561135174656
 20
6450.091016796329
 30
0.0
 10
8508.42380642809
 20
6450.028446510137
 30
0.0
 10
8511.318881187186
 20
6449.950143409516
 30
0.0
 10
8513.287680415186
 20
6449.891658735928
 30
0.0
 10
8514.29862777157
 20
6449.86162777832
 30
0.0
  0
SPLINE
  5
82
330
1F
100
AcDbEntity
  8
0
  6
SLD-Plná
 62
     7
370
    25
100
AcDbSpline
210
0.0
220
0.0
230
1.0
 70
     8
 71
     3
 72
    15
 73
    11
 74
     0
 42
0.00000001
 43
0.00000001
 40
0.0
 40
0.0
 40
0.0
 40
0.0
 40
0.1216835619419393
 40
0.2439799979223983
 40
0.367343394234951
 40
0.4919909623329778
 40
0.6178689899040742
 40
0.744742858526306
 40
0.8722302671415255
 40
1.0
 40
1.0
 40
1.0
 40
1.0
 10
8619.443987627934
 20
6444.592909200017
 30
0.0
 10
8619.549779211484
 20
6445.194716137739
 30
0.0
 10
8619.761895210744
 20
6446.401361086916
 30
0.0
 10
8620.0040231699
 20
6448.237637487095
 30
0.0
 10
8620.179026316866
 20
6450.014961131512
 30
0.0
 10
8620.275208686313
 20
6451.676631712452
 30
0.0
 10
8620.291630683705
 20
6453.16523557409
 30
0.0
 10
8620.225212460236
 20
6454.416149555047
 30
0.0
 10
8620.08506002274
 20
6455.413757089519
 30
0.0
 10
8619.930872622628
 20
6455.801217649631
 30
0.0
 10
8619.853693653966
 20
6455.995162202848
 30
0.0
  0
SPLINE
  5
83
330
1F
100
AcDbEntity
  8
0
  6
SLD-Plná
 62
     7
370
    25
100
AcDbSpline
210
0.0
220
0.0
230
1.0
 70
     8
 71
     3
 72
    24
 73
    20
 74
     0
 42
0.00000001
 43
0.00000001
 40
0.0
 40
0.0
 40
0.0
 40
0.0
 40
0.0298874422430983
 40
0.0583634801246534
 40
0.0879840322507958
 40
0.1171612223816716
 40
0.146359693136126
 40
0.1756347361074285
 40
0.3136216735544932
 40
0.560017146048246
 40
0.8064302644982121
 40
0.8606176917782266
 40
0.9153243227227964
 40
0.9295192651131882
 40
0.9426375199528927
 40
0.9565223066643704
 40
0.9704357956097756
 40
0.9823132631010162
 40
1.0
 40
1.0
 40
1.0
 40
1.0
 10
8514.298627771572
 20
6449.861627778325
 30
0.0
 10
8515.350693873357
 20
6449.89426498069
 30
0.0
 10
8517.40514331476
 20
6449.957998126409
 30
0.0
 10
8520.502234485215
 20
6450.036570111015
 30
0.0
 10
8523.574214100106
 20
6450.100791332625
 30
0.0
 10
8526.671454339456
 20
6450.151493565217
 30
0.0
 10
8529.756290083711
 20
6450.187462289475
 30
0.0
 10
8536.669939820476
 20
6450.235979618376
 30
0.0
 10
8551.222155740894
 20
6450.142937087431
 30
0.0
 10
8573.38064067022
 20
6449.30124257016
 30
0.0
 10
8592.525047651543
 20
6447.760724780169
 30
0.0
 10
8604.91651207213
 20
6446.426838129784
 30
0.0
 10
8609.203515405163
 20
6445.921959669521
 30
0.0
 10
8612.057662673958
 20
6445.568559895667
 30
0.0
 10
8613.490606895728
 20
6445.386507923843
 30
0.0
 10
8614.913058629429
 20
6445.201084290347
 30
0.0
 10
8616.291904209444
 20
6445.018174326932
 30
0.0
 10
8617.802456408092
 20
6444.814973684763
 30
0.0
 10
8618.829520649264
 20
6444.676055849245
 30
0.0
 10
8619.443960150908
 20
6444.592948481465
 30
0.0
  0
LINE
  5
84
330
1F
100
AcDbEntity
  8
0
  6
SLD-Plná
 62
     7
370
    25
100
AcDbLine
 10
8514.2986277716
 20
6449.8616277783
 30
0.0
 11
8514.2986277715
 21
6389.5544076834
 31
0.0
  0
SPLINE
  5
85
330
1F
100
AcDbEntity
  8
0
  6
SLD-Plná
 62
     7
370
    25
100
AcDbSpline
210
0.0
220
0.0
230
1.0
 70
     8
 71
     3
 72
    23
 73
    19
 74
     0
 42
0.00000001
 43
0.00000001
 40
0.0
 40
0.0
 40
0.0
 40
0.0
 40
0.0417298297530467
 40
0.0833914536476231
 40
0.1250776331427408
 40
0.1668794392495191
 40
0.2085283926173946
 40
0.2501547948568973
 40
0.375092514993928
 40
0.5000212267414517
 40
0.624941288123753
 40
0.7498539268544815
 40
0.7916156170373135
 40
0.8332547678921756
 40
0.8749270399646393
 40
0.9166531416745367
 40
0.9585866338955842
 40
1.0
 40
1.0
 40
1.0
 40
1.0
 10
8619.443960150908
 20
6444.592948481465
 30
0.0
 10
8620.225354806478
 20
6444.472221426697
 30
0.0
 10
8621.786866957054
 20
6444.23096464105
 30
0.0
 10
8624.095302817086
 20
6443.70928660773
 30
0.0
 10
8626.371512937541
 20
6443.070631031184
 30
0.0
 10
8628.605111624629
 20
6442.305193038073
 30
0.0
 10
8630.7885118009
 20
6441.416483790861
 30
0.0
 10
8634.328428640241
 20
6439.733849247337
 30
0.0
 10
8638.997864110155
 20
6436.812282780107
 30
0.0
 10
8644.23436388775
 20
6432.046471647132
 30
0.0
 10
8648.528602291562
 20
6426.390524467929
 30
0.0
 10
8651.013794408167
 20
6421.418875446251
 30
0.0
 10
8652.333409277539
 20
6417.683158275145
 30
0.0
 10
8652.986359077164
 20
6415.390510721455
 30
0.0
 10
8653.497449306216
 20
6413.058537664095
 30
0.0
 10
8653.862709416306
 20
6410.690113441629
 30
0.0
 10
8654.091978860966
 20
6408.305175408007
 30
0.0
 10
8654.119635935402
 20
6406.707498434067
 30
0.0
 10
8654.133378175624
 20
6405.913645099128
 30
0.0
  0
LINE
  5
86
330
1F
100
AcDbEntity
  8
0
  6
SLD-Plná
 62
     7
370
    25
100
AcDbLine
 10
8654.1333781756
 20
6405.9136450991
 30
0.0
 11
8654.1333781756
 21
6389.5544076834
 31
0.0
  0
LINE
  5
87
330
1F
100
AcDbEntity
  8
0
  6
SLD-Plná
 62
     7
370
    25
100
AcDbLine
 10
8514.2986277715
 20
6389.5544076834
 30
0.0
 11
8654.1333781756
 21
6389.5544076834
 31
0.0
  0
LINE
  5
88
330
1F
100
AcDbEntity
  8
0
  6
SLD-Plná
 62
     7
370
    25
100
AcDbLine
 10
8374.4638773675
 20
6405.9136450991
 30
0.0
 11
8374.463877365
 21
6389.5544076834
 31
0.0
  0
SPLINE
  5
89
330
1F
100
AcDbEntity
  8
0
  6
SLD-Plná
 62
     7
370
    25
100
AcDbSpline
210
0.0
220
0.0
230
1.0
 70
     8
 71
     3
 72
    23
 73
    19
 74
     0
 42
0.00000001
 43
0.00000001
 40
0.0
 40
0.0
 40
0.0
 40
0.0
 40
0.0417588707848914
 40
0.0833734044953044
 40
0.1250723386889977
 40
0.1667415184134882
 40
0.208380681252345
 40
0.2501454865143101
 40
0.3750581586838131
 40
0.4999782522039508
 40
0.6249069974588167
 40
0.7498447498524038
 40
0.7914654769543463
 40
0.8331144392286771
 40
0.8749219262928263
 40
0.9166207807225941
 40
0.9586466076291593
 40
0.9999999999999999
 40
0.9999999999999999
 40
0.9999999999999999
 40
0.9999999999999999
 10
8374.463877367518
 20
6405.913645099129
 30
0.0
 10
8374.478103954327
 20
6406.714109762882
 30
0.0
 10
8374.506507954584
 20
6408.312272331477
 30
0.0
 10
8374.73553021521
 20
6410.697170470602
 30
0.0
 10
8375.099934771199
 20
6413.05898543807
 30
0.0
 10
8375.610850736568
 20
6415.39039834117
 30
0.0
 10
8376.263820435945
 20
6417.683042705587
 30
0.0
 10
8377.583424186372
 20
6421.418825620807
 30
0.0
 10
8380.068656880525
 20
6426.390523760887
 30
0.0
 10
8384.362891299594
 20
6432.046470507553
 30
0.0
 10
8389.599389488732
 20
6436.812287814944
 30
0.0
 10
8394.268741577884
 20
6439.733778740402
 30
0.0
 10
8397.808542556735
 20
6441.416409593587
 30
0.0
 10
8399.991953364868
 20
6442.305086434561
 30
0.0
 10
8402.225853061675
 20
6443.070727557268
 30
0.0
 10
8404.509073394176
 20
6443.71111403339
 30
0.0
 10
8406.81748503562
 20
6444.233056938047
 30
0.0
 10
8408.378888075466
 20
6444.473631162145
 30
0.0
 10
8409.153293414294
 20
6444.592948185856
 30
0.0
  0
LINE
  5
8A
330
1F
100
AcDbEntity
  8
0
  6
SLD-Plná
 62
     7
370
    25
100
AcDbLine
 10
8374.463877365
 20
6389.5544076834
 30
0.0
 11
8514.2986277715
 21
6389.5544076834
 31
0.0
  0
LINE
  5
8B
330
1F
100
AcDbEntity
  8
0
  6
SLD-Plná
 62
     7
370
    25
100
AcDbLine
 10
8365.7986277716
 20
6406.4812187541
 30
0.0
 11
8366.0806354413
 21
6406.3922704506
 31
0.0
  0
LINE
  5
8C
330
1F
100
AcDbEntity
  8
0
  6
SLD-Plná
 62
     7
370
    25
100
AcDbLine
 10
8366.0275062162
 20
6410.402860043
 30
0.0
 11
8365.7987743604
 21
6406.4812187787
 31
0.0
  0
LINE
  5
8D
330
1F
100
AcDbEntity
  8
0
  6
SLD-Plná
 62
     7
370
    25
100
AcDbLine
 10
8662.7984811827
 20
6406.4812187787
 30
0.0
 11
8662.5697443007
 21
6410.4029462189
 31
0.0
  0
LINE
  5
8E
330
1F
100
AcDbEntity
  8
0
  6
SLD-Plná
 62
     7
370
    25
100
AcDbLine
 10
8662.5166132059
 20
6406.3922682754
 30
0.0
 11
8662.7986277716
 21
6406.4812187538
 31
0.0
  0
SPLINE
  5
8F
330
1F
100
AcDbEntity
  8
0
  6
SLD-Plná
 62
     7
370
    25
100
AcDbSpline
210
0.0
220
0.0
230
1.0
 70
     8
 71
     3
 72
    29
 73
    25
 74
     0
 42
0.00000001
 43
0.00000001
 40
0.0
 40
0.0
 40
0.0
 40
0.0
 40
0.0197955744872263
 40
0.0401709636756547
 40
0.0601388158375642
 40
0.0801022960665051
 40
0.1001427440498998
 40
0.1202276242801031
 40
0.1398569813397439
 40
0.1760536765595482
 40
0.2129713286967389
 40
0.2506105398463638
 40
0.3106418628101949
 40
0.3758882115005414
 40
0.4384711434116398
 40
0.5010037349835076
 40
0.5509933491630354
 40
0.6009129911382654
 40
0.6532199337638296
 40
0.7042884712743667
 40
0.7506543578821014
 40
0.8353670774293132
 40
0.9177452437155047
 40
1.0
 40
1.0
 40
1.0
 40
1.0
 10
8662.8205298699
 20
6407.125589770751
 30
0.0
 10
8662.822932046329
 20
6407.613383991315
 30
0.0
 10
8662.827806759216
 20
6408.603259982446
 30
0.0
 10
8662.782621357106
 20
6410.084150744855
 30
0.0
 10
8662.69859025309
 20
6411.566907339249
 30
0.0
 10
8662.573279384265
 20
6413.038023231794
 30
0.0
 10
8662.406951982486
 20
6414.507430718902
 30
0.0
 10
8662.200763667739
 20
6415.962953926598
 30
0.0
 10
8661.887875400907
 20
6417.803316037222
 30
0.0
 10
8661.418414597592
 20
6420.034769655005
 30
0.0
 10
8660.722965240333
 20
6422.665579160985
 30
0.0
 10
8659.713075549758
 20
6425.811849001142
 30
0.0
 10
8658.233008647601
 20
6429.527448394601
 30
0.0
 10
8656.15754530329
 20
6433.641965956902
 30
0.0
 10
8653.689869922928
 20
6437.601689538556
 30
0.0
 10
8651.108300192556
 20
6441.028738108872
 30
0.0
 10
8648.470378609592
 20
6444.006794996901
 30
0.0
 10
8645.807874032394
 20
6446.617529765123
 30
0.0
 10
8642.943519412465
 20
6449.049928544155
 30
0.0
 10
8639.979450334642
 20
6451.21934950264
 30
0.0
 10
8636.202362384436
 20
6453.611979583398
 30
0.0
 10
8631.524119286109
 20
6456.001796219919
 30
0.0
 10
8625.77820655878
 20
6458.205238300754
 30
0.0
 10
8621.818108569085
 20
6459.111499456562
 30
0.0
 10
8619.839543832953
 20
6459.564290364585
 30
0.0
  0
LINE
  5
90
330
1F
100
AcDbEntity
  8
0
  6
SLD-Plná
 62
     7
370
    25
100
AcDbLine
 10
8662.7986277716
 20
6406.4812187541
 30
0.0
 11
8662.7986277716
 21
6407.1258771937
 31
0.0
  0
LINE
  5
91
330
1F
100
AcDbEntity
  8
0
  6
SLD-Plná
 62
     7
370
    25
100
AcDbLine
 10
8365.7986277716
 20
6406.4812187541
 30
0.0
 11
8365.7986277716
 21
6407.1258771937
 31
0.0
  0
SPLINE
  5
92
330
1F
100
AcDbEntity
  8
0
  6
SLD-Plná
 62
     7
370
    25
100
AcDbSpline
210
0.0
220
0.0
230
1.0
 70
     8
 71
     3
 72
    24
 73
    20
 74
     0
 42
0.00000001
 43
0.00000001
 40
0.0
 40
0.0
 40
0.0
 40
0.0
 40
0.0612701456130661
 40
0.1247616040158636
 40
0.1852484777829957
 40
0.2494158365577429
 40
0.2977101225179217
 40
0.3476721116883623
 40
0.3963602035779876
 40
0.4361013826868171
 40
0.4990736191726425
 40
0.5510565500537401
 40
0.6004616843636957
 40
0.6509371500184665
 40
0.7018908649689924
 40
0.7495062338833567
 40
0.8339696235516627
 40
0.9166458853677832
 40
1.0
 40
1.0
 40
1.0
 40
1.0
 10
8408.757711710192
 20
6459.564290364587
 30
0.0
 10
8407.281866821284
 20
6459.239185323278
 30
0.0
 10
8404.276671162344
 20
6458.577188750211
 30
0.0
 10
8399.944578138251
 20
6457.125058775152
 30
0.0
 10
8395.683065419562
 20
6455.314901642225
 30
0.0
 10
8391.927401055735
 20
6453.318692848655
 30
0.0
 10
8388.561599823202
 20
6451.182080633012
 30
0.0
 10
8385.657425004498
 20
6449.047501684917
 30
0.0
 10
8383.06878281103
 20
6446.855596554532
 30
0.0
 10
8380.392844434824
 20
6444.289111857494
 30
0.0
 10
8377.853275925561
 20
6441.474477100502
 30
0.0
 10
8375.407589836155
 20
6438.277497484577
 30
0.0
 10
8373.364370571739
 20
6435.169054385259
 30
0.0
 10
8371.556380672107
 20
6431.945001863966
 30
0.0
 10
8370.001125652196
 20
6428.637407649395
 30
0.0
 10
8368.373983681417
 20
6424.450984618873
 30
0.0
 10
8366.934436796953
 20
6419.367871726135
 30
0.0
 10
8365.903969129171
 20
6413.274431635678
 30
0.0
 10
8365.819255445509
 20
6409.180774788247
 30
0.0
 10
8365.776725673244
 20
6407.125589770752
 30
0.0
  0
LINE
  5
93
330
1F
100
AcDbEntity
  8
0
  6
SLD-Plná
 62
     7
370
    25
100
AcDbLine
 10
8662.7986277716
 20
6406.4812187541
 30
0.0
 11
8662.7986277716
 21
6389.5544076834
 31
0.0
  0
LINE
  5
94
330
1F
100
AcDbEntity
  8
0
  6
SLD-Plná
 62
     7
370
    25
100
AcDbLine
 10
8654.1333781756
 20
6389.5544076834
 30
0.0
 11
8662.7986277716
 21
6389.5544076834
 31
0.0
  0
LINE
  5
95
330
1F
100
AcDbEntity
  8
0
  6
SLD-Plná
 62
     7
370
    25
100
AcDbLine
 10
8365.7986277716
 20
6406.4812187541
 30
0.0
 11
8365.7986277716
 21
6389.5544076834
 31
0.0
  0
LINE
  5
96
330
1F
100
AcDbEntity
  8
0
  6
SLD-Plná
 62
     7
370
    25
100
AcDbLine
 10
8365.7986277716
 20
6389.5544076834
 30
0.0
 11
8374.463877365
 21
6389.5544076834
 31
0.0
  0
SPLINE
  5
97
330
1F
100
AcDbEntity
  8
0
  6
SLD-Plná
 62
     7
370
    25
100
AcDbSpline
210
0.0
220
0.0
230
1.0
 70
     8
 71
     3
 72
     9
 73
     5
 74
     0
 42
0.00000001
 43
0.00000001
 40
0.0
 40
0.0
 40
0.0
 40
0.0
 40
0.0236036389231182
 40
1.0
 40
1.0
 40
1.0
 40
1.0
 10
8408.801247604637
 20
6459.786629252823
 30
0.0
 10
8408.800389344797
 20
6459.788062633133
 30
0.0
 10
8408.764028008998
 20
6459.848789723284
 30
0.0
 10
8408.760832142563
 20
6459.704841189866
 30
0.0
 10
8408.757711710208
 20
6459.564290365654
 30
0.0
  0
SPLINE
  5
98
330
1F
100
AcDbEntity
  8
0
  6
SLD-Plná
 62
     7
370
    25
100
AcDbSpline
210
0.0
220
0.0
230
1.0
 70
     8
 71
     3
 72
     9
 73
     5
 74
     0
 42
0.00000001
 43
0.00000001
 40
0.0
 40
0.0
 40
0.0
 40
0.0
 40
0.0239444802226482
 40
1.0
 40
1.0
 40
1.0
 40
1.0
 10
8619.795970120056
 20
6459.786567321526
 30
0.0
 10
8619.796841167623
 20
6459.788022464882
 30
0.0
 10
8619.833218969972
 20
6459.848794022279
 30
0.0
 10
8619.836419721621
 20
6459.704818484254
 30
0.0
 10
8619.839543832935
 20
6459.564290365652
 30
0.0
  0
LINE
  5
99
330
1F
100
AcDbEntity
  8
0
  6
SLD-Plná
 62
     7
370
    25
100
AcDbLine
 10
8374.4638773675
 20
5990.2323768048
 30
0.0
 11
8514.2986277715
 21
5990.2323768048
 31
0.0
  0
LINE
  5
9A
330
1F
100
AcDbEntity
  8
0
  6
SLD-Plná
 62
     7
370
    25
100
AcDbLine
 10
8374.4638773675
 20
6389.5544076834
 30
0.0
 11
8374.4638773675
 21
5990.2323768048
 31
0.0
  0
LINE
  5
9B
330
1F
100
AcDbEntity
  8
0
  6
SLD-Plná
 62
     7
370
    25
100
AcDbLine
 10
8514.2986277715
 20
6389.5544076834
 30
0.0
 11
8374.4638773675
 21
6389.5544076834
 31
0.0
  0
LINE
  5
9C
330
1F
100
AcDbEntity
  8
0
  6
SLD-Plná
 62
     7
370
    25
100
AcDbLine
 10
8514.2986277715
 20
6389.5544076834
 30
0.0
 11
8514.2986277715
 21
5990.2323768048
 31
0.0
  0
LINE
  5
9D
330
1F
100
AcDbEntity
  8
0
  6
SLD-Plná
 62
     7
370
    25
100
AcDbLine
 10
8654.1333781756
 20
5990.2323768048
 30
0.0
 11
8654.1333781756
 21
6389.5544076834
 31
0.0
  0
LINE
  5
9E
330
1F
100
AcDbEntity
  8
0
  6
SLD-Plná
 62
     7
370
    25
100
AcDbLine
 10
8514.2986277715
 20
5990.2323768048
 30
0.0
 11
8654.1333781756
 21
5990.2323768048
 31
0.0
  0
LINE
  5
9F
330
1F
100
AcDbEntity
  8
0
  6
SLD-Plná
 62
     7
370
    25
100
AcDbLine
 10
8654.1333781756
 20
6389.5544076834
 30
0.0
 11
8514.2986277715
 21
6389.5544076834
 31
0.0
  0
LINE
  5
A0
330
1F
100
AcDbEntity
  8
0
  6
SLD-Plná
 62
     7
370
    25
100
AcDbLine
 10
8365.7986277715
 20
5990.2323768048
 30
0.0
 11
8365.7986277715
 21
6389.5544076834
 31
0.0
  0
LINE
  5
A1
330
1F
100
AcDbEntity
  8
0
  6
SLD-Plná
 62
     7
370
    25
100
AcDbLine
 10
8365.7986277715
 20
5990.2323768048
 30
0.0
 11
8374.4638773675
 21
5990.2323768048
 31
0.0
  0
LINE
  5
A2
330
1F
100
AcDbEntity
  8
0
  6
SLD-Plná
 62
     7
370
    25
100
AcDbLine
 10
8365.7986277715
 20
6389.5544076834
 30
0.0
 11
8374.4638773675
 21
6389.5544076834
 31
0.0
  0
LINE
  5
A3
330
1F
100
AcDbEntity
  8
0
  6
SLD-Plná
 62
     7
370
    25
100
AcDbLine
 10
8662.7986277715
 20
6389.5544076834
 30
0.0
 11
8662.7986277715
 21
5990.2323768048
 31
0.0
  0
LINE
  5
A4
330
1F
100
AcDbEntity
  8
0
  6
SLD-Plná
 62
     7
370
    25
100
AcDbLine
 10
8654.1333781756
 20
5990.2323768048
 30
0.0
 11
8662.7986277715
 21
5990.2323768048
 31
0.0
  0
LINE
  5
A5
330
1F
100
AcDbEntity
  8
0
  6
SLD-Plná
 62
     7
370
    25
100
AcDbLine
 10
8654.1333781756
 20
6389.5544076834
 30
0.0
 11
8662.7986277715
 21
6389.5544076834
 31
0.0
  0
ARC
  5
A6
330
1F
100
AcDbEntity
  8
0
  6
SLD-Plná
 62
     7
370
    25
100
AcDbCircle
 10
8514.2986277715
 20
5884.6490434715
 30
0.0
 40
595.083333333337
100
AcDbArc
 50
79.953513664
 51
100.046486336
  0
LINE
  5
A7
330
1F
100
AcDbEntity
  8
0
  6
SLD-Plná
 62
     7
370
    25
100
AcDbLine
 10
8662.7986277715
 20
6429.2323768048
 30
0.0
 11
8662.7986277715
 21
6407.1258771937
 31
0.0
  0
LINE
  5
A8
330
1F
100
AcDbEntity
  8
0
  6
SLD-Plná
 62
     7
370
    25
100
AcDbLine
 10
8365.7986277715
 20
6407.1258771937
 30
0.0
 11
8365.7986277715
 21
6429.2323768048
 31
0.0
  0
ARC
  5
A9
330
1F
100
AcDbEntity
  8
0
  6
SLD-Plná
 62
     7
370
    25
100
AcDbCircle
 10
8417.8182481402
 20
6429.2323768048
 30
0.0
 40
52.01962036868099
100
AcDbArc
 50
100.046486336
 51
180.0
  0
LINE
  5
AA
330
1F
100
AcDbEntity
  8
0
  6
SLD-Plná
 62
     7
370
    25
100
AcDbLine
 10
8408.7435744565
 20
6480.4543564701
 30
0.0
 11
8410.4880457963
 21
6470.6076910577
 31
0.0
  0
ARC
  5
AB
330
1F
100
AcDbEntity
  8
0
  6
SLD-Plná
 62
     7
370
    25
100
AcDbCircle
 10
8610.7790074029
 20
6429.2323768048
 30
0.0
 40
52.01962036868099
100
AcDbArc
 50
0.0
 51
79.953513664
  0
LINE
  5
AC
330
1F
100
AcDbEntity
  8
0
  6
SLD-Plná
 62
     7
370
    25
100
AcDbLine
 10
8619.8536810866
 20
6480.4543564701
 30
0.0
 11
8618.1092097468
 21
6470.6076910577
 31
0.0
  0
ARC
  5
AD
330
1F
100
AcDbEntity
  8
0
  6
SLD-Plná
 62
     7
370
    25
100
AcDbCircle
 10
8514.2986277715
 20
5884.6490434715
 30
0.0
 40
605.0833333333367
100
AcDbArc
 50
79.953513664
 51
100.046486336
  0
SPLINE
  5
AE
330
1F
100
AcDbEntity
  8
0
  6
SLD-Plná
 62
     7
370
    25
100
AcDbSpline
210
0.0
220
0.0
230
1.0
 70
     8
 71
     3
 72
    18
 73
    14
 74
     0
 42
0.00000001
 43
0.00000001
 40
0.0
 40
0.0
 40
0.0
 40
0.0
 40
0.1249999999999999
 40
0.1249999999999999
 40
0.2499999999999998
 40
0.2499999999999998
 40
0.3749999999999998
 40
0.3749999999999998
 40
0.4999999999999997
 40
0.4999999999999997
 40
0.7499999999999998
 40
0.7499999999999998
 40
1.0
 40
1.0
 40
1.0
 40
1.0
 10
8599.298627771537
 20
5935.732376804789
 30
0.0
 10
8599.298627771537
 20
5935.732376804789
 30
0.0
 10
8599.288819277912
 20
5935.730984909921
 30
0.0
 10
8599.250408772354
 20
5935.725536993187
 30
0.0
 10
8599.221322804993
 20
5935.72141237755
 30
0.0
 10
8599.145575725652
 20
5935.710679977424
 30
0.0
 10
8599.099250761277
 20
5935.704119807032
 30
0.0
 10
8598.989872969622
 20
5935.688648226132
 30
0.0
 10
8598.926362014368
 20
5935.679672356601
 30
0.0
 10
8598.718553468569
 20
5935.650343984137
 30
0.0
 10
8598.551393150989
 20
5935.626804373048
 30
0.0
 10
8598.191663264011
 20
5935.576332375037
 30
0.0
 10
8597.995735280958
 20
5935.548929749016
 30
0.0
 10
8597.798627771537
 20
5935.521466650186
 30
0.0
  0
SPLINE
  5
AF
330
1F
100
AcDbEntity
  8
0
  6
SLD-Plná
 62
     7
370
    25
100
AcDbSpline
210
0.0
220
0.0
230
1.0
 70
     8
 71
     3
 72
    18
 73
    14
 74
     0
 42
0.00000001
 43
0.00000001
 40
0.0
 40
0.0
 40
0.0
 40
0.0
 40
0.1250000000000032
 40
0.1250000000000032
 40
0.2500000000000063
 40
0.2500000000000063
 40
0.3750000000000095
 40
0.3750000000000095
 40
0.5000000000000127
 40
0.5000000000000127
 40
0.7500000000000063
 40
0.7500000000000063
 40
1.0
 40
1.0
 40
1.0
 40
1.0
 10
8430.798627771537
 20
5935.521466650186
 30
0.0
 10
8430.700057436254
 20
5935.535200509781
 30
0.0
 10
8430.603110506649
 20
5935.548732953111
 30
0.0
 10
8430.412332897022
 20
5935.575408517042
 30
0.0
 10
8430.317546300426
 20
5935.588685881541
 30
0.0
 10
8430.136381639684
 20
5935.614103856484
 30
0.0
 10
8430.050405664952
 20
5935.626187442609
 30
0.0
 10
8429.887591091521
 20
5935.649102321229
 30
0.0
 10
8429.810294889487
 20
5935.659998496167
 30
0.0
 10
8429.60217337868
 20
5935.689370769363
 30
0.0
 10
8429.489774345211
 20
5935.70528253186
 30
0.0
 10
8429.338857653132
 20
5935.726665381439
 30
0.0
 10
8429.298627771537
 20
5935.732376804789
 30
0.0
 10
8429.298627771537
 20
5935.732376804789
 30
0.0
  0
ARC
  5
B0
330
1F
100
AcDbEntity
  8
0
  6
SLD-Plná
 62
     7
370
    25
100
AcDbCircle
 10
8515.6333781756
 20
6534.8157101381
 30
0.0
 40
595.0833333333361
100
AcDbArc
 50
269.8714875301
 51
280.046486336
  0
LWPOLYLINE
  5
B1
330
1F
100
AcDbEntity
  8
0
  6
SLD-Plná
 62
     7
370
    25
100
AcDbPolyline
 90
        9
 70
   128
 43
0.0
 10
8619.4439601509
 20
5948.8570625519
 10
8619.7485284122
 20
5946.9636791951
 10
8619.9919467908
 20
5945.1409228449
 10
8620.1651352917
 20
5943.4567859784
 10
8620.2616336356
 20
5941.9740902873
 10
8620.2778422402
 20
5940.7481433026
 10
8620.213156492
 20
5939.8246753118
 10
8620.0699892994
 20
5939.2381335281
 10
8619.8536810866
 20
5939.0103971395
  0
ARC
  5
B2
330
1F
100
AcDbEntity
  8
0
  6
SLD-Plná
 62
     7
370
    25
100
AcDbCircle
 10
8514.2986277715
 20
6534.8157101381
 30
0.0
 40
605.0833333333358
100
AcDbArc
 50
270.0
 51
280.046486336
  0
SPLINE
  5
B3
330
1F
100
AcDbEntity
  8
0
  6
SLD-Plná
 62
     7
370
    25
100
AcDbSpline
210
0.0
220
0.0
230
1.0
 70
     8
 71
     3
 72
    33
 73
    29
 74
     0
 42
0.00000001
 43
0.00000001
 40
0.0
 40
0.0
 40
0.0
 40
0.0
 40
0.1250000000000038
 40
0.1250000000000038
 40
0.1875000000000055
 40
0.1875000000000055
 40
0.2500000000000072
 40
0.2500000000000072
 40
0.3750000000000097
 40
0.3750000000000097
 40
0.4375000000000101
 40
0.4375000000000101
 40
0.5000000000000105
 40
0.5000000000000105
 40
0.6250000000000095
 40
0.6250000000000095
 40
0.687500000000008
 40
0.687500000000008
 40
0.7500000000000064
 40
0.8125000000000049
 40
0.8125000000000049
 40
0.8750000000000033
 40
0.8750000000000033
 40
0.9375000000000018
 40
0.9375000000000018
 40
0.9687500000000009
 40
0.9687500000000009
 40
1.0
 40
1.0
 40
1.0
 40
1.0
 10
8514.298627771535
 20
5939.733873705124
 30
0.0
 10
8514.298627771535
 20
5939.070538915609
 30
0.0
 10
8514.298627771535
 20
5938.418455403666
 30
0.0
 10
8514.298627771535
 20
5937.456497603938
 30
0.0
 10
8514.298627771535
 20
5937.138559818819
 30
0.0
 10
8514.298627771535
 20
5936.508236347221
 30
0.0
 10
8514.298627771535
 20
5936.195275179209
 30
0.0
 10
8514.298627771535
 20
5935.285451115266
 30
0.0
 10
8514.298627771535
 20
5934.710392595383
 30
0.0
 10
8514.298627771535
 20
5933.894554520291
 30
0.0
 10
8514.298627771535
 20
5933.629273710854
 30
0.0
 10
8514.298627771535
 20
5933.120761652273
 30
0.0
 10
8514.298627771535
 20
5932.878802360508
 30
0.0
 10
8514.298627771535
 20
5932.188660444741
 30
0.0
 10
8514.298627771535
 20
5931.775876169995
 30
0.0
 10
8514.298627771535
 20
5931.229340342153
 30
0.0
 10
8514.298627771535
 20
5931.060343708324
 30
0.0
 10
8514.298627771535
 20
5930.753700750761
 30
0.0
 10
8514.298627771535
 20
5930.476598267178
 30
0.0
 10
8514.298627771535
 20
5930.257740266918
 30
0.0
 10
8514.298627771535
 20
5930.068423913577
 30
0.0
 10
8514.298627771534
 20
5929.988287800766
 30
0.0
 10
8514.298627771534
 20
5929.860463222496
 30
0.0
 10
8514.298627771534
 20
5929.812569937048
 30
0.0
 10
8514.298627771534
 20
5929.764530909017
 30
0.0
 10
8514.298627771532
 20
5929.752491907709
 30
0.0
 10
8514.298627771526
 20
5929.736410302251
 30
0.0
 10
8514.298627771092
 20
5929.732376804789
 30
0.0
 10
8514.298627771535
 20
5929.732376804789
 30
0.0
  0
ARC
  5
B4
330
1F
100
AcDbEntity
  8
0
  6
SLD-Plná
 62
     7
370
    25
100
AcDbCircle
 10
8512.9638773675
 20
6534.8157101381
 30
0.0
 40
595.0833333333361
100
AcDbArc
 50
259.953513664
 51
270.1285124699
  0
ARC
  5
B5
330
1F
100
AcDbEntity
  8
0
  6
SLD-Plná
 62
     7
370
    25
100
AcDbCircle
 10
8514.2986277715
 20
6534.8157101381
 30
0.0
 40
605.0833333333358
100
AcDbArc
 50
259.953513664
 51
270.0
  0
LWPOLYLINE
  5
B6
330
1F
100
AcDbEntity
  8
0
  6
SLD-Plná
 62
     7
370
    25
100
AcDbPolyline
 90
        9
 70
   128
 43
0.0
 10
8409.1532953922
 20
5948.8570625519
 10
8408.8487271309
 20
5946.9636791951
 10
8408.6053087523
 20
5945.1409228449
 10
8408.4321202513
 20
5943.4567859784
 10
8408.3356219074
 20
5941.9740902873
 10
8408.3194133028
 20
5940.7481433026
 10
8408.3840990511
 20
5939.8246753118
 10
8408.5272662437
 20
5939.2381335281
 10
8408.7435744565
 20
5939.0103971395
  0
LINE
  5
B7
330
1F
100
AcDbEntity
  8
0
  6
SLD-Plná
 62
     7
370
    25
100
AcDbLine
 10
8514.2986277715
 20
5990.2323768048
 30
0.0
 11
8514.2986277715
 21
5939.7338737051
 31
0.0
  0
LINE
  5
B8
330
1F
100
AcDbEntity
  8
0
  6
SLD-Plná
 62
     7
370
    25
100
AcDbLine
 10
8514.2986277715
 20
5990.2323768048
 30
0.0
 11
8654.1333781756
 21
5990.2323768048
 31
0.0
  0
ARC
  5
B9
330
1F
100
AcDbEntity
  8
0
  6
SLD-Plná
 62
     7
370
    25
100
AcDbCircle
 10
8612.1137578069
 20
5990.2323768048
 30
0.0
 40
42.01962036868099
100
AcDbArc
 50
280.046486336
 51
0.0
  0
LINE
  5
BA
330
1F
100
AcDbEntity
  8
0
  6
SLD-Plná
 62
     7
370
    25
100
AcDbLine
 10
8374.4638773675
 20
5990.2323768048
 30
0.0
 11
8514.2986277715
 21
5990.2323768048
 31
0.0
  0
ARC
  5
BB
330
1F
100
AcDbEntity
  8
0
  6
SLD-Plná
 62
     7
370
    25
100
AcDbCircle
 10
8416.4834977362
 20
5990.2323768048
 30
0.0
 40
42.01962036868099
100
AcDbArc
 50
180.0
 51
259.953513664
  0
ARC
  5
BC
330
1F
100
AcDbEntity
  8
0
  6
SLD-Plná
 62
     7
370
    25
100
AcDbCircle
 10
8417.8182481402
 20
5990.2323768048
 30
0.0
 40
52.01962036868099
100
AcDbArc
 50
180.0
 51
259.953513664
  0
LINE
  5
BD
330
1F
100
AcDbEntity
  8
0
  6
SLD-Plná
 62
     7
370
    25
100
AcDbLine
 10
8365.7986277715
 20
5990.2323768048
 30
0.0
 11
8374.4638773675
 21
5990.2323768048
 31
0.0
  0
ARC
  5
BE
330
1F
100
AcDbEntity
  8
0
  6
SLD-Plná
 62
     7
370
    25
100
AcDbCircle
 10
8610.7790074029
 20
5990.2323768048
 30
0.0
 40
52.01962036868099
100
AcDbArc
 50
280.046486336
 51
0.0
  0
LINE
  5
BF
330
1F
100
AcDbEntity
  8
0
  6
SLD-Plná
 62
     7
370
    25
100
AcDbLine
 10
8654.1333781756
 20
5990.2323768048
 30
0.0
 11
8662.7986277715
 21
5990.2323768048
 31
0.0
  0
SPLINE
  5
C0
330
1F
100
AcDbEntity
  8
0
  6
SLD-Plná
 62
     7
370
    25
100
AcDbSpline
210
0.0
220
0.0
230
1.0
 70
     8
 71
     3
 72
    11
 73
     7
 74
     0
 42
0.00000001
 43
0.00000001
 40
0.0
 40
0.0
 40
0.0
 40
0.0
 40
0.1568784395045425
 40
0.4379189597986801
 40
0.7189594800928162
 40
1.0
 40
1.0
 40
1.0
 40
1.0
 10
8366.08063544128
 20
6406.392270450595
 30
0.0
 10
8366.163720204115
 20
6406.354182918004
 30
0.0
 10
8366.395647504203
 20
6406.247863319809
 30
0.0
 10
8368.14605410408
 20
6406.097319811392
 30
0.0
 10
8370.945009742209
 20
6405.962380409715
 30
0.0
 10
8373.290921489652
 20
6405.929890202677
 30
0.0
 10
8374.463877362565
 20
6405.913645099168
 30
0.0
  0
SPLINE
  5
C1
330
1F
100
AcDbEntity
  8
0
  6
SLD-Plná
 62
     7
370
    25
100
AcDbSpline
210
0.0
220
0.0
230
1.0
 70
     8
 71
     3
 72
    19
 73
    15
 74
     0
 42
0.00000001
 43
0.00000001
 40
0.0
 40
0.0
 40
0.0
 40
0.0
 40
0.0884984883441213
 40
0.1768953021354477
 40
0.2651841936193291
 40
0.3533692385669653
 40
0.4414719748444644
 40
0.5295048678586135
 40
0.6174954641799829
 40
0.7054709978971684
 40
0.793439372854176
 40
0.8814130089765038
 40
0.9693924925423054
 40
1.0
 40
1.0
 40
1.0
 40
1.0
 10
8408.743603340627
 20
6455.994930987694
 30
0.0
 10
8406.770222287967
 20
6455.643343355589
 30
0.0
 10
8402.825727369804
 20
6454.940572025008
 30
0.0
 10
8397.1404907416
 20
6453.041204215148
 30
0.0
 10
8391.72525429854
 20
6450.547857090256
 30
0.0
 10
8386.66364917582
 20
6447.426155595478
 30
0.0
 10
8382.02327511925
 20
6443.727091197314
 30
0.0
 10
8377.866861619148
 20
6439.493428700075
 30
0.0
 10
8374.248524970588
 20
6434.78185974477
 30
0.0
 10
8371.222215596643
 20
6429.653992687447
 30
0.0
 10
8368.814255156673
 20
6424.180752709744
 30
0.0
 10
8367.115282064848
 20
6418.435800188137
 30
0.0
 10
8366.180862871506
 20
6413.806700679896
 30
0.0
 10
8366.058967597266
 20
6411.10116379241
 30
0.0
 10
8366.027506216187
 20
6410.402860043018
 30
0.0
  0
SPLINE
  5
C2
330
1F
100
AcDbEntity
  8
0
  6
SLD-Plná
 62
     7
370
    25
100
AcDbSpline
210
0.0
220
0.0
230
1.0
 70
     8
 71
     3
 72
    19
 73
    15
 74
     0
 42
0.00000001
 43
0.00000001
 40
0.0
 40
0.0
 40
0.0
 40
0.0
 40
0.0306062850639386
 40
0.1185858795709358
 40
0.2065596266270984
 40
0.2945281125113082
 40
0.3825037571647166
 40
0.4704944644413063
 40
0.558527468464012
 40
0.6466303158381371
 40
0.7348154719861866
 40
0.8231044748014331
 40
0.9115014000602126
 40
1.0
 40
1.0
 40
1.0
 40
1.0
 10
8662.569744300701
 20
6410.402946218903
 30
0.0
 10
8662.538283945234
 20
6411.101221167825
 30
0.0
 10
8662.41638891888
 20
6413.806729164868
 30
0.0
 10
8661.481972756457
 20
6418.435800104628
 30
0.0
 10
8659.783000579868
 20
6424.180752732113
 30
0.0
 10
8657.375039894678
 20
6429.653992681449
 30
0.0
 10
8654.348730586446
 20
6434.781859746375
 30
0.0
 10
8650.730393920272
 20
6439.493428699642
 30
0.0
 10
8646.573980424893
 20
6443.727091197427
 30
0.0
 10
8641.933606367058
 20
6447.426155595445
 30
0.0
 10
8636.872001244676
 20
6450.547857090262
 30
0.0
 10
8631.456764801525
 20
6453.041204215144
 30
0.0
 10
8625.771528173347
 20
6454.940572025006
 30
0.0
 10
8621.82703325518
 20
6455.643343355588
 30
0.0
 10
8619.853652202519
 20
6455.994930987692
 30
0.0
  0
SPLINE
  5
C3
330
1F
100
AcDbEntity
  8
0
  6
SLD-Plná
 62
     7
370
    25
100
AcDbSpline
210
0.0
220
0.0
230
1.0
 70
     8
 71
     3
 72
    11
 73
     7
 74
     0
 42
0.00000001
 43
0.00000001
 40
0.0
 40
0.0
 40
0.0
 40
0.0
 40
0.2810413735316569
 40
0.5620827470633168
 40
0.8431241205949735
 40
1.0
 40
1.0
 40
1.0
 40
1.0
 10
8654.133378175624
 20
6405.913645099128
 30
0.0
 10
8655.306334108183
 20
6405.929890201621
 30
0.0
 10
8657.652245973304
 20
6405.962380406605
 30
0.0
 10
8660.451200744405
 20
6406.097319823569
 30
0.0
 10
8662.20160276553
 20
6406.247862646873
 30
0.0
 10
8662.433529630829
 20
6406.354181487322
 30
0.0
 10
8662.516613205884
 20
6406.392268275365
 30
0.0
  0
ARC
  5
C4
330
1F
100
AcDbEntity
  8
0
  6
SLD-Plná
 62
     7
370
    25
100
AcDbCircle
 10
8417.8182481402
 20
6429.2323768048
 30
0.0
 40
42.01962036868039
100
AcDbArc
 50
100.046486336
 51
163.6758192003
  0
ARC
  5
C5
330
1F
100
AcDbEntity
  8
0
  6
SLD-Plná
 62
     7
370
    25
100
AcDbCircle
 10
8610.7790074029
 20
6429.2323768048
 30
0.0
 40
42.01962036868064
100
AcDbArc
 50
16.7124696699
 51
79.953513664
  0
LINE
  5
C6
330
1F
100
AcDbEntity
  8
0
  6
SLD-Plná
 62
     7
370
    25
100
AcDbLine
 10
8662.7986277715
 20
6429.2323768048
 30
0.0
 11
8658.380327332
 21
6429.2323768048
 31
0.0
  0
LINE
  5
C7
330
1F
100
AcDbEntity
  8
0
  6
SLD-Plná
 62
     7
370
    25
100
AcDbLine
 10
8365.7986277715
 20
6429.2323768048
 30
0.0
 11
8370.2340870263
 21
6429.2323768048
 31
0.0
  0
LINE
  5
C8
330
1F
100
AcDbEntity
  8
0
  6
SLD-Plná
 62
     7
370
    25
100
AcDbLine
 10
9068.4358590741
 20
6461.2238272759
 30
0.0
 11
9039.5452948532
 21
6468.9650306278
 31
0.0
  0
SPLINE
  5
C9
330
1F
100
AcDbEntity
  8
0
  6
SLD-Plná
 62
     7
370
    25
100
AcDbSpline
210
0.0
220
0.0
230
1.0
 70
     8
 71
     3
 72
    10
 73
     6
 74
     0
 42
0.00000001
 43
0.00000001
 40
0.0
 40
0.0
 40
0.0
 40
0.0
 40
0.1508787106318895
 40
0.5514303908963285
 40
1.0
 40
1.0
 40
1.0
 40
1.0
 10
9025.625358065441
 20
6453.20247791678
 30
0.0
 10
9025.566115105135
 20
6453.038379536125
 30
0.0
 10
9025.349594373854
 20
6452.438633993421
 30
0.0
 10
9025.072711852577
 20
6451.466153935278
 30
0.0
 10
9024.860314906386
 20
6450.535377175247
 30
0.0
 10
9024.748110894638
 20
6450.043671016612
 30
0.0
  0
SPLINE
  5
CA
330
1F
100
AcDbEntity
  8
0
  6
SLD-Plná
 62
     7
370
    25
100
AcDbSpline
210
0.0
220
0.0
230
1.0
 70
     8
 71
     3
 72
    11
 73
     7
 74
     0
 42
0.00000001
 43
0.00000001
 40
0.0
 40
0.0
 40
0.0
 40
0.0
 40
0.2449011394062519
 40
0.4919407101126853
 40
0.743343013418662
 40
0.9999999999999999
 40
0.9999999999999999
 40
0.9999999999999999
 40
0.9999999999999999
 10
9039.635719826096
 20
6468.937779611374
 30
0.0
 10
9038.652151775275
 20
6469.119213909516
 30
0.0
 10
9036.676427339946
 20
6469.483666756423
 30
0.0
 10
9033.672626237601
 20
6468.822256774131
 30
0.0
 10
9030.93213705703
 20
6467.334368805326
 30
0.0
 10
9029.61050750214
 20
6465.736489120514
 30
0.0
 10
9028.942858143717
 20
6464.929286116877
 30
0.0
  0
SPLINE
  5
CB
330
1F
100
AcDbEntity
  8
0
  6
SLD-Plná
 62
     7
370
    25
100
AcDbSpline
210
0.0
220
0.0
230
1.0
 70
     8
 71
     3
 72
    11
 73
     7
 74
     0
 42
0.00000001
 43
0.00000001
 40
0.0
 40
0.0
 40
0.0
 40
0.0
 40
0.2530711028728406
 40
0.5060480284511756
 40
0.7590037170823909
 40
1.0
 40
1.0
 40
1.0
 40
1.0
 10
9028.942858143717
 20
6464.92928611688
 30
0.0
 10
9028.81994503319
 20
6464.67084938151
 30
0.0
 10
9028.574164552736
 20
6464.154072084822
 30
0.0
 10
9027.869917221895
 20
6461.784250510493
 30
0.0
 10
9026.956908598033
 20
6458.419256239349
 30
0.0
 10
9026.196865944166
 20
6455.156646296389
 30
0.0
 10
9025.82604557095
 20
6453.56483795438
 30
0.0
  0
SPLINE
  5
CC
330
1F
100
AcDbEntity
  8
0
  6
SLD-Plná
 62
     7
370
    25
100
AcDbSpline
210
0.0
220
0.0
230
1.0
 70
     8
 71
     3
 72
     9
 73
     5
 74
     0
 42
0.00000001
 43
0.00000001
 40
0.0
 40
0.0
 40
0.0
 40
0.0
 40
0.4540246741479705
 40
1.0
 40
1.0
 40
1.0
 40
1.0
 10
9070.104028500498
 20
6460.610175051223
 30
0.0
 10
9069.627523975105
 20
6460.781267062805
 30
0.0
 10
9068.578011575171
 20
6461.158101233555
 30
0.0
 10
9067.483516279974
 20
6461.390741050304
 30
0.0
 10
9066.885948854533
 20
6461.517756650061
 30
0.0
  0
LINE
  5
CD
330
1F
100
AcDbEntity
  8
0
  6
SLD-Plná
 62
     7
370
    25
100
AcDbLine
 10
9019.8306755852
 20
6411.1955053063
 30
0.0
 11
9019.7745121493
 21
6411.2022627424
 31
0.0
  0
ARC
  5
CE
330
1F
100
AcDbEntity
  8
0
  6
SLD-Plná
 62
     7
370
    25
100
AcDbCircle
 10
8949.0906870894
 20
6430.1061242465
 30
0.0
 40
1.000000000000909
100
AcDbArc
 50
270.0
 51
0.0
  0
ARC
  5
CF
330
1F
100
AcDbEntity
  8
0
  6
SLD-Plná
 62
     7
370
    25
100
AcDbCircle
 10
8949.0906870894
 20
6447.4744286392
 30
0.0
 40
1.0
100
AcDbArc
 50
0.0
 51
90.0
  0
ARC
  5
D0
330
1F
100
AcDbEntity
  8
0
  6
SLD-Plná
 62
     7
370
    25
100
AcDbCircle
 10
8949.0906870894
 20
6449.7323768048
 30
0.0
 40
1.0
100
AcDbArc
 50
0.0
 51
90.0
  0
ARC
  5
D1
330
1F
100
AcDbEntity
  8
0
  6
SLD-Plná
 62
     7
370
    25
100
AcDbCircle
 10
9023.5597504645
 20
6442.9776208989
 30
0.0
 40
1.000000000001532
100
AcDbArc
 50
83.1393021911
 51
173.139302191
  0
ARC
  5
D2
330
1F
100
AcDbEntity
  8
0
  6
SLD-Plná
 62
     7
370
    25
100
AcDbCircle
 10
9021.7862778711
 20
6429.5658032307
 30
0.0
 40
0.9999999999996171
100
AcDbArc
 50
173.1393021911
 51
263.1393021911
  0
ARC
  5
D3
330
1F
100
AcDbEntity
  8
0
  6
SLD-Plná
 62
     7
370
    25
100
AcDbCircle
 10
9023.0358123108
 20
6439.9511248129
 30
0.0
 40
1.000000000001532
100
AcDbArc
 50
83.1393021911
 51
173.139302191
  0
LINE
  5
D4
330
1F
100
AcDbEntity
  8
0
  6
SLD-Plná
 62
     7
370
    25
100
AcDbLine
 10
8914.3774369285
 20
5932.7323768048
 30
0.0
 11
8915.4693476313
 21
5929.7323768048
 31
0.0
  0
LINE
  5
D5
330
1F
100
AcDbEntity
  8
0
  6
SLD-Plná
 62
     7
370
    25
100
AcDbLine
 10
8899.0906870894
 20
5974.7323768048
 30
0.0
 11
8907.0980322432
 21
5952.7323768048
 31
0.0
  0
LINE
  5
D6
330
1F
100
AcDbEntity
  8
0
  6
SLD-Plná
 62
     7
370
    25
100
AcDbLine
 10
8915.4693476313
 20
5929.7323768048
 30
0.0
 11
8919.4693476313
 21
5929.7323768048
 31
0.0
  0
LINE
  5
D7
330
1F
100
AcDbEntity
  8
0
  6
SLD-Plná
 62
     7
370
    25
100
AcDbLine
 10
8907.7509411272
 20
6489.7323768048
 30
0.0
 11
8899.0906870894
 21
6474.7323768048
 31
0.0
  0
LINE
  5
D8
330
1F
100
AcDbEntity
  8
0
  6
SLD-Plná
 62
     7
370
    25
100
AcDbLine
 10
8939.0906870894
 20
6489.7323768048
 30
0.0
 11
8907.7509411272
 21
6489.7323768048
 31
0.0
  0
LINE
  5
D9
330
1F
100
AcDbEntity
  8
0
  6
SLD-Plná
 62
     7
370
    25
100
AcDbLine
 10
8919.4693476313
 20
5929.7323768048
 30
0.0
 11
8945.5906870894
 21
5929.7323768048
 31
0.0
  0
ARC
  5
DA
330
1F
100
AcDbEntity
  8
0
  6
SLD-Plná
 62
     7
370
    25
100
AcDbCircle
 10
8939.0906870894
 20
6479.7323768048
 30
0.0
 40
10.00000000000091
100
AcDbArc
 50
0.0
 51
90.0
  0
LINE
  5
DB
330
1F
100
AcDbEntity
  8
0
  6
SLD-Plná
 62
     7
370
    25
100
AcDbLine
 10
8899.0906870894
 20
5992.2323768048
 30
0.0
 11
8896.5906870894
 21
5992.2323768048
 31
0.0
  0
LINE
  5
DC
330
1F
100
AcDbEntity
  8
0
  6
SLD-Plná
 62
     7
370
    25
100
AcDbLine
 10
8896.5906870894
 20
5977.2323768048
 30
0.0
 11
8899.0906870894
 21
5977.2323768048
 31
0.0
  0
LINE
  5
DD
330
1F
100
AcDbEntity
  8
0
  6
SLD-Plná
 62
     7
370
    25
100
AcDbLine
 10
9019.5906870894
 20
5929.7323768048
 30
0.0
 11
9059.0004009751
 21
5929.7323768048
 31
0.0
  0
LINE
  5
DE
330
1F
100
AcDbEntity
  8
0
  6
SLD-Plná
 62
     7
370
    25
100
AcDbLine
 10
8945.5906870894
 20
5929.7323768048
 30
0.0
 11
8982.6493057209
 21
5929.7323768048
 31
0.0
  0
SPLINE
  5
DF
330
1F
100
AcDbEntity
  8
0
  6
SLD-Plná
 62
     7
370
    25
100
AcDbSpline
210
0.0
220
0.0
230
1.0
 70
     8
 71
     3
 72
    15
 73
    11
 74
     0
 42
0.00000001
 43
0.00000001
 40
0.0
 40
0.0
 40
0.0
 40
0.0
 40
0.0383261374366633
 40
0.1234034978782017
 40
0.2427684453989375
 40
0.3943885584159934
 40
0.5642606544180129
 40
0.7502942666899698
 40
0.9463587927436985
 40
1.0
 40
1.0
 40
1.0
 40
1.0
 10
8983.978650077068
 20
5930.944717557182
 30
0.0
 10
8983.979583805749
 20
5930.944925722967
 30
0.0
 10
8983.982590249723
 20
5930.945595980597
 30
0.0
 10
8984.176479535505
 20
5930.972643075595
 30
0.0
 10
8984.596031766703
 20
5931.011307286038
 30
0.0
 10
8985.316409563484
 20
5931.058246962561
 30
0.0
 10
8986.309509397992
 20
5931.101495516943
 30
0.0
 10
8987.521693272294
 20
5931.132521291604
 30
0.0
 10
8988.540165941951
 20
5931.147181341037
 30
0.0
 10
8989.126064383314
 20
5931.144561249536
 30
0.0
 10
8989.251925729417
 20
5931.143998407549
 30
0.0
  0
SPLINE
  5
E0
330
1F
100
AcDbEntity
  8
0
  6
SLD-Plná
 62
     7
370
    25
100
AcDbSpline
210
0.0
220
0.0
230
1.0
 70
     8
 71
     3
 72
    13
 73
     9
 74
     0
 42
0.00000001
 43
0.00000001
 40
0.0
 40
0.0
 40
0.0
 40
0.0
 40
0.1711310917983595
 40
0.3711438447066762
 40
0.5704313460967809
 40
0.764804421571817
 40
0.9131942358206258
 40
1.0
 40
1.0
 40
1.0
 40
1.0
 10
9014.59027294666
 20
5931.144606038576
 30
0.0
 10
9014.935292484623
 20
5931.143646589697
 30
0.0
 10
9015.68356023932
 20
5931.141565766496
 30
0.0
 10
9016.769280408613
 20
5931.113852168842
 30
0.0
 10
9017.755850964253
 20
5931.069432982452
 30
0.0
 10
9018.444192324627
 20
5931.019469520999
 30
0.0
 10
9018.814233006253
 20
5930.974723109912
 30
0.0
 10
9018.85285198777
 20
5930.967545382323
 30
0.0
 10
9018.867105445359
 20
5930.964896233336
 30
0.0
  0
LINE
  5
E1
330
1F
100
AcDbEntity
  8
0
  6
SLD-Plná
 62
     7
370
    25
100
AcDbLine
 10
8989.2451750437
 20
5931.1459245441
 30
0.0
 11
9014.5906870894
 21
5931.1459245441
 31
0.0
  0
ARC
  5
E2
330
1F
100
AcDbEntity
  8
0
  6
SLD-Plná
 62
     7
370
    25
100
AcDbCircle
 10
8982.6493057209
 20
5932.2323768048
 30
0.0
 40
2.500000000000072
100
AcDbArc
 50
271.9435410882
 51
329.9314171781
  0
ARC
  5
E3
330
1F
100
AcDbEntity
  8
0
  6
SLD-Plná
 62
     7
370
    25
100
AcDbCircle
 10
9019.5906870894
 20
5932.2323768048
 30
0.0
 40
2.500000000000504
100
AcDbArc
 50
207.838728075
 51
270.0
  0
LINE
  5
E4
330
1F
100
AcDbEntity
  8
0
  6
SLD-Plná
 62
     7
370
    25
100
AcDbLine
 10
9068.4358623384
 20
6461.2238393861
 30
0.0
 11
9066.8802275392
 21
6461.4983492311
 31
0.0
  0
LINE
  5
E5
330
1F
100
AcDbEntity
  8
0
  6
SLD-Plná
 62
     7
370
    25
100
AcDbLine
 10
9052.7084773841
 20
6455.9950921331
 30
0.0
 11
9037.2010347829
 21
6459.6332290751
 31
0.0
  0
SPLINE
  5
E6
330
1F
100
AcDbEntity
  8
0
  6
SLD-Plná
 62
     7
370
    25
100
AcDbSpline
210
0.0
220
0.0
230
1.0
 70
     8
 71
     3
 72
    24
 73
    20
 74
     0
 42
0.00000001
 43
0.00000001
 40
0.0
 40
0.0
 40
0.0
 40
0.0
 40
0.0612701456130661
 40
0.1247616040158636
 40
0.1852484777829957
 40
0.2494158365577429
 40
0.2977101225179217
 40
0.3476721116883623
 40
0.3963602035779876
 40
0.4361013826868171
 40
0.4990736191726425
 40
0.5510565500537401
 40
0.6004616843636957
 40
0.6509371500184665
 40
0.7018908649689924
 40
0.7495062338833567
 40
0.8339696235516627
 40
0.9166458853677832
 40
1.0
 40
1.0
 40
1.0
 40
1.0
 10
9037.18627684754
 20
6459.564290364587
 30
0.0
 10
9037.110306642933
 20
6459.239185323278
 30
0.0
 10
9036.95561197901
 20
6458.577188750211
 30
0.0
 10
9036.622423499733
 20
6457.125058775152
 30
0.0
 10
9036.217670765995
 20
6455.314901642225
 30
0.0
 10
9035.786320198387
 20
6453.318692848655
 30
0.0
 10
9035.340513775962
 20
6451.182080633012
 30
0.0
 10
9034.910630987404
 20
6449.047501684917
 30
0.0
 10
9034.486102250563
 20
6446.855596554532
 30
0.0
 10
9034.008055043654
 20
6444.289111857494
 30
0.0
 10
9033.509751668502
 20
6441.474477100502
 30
0.0
 10
9032.978682900846
 20
6438.277497484577
 30
0.0
 10
9032.494286532348
 20
6435.169054385259
 30
0.0
 10
9032.025920596898
 20
6431.945001863966
 30
0.0
 10
9031.582612868382
 20
6428.637407649395
 30
0.0
 10
9031.067442519903
 20
6424.450984618873
 30
0.0
 10
9030.52259442026
 20
6419.367871726135
 30
0.0
 10
9029.98240634151
 20
6413.274431635678
 30
0.0
 10
9029.724044967412
 20
6409.180774788247
 30
0.0
 10
9029.594336873906
 20
6407.125589770752
 30
0.0
  0
SPLINE
  5
E7
330
1F
100
AcDbEntity
  8
0
  6
SLD-Plná
 62
     7
370
    25
100
AcDbSpline
210
0.0
220
0.0
230
1.0
 70
    24
 71
     3
 72
    15
 73
    11
 74
     0
 42
0.00000001
 43
0.00000001
 40
0.0
 40
0.0
 40
0.0
 40
0.0
 40
0.1250000000398534
 40
0.250000000079707
 40
0.375000000119561
 40
0.5000000001594163
 40
0.625000000199267
 40
0.7500000002391223
 40
0.8750000001195616
 40
1.0
 40
1.0
 40
1.0
 40
1.0
 10
9019.610670279293
 20
6407.698575251256
 30
0.0
 10
9019.647826313561
 20
6407.696443834179
 30
0.0
 10
9019.722138382096
 20
6407.692181000025
 30
0.0
 10
9020.315788860318
 20
6407.658126860714
 30
0.0
 10
9021.238459882994
 20
6407.605198801702
 30
0.0
 10
9022.489620392093
 20
6407.533427286577
 30
0.0
 10
9024.01183047921
 20
6407.446107295658
 30
0.0
 10
9025.749099838473
 20
6407.346450654333
 30
0.0
 10
9027.633995194756
 20
6407.238325601961
 30
0.0
 10
9028.94083683315
 20
6407.163359997041
 30
0.0
 10
9029.594257652347
 20
6407.12587719458
 30
0.0
  0
SPLINE
  5
E8
330
1F
100
AcDbEntity
  8
0
  6
SLD-Plná
 62
     7
370
    25
100
AcDbSpline
210
0.0
220
0.0
230
1.0
 70
     8
 71
     3
 72
    24
 73
    20
 74
     0
 42
0.00000001
 43
0.00000001
 40
0.0
 40
0.0
 40
0.0
 40
0.0
 40
0.0057318462265156
 40
0.0511292564440415
 40
0.0985039282577371
 40
0.1478412748353836
 40
0.2173232470303934
 40
0.2832567874601166
 40
0.3540974721393895
 40
0.4319438226181898
 40
0.4959470332985769
 40
0.5521919024121571
 40
0.6028915028436317
 40
0.6617961826627247
 40
0.7180270472832054
 40
0.7875448474158329
 40
0.8584034812529627
 40
0.9293609218192291
 40
0.9999999999999999
 40
0.9999999999999999
 40
0.9999999999999999
 40
0.9999999999999999
 10
9024.657438771157
 20
6449.66055336645
 30
0.0
 10
9024.649353848046
 20
6449.626904684952
 30
0.0
 10
9024.577234658038
 20
6449.32675147126
 30
0.0
 10
9024.42773375373
 20
6448.610021155881
 30
0.0
 10
9024.206362905468
 20
6447.490810523126
 30
0.0
 10
9023.93529475115
 20
6445.998341549568
 30
0.0
 10
9023.621574994322
 20
6444.128315726826
 30
0.0
 10
9023.258897429727
 20
6441.785010325314
 30
0.0
 10
9022.87255232808
 20
6439.103860867469
 30
0.0
 10
9022.483679633826
 20
6436.208631152886
 30
0.0
 10
9022.120000635157
 20
6433.328888349156
 30
0.0
 10
9021.806754232746
 20
6430.724086550058
 30
0.0
 10
9021.504709479363
 20
6428.105844738753
 30
0.0
 10
9021.205672501217
 20
6425.405129735387
 30
0.0
 10
9020.877652173265
 20
6422.315828962194
 30
0.0
 10
9020.535501960867
 20
6418.946468789283
 30
0.0
 10
9020.179042661186
 20
6415.252894138504
 30
0.0
 10
9019.832851209407
 20
6411.490808866985
 30
0.0
 10
9019.616115014802
 20
6408.966540921833
 30
0.0
 10
9019.507990569862
 20
6407.707244702515
 30
0.0
  0
SPLINE
  5
E9
330
1F
100
AcDbEntity
  8
0
  6
SLD-Plná
 62
     7
370
    25
100
AcDbSpline
210
0.0
220
0.0
230
1.0
 70
     8
 71
     3
 72
    17
 73
    13
 74
     0
 42
0.00000001
 43
0.00000001
 40
0.0
 40
0.0
 40
0.0
 40
0.0
 40
0.0384757305118432
 40
0.1054723074732432
 40
0.165860616629288
 40
0.3130363270353422
 40
0.3812121155171856
 40
0.4457093988165765
 40
0.587245608948508
 40
0.7231391626897141
 40
0.8596729910213574
 40
1.0
 40
1.0
 40
1.0
 40
1.0
 10
9025.664812276853
 20
6453.195298945078
 30
0.0
 10
9025.711923914312
 20
6453.372751735135
 30
0.0
 10
9025.841069561335
 20
6453.859197476021
 30
0.0
 10
9026.215094214042
 20
6454.562118798633
 30
0.0
 10
9026.877838753593
 20
6455.689186117471
 30
0.0
 10
9027.730620981392
 20
6456.710581439577
 30
0.0
 10
9028.734635562683
 20
6457.597641030288
 30
0.0
 10
9029.79900534488
 20
6458.369470357954
 30
0.0
 10
9031.26618685752
 20
6459.13327700868
 30
0.0
 10
9033.190542764058
 20
6459.681252784104
 30
0.0
 10
9035.190079274606
 20
6459.874021535129
 30
0.0
 10
9036.514827670371
 20
6459.668472807656
 30
0.0
 10
9037.186276842574
 20
6459.564290365654
 30
0.0
  0
LINE
  5
EA
330
1F
100
AcDbEntity
  8
0
  6
SLD-Plná
 62
     7
370
    25
100
AcDbLine
 10
9040.832297997
 20
6406.4812187541
 30
0.0
 11
9029.594257667
 21
6407.1258771937
 31
0.0
  0
SPLINE
  5
EB
330
1F
100
AcDbEntity
  8
0
  6
SLD-Plná
 62
     7
370
    25
100
AcDbSpline
210
0.0
220
0.0
230
1.0
 70
     8
 71
     3
 72
    19
 73
    15
 74
     0
 42
0.00000001
 43
0.00000001
 40
0.0
 40
0.0
 40
0.0
 40
0.0
 40
0.0836956714996721
 40
0.1672951863289895
 40
0.250792635799221
 40
0.3341918744892846
 40
0.4175132714043499
 40
0.5007686154530309
 40
0.5839839582523048
 40
0.6671850558955844
 40
0.7503793832849149
 40
0.8335786863158933
 40
0.9167835194493313
 40
1.0
 40
1.0
 40
1.0
 40
1.0
 10
9052.708439182024
 20
6455.994930987694
 30
0.0
 10
9052.405850204079
 20
6455.643343350096
 30
0.0
 10
9051.801019888007
 20
6454.940572008531
 30
0.0
 10
9050.734873837817
 20
6453.041204280928
 30
0.0
 10
9049.587032834716
 20
6450.547856844033
 30
0.0
 10
9048.376139666567
 20
6447.426156513184
 30
0.0
 10
9047.139727589794
 20
6443.727087776862
 30
0.0
 10
9045.91659313636
 20
6439.493441451975
 30
0.0
 10
9044.743993226328
 20
6434.781812181548
 30
0.0
 10
9043.658357673476
 20
6429.65417015909
 30
0.0
 10
9042.69481404979
 20
6424.180090415172
 30
0.0
 10
9041.885607025391
 20
6418.438272147084
 30
0.0
 10
9041.235561481619
 20
6412.511470936833
 30
0.0
 10
9040.96672520351
 20
6408.491396616419
 30
0.0
 10
9040.832297656863
 20
6406.481218778669
 30
0.0
  0
LINE
  5
EC
330
1F
100
AcDbEntity
  8
0
  6
SLD-Plná
 62
     7
370
    25
100
AcDbLine
 10
9029.0906870868
 20
6389.5544076834
 30
0.0
 11
9029.5942576574
 21
6407.1258771943
 31
0.0
  0
LINE
  5
ED
330
1F
100
AcDbEntity
  8
0
  6
SLD-Plná
 62
     7
370
    25
100
AcDbLine
 10
9019.0906870894
 20
6389.5544076834
 30
0.0
 11
9029.0906870868
 21
6389.5544076834
 31
0.0
  0
ARC
  5
EE
330
1F
100
AcDbEntity
  8
0
  6
SLD-Plná
 62
     7
370
    25
100
AcDbCircle
 10
9335.9097743426
 20
6389.5544076834
 30
0.0
 40
316.819087253205
100
AcDbArc
 50
176.7168854929
 51
180.0
  0
LINE
  5
EF
330
1F
100
AcDbEntity
  8
0
  6
SLD-Plná
 62
     7
370
    25
100
AcDbLine
 10
9040.832297997
 20
6406.4812187541
 30
0.0
 11
9040.3472023219
 21
6389.5544076834
 31
0.0
  0
LINE
  5
F0
330
1F
100
AcDbEntity
  8
0
  6
SLD-Plná
 62
     7
370
    25
100
AcDbLine
 10
9040.3472023219
 20
6389.5544076834
 30
0.0
 11
9029.0906870868
 21
6389.5544076834
 31
0.0
  0
SPLINE
  5
F1
330
1F
100
AcDbEntity
  8
0
  6
SLD-Plná
 62
     7
370
    25
100
AcDbSpline
210
0.0
220
0.0
230
1.0
 70
    24
 71
     3
 72
    11
 73
     7
 74
     0
 42
0.00000001
 43
0.00000001
 40
0.0
 40
0.0
 40
0.0
 40
0.0
 40
0.2500000000860539
 40
0.5000000001721081
 40
0.750000000258161
 40
0.9999999999999999
 40
0.9999999999999999
 40
0.9999999999999999
 40
0.9999999999999999
 10
9040.832297997023
 20
6406.481218754107
 30
0.0
 10
9042.028935538649
 20
6406.412574892033
 30
0.0
 10
9044.422210621899
 20
6406.275287167887
 30
0.0
 10
9047.531261878095
 20
6406.096939691574
 30
0.0
 10
9049.875316640955
 20
6405.96247543967
 30
0.0
 10
9050.442808201637
 20
6405.929921879328
 30
0.0
 10
9050.726553981778
 20
6405.913645099168
 30
0.0
  0
ARC
  5
F2
330
1F
100
AcDbEntity
  8
0
  6
SLD-Plná
 62
     7
370
    25
100
AcDbCircle
 10
9335.9097743426
 20
6389.5544076834
 30
0.0
 40
285.65205027091
100
AcDbArc
 50
176.7168854929
 51
180.0
  0
LINE
  5
F3
330
1F
100
AcDbEntity
  8
0
  6
SLD-Plná
 62
     7
370
    25
100
AcDbLine
 10
9040.3472023219
 20
6389.5544076834
 30
0.0
 11
9050.2577240716
 21
6389.5544076834
 31
0.0
  0
SPLINE
  5
F4
330
1F
100
AcDbEntity
  8
0
  6
SLD-Plná
 62
     7
370
    25
100
AcDbSpline
210
0.0
220
0.0
230
1.0
 70
     8
 71
     3
 72
    23
 73
    19
 74
     0
 42
0.00000001
 43
0.00000001
 40
0.0
 40
0.0
 40
0.0
 40
0.0
 40
0.0417588707848914
 40
0.0833734044953044
 40
0.1250723386889977
 40
0.1667415184134882
 40
0.208380681252345
 40
0.2501454865143101
 40
0.3750581586838131
 40
0.4999782522039508
 40
0.6249069974588167
 40
0.7498447498524038
 40
0.7914654769543463
 40
0.8331144392286771
 40
0.8749219262928263
 40
0.9166207807225941
 40
0.9586466076291593
 40
0.9999999999999999
 40
0.9999999999999999
 40
0.9999999999999999
 40
0.9999999999999999
 10
9050.72655398246
 20
6405.913645099129
 30
0.0
 10
9050.77634631918
 20
6406.714109762882
 30
0.0
 10
9050.875758888342
 20
6408.312272331477
 30
0.0
 10
9051.074853515638
 20
6410.697170470602
 30
0.0
 10
9051.30901529185
 20
6413.05898543807
 30
0.0
 10
9051.580447328855
 20
6415.39039834117
 30
0.0
 10
9051.886559502413
 20
6417.683042705587
 30
0.0
 10
9052.450355392655
 20
6421.418825620807
 30
0.0
 10
9053.381538841304
 20
6426.390523760887
 30
0.0
 10
9054.766972328269
 20
6432.046470507553
 30
0.0
 10
9056.249331577297
 20
6436.812287814944
 30
0.0
 10
9057.406336926731
 20
6439.733778740402
 30
0.0
 10
9058.202298209806
 20
6441.416409593587
 30
0.0
 10
9058.669202803352
 20
6442.305086434561
 30
0.0
 10
9059.122531256615
 20
6443.070727557268
 30
0.0
 10
9059.560570311289
 20
6443.71111403339
 30
0.0
 10
9059.98038038159
 20
6444.233056938047
 30
0.0
 10
9060.242774572258
 20
6444.473631162145
 30
0.0
 10
9060.372913592706
 20
6444.592948185856
 30
0.0
  0
SPLINE
  5
F5
330
1F
100
AcDbEntity
  8
0
  6
SLD-Plná
 62
     7
370
    25
100
AcDbSpline
210
0.0
220
0.0
230
1.0
 70
     8
 71
     3
 72
    15
 73
    11
 74
     0
 42
0.00000001
 43
0.00000001
 40
0.0
 40
0.0
 40
0.0
 40
0.0
 40
0.1277697331098058
 40
0.2552571419764979
 40
0.3821310105955906
 40
0.5080090381636374
 40
0.6326566062585263
 40
0.756020002568106
 40
0.8783164383025865
 40
1.0
 40
1.0
 40
1.0
 40
1.0
 10
9052.708493993372
 20
6455.995162204787
 30
0.0
 10
9053.31937933678
 20
6455.801217651565
 30
0.0
 10
9054.539800191065
 20
6455.413757091444
 30
0.0
 10
9056.199940293605
 20
6454.416149555882
 30
0.0
 10
9057.660296129427
 20
6453.165235574094
 30
0.0
 10
9058.86114405132
 20
6451.676631712453
 30
0.0
 10
9059.767647370809
 20
6450.014961131516
 30
0.0
 10
9060.336570779871
 20
6448.237637488255
 30
0.0
 10
9060.582390086913
 20
6446.401361090606
 30
0.0
 10
9060.442755390897
 20
6445.194716143727
 30
0.0
 10
9060.373113423002
 20
6444.59290920715
 30
0.0
  0
SPLINE
  5
F6
330
1F
100
AcDbEntity
  8
0
  6
SLD-Plná
 62
     7
370
    25
100
AcDbSpline
210
0.0
220
0.0
230
1.0
 70
     8
 71
     3
 72
    23
 73
    19
 74
     0
 42
0.00000001
 43
0.00000001
 40
0.0
 40
0.0
 40
0.0
 40
0.0
 40
0.029933426750229
 40
0.0583698205071121
 40
0.0878509357889318
 40
0.1170999559195026
 40
0.1463502548455663
 40
0.1756186750485111
 40
0.3135971586792171
 40
0.5599921627042092
 40
0.8064480850882121
 40
0.8340997467020935
 40
0.8617299239655323
 40
0.8899541960391709
 40
0.9177554897081711
 40
0.9440696619207621
 40
0.9712806533958404
 40
1.0
 40
1.0
 40
1.0
 40
1.0
 10
9060.372913923407
 20
6444.592948481464
 30
0.0
 10
9060.544246596459
 20
6444.735421958695
 30
0.0
 10
9060.878343238863
 20
6445.01324351793
 30
0.0
 10
9061.378493201908
 20
6445.410015747964
 30
0.0
 10
9061.872825500399
 20
6445.789070474971
 30
0.0
 10
9062.369492524474
 20
6446.154953589848
 30
0.0
 10
9062.862649673447
 20
6446.503742545152
 30
0.0
 10
9063.961411510605
 20
6447.248410471236
 30
0.0
 10
9066.241418620533
 20
6448.599294309514
 30
0.0
 10
9069.588707678446
 20
6449.915811374251
 30
0.0
 10
9072.194848500743
 20
6450.245896010967
 30
0.0
 10
9073.652689365083
 20
6450.203366911475
 30
0.0
 10
9074.05319790873
 20
6450.178537185192
 30
0.0
 10
9074.451423334522
 20
6450.140491359793
 30
0.0
 10
9074.84063213026
 20
6450.091016796329
 30
0.0
 10
9075.221899306565
 20
6450.028446510137
 30
0.0
 10
9075.603997911558
 20
6449.950143409516
 30
0.0
 10
9075.86263006248
 20
6449.891658735928
 30
0.0
 10
9075.995433593447
 20
6449.86162777832
 30
0.0
  0
ARC
  5
F7
330
1F
100
AcDbEntity
  8
0
  6
SLD-Plná
 62
     7
370
    25
100
AcDbCircle
 10
9335.9097743426
 20
6389.5544076834
 30
0.0
 40
266.8190872532021
100
AcDbArc
 50
166.9369651891
 51
180.0
  0
LINE
  5
F8
330
1F
100
AcDbEntity
  8
0
  6
SLD-Plná
 62
     7
370
    25
100
AcDbLine
 10
9050.2577240716
 20
6389.5544076834
 30
0.0
 11
9069.0906870894
 21
6389.5544076834
 31
0.0
  0
SPLINE
  5
F9
330
1F
100
AcDbEntity
  8
0
  6
SLD-Plná
 62
     7
370
    25
100
AcDbSpline
210
0.0
220
0.0
230
1.0
 70
     8
 71
     3
 72
    17
 73
    13
 74
     0
 42
0.00000001
 43
0.00000001
 40
0.0
 40
0.0
 40
0.0
 40
0.0
 40
0.0076786593087255
 40
0.0426624987024764
 40
0.077273886913183
 40
0.1121032204167282
 40
0.1469204102196658
 40
0.3110473415871539
 40
0.4575674437451607
 40
0.6041693420118156
 40
0.8657602165692607
 40
1.0
 40
1.0
 40
1.0
 40
1.0
 10
9025.445959478984
 20
6452.693065189223
 30
0.0
 10
9025.454848749681
 20
6452.7369296098
 30
0.0
 10
9025.504237384377
 20
6452.980639574087
 30
0.0
 10
9025.590723944517
 20
6453.401814239624
 30
0.0
 10
9025.70546073034
 20
6453.95728957792
 30
0.0
 10
9025.816476079248
 20
6454.489552784895
 30
0.0
 10
9026.058073158014
 20
6455.638450603629
 30
0.0
 10
9026.381849089455
 20
6457.140901078457
 30
0.0
 10
9026.73530030299
 20
6458.735996813865
 30
0.0
 10
9027.062272237632
 20
6460.182253821407
 30
0.0
 10
9027.280671526307
 20
6461.125510561033
 30
0.0
 10
9027.262343441298
 20
6461.046352382646
 30
0.0
 10
9027.256127757615
 20
6461.019507123166
 30
0.0
  0
SPLINE
  5
FA
330
1F
100
AcDbEntity
  8
0
  6
SLD-Plná
 62
     7
370
    25
100
AcDbSpline
210
0.0
220
0.0
230
1.0
 70
     8
 71
     3
 72
    22
 73
    18
 74
     0
 42
0.00000001
 43
0.00000001
 40
0.0
 40
0.0
 40
0.0
 40
0.0
 40
0.0624989813872232
 40
0.1250005366953093
 40
0.1868394859038731
 40
0.2500087640410561
 40
0.3292798030940809
 40
0.4125330794220112
 40
0.4999586534852097
 40
0.576602911374934
 40
0.6599254052169063
 40
0.7499378518381318
 40
0.788566271957922
 40
0.8302476824939793
 40
0.8749841408350868
 40
0.9232844131882858
 40
0.9999999999999999
 40
0.9999999999999999
 40
0.9999999999999999
 40
0.9999999999999999
 10
9075.995589580982
 20
6449.861592089521
 30
0.0
 10
9076.056194910496
 20
6450.169571284057
 30
0.0
 10
9076.177408065458
 20
6450.785542356762
 30
0.0
 10
9076.227952710864
 20
6451.724567615077
 30
0.0
 10
9076.179893343035
 20
6452.665590141683
 30
0.0
 10
9076.015024693192
 20
6453.679251363403
 30
0.0
 10
9075.700224485836
 20
6454.77039886449
 30
0.0
 10
9075.195187236866
 20
6455.922241415973
 30
0.0
 10
9074.548975879485
 20
6456.985919398515
 30
0.0
 10
9073.779338558958
 20
6457.962895343141
 30
0.0
 10
9072.892738338196
 20
6458.854054370587
 30
0.0
 10
9072.054518229485
 20
6459.513492548425
 30
0.0
 10
9071.338711166894
 20
6459.980740496555
 30
0.0
 10
9070.795080904634
 20
6460.294711676913
 30
0.0
 10
9070.190142984322
 20
6460.596831749284
 30
0.0
 10
9069.406011881481
 20
6460.932054614407
 30
0.0
 10
9068.804796354065
 20
6461.112877804795
 30
0.0
 10
9068.435862346058
 20
6461.223839384009
 30
0.0
  0
LINE
  5
FB
330
1F
100
AcDbEntity
  8
0
  6
SLD-Plná
 62
     7
370
    25
100
AcDbLine
 10
8950.0906870894
 20
6439.9510539502
 30
0.0
 11
8950.0906870894
 21
6430.1061242465
 31
0.0
  0
ARC
  5
FC
330
1F
100
AcDbEntity
  8
0
  6
SLD-Plná
 62
     7
370
    25
100
AcDbCircle
 10
8949.105953651
 20
6439.935298756
 30
0.0
 40
0.9848594675017505
100
AcDbArc
 50
0.9166227974
 51
90.8881922894
  0
ARC
  5
FD
330
1F
100
AcDbEntity
  8
0
  6
SLD-Plná
 62
     7
370
    25
100
AcDbCircle
 10
8949.094311211
 20
6447.4344044398
 30
0.0
 40
0.9963825662631696
100
AcDbArc
 50
0.209928386
 51
90.2084012123
  0
LINE
  5
FE
330
1F
100
AcDbEntity
  8
0
  6
SLD-Plná
 62
     7
370
    25
100
AcDbLine
 10
8950.0906870894
 20
6447.4380551191
 30
0.0
 11
8950.0906870894
 21
6439.9510539502
 31
0.0
  0
LINE
  5
FF
330
1F
100
AcDbEntity
  8
0
  6
SLD-Plná
 62
     7
370
    25
100
AcDbLine
 10
8950.0906870894
 20
6447.4744286392
 30
0.0
 11
8950.0906870894
 21
6447.4380551191
 31
0.0
  0
LINE
  5
100
330
1F
100
AcDbEntity
  8
0
  6
SLD-Plná
 62
     7
370
    25
100
AcDbLine
 10
8950.0906870894
 20
6449.0769514991
 30
0.0
 11
8950.0906870894
 21
6447.4744286392
 31
0.0
  0
ARC
  5
101
330
1F
100
AcDbEntity
  8
0
  6
SLD-Plná
 62
     7
370
    25
100
AcDbCircle
 10
8949.0917251022
 20
6449.0759113246
 30
0.0
 40
0.9989625287162959
100
AcDbArc
 50
0.0596595149
 51
90.0595355312
  0
LINE
  5
102
330
1F
100
AcDbEntity
  8
0
  6
SLD-Plná
 62
     7
370
    25
100
AcDbLine
 10
8950.0906870894
 20
6449.7323768048
 30
0.0
 11
8950.0906870894
 21
6449.0769514991
 31
0.0
  0
LINE
  5
103
330
1F
100
AcDbEntity
  8
0
  6
SLD-Plná
 62
     7
370
    25
100
AcDbLine
 10
9022.2650561571
 20
6440.5882550599
 30
0.0
 11
9022.5664243563
 21
6443.0930324906
 31
0.0
  0
ARC
  5
104
330
1F
100
AcDbEntity
  8
0
  6
SLD-Plná
 62
     7
370
    25
100
AcDbCircle
 10
9023.5592593506
 20
6442.9735731135
 30
0.0
 40
0.9999959342846326
100
AcDbArc
 50
83.1390692413
 51
173.1390692393
  0
LINE
  5
105
330
1F
100
AcDbEntity
  8
0
  6
SLD-Plná
 62
     7
370
    25
100
AcDbLine
 10
9020.7934383545
 20
6429.6852590568
 30
0.0
 11
9021.9837481722
 21
6439.5783439101
 31
0.0
  0
ARC
  5
106
330
1F
100
AcDbEntity
  8
0
  6
SLD-Plná
 62
     7
370
    25
100
AcDbCircle
 10
9022.9726428495
 20
6439.455767738
 30
0.0
 40
0.9964625435739131
100
AcDbArc
 50
82.935533361
 51
172.9340735647
  0
ARC
  5
107
330
1F
100
AcDbEntity
  8
0
  6
SLD-Plná
 62
     7
370
    25
100
AcDbCircle
 10
9023.0286866883
 20
6439.9177095063
 30
0.0
 40
0.9969218800275682
100
AcDbArc
 50
82.962116691
 51
172.9610139711
  0
LINE
  5
108
330
1F
100
AcDbEntity
  8
0
  6
SLD-Plná
 62
     7
370
    25
100
AcDbLine
 10
9021.9837481722
 20
6439.5783439101
 30
0.0
 11
9022.0392786108
 21
6440.0398769769
 31
0.0
  0
LINE
  5
109
330
1F
100
AcDbEntity
  8
0
  6
SLD-Plná
 62
     7
370
    25
100
AcDbLine
 10
9022.0392786108
 20
6440.0398769769
 30
0.0
 11
9022.0429727942
 21
6440.070580639
 31
0.0
  0
LINE
  5
10A
330
1F
100
AcDbEntity
  8
0
  6
SLD-Plná
 62
     7
370
    25
100
AcDbLine
 10
8899.0906870894
 20
6331.7988709983
 30
0.0
 11
8897.5036431653
 21
6329.5455551818
 31
0.0
  0
LINE
  5
10B
330
1F
100
AcDbEntity
  8
0
  6
SLD-Plná
 62
     7
370
    25
100
AcDbLine
 10
8896.5225577621
 20
6330.2365482582
 30
0.0
 11
8897.5036431653
 21
6329.5455551818
 31
0.0
  0
LINE
  5
10C
330
1F
100
AcDbEntity
  8
0
  6
SLD-Plná
 62
     7
370
    25
100
AcDbLine
 10
8896.5225577621
 20
6330.2365482582
 30
0.0
 11
8899.0906870894
 21
6333.8828282032
 31
0.0
  0
LINE
  5
10D
330
1F
100
AcDbEntity
  8
0
  6
SLD-Plná
 62
     7
370
    25
100
AcDbLine
 10
8897.0717724926
 20
6328.9323768048
 30
0.0
 11
8896.0906870894
 21
6329.6233698812
 31
0.0
  0
LINE
  5
10E
330
1F
100
AcDbEntity
  8
0
  6
SLD-Plná
 62
     7
370
    25
100
AcDbLine
 10
8897.5036431653
 20
6329.5455551818
 30
0.0
 11
8897.0717724926
 21
6328.9323768048
 31
0.0
  0
LINE
  5
10F
330
1F
100
AcDbEntity
  8
0
  6
SLD-Plná
 62
     7
370
    25
100
AcDbLine
 10
8896.0906870894
 20
6329.6233698812
 30
0.0
 11
8896.5225577621
 21
6330.2365482582
 31
0.0
  0
LINE
  5
110
330
1F
100
AcDbEntity
  8
0
  6
SLD-Plná
 62
     7
370
    25
100
AcDbLine
 10
8897.0906870894
 20
6336.2323768048
 30
0.0
 11
8897.0906870894
 21
6337.4323768048
 31
0.0
  0
LINE
  5
111
330
1F
100
AcDbEntity
  8
0
  6
SLD-Plná
 62
     7
370
    25
100
AcDbLine
 10
8898.5906870894
 20
6337.4323768048
 30
0.0
 11
8898.5906870894
 21
6336.2323768048
 31
0.0
  0
LINE
  5
112
330
1F
100
AcDbEntity
  8
0
  6
SLD-Plná
 62
     7
370
    25
100
AcDbLine
 10
8897.0906870894
 20
6337.4323768048
 30
0.0
 11
8898.5906870894
 21
6337.4323768048
 31
0.0
  0
LINE
  5
113
330
1F
100
AcDbEntity
  8
0
  6
SLD-Plná
 62
     7
370
    25
100
AcDbLine
 10
8898.5906870894
 20
6336.2323768048
 30
0.0
 11
8897.0906870894
 21
6336.2323768048
 31
0.0
  0
LINE
  5
114
330
1F
100
AcDbEntity
  8
0
  6
SLD-Plná
 62
     7
370
    25
100
AcDbLine
 10
8898.5906870894
 20
6337.4323768048
 30
0.0
 11
8899.0906870894
 21
6337.4323768048
 31
0.0
  0
LINE
  5
115
330
1F
100
AcDbEntity
  8
0
  6
SLD-Plná
 62
     7
370
    25
100
AcDbLine
 10
8898.5906870894
 20
6336.2323768048
 30
0.0
 11
8899.0906870894
 21
6336.2323768048
 31
0.0
  0
LINE
  5
116
330
1F
100
AcDbEntity
  8
0
  6
SLD-Plná
 62
     7
370
    25
100
AcDbLine
 10
8899.0906870894
 20
5975.1262066831
 30
0.0
 11
8907.2360696963
 21
5952.7323768048
 31
0.0
  0
LINE
  5
117
330
1F
100
AcDbEntity
  8
0
  6
SLD-Plná
 62
     7
370
    25
100
AcDbLine
 10
8914.5107365588
 20
5932.7323768048
 30
0.0
 11
8915.4693476313
 21
5930.0968992204
 31
0.0
  0
LINE
  5
118
330
1F
100
AcDbEntity
  8
0
  6
SLD-Plná
 62
     7
370
    25
100
AcDbLine
 10
8915.4693476313
 20
5930.0968992204
 30
0.0
 11
8915.4693476313
 21
5929.7323768048
 31
0.0
  0
LINE
  5
119
330
1F
100
AcDbEntity
  8
0
  6
SLD-Plná
 62
     7
370
    25
100
AcDbLine
 10
8899.0906870894
 20
5974.7323768048
 30
0.0
 11
8899.0906870894
 21
5975.1262066831
 31
0.0
  0
LINE
  5
11A
330
1F
100
AcDbEntity
  8
0
  6
SLD-Plná
 62
     7
370
    25
100
AcDbLine
 10
8919.4693476313
 20
5930.0968992204
 30
0.0
 11
8915.4693476313
 21
5930.0968992204
 31
0.0
  0
LINE
  5
11B
330
1F
100
AcDbEntity
  8
0
  6
SLD-Plná
 62
     7
370
    25
100
AcDbLine
 10
8919.4693476313
 20
5930.0968992204
 30
0.0
 11
8919.4693476313
 21
5929.7323768048
 31
0.0
  0
LINE
  5
11C
330
1F
100
AcDbEntity
  8
0
  6
SLD-Plná
 62
     7
370
    25
100
AcDbLine
 10
8924.0906870894
 20
6429.2323768048
 30
0.0
 11
8924.0906870894
 21
5990.2323768048
 31
0.0
  0
ELLIPSE
  5
11D
330
1F
100
AcDbEntity
  8
0
  6
SLD-Plná
 62
     7
370
    25
100
AcDbEllipse
 10
8891.5784243589
 20
5990.2323768048
 30
0.0
 11
0.0
 21
52.01962036868008
 31
0.0
210
0.0
220
0.0
230
1.0
 40
0.625
 41
3.859634894364795
 42
4.712388980384699
  0
SPLINE
  5
11E
330
1F
100
AcDbEntity
  8
0
  6
SLD-Plná
 62
     7
370
    25
100
AcDbSpline
210
0.0
220
0.0
230
1.0
 70
     8
 71
     3
 72
     8
 73
     4
 74
     0
 42
0.00000001
 43
0.00000001
 40
0.0
 40
0.0
 40
0.0
 40
0.0
 40
1.0
 40
1.0
 40
1.0
 40
1.0
 10
8899.090687089365
 20
5985.34224373799
 30
0.0
 10
8903.70007409233
 20
5973.889806620349
 30
0.0
 10
8908.326915843041
 20
5962.462521739521
 30
0.0
 10
8912.968617677385
 20
5951.05665019266
 30
0.0
  0
LINE
  5
11F
330
1F
100
AcDbEntity
  8
0
  6
SLD-Plná
 62
     7
370
    25
100
AcDbLine
 10
8899.0906870894
 20
6464.2463885491
 30
0.0
 11
8899.0906870894
 21
5985.342243738
 31
0.0
  0
SPLINE
  5
120
330
1F
100
AcDbEntity
  8
0
  6
SLD-Plná
 62
     7
370
    25
100
AcDbSpline
210
0.0
220
0.0
230
1.0
 70
     8
 71
     3
 72
    10
 73
     6
 74
     0
 42
0.00000001
 43
0.00000001
 40
0.0
 40
0.0
 40
0.0
 40
0.0
 40
0.5
 40
0.5
 40
1.0
 40
1.0
 40
1.0
 40
1.0
 10
8907.750941127208
 20
6474.359664988709
 30
0.0
 10
8906.276571807904
 20
6472.768603601441
 30
0.0
 10
8904.814746385193
 20
6471.139301920724
 30
0.0
 10
8901.924505918212
 20
6467.778846422171
 30
0.0
 10
8900.49598835185
 20
6466.048005144768
 30
0.0
 10
8899.090687089365
 20
6464.246388549148
 30
0.0
  0
ELLIPSE
  5
121
330
1F
100
AcDbEntity
  8
0
  6
SLD-Plná
 62
     7
370
    25
100
AcDbEllipse
 10
8891.5784243589
 20
6429.2323768048
 30
0.0
 11
0.0
 21
52.01962036868008
 31
0.0
210
0.0
220
0.0
230
1.0
 40
0.625
 41
4.712388980384699
 42
5.762553637727345
  0
LINE
  5
122
330
1F
100
AcDbEntity
  8
0
  6
SLD-Plná
 62
     7
370
    25
100
AcDbLine
 10
8907.7509411272
 20
6480.4543564701
 30
0.0
 11
8907.7509411272
 21
6474.3596649887
 31
0.0
  0
LINE
  5
123
330
1F
100
AcDbEntity
  8
0
  6
SLD-Plná
 62
     7
370
    25
100
AcDbLine
 10
8939.0906870894
 20
6480.4543564701
 30
0.0
 11
8907.7509411272
 21
6480.4543564701
 31
0.0
  0
LINE
  5
124
330
1F
100
AcDbEntity
  8
0
  6
SLD-Plná
 62
     7
370
    25
100
AcDbLine
 10
8939.0906870894
 20
6429.2323768048
 30
0.0
 11
8939.0906870894
 21
6480.4543564701
 31
0.0
  0
LINE
  5
125
330
1F
100
AcDbEntity
  8
0
  6
SLD-Plná
 62
     7
370
    25
100
AcDbLine
 10
8939.0906870894
 20
6429.2323768048
 30
0.0
 11
8924.0906870894
 21
6429.2323768048
 31
0.0
  0
LINE
  5
126
330
1F
100
AcDbEntity
  8
0
  6
SLD-Plná
 62
     7
370
    25
100
AcDbLine
 10
9040.3472023219
 20
5990.2323768048
 30
0.0
 11
8994.0906870894
 21
5990.2323768048
 31
0.0
  0
LINE
  5
127
330
1F
100
AcDbEntity
  8
0
  6
SLD-Plná
 62
     7
370
    25
100
AcDbLine
 10
8994.0906870894
 20
5990.2323768048
 30
0.0
 11
8924.0906870894
 21
5990.2323768048
 31
0.0
  0
LINE
  5
128
330
1F
100
AcDbEntity
  8
0
  6
SLD-Plná
 62
     7
370
    25
100
AcDbLine
 10
8939.0906870894
 20
6264.7323768048
 30
0.0
 11
8939.0906870894
 21
6429.2323768048
 31
0.0
  0
ARC
  5
129
330
1F
100
AcDbEntity
  8
0
  6
SLD-Plná
 62
     7
370
    25
100
AcDbCircle
 10
8984.0906870894
 20
6264.7323768048
 30
0.0
 40
45.0
100
AcDbArc
 50
180.0
 51
0.0
  0
LINE
  5
12A
330
1F
100
AcDbEntity
  8
0
  6
SLD-Plná
 62
     7
370
    25
100
AcDbLine
 10
9029.0906870894
 20
6389.5544076834
 30
0.0
 11
9029.0906870894
 21
6264.7323768048
 31
0.0
  0
LINE
  5
12B
330
1F
100
AcDbEntity
  8
0
  6
SLD-Plná
 62
     7
370
    25
100
AcDbLine
 10
9029.0906870894
 20
6389.5544076834
 30
0.0
 11
9040.3472023219
 21
6389.5544076834
 31
0.0
  0
LINE
  5
12C
330
1F
100
AcDbEntity
  8
0
  6
SLD-Plná
 62
     7
370
    25
100
AcDbLine
 10
9040.3472023219
 20
5990.2323768048
 30
0.0
 11
9040.3472023219
 21
6389.5544076834
 31
0.0
  0
LINE
  5
12D
330
1F
100
AcDbEntity
  8
0
  6
SLD-Plná
 62
     7
370
    25
100
AcDbLine
 10
8999.0906870894
 20
6054.7323768048
 30
0.0
 11
8999.0906870894
 21
6058.7323768048
 31
0.0
  0
LINE
  5
12E
330
1F
100
AcDbEntity
  8
0
  6
SLD-Plná
 62
     7
370
    25
100
AcDbLine
 10
9034.0906870894
 20
6054.7323768048
 30
0.0
 11
8999.0906870894
 21
6054.7323768048
 31
0.0
  0
LINE
  5
12F
330
1F
100
AcDbEntity
  8
0
  6
SLD-Plná
 62
     7
370
    25
100
AcDbLine
 10
9034.0906870894
 20
6054.7323768048
 30
0.0
 11
9034.0906870894
 21
6058.7323768048
 31
0.0
  0
LINE
  5
130
330
1F
100
AcDbEntity
  8
0
  6
SLD-Plná
 62
     7
370
    25
100
AcDbLine
 10
9034.0906870894
 20
6058.7323768048
 30
0.0
 11
8999.0906870894
 21
6058.7323768048
 31
0.0
  0
LINE
  5
131
330
1F
100
AcDbEntity
  8
0
  6
SLD-Plná
 62
     7
370
    25
100
AcDbLine
 10
8999.0906870894
 20
6120.7323768048
 30
0.0
 11
8999.0906870894
 21
6124.7323768048
 31
0.0
  0
LINE
  5
132
330
1F
100
AcDbEntity
  8
0
  6
SLD-Plná
 62
     7
370
    25
100
AcDbLine
 10
9034.0906870894
 20
6120.7323768048
 30
0.0
 11
8999.0906870894
 21
6120.7323768048
 31
0.0
  0
LINE
  5
133
330
1F
100
AcDbEntity
  8
0
  6
SLD-Plná
 62
     7
370
    25
100
AcDbLine
 10
9034.0906870894
 20
6120.7323768048
 30
0.0
 11
9034.0906870894
 21
6124.7323768048
 31
0.0
  0
LINE
  5
134
330
1F
100
AcDbEntity
  8
0
  6
SLD-Plná
 62
     7
370
    25
100
AcDbLine
 10
9034.0906870894
 20
6124.7323768048
 30
0.0
 11
8999.0906870894
 21
6124.7323768048
 31
0.0
  0
LINE
  5
135
330
1F
100
AcDbEntity
  8
0
  6
SLD-Plná
 62
     7
370
    25
100
AcDbLine
 10
8999.0906870894
 20
6126.7323768048
 30
0.0
 11
8999.0906870894
 21
6130.7323768048
 31
0.0
  0
LINE
  5
136
330
1F
100
AcDbEntity
  8
0
  6
SLD-Plná
 62
     7
370
    25
100
AcDbLine
 10
9034.0906870894
 20
6126.7323768048
 30
0.0
 11
8999.0906870894
 21
6126.7323768048
 31
0.0
  0
LINE
  5
137
330
1F
100
AcDbEntity
  8
0
  6
SLD-Plná
 62
     7
370
    25
100
AcDbLine
 10
9034.0906870894
 20
6126.7323768048
 30
0.0
 11
9034.0906870894
 21
6130.7323768048
 31
0.0
  0
LINE
  5
138
330
1F
100
AcDbEntity
  8
0
  6
SLD-Plná
 62
     7
370
    25
100
AcDbLine
 10
9034.0906870894
 20
6130.7323768048
 30
0.0
 11
8999.0906870894
 21
6130.7323768048
 31
0.0
  0
LINE
  5
139
330
1F
100
AcDbEntity
  8
0
  6
SLD-Plná
 62
     7
370
    25
100
AcDbLine
 10
8999.0906870894
 20
6108.7323768048
 30
0.0
 11
8999.0906870894
 21
6112.7323768048
 31
0.0
  0
LINE
  5
13A
330
1F
100
AcDbEntity
  8
0
  6
SLD-Plná
 62
     7
370
    25
100
AcDbLine
 10
9034.0906870894
 20
6108.7323768048
 30
0.0
 11
8999.0906870894
 21
6108.7323768048
 31
0.0
  0
LINE
  5
13B
330
1F
100
AcDbEntity
  8
0
  6
SLD-Plná
 62
     7
370
    25
100
AcDbLine
 10
9034.0906870894
 20
6108.7323768048
 30
0.0
 11
9034.0906870894
 21
6112.7323768048
 31
0.0
  0
LINE
  5
13C
330
1F
100
AcDbEntity
  8
0
  6
SLD-Plná
 62
     7
370
    25
100
AcDbLine
 10
9034.0906870894
 20
6112.7323768048
 30
0.0
 11
8999.0906870894
 21
6112.7323768048
 31
0.0
  0
LINE
  5
13D
330
1F
100
AcDbEntity
  8
0
  6
SLD-Plná
 62
     7
370
    25
100
AcDbLine
 10
8999.0906870894
 20
6114.7323768048
 30
0.0
 11
8999.0906870894
 21
6118.7323768048
 31
0.0
  0
LINE
  5
13E
330
1F
100
AcDbEntity
  8
0
  6
SLD-Plná
 62
     7
370
    25
100
AcDbLine
 10
9034.0906870894
 20
6114.7323768048
 30
0.0
 11
8999.0906870894
 21
6114.7323768048
 31
0.0
  0
LINE
  5
13F
330
1F
100
AcDbEntity
  8
0
  6
SLD-Plná
 62
     7
370
    25
100
AcDbLine
 10
9034.0906870894
 20
6114.7323768048
 30
0.0
 11
9034.0906870894
 21
6118.7323768048
 31
0.0
  0
LINE
  5
140
330
1F
100
AcDbEntity
  8
0
  6
SLD-Plná
 62
     7
370
    25
100
AcDbLine
 10
9034.0906870894
 20
6118.7323768048
 30
0.0
 11
8999.0906870894
 21
6118.7323768048
 31
0.0
  0
LINE
  5
141
330
1F
100
AcDbEntity
  8
0
  6
SLD-Plná
 62
     7
370
    25
100
AcDbLine
 10
8999.0906870894
 20
6144.7323768048
 30
0.0
 11
8999.0906870894
 21
6148.7323768048
 31
0.0
  0
LINE
  5
142
330
1F
100
AcDbEntity
  8
0
  6
SLD-Plná
 62
     7
370
    25
100
AcDbLine
 10
9034.0906870894
 20
6144.7323768048
 30
0.0
 11
8999.0906870894
 21
6144.7323768048
 31
0.0
  0
LINE
  5
143
330
1F
100
AcDbEntity
  8
0
  6
SLD-Plná
 62
     7
370
    25
100
AcDbLine
 10
9034.0906870894
 20
6144.7323768048
 30
0.0
 11
9034.0906870894
 21
6148.7323768048
 31
0.0
  0
LINE
  5
144
330
1F
100
AcDbEntity
  8
0
  6
SLD-Plná
 62
     7
370
    25
100
AcDbLine
 10
9034.0906870894
 20
6148.7323768048
 30
0.0
 11
8999.0906870894
 21
6148.7323768048
 31
0.0
  0
LINE
  5
145
330
1F
100
AcDbEntity
  8
0
  6
SLD-Plná
 62
     7
370
    25
100
AcDbLine
 10
8999.0906870894
 20
6150.7323768048
 30
0.0
 11
8999.0906870894
 21
6154.7323768048
 31
0.0
  0
LINE
  5
146
330
1F
100
AcDbEntity
  8
0
  6
SLD-Plná
 62
     7
370
    25
100
AcDbLine
 10
9034.0906870894
 20
6150.7323768048
 30
0.0
 11
8999.0906870894
 21
6150.7323768048
 31
0.0
  0
LINE
  5
147
330
1F
100
AcDbEntity
  8
0
  6
SLD-Plná
 62
     7
370
    25
100
AcDbLine
 10
9034.0906870894
 20
6150.7323768048
 30
0.0
 11
9034.0906870894
 21
6154.7323768048
 31
0.0
  0
LINE
  5
148
330
1F
100
AcDbEntity
  8
0
  6
SLD-Plná
 62
     7
370
    25
100
AcDbLine
 10
9034.0906870894
 20
6154.7323768048
 30
0.0
 11
8999.0906870894
 21
6154.7323768048
 31
0.0
  0
LINE
  5
149
330
1F
100
AcDbEntity
  8
0
  6
SLD-Plná
 62
     7
370
    25
100
AcDbLine
 10
8999.0906870894
 20
6132.7323768048
 30
0.0
 11
8999.0906870894
 21
6136.7323768048
 31
0.0
  0
LINE
  5
14A
330
1F
100
AcDbEntity
  8
0
  6
SLD-Plná
 62
     7
370
    25
100
AcDbLine
 10
9034.0906870894
 20
6132.7323768048
 30
0.0
 11
8999.0906870894
 21
6132.7323768048
 31
0.0
  0
LINE
  5
14B
330
1F
100
AcDbEntity
  8
0
  6
SLD-Plná
 62
     7
370
    25
100
AcDbLine
 10
9034.0906870894
 20
6132.7323768048
 30
0.0
 11
9034.0906870894
 21
6136.7323768048
 31
0.0
  0
LINE
  5
14C
330
1F
100
AcDbEntity
  8
0
  6
SLD-Plná
 62
     7
370
    25
100
AcDbLine
 10
9034.0906870894
 20
6136.7323768048
 30
0.0
 11
8999.0906870894
 21
6136.7323768048
 31
0.0
  0
LINE
  5
14D
330
1F
100
AcDbEntity
  8
0
  6
SLD-Plná
 62
     7
370
    25
100
AcDbLine
 10
8999.0906870894
 20
6138.7323768048
 30
0.0
 11
8999.0906870894
 21
6142.7323768048
 31
0.0
  0
LINE
  5
14E
330
1F
100
AcDbEntity
  8
0
  6
SLD-Plná
 62
     7
370
    25
100
AcDbLine
 10
9034.0906870894
 20
6138.7323768048
 30
0.0
 11
8999.0906870894
 21
6138.7323768048
 31
0.0
  0
LINE
  5
14F
330
1F
100
AcDbEntity
  8
0
  6
SLD-Plná
 62
     7
370
    25
100
AcDbLine
 10
9034.0906870894
 20
6138.7323768048
 30
0.0
 11
9034.0906870894
 21
6142.7323768048
 31
0.0
  0
LINE
  5
150
330
1F
100
AcDbEntity
  8
0
  6
SLD-Plná
 62
     7
370
    25
100
AcDbLine
 10
9034.0906870894
 20
6142.7323768048
 30
0.0
 11
8999.0906870894
 21
6142.7323768048
 31
0.0
  0
LINE
  5
151
330
1F
100
AcDbEntity
  8
0
  6
SLD-Plná
 62
     7
370
    25
100
AcDbLine
 10
8999.0906870894
 20
6072.7323768048
 30
0.0
 11
8999.0906870894
 21
6076.7323768048
 31
0.0
  0
LINE
  5
152
330
1F
100
AcDbEntity
  8
0
  6
SLD-Plná
 62
     7
370
    25
100
AcDbLine
 10
9034.0906870894
 20
6072.7323768048
 30
0.0
 11
8999.0906870894
 21
6072.7323768048
 31
0.0
  0
LINE
  5
153
330
1F
100
AcDbEntity
  8
0
  6
SLD-Plná
 62
     7
370
    25
100
AcDbLine
 10
9034.0906870894
 20
6072.7323768048
 30
0.0
 11
9034.0906870894
 21
6076.7323768048
 31
0.0
  0
LINE
  5
154
330
1F
100
AcDbEntity
  8
0
  6
SLD-Plná
 62
     7
370
    25
100
AcDbLine
 10
9034.0906870894
 20
6076.7323768048
 30
0.0
 11
8999.0906870894
 21
6076.7323768048
 31
0.0
  0
LINE
  5
155
330
1F
100
AcDbEntity
  8
0
  6
SLD-Plná
 62
     7
370
    25
100
AcDbLine
 10
8999.0906870894
 20
6078.7323768048
 30
0.0
 11
8999.0906870894
 21
6082.7323768048
 31
0.0
  0
LINE
  5
156
330
1F
100
AcDbEntity
  8
0
  6
SLD-Plná
 62
     7
370
    25
100
AcDbLine
 10
9034.0906870894
 20
6078.7323768048
 30
0.0
 11
8999.0906870894
 21
6078.7323768048
 31
0.0
  0
LINE
  5
157
330
1F
100
AcDbEntity
  8
0
  6
SLD-Plná
 62
     7
370
    25
100
AcDbLine
 10
9034.0906870894
 20
6078.7323768048
 30
0.0
 11
9034.0906870894
 21
6082.7323768048
 31
0.0
  0
LINE
  5
158
330
1F
100
AcDbEntity
  8
0
  6
SLD-Plná
 62
     7
370
    25
100
AcDbLine
 10
9034.0906870894
 20
6082.7323768048
 30
0.0
 11
8999.0906870894
 21
6082.7323768048
 31
0.0
  0
LINE
  5
159
330
1F
100
AcDbEntity
  8
0
  6
SLD-Plná
 62
     7
370
    25
100
AcDbLine
 10
8999.0906870894
 20
6060.7323768048
 30
0.0
 11
8999.0906870894
 21
6064.7323768048
 31
0.0
  0
LINE
  5
15A
330
1F
100
AcDbEntity
  8
0
  6
SLD-Plná
 62
     7
370
    25
100
AcDbLine
 10
9034.0906870894
 20
6060.7323768048
 30
0.0
 11
8999.0906870894
 21
6060.7323768048
 31
0.0
  0
LINE
  5
15B
330
1F
100
AcDbEntity
  8
0
  6
SLD-Plná
 62
     7
370
    25
100
AcDbLine
 10
9034.0906870894
 20
6060.7323768048
 30
0.0
 11
9034.0906870894
 21
6064.7323768048
 31
0.0
  0
LINE
  5
15C
330
1F
100
AcDbEntity
  8
0
  6
SLD-Plná
 62
     7
370
    25
100
AcDbLine
 10
9034.0906870894
 20
6064.7323768048
 30
0.0
 11
8999.0906870894
 21
6064.7323768048
 31
0.0
  0
LINE
  5
15D
330
1F
100
AcDbEntity
  8
0
  6
SLD-Plná
 62
     7
370
    25
100
AcDbLine
 10
8999.0906870894
 20
6066.7323768048
 30
0.0
 11
8999.0906870894
 21
6070.7323768048
 31
0.0
  0
LINE
  5
15E
330
1F
100
AcDbEntity
  8
0
  6
SLD-Plná
 62
     7
370
    25
100
AcDbLine
 10
9034.0906870894
 20
6066.7323768048
 30
0.0
 11
8999.0906870894
 21
6066.7323768048
 31
0.0
  0
LINE
  5
15F
330
1F
100
AcDbEntity
  8
0
  6
SLD-Plná
 62
     7
370
    25
100
AcDbLine
 10
9034.0906870894
 20
6066.7323768048
 30
0.0
 11
9034.0906870894
 21
6070.7323768048
 31
0.0
  0
LINE
  5
160
330
1F
100
AcDbEntity
  8
0
  6
SLD-Plná
 62
     7
370
    25
100
AcDbLine
 10
9034.0906870894
 20
6070.7323768048
 30
0.0
 11
8999.0906870894
 21
6070.7323768048
 31
0.0
  0
LINE
  5
161
330
1F
100
AcDbEntity
  8
0
  6
SLD-Plná
 62
     7
370
    25
100
AcDbLine
 10
8999.0906870894
 20
6096.7323768048
 30
0.0
 11
8999.0906870894
 21
6100.7323768048
 31
0.0
  0
LINE
  5
162
330
1F
100
AcDbEntity
  8
0
  6
SLD-Plná
 62
     7
370
    25
100
AcDbLine
 10
9034.0906870894
 20
6096.7323768048
 30
0.0
 11
8999.0906870894
 21
6096.7323768048
 31
0.0
  0
LINE
  5
163
330
1F
100
AcDbEntity
  8
0
  6
SLD-Plná
 62
     7
370
    25
100
AcDbLine
 10
9034.0906870894
 20
6096.7323768048
 30
0.0
 11
9034.0906870894
 21
6100.7323768048
 31
0.0
  0
LINE
  5
164
330
1F
100
AcDbEntity
  8
0
  6
SLD-Plná
 62
     7
370
    25
100
AcDbLine
 10
9034.0906870894
 20
6100.7323768048
 30
0.0
 11
8999.0906870894
 21
6100.7323768048
 31
0.0
  0
LINE
  5
165
330
1F
100
AcDbEntity
  8
0
  6
SLD-Plná
 62
     7
370
    25
100
AcDbLine
 10
8999.0906870894
 20
6102.7323768048
 30
0.0
 11
8999.0906870894
 21
6106.7323768048
 31
0.0
  0
LINE
  5
166
330
1F
100
AcDbEntity
  8
0
  6
SLD-Plná
 62
     7
370
    25
100
AcDbLine
 10
9034.0906870894
 20
6102.7323768048
 30
0.0
 11
8999.0906870894
 21
6102.7323768048
 31
0.0
  0
LINE
  5
167
330
1F
100
AcDbEntity
  8
0
  6
SLD-Plná
 62
     7
370
    25
100
AcDbLine
 10
9034.0906870894
 20
6102.7323768048
 30
0.0
 11
9034.0906870894
 21
6106.7323768048
 31
0.0
  0
LINE
  5
168
330
1F
100
AcDbEntity
  8
0
  6
SLD-Plná
 62
     7
370
    25
100
AcDbLine
 10
9034.0906870894
 20
6106.7323768048
 30
0.0
 11
8999.0906870894
 21
6106.7323768048
 31
0.0
  0
LINE
  5
169
330
1F
100
AcDbEntity
  8
0
  6
SLD-Plná
 62
     7
370
    25
100
AcDbLine
 10
8999.0906870894
 20
6084.7323768048
 30
0.0
 11
8999.0906870894
 21
6088.7323768048
 31
0.0
  0
LINE
  5
16A
330
1F
100
AcDbEntity
  8
0
  6
SLD-Plná
 62
     7
370
    25
100
AcDbLine
 10
9034.0906870894
 20
6084.7323768048
 30
0.0
 11
8999.0906870894
 21
6084.7323768048
 31
0.0
  0
LINE
  5
16B
330
1F
100
AcDbEntity
  8
0
  6
SLD-Plná
 62
     7
370
    25
100
AcDbLine
 10
9034.0906870894
 20
6084.7323768048
 30
0.0
 11
9034.0906870894
 21
6088.7323768048
 31
0.0
  0
LINE
  5
16C
330
1F
100
AcDbEntity
  8
0
  6
SLD-Plná
 62
     7
370
    25
100
AcDbLine
 10
9034.0906870894
 20
6088.7323768048
 30
0.0
 11
8999.0906870894
 21
6088.7323768048
 31
0.0
  0
LINE
  5
16D
330
1F
100
AcDbEntity
  8
0
  6
SLD-Plná
 62
     7
370
    25
100
AcDbLine
 10
8999.0906870894
 20
6090.7323768048
 30
0.0
 11
8999.0906870894
 21
6094.7323768048
 31
0.0
  0
LINE
  5
16E
330
1F
100
AcDbEntity
  8
0
  6
SLD-Plná
 62
     7
370
    25
100
AcDbLine
 10
9034.0906870894
 20
6090.7323768048
 30
0.0
 11
8999.0906870894
 21
6090.7323768048
 31
0.0
  0
LINE
  5
16F
330
1F
100
AcDbEntity
  8
0
  6
SLD-Plná
 62
     7
370
    25
100
AcDbLine
 10
9034.0906870894
 20
6090.7323768048
 30
0.0
 11
9034.0906870894
 21
6094.7323768048
 31
0.0
  0
LINE
  5
170
330
1F
100
AcDbEntity
  8
0
  6
SLD-Plná
 62
     7
370
    25
100
AcDbLine
 10
9034.0906870894
 20
6094.7323768048
 30
0.0
 11
8999.0906870894
 21
6094.7323768048
 31
0.0
  0
LINE
  5
171
330
1F
100
AcDbEntity
  8
0
  6
SLD-Plná
 62
     7
370
    25
100
AcDbLine
 10
8999.0906870894
 20
6168.7323768048
 30
0.0
 11
8999.0906870894
 21
6172.7323768048
 31
0.0
  0
LINE
  5
172
330
1F
100
AcDbEntity
  8
0
  6
SLD-Plná
 62
     7
370
    25
100
AcDbLine
 10
9034.0906870894
 20
6168.7323768048
 30
0.0
 11
8999.0906870894
 21
6168.7323768048
 31
0.0
  0
LINE
  5
173
330
1F
100
AcDbEntity
  8
0
  6
SLD-Plná
 62
     7
370
    25
100
AcDbLine
 10
9034.0906870894
 20
6168.7323768048
 30
0.0
 11
9034.0906870894
 21
6172.7323768048
 31
0.0
  0
LINE
  5
174
330
1F
100
AcDbEntity
  8
0
  6
SLD-Plná
 62
     7
370
    25
100
AcDbLine
 10
9034.0906870894
 20
6172.7323768048
 30
0.0
 11
8999.0906870894
 21
6172.7323768048
 31
0.0
  0
LINE
  5
175
330
1F
100
AcDbEntity
  8
0
  6
SLD-Plná
 62
     7
370
    25
100
AcDbLine
 10
8999.0906870894
 20
6174.7323768048
 30
0.0
 11
8999.0906870894
 21
6178.7323768048
 31
0.0
  0
LINE
  5
176
330
1F
100
AcDbEntity
  8
0
  6
SLD-Plná
 62
     7
370
    25
100
AcDbLine
 10
9034.0906870894
 20
6174.7323768048
 30
0.0
 11
8999.0906870894
 21
6174.7323768048
 31
0.0
  0
LINE
  5
177
330
1F
100
AcDbEntity
  8
0
  6
SLD-Plná
 62
     7
370
    25
100
AcDbLine
 10
9034.0906870894
 20
6174.7323768048
 30
0.0
 11
9034.0906870894
 21
6178.7323768048
 31
0.0
  0
LINE
  5
178
330
1F
100
AcDbEntity
  8
0
  6
SLD-Plná
 62
     7
370
    25
100
AcDbLine
 10
9034.0906870894
 20
6178.7323768048
 30
0.0
 11
8999.0906870894
 21
6178.7323768048
 31
0.0
  0
LINE
  5
179
330
1F
100
AcDbEntity
  8
0
  6
SLD-Plná
 62
     7
370
    25
100
AcDbLine
 10
8999.0906870894
 20
6156.7323768048
 30
0.0
 11
8999.0906870894
 21
6160.7323768048
 31
0.0
  0
LINE
  5
17A
330
1F
100
AcDbEntity
  8
0
  6
SLD-Plná
 62
     7
370
    25
100
AcDbLine
 10
9034.0906870894
 20
6156.7323768048
 30
0.0
 11
8999.0906870894
 21
6156.7323768048
 31
0.0
  0
LINE
  5
17B
330
1F
100
AcDbEntity
  8
0
  6
SLD-Plná
 62
     7
370
    25
100
AcDbLine
 10
9034.0906870894
 20
6156.7323768048
 30
0.0
 11
9034.0906870894
 21
6160.7323768048
 31
0.0
  0
LINE
  5
17C
330
1F
100
AcDbEntity
  8
0
  6
SLD-Plná
 62
     7
370
    25
100
AcDbLine
 10
9034.0906870894
 20
6160.7323768048
 30
0.0
 11
8999.0906870894
 21
6160.7323768048
 31
0.0
  0
LINE
  5
17D
330
1F
100
AcDbEntity
  8
0
  6
SLD-Plná
 62
     7
370
    25
100
AcDbLine
 10
8999.0906870894
 20
6162.7323768048
 30
0.0
 11
8999.0906870894
 21
6166.7323768048
 31
0.0
  0
LINE
  5
17E
330
1F
100
AcDbEntity
  8
0
  6
SLD-Plná
 62
     7
370
    25
100
AcDbLine
 10
9034.0906870894
 20
6162.7323768048
 30
0.0
 11
8999.0906870894
 21
6162.7323768048
 31
0.0
  0
LINE
  5
17F
330
1F
100
AcDbEntity
  8
0
  6
SLD-Plná
 62
     7
370
    25
100
AcDbLine
 10
9034.0906870894
 20
6162.7323768048
 30
0.0
 11
9034.0906870894
 21
6166.7323768048
 31
0.0
  0
LINE
  5
180
330
1F
100
AcDbEntity
  8
0
  6
SLD-Plná
 62
     7
370
    25
100
AcDbLine
 10
9034.0906870894
 20
6166.7323768048
 30
0.0
 11
8999.0906870894
 21
6166.7323768048
 31
0.0
  0
LINE
  5
181
330
1F
100
AcDbEntity
  8
0
  6
SLD-Plná
 62
     7
370
    25
100
AcDbLine
 10
8999.0906870894
 20
6192.7323768048
 30
0.0
 11
8999.0906870894
 21
6196.7323768048
 31
0.0
  0
LINE
  5
182
330
1F
100
AcDbEntity
  8
0
  6
SLD-Plná
 62
     7
370
    25
100
AcDbLine
 10
9034.0906870894
 20
6192.7323768048
 30
0.0
 11
8999.0906870894
 21
6192.7323768048
 31
0.0
  0
LINE
  5
183
330
1F
100
AcDbEntity
  8
0
  6
SLD-Plná
 62
     7
370
    25
100
AcDbLine
 10
9034.0906870894
 20
6192.7323768048
 30
0.0
 11
9034.0906870894
 21
6196.7323768048
 31
0.0
  0
LINE
  5
184
330
1F
100
AcDbEntity
  8
0
  6
SLD-Plná
 62
     7
370
    25
100
AcDbLine
 10
9034.0906870894
 20
6196.7323768048
 30
0.0
 11
8999.0906870894
 21
6196.7323768048
 31
0.0
  0
LINE
  5
185
330
1F
100
AcDbEntity
  8
0
  6
SLD-Plná
 62
     7
370
    25
100
AcDbLine
 10
8999.0906870894
 20
6180.7323768048
 30
0.0
 11
8999.0906870894
 21
6184.7323768048
 31
0.0
  0
LINE
  5
186
330
1F
100
AcDbEntity
  8
0
  6
SLD-Plná
 62
     7
370
    25
100
AcDbLine
 10
9034.0906870894
 20
6180.7323768048
 30
0.0
 11
8999.0906870894
 21
6180.7323768048
 31
0.0
  0
LINE
  5
187
330
1F
100
AcDbEntity
  8
0
  6
SLD-Plná
 62
     7
370
    25
100
AcDbLine
 10
9034.0906870894
 20
6180.7323768048
 30
0.0
 11
9034.0906870894
 21
6184.7323768048
 31
0.0
  0
LINE
  5
188
330
1F
100
AcDbEntity
  8
0
  6
SLD-Plná
 62
     7
370
    25
100
AcDbLine
 10
9034.0906870894
 20
6184.7323768048
 30
0.0
 11
8999.0906870894
 21
6184.7323768048
 31
0.0
  0
LINE
  5
189
330
1F
100
AcDbEntity
  8
0
  6
SLD-Plná
 62
     7
370
    25
100
AcDbLine
 10
8999.0906870894
 20
6186.7323768048
 30
0.0
 11
8999.0906870894
 21
6190.7323768048
 31
0.0
  0
LINE
  5
18A
330
1F
100
AcDbEntity
  8
0
  6
SLD-Plná
 62
     7
370
    25
100
AcDbLine
 10
9034.0906870894
 20
6186.7323768048
 30
0.0
 11
8999.0906870894
 21
6186.7323768048
 31
0.0
  0
LINE
  5
18B
330
1F
100
AcDbEntity
  8
0
  6
SLD-Plná
 62
     7
370
    25
100
AcDbLine
 10
9034.0906870894
 20
6186.7323768048
 30
0.0
 11
9034.0906870894
 21
6190.7323768048
 31
0.0
  0
LINE
  5
18C
330
1F
100
AcDbEntity
  8
0
  6
SLD-Plná
 62
     7
370
    25
100
AcDbLine
 10
9034.0906870894
 20
6190.7323768048
 30
0.0
 11
8999.0906870894
 21
6190.7323768048
 31
0.0
  0
ARC
  5
18D
330
1F
100
AcDbEntity
  8
0
  6
SLD-Plná
 62
     7
370
    25
100
AcDbCircle
 10
8939.1667665957
 20
6470.5304268233
 30
0.0
 40
9.924221265449091
100
AcDbArc
 50
0.4460762349
 51
90.4392362084
  0
LINE
  5
18E
330
1F
100
AcDbEntity
  8
0
  6
SLD-Plná
 62
     7
370
    25
100
AcDbLine
 10
8949.0906870894
 20
6470.6076910577
 30
0.0
 11
8949.0906870894
 21
6429.2323768048
 31
0.0
  0
LINE
  5
18F
330
1F
100
AcDbEntity
  8
0
  6
SLD-Plná
 62
     7
370
    25
100
AcDbLine
 10
8939.0906870894
 20
6429.2323768048
 30
0.0
 11
8949.0906870894
 21
6429.2323768048
 31
0.0
  0
LINE
  5
190
330
1F
100
AcDbEntity
  8
0
  6
SLD-Plná
 62
     7
370
    25
100
AcDbLine
 10
8949.0906870894
 20
6429.2323768048
 30
0.0
 11
8949.0906870894
 21
6264.7323768048
 31
0.0
  0
LINE
  5
191
330
1F
100
AcDbEntity
  8
0
  6
SLD-Plná
 62
     7
370
    25
100
AcDbLine
 10
8939.0906870894
 20
6264.7323768048
 30
0.0
 11
8949.0906870894
 21
6264.7323768048
 31
0.0
  0
LINE
  5
192
330
1F
100
AcDbEntity
  8
0
  6
SLD-Plná
 62
     7
370
    25
100
AcDbLine
 10
9029.0906870894
 20
6264.7323768048
 30
0.0
 11
9019.0906870894
 21
6264.7323768048
 31
0.0
  0
LINE
  5
193
330
1F
100
AcDbEntity
  8
0
  6
SLD-Plná
 62
     7
370
    25
100
AcDbLine
 10
9019.0906870894
 20
6264.7323768048
 30
0.0
 11
9019.0906870894
 21
6389.5544076834
 31
0.0
  0
LINE
  5
194
330
1F
100
AcDbEntity
  8
0
  6
SLD-Plná
 62
     7
370
    25
100
AcDbLine
 10
9019.0906870894
 20
6389.5544076834
 30
0.0
 11
9029.0906870894
 21
6389.5544076834
 31
0.0
  0
LINE
  5
195
330
1F
100
AcDbEntity
  8
0
  6
SLD-Plná
 62
     7
370
    25
100
AcDbLine
 10
8994.0906870894
 20
5990.2323768048
 30
0.0
 11
8994.0906870894
 21
5939.0103971395
 31
0.0
  0
LINE
  5
196
330
1F
100
AcDbEntity
  8
0
  6
SLD-Plná
 62
     7
370
    25
100
AcDbLine
 10
8994.0906870894
 20
5939.0103971395
 30
0.0
 11
8915.4693476313
 21
5939.0103971395
 31
0.0
  0
SPLINE
  5
197
330
1F
100
AcDbEntity
  8
0
  6
SLD-Plná
 62
     7
370
    25
100
AcDbSpline
210
0.0
220
0.0
230
1.0
 70
     8
 71
     3
 72
    18
 73
    14
 74
     0
 42
0.00000001
 43
0.00000001
 40
0.0
 40
0.0
 40
0.0
 40
0.0
 40
0.2499999999999991
 40
0.2499999999999991
 40
0.4999999999999981
 40
0.4999999999999981
 40
0.5624999999999986
 40
0.5624999999999986
 40
0.624999999999999
 40
0.624999999999999
 40
0.7499999999999998
 40
0.7499999999999998
 40
1.0
 40
1.0
 40
1.0
 40
1.0
 10
8912.968617677385
 20
5951.05665019266
 30
0.0
 10
8913.376422676625
 20
5949.512790448152
 30
0.0
 10
8913.73419254519
 20
5948.100700900169
 30
0.0
 10
8914.353230882747
 20
5945.534378590594
 30
0.0
 10
8914.614499746374
 20
5944.380132929619
 30
0.0
 10
8914.879469979325
 20
5943.103792439463
 30
0.0
 10
8914.929369015264
 20
5942.856883875847
 30
0.0
 10
8915.022885104465
 20
5942.380070797596
 30
0.0
 10
8915.06655535335
 20
5942.149856598399
 30
0.0
 10
8915.18726021515
 20
5941.489221684734
 30
0.0
 10
8915.254232666779
 20
5941.087689113561
 30
0.0
 10
8915.415166433624
 20
5939.998612018835
 30
0.0
 10
8915.469347631342
 20
5939.426040408945
 30
0.0
 10
8915.469347631342
 20
5939.010397139454
 30
0.0
  0
LINE
  5
198
330
1F
100
AcDbEntity
  8
0
  6
SLD-Plná
 62
     7
370
    25
100
AcDbLine
 10
9050.257724072
 20
6389.5544076834
 30
0.0
 11
9050.257724072
 21
5990.2323768048
 31
0.0
  0
LINE
  5
199
330
1F
100
AcDbEntity
  8
0
  6
SLD-Plná
 62
     7
370
    25
100
AcDbLine
 10
9040.3472023219
 20
5990.2323768048
 30
0.0
 11
9050.257724072
 21
5990.2323768048
 31
0.0
  0
LINE
  5
19A
330
1F
100
AcDbEntity
  8
0
  6
SLD-Plná
 62
     7
370
    25
100
AcDbLine
 10
9040.3472023219
 20
6389.5544076834
 30
0.0
 11
9050.257724072
 21
6389.5544076834
 31
0.0
  0
ARC
  5
19B
330
1F
100
AcDbEntity
  8
0
  6
SLD-Plná
 62
     7
370
    25
100
AcDbCircle
 10
8984.0906870894
 20
6264.7323768048
 30
0.0
 40
35.0
100
AcDbArc
 50
180.0
 51
0.0
  0
LINE
  5
19C
330
1F
100
AcDbEntity
  8
0
  6
SLD-Plná
 62
     7
370
    25
100
AcDbLine
 10
9069.0906870894
 20
6389.5544076834
 30
0.0
 11
9069.0906870894
 21
5990.2323768048
 31
0.0
  0
LINE
  5
19D
330
1F
100
AcDbEntity
  8
0
  6
SLD-Plná
 62
     7
370
    25
100
AcDbLine
 10
9050.257724072
 20
5990.2323768048
 30
0.0
 11
9069.0906870894
 21
5990.2323768048
 31
0.0
  0
LINE
  5
19E
330
1F
100
AcDbEntity
  8
0
  6
SLD-Plná
 62
     7
370
    25
100
AcDbLine
 10
9069.0906870894
 20
6389.5544076834
 30
0.0
 11
9050.257724072
 21
6389.5544076834
 31
0.0
  0
LINE
  5
19F
330
1F
100
AcDbEntity
  8
0
  6
SLD-Plná
 62
     7
370
    25
100
AcDbLine
 10
8899.0906870894
 20
5975.1262066831
 30
0.0
 11
8907.0539969084
 21
5953.2323768048
 31
0.0
  0
LINE
  5
1A0
330
1F
100
AcDbEntity
  8
0
  6
SLD-Plná
 62
     7
370
    25
100
AcDbLine
 10
8899.0906870894
 20
5975.1262066831
 30
0.0
 11
8899.0906870894
 21
5985.342243738
 31
0.0
  0
LINE
  5
1A1
330
1F
100
AcDbEntity
  8
0
  6
SLD-Plná
 62
     7
370
    25
100
AcDbLine
 10
8915.4693476313
 20
5939.0103971395
 30
0.0
 11
8915.4693476313
 21
5930.0968992204
 31
0.0
  0
LINE
  5
1A2
330
1F
100
AcDbEntity
  8
0
  6
SLD-Plná
 62
     7
370
    25
100
AcDbLine
 10
8914.5107059401
 20
5932.7323768048
 30
0.0
 11
8915.4693476313
 21
5930.0968992204
 31
0.0
  0
SPLINE
  5
1A3
330
1F
100
AcDbEntity
  8
0
  6
SLD-Plná
 62
     7
370
    25
100
AcDbSpline
210
0.0
220
0.0
230
1.0
 70
     8
 71
     3
 72
    11
 73
     7
 74
     0
 42
0.00000001
 43
0.00000001
 40
0.0
 40
0.0
 40
0.0
 40
0.0
 40
0.0465525661452311
 40
0.0965352758394143
 40
0.3244623252457942
 40
1.0
 40
1.0
 40
1.0
 40
1.0
 10
8907.497096548612
 20
5952.732376804789
 30
0.0
 10
8907.44704487629
 20
5952.858505602459
 30
0.0
 10
8907.343253562638
 20
5953.120056775305
 30
0.0
 10
8907.217356352434
 20
5953.370010363399
 30
0.0
 10
8907.231076139964
 20
5953.064296388739
 30
0.0
 10
8907.129755939794
 20
5953.160467697172
 30
0.0
 10
8907.05399690837
 20
5953.232376804789
 30
0.0
  0
LINE
  5
1A4
330
1F
100
AcDbEntity
  8
0
  6
SLD-Plná
 62
     7
370
    25
100
AcDbLine
 10
8915.2408767741
 20
5932.7323768048
 30
0.0
 11
8907.9910168435
 21
5952.7323768048
 31
0.0
  0
LINE
  5
1A5
330
1F
100
AcDbEntity
  8
0
  6
SLD-Plná
 62
     7
370
    25
100
AcDbLine
 10
8899.0906870894
 20
6464.2463885491
 30
0.0
 11
8899.0906870894
 21
6465.6843583514
 31
0.0
  0
LINE
  5
1A6
330
1F
100
AcDbEntity
  8
0
  6
SLD-Plná
 62
     7
370
    25
100
AcDbLine
 10
8899.0906870894
 20
6465.6843583514
 30
0.0
 11
8907.7509411272
 21
6480.4543564701
 31
0.0
  0
LINE
  5
1A7
330
1F
100
AcDbEntity
  8
0
  6
SLD-Plná
 62
     7
370
    25
100
AcDbLine
 10
8907.7509411272
 20
6489.7323768048
 30
0.0
 11
8907.7509411272
 21
6480.4543564701
 31
0.0
  0
LINE
  5
1A8
330
1F
100
AcDbEntity
  8
0
  6
SLD-Plná
 62
     7
370
    25
100
AcDbLine
 10
8899.0906870894
 20
6465.6843583514
 30
0.0
 11
8899.0906870894
 21
6474.7323768048
 31
0.0
  0
LINE
  5
1A9
330
1F
100
AcDbEntity
  8
0
  6
SLD-Plná
 62
     7
370
    25
100
AcDbLine
 10
8919.4693476313
 20
5930.0968992204
 30
0.0
 11
8915.4693476313
 21
5930.0968992204
 31
0.0
  0
LINE
  5
1AA
330
1F
100
AcDbEntity
  8
0
  6
SLD-Plná
 62
     7
370
    25
100
AcDbLine
 10
8994.0906870894
 20
5935.7323768048
 30
0.0
 11
8947.0906870894
 21
5935.7323768048
 31
0.0
  0
SPLINE
  5
1AB
330
1F
100
AcDbEntity
  8
0
  6
SLD-Plná
 62
     7
370
    25
100
AcDbSpline
210
0.0
220
0.0
230
1.0
 70
     8
 71
     3
 72
    18
 73
    14
 74
     0
 42
0.00000001
 43
0.00000001
 40
0.0
 40
0.0
 40
0.0
 40
0.0
 40
0.1250000000000032
 40
0.1250000000000032
 40
0.2500000000000063
 40
0.2500000000000063
 40
0.3750000000000095
 40
0.3750000000000095
 40
0.5000000000000127
 40
0.5000000000000127
 40
0.7500000000000063
 40
0.7500000000000063
 40
1.0
 40
1.0
 40
1.0
 40
1.0
 10
8945.590687089365
 20
5935.521466650186
 30
0.0
 10
8945.590687089365
 20
5935.535200509781
 30
0.0
 10
8945.60030873876
 20
5935.548732953111
 30
0.0
 10
8945.638023708281
 20
5935.575408517042
 30
0.0
 10
8945.666552251354
 20
5935.588685881541
 30
0.0
 10
8945.74123183648
 20
5935.614103856484
 30
0.0
 10
8945.786957222264
 20
5935.626187442609
 30
0.0
 10
8945.895044979527
 20
5935.649102321229
 30
0.0
 10
8945.958092573017
 20
5935.659998496167
 30
0.0
 10
8946.165059851965
 20
5935.689370769363
 30
0.0
 10
8946.332203789467
 20
5935.70528253186
 30
0.0
 10
8946.69386797536
 20
5935.726665381439
 30
0.0
 10
8946.89158669426
 20
5935.732376804789
 30
0.0
 10
8947.090687089365
 20
5935.732376804789
 30
0.0
  0
LINE
  5
1AC
330
1F
100
AcDbEntity
  8
0
  6
SLD-Plná
 62
     7
370
    25
100
AcDbLine
 10
8945.5906870894
 20
5935.5214666502
 30
0.0
 11
8945.5906870894
 21
5929.7323768048
 31
0.0
  0
LINE
  5
1AD
330
1F
100
AcDbEntity
  8
0
  6
SLD-Plná
 62
     7
370
    25
100
AcDbLine
 10
8919.4693476313
 20
5930.0968992204
 30
0.0
 11
8919.4693476313
 21
5929.7323768048
 31
0.0
  0
LINE
  5
1AE
330
1F
100
AcDbEntity
  8
0
  6
SLD-Plná
 62
     7
370
    25
100
AcDbLine
 10
8994.0906870894
 20
5939.0103971395
 30
0.0
 11
8994.0906870894
 21
5935.7323768048
 31
0.0
  0
LINE
  5
1AF
330
1F
100
AcDbEntity
  8
0
  6
SLD-Plná
 62
     7
370
    25
100
AcDbLine
 10
8949.0906870894
 20
6479.7323768048
 30
0.0
 11
8949.0906870894
 21
6470.6076910577
 31
0.0
  0
ARC
  5
1B0
330
1F
100
AcDbEntity
  8
0
  6
SLD-Plná
 62
     7
370
    25
100
AcDbCircle
 10
8900.3112714865
 20
5935.2323768048
 30
0.0
 40
2.5
100
AcDbArc
 50
180.0
 51
270.0
  0
ARC
  5
1B1
330
1F
100
AcDbEntity
  8
0
  6
SLD-Plná
 62
     7
370
    25
100
AcDbCircle
 10
8898.8112714865
 20
5939.2323768048
 30
0.0
 40
1.0
100
AcDbArc
 50
90.0
 51
180.0
  0
LINE
  5
1B2
330
1F
100
AcDbEntity
  8
0
  6
SLD-Plná
 62
     7
370
    25
100
AcDbLine
 10
8905.523070582
 20
5940.2323768048
 30
0.0
 11
8898.8112714865
 21
5940.2323768048
 31
0.0
  0
ARC
  5
1B3
330
1F
100
AcDbEntity
  8
0
  6
SLD-Plná
 62
     7
370
    25
100
AcDbCircle
 10
8905.523070582
 20
5942.7323768048
 30
0.0
 40
2.5
100
AcDbArc
 50
270.0
 51
90.0
  0
LINE
  5
1B4
330
1F
100
AcDbEntity
  8
0
  6
SLD-Plná
 62
     7
370
    25
100
AcDbLine
 10
8907.9910168435
 20
5952.7323768048
 30
0.0
 11
8900.3112714865
 21
5952.7323768048
 31
0.0
  0
LINE
  5
1B5
330
1F
100
AcDbEntity
  8
0
  6
SLD-Plná
 62
     7
370
    25
100
AcDbLine
 10
8900.3112714865
 20
5932.7323768048
 30
0.0
 11
8915.2408767741
 21
5932.7323768048
 31
0.0
  0
ARC
  5
1B6
330
1F
100
AcDbEntity
  8
0
  6
SLD-Plná
 62
     7
370
    25
100
AcDbCircle
 10
8898.8112714865
 20
5946.2323768048
 30
0.0
 40
1.0
100
AcDbArc
 50
180.0
 51
270.0
  0
LINE
  5
1B7
330
1F
100
AcDbEntity
  8
0
  6
SLD-Plná
 62
     7
370
    25
100
AcDbLine
 10
8897.8112714865
 20
5939.2323768048
 30
0.0
 11
8897.8112714865
 21
5935.2323768048
 31
0.0
  0
LINE
  5
1B8
330
1F
100
AcDbEntity
  8
0
  6
SLD-Plná
 62
     7
370
    25
100
AcDbLine
 10
8897.8112714865
 20
5950.2323768048
 30
0.0
 11
8897.8112714865
 21
5946.2323768048
 31
0.0
  0
ARC
  5
1B9
330
1F
100
AcDbEntity
  8
0
  6
SLD-Plná
 62
     7
370
    25
100
AcDbCircle
 10
8900.3112714865
 20
5950.2323768048
 30
0.0
 40
2.5
100
AcDbArc
 50
90.0
 51
180.0
  0
LINE
  5
1BA
330
1F
100
AcDbEntity
  8
0
  6
SLD-Plná
 62
     7
370
    25
100
AcDbLine
 10
8898.8112714865
 20
5945.2323768048
 30
0.0
 11
8905.523070582
 21
5945.2323768048
 31
0.0
  0
LINE
  5
1BB
330
1F
100
AcDbEntity
  8
0
  6
SLD-Plná
 62
     7
370
    25
100
AcDbLine
 10
8896.5906870894
 20
5992.2323768048
 30
0.0
 11
8896.5906870894
 21
5977.2323768048
 31
0.0
  0
LINE
  5
1BC
330
1F
100
AcDbEntity
  8
0
  6
SLD-Plná
 62
     7
370
    25
100
AcDbLine
 10
8994.0906870894
 20
5939.0103971395
 30
0.0
 11
8994.0906870894
 21
5990.2323768048
 31
0.0
  0
ELLIPSE
  5
1BD
330
1F
100
AcDbEntity
  8
0
  6
SLD-Plná
 62
     7
370
    25
100
AcDbEllipse
 10
9046.0064104524
 20
5990.2323768048
 30
0.0
 11
0.0
 21
52.01962036868008
 31
0.0
210
0.0
220
0.0
230
1.0
 40
0.1087898776
 41
1.570796326794897
 42
2.96624838877055
  0
LINE
  5
1BE
330
1F
100
AcDbEntity
  8
0
  6
SLD-Plná
 62
     7
370
    25
100
AcDbLine
 10
9045.0191778134
 20
5939.0103971395
 30
0.0
 11
8994.0906870894
 21
5939.0103971395
 31
0.0
  0
LINE
  5
1BF
330
1F
100
AcDbEntity
  8
0
  6
SLD-Plná
 62
     7
370
    25
100
AcDbLine
 10
8994.0906870894
 20
5990.2323768048
 30
0.0
 11
9040.3472023219
 21
5990.2323768048
 31
0.0
  0
ELLIPSE
  5
1C0
330
1F
100
AcDbEntity
  8
0
  6
SLD-Plná
 62
     7
370
    25
100
AcDbEllipse
 10
9055.9169322024
 20
5990.2323768048
 30
0.0
 11
0.0
 21
42.01962036868098
 31
0.0
210
0.0
220
0.0
230
1.0
 40
0.1346801347
 41
1.570796326794897
 42
2.966248388770495
  0
ARC
  5
1C1
330
1F
100
AcDbEntity
  8
0
  6
SLD-Plná
 62
     7
370
    25
100
AcDbCircle
 10
9044.7776267889
 20
5949.1642434465
 30
0.0
 40
10.15671904326469
100
AcDbArc
 50
271.3627588948
 51
358.2668760455
  0
LINE
  5
1C2
330
1F
100
AcDbEntity
  8
0
  6
SLD-Plná
 62
     7
370
    25
100
AcDbLine
 10
9040.3472023219
 20
5990.2323768048
 30
0.0
 11
9050.257724072
 21
5990.2323768048
 31
0.0
  0
LINE
  5
1C3
330
1F
100
AcDbEntity
  8
0
  6
SLD-Plná
 62
     7
370
    25
100
AcDbLine
 10
9069.0906870894
 20
5990.2323768048
 30
0.0
 11
9069.0906870894
 21
5939.7338737051
 31
0.0
  0
ELLIPSE
  5
1C4
330
1F
100
AcDbEntity
  8
0
  6
SLD-Plná
 62
     7
370
    25
100
AcDbEllipse
 10
9068.9109227252
 20
6534.8157101381
 30
0.0
 11
0.0
 21
595.0833333333367
 31
0.0
210
0.0
220
0.0
230
1.0
 40
0.1346801347
 41
2.966248388770566
 42
3.143835619320015
  0
LINE
  5
1C5
330
1F
100
AcDbEntity
  8
0
  6
SLD-Plná
 62
     7
370
    25
100
AcDbLine
 10
9050.257724072
 20
5990.2323768048
 30
0.0
 11
9069.0906870894
 21
5990.2323768048
 31
0.0
  0
SPLINE
  5
1C6
330
1F
100
AcDbEntity
  8
0
  6
SLD-Plná
 62
     7
370
    25
100
AcDbSpline
210
0.0
220
0.0
230
1.0
 70
     8
 71
     3
 72
    33
 73
    29
 74
     0
 42
0.00000001
 43
0.00000001
 40
0.0
 40
0.0
 40
0.0
 40
0.0
 40
0.1250000000000038
 40
0.1250000000000038
 40
0.1875000000000055
 40
0.1875000000000055
 40
0.2500000000000072
 40
0.2500000000000072
 40
0.3750000000000097
 40
0.3750000000000097
 40
0.4375000000000101
 40
0.4375000000000101
 40
0.5000000000000105
 40
0.5000000000000105
 40
0.6250000000000095
 40
0.6250000000000095
 40
0.687500000000008
 40
0.687500000000008
 40
0.7500000000000064
 40
0.8125000000000049
 40
0.8125000000000049
 40
0.8750000000000033
 40
0.8750000000000033
 40
0.9375000000000018
 40
0.9375000000000018
 40
0.9687500000000009
 40
0.9687500000000009
 40
1.0
 40
1.0
 40
1.0
 40
1.0
 10
9069.090687089367
 20
5939.733873705124
 30
0.0
 10
9069.090687089367
 20
5939.070538915609
 30
0.0
 10
9069.024749986267
 20
5938.418455403666
 30
0.0
 10
9068.831096334372
 20
5937.456497603938
 30
0.0
 10
9068.750635188486
 20
5937.138559818819
 30
0.0
 10
9068.557175320591
 20
5936.508236347221
 30
0.0
 10
9068.443721023374
 20
5936.195275179209
 30
0.0
 10
9068.061775623153
 20
5935.285451115266
 30
0.0
 10
9067.750314101717
 20
5934.710392595383
 30
0.0
 10
9067.198753062905
 20
5933.894554520291
 30
0.0
 10
9066.999729203815
 20
5933.629273710854
 30
0.0
 10
9066.577123396552
 20
5933.120761652273
 30
0.0
 10
9066.354824783151
 20
5932.878802360508
 30
0.0
 10
9065.65597394361
 20
5932.188660444741
 30
0.0
 10
9065.147768608345
 20
5931.775876169995
 30
0.0
 10
9064.320505589472
 20
5931.229340342153
 30
0.0
 10
9064.035015808675
 20
5931.060343708324
 30
0.0
 10
9063.45438117652
 20
5930.753700750761
 30
0.0
 10
9062.861427743246
 20
5930.476598267178
 30
0.0
 10
9062.244185525478
 20
5930.257740266918
 30
0.0
 10
9061.614624017457
 20
5930.068423913577
 30
0.0
 10
9061.292174271413
 20
5929.988287800766
 30
0.0
 10
9060.6435867516
 20
5929.860463222496
 30
0.0
 10
9060.31742880693
 20
5929.812569937048
 30
0.0
 10
9059.825422099979
 20
5929.764530909017
 30
0.0
 10
9059.660957395787
 20
5929.752491907709
 30
0.0
 10
9059.331097420065
 20
5929.736410302251
 30
0.0
 10
9059.163872175115
 20
5929.732376804789
 30
0.0
 10
9059.000400975097
 20
5929.732376804789
 30
0.0
  0
ELLIPSE
  5
1C7
330
1F
100
AcDbEntity
  8
0
  6
SLD-Plná
 62
     7
370
    25
100
AcDbEllipse
 10
9059.0004009751
 20
6534.8157101381
 30
0.0
 11
0.0
 21
605.0833333333358
 31
0.0
210
0.0
220
0.0
230
1.0
 40
0.1324543233
 41
2.966248388770566
 42
3.141592653589792
  0
SPLINE
  5
1C8
330
1F
100
AcDbEntity
  8
0
  6
SLD-Plná
 62
     7
370
    25
100
AcDbSpline
210
0.0
220
0.0
230
1.0
 70
     8
 71
     3
 72
    18
 73
    14
 74
     0
 42
0.00000001
 43
0.00000001
 40
0.0
 40
0.0
 40
0.0
 40
0.0
 40
0.1250000000000032
 40
0.1250000000000032
 40
0.2500000000000065
 40
0.2500000000000065
 40
0.3750000000000098
 40
0.3750000000000098
 40
0.500000000000013
 40
0.500000000000013
 40
0.7500000000000064
 40
0.7500000000000064
 40
1.0
 40
1.0
 40
1.0
 40
1.0
 10
8947.090687089365
 20
5935.732376804789
 30
0.0
 10
8946.991154262736
 20
5935.732376804789
 30
0.0
 10
8946.893312126042
 20
5935.730984909921
 30
0.0
 10
8946.700867223932
 20
5935.725536993187
 30
0.0
 10
8946.60524700305
 20
5935.72141237755
 30
0.0
 10
8946.423270844036
 20
5935.710679977424
 30
0.0
 10
8946.337012243348
 20
5935.704119807032
 30
0.0
 10
8946.173855145656
 20
5935.688648226132
 30
0.0
 10
8946.096819650431
 20
5935.679672356601
 30
0.0
 10
8945.889868724063
 20
5935.650343984137
 30
0.0
 10
8945.778734017511
 20
5935.626804373048
 30
0.0
 10
8945.630070890322
 20
5935.576332375037
 30
0.0
 10
8945.590687089365
 20
5935.548929749016
 30
0.0
 10
8945.590687089365
 20
5935.521466650186
 30
0.0
  0
LINE
  5
1C9
330
1F
100
AcDbEntity
  8
0
  6
SLD-Plná
 62
     7
370
    25
100
AcDbLine
 10
8947.0906870894
 20
5935.7323768048
 30
0.0
 11
8994.0906870894
 21
5935.7323768048
 31
0.0
  0
LINE
  5
1CA
330
1F
100
AcDbEntity
  8
0
  6
SLD-Plná
 62
     7
370
    25
100
AcDbLine
 10
8945.5906870894
 20
5929.7323768048
 30
0.0
 11
8945.5906870894
 21
5935.5214666502
 31
0.0
  0
SPLINE
  5
1CB
330
1F
100
AcDbEntity
  8
0
  6
SLD-Plná
 62
     7
370
    25
100
AcDbSpline
210
0.0
220
0.0
230
1.0
 70
     8
 71
     3
 72
    24
 73
    20
 74
     0
 42
0.00000001
 43
0.00000001
 40
0.0
 40
0.0
 40
0.0
 40
0.0
 40
0.125000000000001
 40
0.125000000000001
 40
0.2500000000000021
 40
0.2500000000000021
 40
0.3750000000000031
 40
0.3750000000000031
 40
0.5000000000000041
 40
0.5000000000000041
 40
0.6250000000000051
 40
0.6250000000000051
 40
0.7500000000000062
 40
0.7500000000000062
 40
0.8125000000000048
 40
0.8125000000000048
 40
0.8750000000000034
 40
0.8750000000000034
 40
1.0
 40
1.0
 40
1.0
 40
1.0
 10
9019.590687089363
 20
5930.828250347361
 30
0.0
 10
9019.590687089363
 20
5930.848170179851
 30
0.0
 10
9019.55849627509
 20
5930.868145405099
 30
0.0
 10
9019.430208936534
 20
5930.908175105526
 30
0.0
 10
9019.334616424487
 20
5930.927945750744
 30
0.0
 10
9019.086144064075
 20
5930.966187375971
 30
0.0
 10
9018.931510415778
 20
5930.984911525381
 30
0.0
 10
9018.566975548594
 20
5931.020499533709
 30
0.0
 10
9018.360481471434
 20
5931.037086287604
 30
0.0
 10
9017.900069142917
 20
5931.067744997858
 30
0.0
 10
9017.643035009965
 20
5931.081930382538
 30
0.0
 10
9017.099511711953
 20
5931.106473483714
 30
0.0
 10
9016.812180375238
 20
5931.116949853997
 30
0.0
 10
9016.357566748144
 20
5931.129842841047
 30
0.0
 10
9016.201212185642
 20
5931.133681531302
 30
0.0
 10
9015.886489723176
 20
5931.140233493313
 30
0.0
 10
9015.727744216372
 20
5931.142964089754
 30
0.0
 10
9015.247446027057
 20
5931.14954178282
 30
0.0
 10
9014.921871902958
 20
5931.151789076322
 30
0.0
 10
9014.590687089363
 20
5931.151789076322
 30
0.0
  0
LINE
  5
1CC
330
1F
100
AcDbEntity
  8
0
  6
SLD-Plná
 62
     7
370
    25
100
AcDbLine
 10
8989.2451750437
 20
5931.1517890763
 30
0.0
 11
9014.5906870894
 21
5931.1517890763
 31
0.0
  0
SPLINE
  5
1CD
330
1F
100
AcDbEntity
  8
0
  6
SLD-Plná
 62
     7
370
    25
100
AcDbSpline
210
0.0
220
0.0
230
1.0
 70
     8
 71
     3
 72
    22
 73
    18
 74
     0
 42
0.00000001
 43
0.00000001
 40
0.0
 40
0.0
 40
0.0
 40
0.0
 40
0.125
 40
0.125
 40
0.25
 40
0.25
 40
0.375
 40
0.375
 40
0.5
 40
0.5
 40
0.625
 40
0.625
 40
0.75
 40
0.75
 40
0.875
 40
0.875
 40
1.0
 40
1.0
 40
1.0
 40
1.0
 10
8989.24517504374
 20
5931.151789076322
 30
0.0
 10
8988.88434332142
 20
5931.151789076322
 30
0.0
 10
8988.527633701073
 20
5931.149789106059
 30
0.0
 10
8987.822172177945
 20
5931.141952493193
 30
0.0
 10
8987.47083264555
 20
5931.136050893228
 30
0.0
 10
8986.79037749588
 20
5931.12054953147
 30
0.0
 10
8986.462393661774
 20
5931.11101377157
 30
0.0
 10
8985.831743387875
 20
5931.088363653418
 30
0.0
 10
8985.527112774473
 20
5931.075120444662
 30
0.0
 10
8984.965365065982
 20
5931.045737332927
 30
0.0
 10
8984.70607362151
 20
5931.029556067941
 30
0.0
 10
8984.235404999268
 20
5930.994051322172
 30
0.0
 10
8984.029170317588
 20
5930.975082805946
 30
0.0
 10
8983.684721033369
 20
5930.935271314843
 30
0.0
 10
8983.544800855068
 20
5930.914096208665
 30
0.0
 10
8983.350402628223
 20
5930.871541256362
 30
0.0
 10
8983.293688122756
 20
5930.850018672176
 30
0.0
 10
8983.28113747855
 20
5930.828250347361
 30
0.0
  0
LINE
  5
1CE
330
1F
100
AcDbEntity
  8
0
  6
SLD-Plná
 62
     7
370
    25
100
AcDbLine
 10
8994.0906870894
 20
5935.7323768048
 30
0.0
 11
8994.0906870894
 21
5939.0103971395
 31
0.0
  0
LINE
  5
1CF
330
1F
100
AcDbEntity
  8
0
  6
SLD-Plná
 62
     7
370
    25
100
AcDbLine
 10
8989.2451750437
 20
5931.1459245441
 30
0.0
 11
8989.2451750437
 21
5931.1517890763
 31
0.0
  0
LINE
  5
1D0
330
1F
100
AcDbEntity
  8
0
  6
SLD-Plná
 62
     7
370
    25
100
AcDbLine
 10
9014.5906870894
 20
5931.1459245441
 30
0.0
 11
9014.5906870894
 21
5931.1517890763
 31
0.0
  0
SPLINE
  5
1D1
330
1F
100
AcDbEntity
  8
0
  6
SLD-Plná
 62
     7
370
    25
100
AcDbSpline
210
0.0
220
0.0
230
1.0
 70
     8
 71
     3
 72
    38
 73
    34
 74
     0
 42
0.00000001
 43
0.00000001
 40
0.0
 40
0.0
 40
0.0
 40
0.0
 40
0.0315269130349048
 40
0.1891945079418534
 40
0.3279263327682012
 40
0.3415510920851185
 40
0.3551756802099959
 40
0.368800097358862
 40
0.3824243440755943
 40
0.3960484212333721
 40
0.4096723300360942
 40
0.4232960720198184
 40
0.4369196486835258
 40
0.4515728527316102
 40
0.4726374371306446
 40
0.5021184727533308
 40
0.5400152348120688
 40
0.5832313389595316
 40
0.6141391426123392
 40
0.6759174790499017
 40
0.6833744177102723
 40
0.6906847518026057
 40
0.6978484846157257
 40
0.7048656193504945
 40
0.7117361591177747
 40
0.718460106936789
 40
0.795165034599503
 40
0.8599552897730053
 40
0.9128329292189752
 40
0.9446743219070585
 40
0.9698158761450317
 40
0.9882577478708956
 40
0.9999999999999999
 40
0.9999999999999999
 40
0.9999999999999999
 40
0.9999999999999999
 10
9066.880227539215
 20
6461.498349231066
 30
0.0
 10
9066.751076999039
 20
6461.522882766059
 30
0.0
 10
9065.976038451117
 20
6461.670109679008
 30
0.0
 10
9064.55036885562
 20
6461.61334821017
 30
0.0
 10
9063.169080676085
 20
6461.423335085099
 30
0.0
 10
9062.412477894333
 20
6461.252437280107
 30
0.0
 10
9062.225550126477
 20
6461.207838567843
 30
0.0
 10
9062.037977470305
 20
6461.160577371298
 30
0.0
 10
9061.849770840263
 20
6461.110687422698
 30
0.0
 10
9061.6609288492
 20
6461.058153397022
 30
0.0
 10
9061.471451400863
 20
6461.002973656172
 30
0.0
 10
9061.281345538251
 20
6460.945140870846
 30
0.0
 10
9061.085782094702
 20
6460.883132817545
 30
0.0
 10
9060.854785034537
 20
6460.8067542104
 30
0.0
 10
9060.548268260425
 20
6460.700242500724
 30
0.0
 10
9060.13000810098
 20
6460.545013777206
 30
0.0
 10
9059.60292257591
 20
6460.332925348822
 30
0.0
 10
9059.064174480847
 20
6460.096060497931
 30
0.0
 10
9058.405279464305
 20
6459.784127745191
 30
0.0
 10
9057.914940373814
 20
6459.531537312385
 30
0.0
 10
9057.537488101969
 20
6459.325381874844
 30
0.0
 10
9057.429182621352
 20
6459.265515988723
 30
0.0
 10
9057.32289414995
 20
6459.206081077116
 30
0.0
 10
9057.2186325255
 20
6459.147123204144
 30
0.0
 10
9057.116407494212
 20
6459.088687507
 30
0.0
 10
9056.667953336642
 20
6458.829636410704
 30
0.0
 10
9055.925826952009
 20
6458.373698340773
 30
0.0
 10
9054.93985532881
 20
6457.706781893881
 30
0.0
 10
9054.17359790781
 20
6457.149257325786
 30
0.0
 10
9053.606529404571
 20
6456.715933097058
 30
0.0
 10
9053.215338777081
 20
6456.407328460261
 30
0.0
 10
9052.927425277187
 20
6456.175072084913
 30
0.0
 10
9052.769809722986
 20
6456.04554927315
 30
0.0
 10
9052.708493993372
 20
6455.995162204787
 30
0.0
  0
SPLINE
  5
1D2
330
1F
100
AcDbEntity
  8
0
  6
SLD-Plná
 62
     7
370
    25
100
AcDbSpline
210
0.0
220
0.0
230
1.0
 70
     8
 71
     3
 72
    16
 73
    12
 74
     0
 42
0.00000001
 43
0.00000001
 40
0.0
 40
0.0
 40
0.0
 40
0.0
 40
0.0115838547460945
 40
0.0386875569694202
 40
0.0657914547445128
 40
0.0928956860264033
 40
0.1200003888971055
 40
0.3252415122697281
 40
0.5599454180149567
 40
0.7798556949405311
 40
1.0
 40
1.0
 40
1.0
 40
1.0
 10
9039.54511040354
 20
6468.964342252178
 30
0.0
 10
9039.545112566566
 20
6468.96435497154
 30
0.0
 10
9039.545119790599
 20
6468.964397451446
 30
0.0
 10
9039.542063363637
 20
6468.953105007752
 30
0.0
 10
9039.53503033634
 20
6468.927063876753
 30
0.0
 10
9039.524216198435
 20
6468.88690855975
 30
0.0
 10
9039.478139104393
 20
6468.715313157873
 30
0.0
 10
9039.306390998096
 20
6468.071981322967
 30
0.0
 10
9038.826467291696
 20
6466.240985959322
 30
0.0
 10
9038.119876145618
 20
6463.479493881297
 30
0.0
 10
9037.50742380156
 20
6460.915771821552
 30
0.0
 10
9037.201034773509
 20
6459.633229077281
 30
0.0
  0
LINE
  5
1D3
330
1F
100
AcDbEntity
  8
0
  6
SLD-Plná
 62
     7
370
    25
100
AcDbLine
 10
8939.0906870894
 20
6480.4543564701
 30
0.0
 11
8939.0906870894
 21
6489.7323768048
 31
0.0
  0
LINE
  5
1D4
330
1F
100
AcDbEntity
  8
0
  6
SLD-Plná
 62
     7
370
    25
100
AcDbLine
 10
9019.5906870894
 20
5930.8282503474
 30
0.0
 11
9019.5906870894
 21
5929.7323768048
 31
0.0
  0
LINE
  5
1D5
330
1F
100
AcDbEntity
  8
0
  6
SLD-Plná
 62
     7
370
    25
100
AcDbLine
 10
8982.6493057209
 20
5929.7323768048
 30
0.0
 11
8983.2811374786
 21
5930.8282503474
 31
0.0
  0
ARC
  5
1D6
330
1F
100
AcDbEntity
  8
0
  6
SLD-Plná
 62
     7
370
    25
100
AcDbCircle
 10
8983.2865360606
 20
5933.3270257075
 30
0.0
 40
2.49878119189922
100
AcDbArc
 50
269.8762131688
 51
286.3453933385
  0
ARC
  5
1D7
330
1F
100
AcDbEntity
  8
0
  6
SLD-Plná
 62
     7
370
    25
100
AcDbCircle
 10
9019.5905891489
 20
5933.3319374169
 30
0.0
 40
2.503687071436573
100
AcDbArc
 50
246.4192635692
 51
270.0022413243
  0
SPLINE
  5
1D8
330
1F
100
AcDbEntity
  8
0
  6
SLD-Plná
 62
     7
370
    25
100
AcDbSpline
210
0.0
220
0.0
230
1.0
 70
     8
 71
     3
 72
    11
 73
     7
 74
     0
 42
0.00000001
 43
0.00000001
 40
0.0
 40
0.0
 40
0.0
 40
0.0
 40
0.2514360952207931
 40
0.5030306586593075
 40
0.7547632710193729
 40
1.0
 40
1.0
 40
1.0
 40
1.0
 10
8408.73801524582
 20
5573.438245661059
 30
0.0
 10
8417.521004796721
 20
5571.996604301162
 30
0.0
 10
8435.092519399303
 20
5569.112412983352
 30
0.0
 10
8461.64986134505
 20
5565.03540263154
 30
0.0
 10
8488.064397726954
 20
5561.200201565884
 30
0.0
 10
8505.62992964046
 20
5558.865634561009
 30
0.0
 10
8514.29789611431
 20
5557.713608614465
 30
0.0
  0
SPLINE
  5
1D9
330
1F
100
AcDbEntity
  8
0
  6
SLD-Plná
 62
     7
370
    25
100
AcDbSpline
210
0.0
220
0.0
230
1.0
 70
     8
 71
     3
 72
    11
 73
     7
 74
     0
 42
0.00000001
 43
0.00000001
 40
0.0
 40
0.0
 40
0.0
 40
0.0
 40
0.2452372099353724
 40
0.4969696618767077
 40
0.7485640649910716
 40
1.0
 40
1.0
 40
1.0
 40
1.0
 10
8514.299291693354
 20
5557.713599814638
 30
0.0
 10
8522.967280757266
 20
5558.865628734914
 30
0.0
 10
8540.532835329419
 20
5561.200198693252
 30
0.0
 10
8566.947394404679
 20
5565.03540295843
 30
0.0
 10
8593.50473654227
 20
5569.112413380803
 30
0.0
 10
8611.076251273427
 20
5571.996604742512
 30
0.0
 10
8619.859240888794
 20
5573.438246124386
 30
0.0
  0
SPLINE
  5
1DA
330
1F
100
AcDbEntity
  8
0
  6
SLD-Plná
 62
     7
370
    25
100
AcDbSpline
210
0.0
220
0.0
230
1.0
 70
     8
 71
     3
 72
     9
 73
     5
 74
     0
 42
0.00000001
 43
0.00000001
 40
0.0
 40
0.0
 40
0.0
 40
0.0
 40
0.4671382713275164
 40
1.0
 40
1.0
 40
1.0
 40
1.0
 10
8662.78276027347
 20
5604.259282323819
 30
0.0
 10
8662.798501371139
 20
5604.522520369835
 30
0.0
 10
8662.83219824128
 20
5605.086032422201
 30
0.0
 10
8662.716150771605
 20
5605.638445835036
 30
0.0
 10
8662.654313516305
 20
5605.932805801141
 30
0.0
  0
SPLINE
  5
1DB
330
1F
100
AcDbEntity
  8
0
  6
SLD-Plná
 62
     7
370
    25
100
AcDbSpline
210
0.0
220
0.0
230
1.0
 70
     8
 71
     3
 72
     9
 73
     5
 74
     0
 42
0.00000001
 43
0.00000001
 40
0.0
 40
0.0
 40
0.0
 40
0.0
 40
0.9578420787729374
 40
1.0
 40
1.0
 40
1.0
 40
1.0
 10
8365.923986878293
 20
5605.934298062207
 30
0.0
 10
8365.827884633927
 20
5605.396683280047
 30
0.0
 10
8365.72755259956
 20
5604.83540622397
 30
0.0
 10
8365.776148978432
 20
5604.274855718105
 30
0.0
 10
8365.778197700743
 20
5604.251224074034
 30
0.0
  0
SPLINE
  5
1DC
330
1F
100
AcDbEntity
  8
0
  6
SLD-Plná
 62
     7
370
    25
100
AcDbSpline
210
0.0
220
0.0
230
1.0
 70
     8
 71
     3
 72
    21
 73
    17
 74
     0
 42
0.00000001
 43
0.00000001
 40
0.0
 40
0.0
 40
0.0
 40
0.0
 40
0.049316702330437
 40
0.0952266326167841
 40
0.1395030318169668
 40
0.1839972107082067
 40
0.2468258059888467
 40
0.3171139064169174
 40
0.3942390486796593
 40
0.4779104156839757
 40
0.5682649218287396
 40
0.6654727774378182
 40
0.7430019360372806
 40
0.8245622134057047
 40
0.9102138435775591
 40
1.0
 40
1.0
 40
1.0
 40
1.0
 10
8366.551858626717
 20
5592.430987891089
 30
0.0
 10
8366.673946348687
 20
5591.455276546935
 30
0.0
 10
8366.909688036545
 20
5589.57125548877
 30
0.0
 10
8368.180541326898
 20
5587.210099666395
 30
0.0
 10
8369.719127021586
 20
5585.421204140272
 30
0.0
 10
8371.575145136136
 20
5583.955489888721
 30
0.0
 10
8373.619683520188
 20
5582.824536863016
 30
0.0
 10
8375.688811380489
 20
5581.957210431185
 30
0.0
 10
8378.364008878636
 20
5580.932297315642
 30
0.0
 10
8381.632150104313
 20
5579.820296110794
 30
0.0
 10
8385.58410398618
 20
5578.606005789661
 30
0.0
 10
8389.840071745113
 20
5577.431917837665
 30
0.0
 10
8394.25627354124
 20
5576.331673704241
 30
0.0
 10
8398.697026064398
 20
5575.329082807137
 30
0.0
 10
8403.549350018218
 20
5574.337633061865
 30
0.0
 10
8406.98166250379
 20
5573.742791652973
 30
0.0
 10
8408.738263243587
 20
5573.438361662023
 30
0.0
  0
SPLINE
  5
1DD
330
1F
100
AcDbEntity
  8
0
  6
SLD-Plná
 62
     7
370
    25
100
AcDbSpline
210
0.0
220
0.0
230
1.0
 70
     8
 71
     3
 72
    23
 73
    19
 74
     0
 42
0.00000001
 43
0.00000001
 40
0.0
 40
0.0
 40
0.0
 40
0.0
 40
0.1021055077058151
 40
0.1976856167800018
 40
0.2867931648564011
 40
0.3695156094587392
 40
0.4700227654072939
 40
0.5595884733564038
 40
0.6383977350561993
 40
0.6905196811333353
 40
0.736673172745502
 40
0.7768701925925564
 40
0.8129997698760626
 40
0.8504209430430679
 40
0.892628007172042
 40
0.9419412122258761
 40
0.9698255505024092
 40
1.0
 40
1.0
 40
1.0
 40
1.0
 10
8619.858974350082
 20
5573.43834762303
 30
0.0
 10
8621.872281868129
 20
5573.7892788893
 30
0.0
 10
8625.770229661695
 20
5574.46871396953
 30
0.0
 10
8631.183758956337
 20
5575.602838724721
 30
0.0
 10
8635.98745948321
 20
5576.722264961381
 30
0.0
 10
8640.574780249504
 20
5577.90893814763
 30
0.0
 10
8644.793618785088
 20
5579.119280809511
 30
0.0
 10
8648.502694938945
 20
5580.303286828392
 30
0.0
 10
8651.196237357008
 20
5581.257319997702
 30
0.0
 10
8653.130347950382
 20
5582.008242018202
 30
0.0
 10
8654.536558686224
 20
5582.606028996217
 30
0.0
 10
8655.635610700429
 20
5583.108752288832
 30
0.0
 10
8656.79504544308
 20
5583.719307949045
 30
0.0
 10
8658.368855589913
 20
5584.826426896329
 30
0.0
 10
8660.061067714807
 20
5586.552655496797
 30
0.0
 10
8661.247314197097
 20
5588.611825441322
 30
0.0
 10
8661.895645720817
 20
5590.662769852566
 30
0.0
 10
8661.99418425616
 20
5591.826284990308
 30
0.0
 10
8662.045396935106
 20
5592.4309898095
 30
0.0
  0
ARC
  5
1DE
330
1F
100
AcDbEntity
  8
0
  6
SLD-Plná
 62
     7
370
    25
100
AcDbCircle
 10
8546.6692234552
 20
5684.8037667889
 30
0.0
 40
1.0
100
AcDbArc
 50
180.0
 51
270.0
  0
ARC
  5
1DF
330
1F
100
AcDbEntity
  8
0
  6
SLD-Plná
 62
     7
370
    25
100
AcDbCircle
 10
8595.9993146383
 20
5684.8037667889
 30
0.0
 40
1.000000000001819
100
AcDbArc
 50
270.0
 51
0.0
  0
ARC
  5
1E0
330
1F
100
AcDbEntity
  8
0
  6
SLD-Plná
 62
     7
370
    25
100
AcDbCircle
 10
8481.9280320879
 20
5684.8037667889
 30
0.0
 40
1.0
100
AcDbArc
 50
270.0
 51
0.0
  0
ARC
  5
1E1
330
1F
100
AcDbEntity
  8
0
  6
SLD-Plná
 62
     7
370
    25
100
AcDbCircle
 10
8432.5979409048
 20
5684.8037667889
 30
0.0
 40
1.0
100
AcDbArc
 50
180.0
 51
270.0
  0
ARC
  5
1E2
330
1F
100
AcDbEntity
  8
0
  6
SLD-Plná
 62
     7
370
    25
100
AcDbCircle
 10
8539.2986277715
 20
5684.8037667889
 30
0.0
 40
1.0
100
AcDbArc
 50
270.0
 51
0.0
  0
ARC
  5
1E3
330
1F
100
AcDbEntity
  8
0
  6
SLD-Plná
 62
     7
370
    25
100
AcDbCircle
 10
8489.2986277715
 20
5684.8037667889
 30
0.0
 40
1.0
100
AcDbArc
 50
180.0
 51
270.0
  0
SPLINE
  5
1E4
330
1F
100
AcDbEntity
  8
0
  6
SLD-Plná
 62
     7
370
    25
100
AcDbSpline
210
0.0
220
0.0
230
1.0
 70
     8
 71
     3
 72
    16
 73
    12
 74
     0
 42
0.00000001
 43
0.00000001
 40
0.0
 40
0.0
 40
0.0
 40
0.0
 40
0.0790191721962401
 40
0.2304124461573788
 40
0.3826222550056587
 40
0.5364867958565014
 40
0.6950349588460214
 40
0.816321773642094
 40
0.8992302741296981
 40
0.9614698791294493
 40
1.0
 40
1.0
 40
1.0
 40
1.0
 10
8512.319460615281
 20
5612.529738436931
 30
0.0
 10
8512.095723809316
 20
5612.528789045851
 30
0.0
 10
8511.443328405456
 20
5612.526020711092
 30
0.0
 10
8510.38186081576
 20
5612.492047200011
 30
0.0
 10
8509.229417572873
 20
5612.416312853759
 30
0.0
 10
8508.241002427989
 20
5612.305361724036
 30
0.0
 10
8507.529481944512
 20
5612.168562976339
 30
0.0
 10
8507.062477882833
 20
5612.021322732144
 30
0.0
 10
8506.686266585035
 20
5611.793545894282
 30
0.0
 10
8506.402377500997
 20
5611.47224511353
 30
0.0
 10
8506.356693321
 20
5611.225799793097
 30
0.0
 10
8506.33922560476
 20
5611.131569428747
 30
0.0
  0
SPLINE
  5
1E5
330
1F
100
AcDbEntity
  8
0
  6
SLD-Plná
 62
     7
370
    25
100
AcDbSpline
210
0.0
220
0.0
230
1.0
 70
     8
 71
     3
 72
    13
 73
     9
 74
     0
 42
0.00000001
 43
0.00000001
 40
0.0
 40
0.0
 40
0.0
 40
0.0
 40
0.1600876615869966
 40
0.3057967042265151
 40
0.4527665337168101
 40
0.644005515074721
 40
0.9402317521337209
 40
1.0
 40
1.0
 40
1.0
 40
1.0
 10
8522.289723486592
 20
5610.934254033782
 30
0.0
 10
8522.275513685829
 20
5611.07988824202
 30
0.0
 10
8522.248370368237
 20
5611.358076207666
 30
0.0
 10
8522.02208491166
 20
5611.677535246401
 30
0.0
 10
8521.762434811797
 20
5611.893884018677
 30
0.0
 10
8521.443430763587
 20
5612.046892696187
 30
0.0
 10
8521.205728630626
 20
5612.133068443181
 30
0.0
 10
8520.984753528111
 20
5612.172858085883
 30
0.0
 10
8520.947653810957
 20
5612.179538406303
 30
0.0
  0
LINE
  5
1E6
330
1F
100
AcDbEntity
  8
0
  6
SLD-Plná
 62
     7
370
    25
100
AcDbLine
 10
8516.2781698601
 20
5612.5297384369
 30
0.0
 11
8512.3194606153
 21
5612.5297384369
 31
0.0
  0
SPLINE
  5
1E7
330
1F
100
AcDbEntity
  8
0
  6
SLD-Plná
 62
     7
370
    25
100
AcDbSpline
210
0.0
220
0.0
230
1.0
 70
     8
 71
     3
 72
    16
 73
    12
 74
     0
 42
0.00000001
 43
0.00000001
 40
0.0
 40
0.0
 40
0.0
 40
0.0
 40
0.082356606161493
 40
0.2403150176987234
 40
0.3994881413075669
 40
0.5613774144715316
 40
0.732071071998727
 40
0.8382094466112907
 40
0.9127056575529754
 40
0.9764147030767893
 40
1.0
 40
1.0
 40
1.0
 40
1.0
 10
8568.80389753002
 20
5613.049417378587
 30
0.0
 10
8568.582381476048
 20
5613.045397861386
 30
0.0
 10
8567.936001824046
 20
5613.033668986286
 30
0.0
 10
8566.910082460143
 20
5612.985067338891
 30
0.0
 10
8565.828069652398
 20
5612.893389574787
 30
0.0
 10
8564.92243759483
 20
5612.764310099742
 30
0.0
 10
8564.336755179118
 20
5612.618320944192
 30
0.0
 10
8563.884811099582
 20
5612.421685996501
 30
0.0
 10
8563.535826805264
 20
5612.074505461124
 30
0.0
 10
8563.365084886578
 20
5611.70936696742
 30
0.0
 10
8563.388259334197
 20
5611.502611991686
 30
0.0
 10
8563.39452063605
 20
5611.446750668301
 30
0.0
  0
SPLINE
  5
1E8
330
1F
100
AcDbEntity
  8
0
  6
SLD-Plná
 62
     7
370
    25
100
AcDbSpline
210
0.0
220
0.0
230
1.0
 70
     8
 71
     3
 72
    17
 73
    13
 74
     0
 42
0.00000001
 43
0.00000001
 40
0.0
 40
0.0
 40
0.0
 40
0.0
 40
0.038826211870043
 40
0.0885159857876969
 40
0.1362584419461544
 40
0.1939194130294256
 40
0.2815765650906933
 40
0.4411320691769693
 40
0.5764209930200958
 40
0.7185546539566341
 40
0.8579517974228784
 40
0.9999999999999999
 40
0.9999999999999999
 40
0.9999999999999999
 40
0.9999999999999999
 10
8579.326387063606
 20
5611.525347465321
 30
0.0
 10
8579.323388574805
 20
5611.631854147998
 30
0.0
 10
8579.316552620967
 20
5611.874668050155
 30
0.0
 10
8579.12730104912
 20
5612.188533222503
 30
0.0
 10
8578.877260148178
 20
5612.426209324836
 30
0.0
 10
8578.580497636269
 20
5612.591273843718
 30
0.0
 10
8578.149028581269
 20
5612.740563939151
 30
0.0
 10
8577.482909989823
 20
5612.872037518314
 30
0.0
 10
8576.477835982814
 20
5612.989317842158
 30
0.0
 10
8575.33815191667
 20
5613.066839809087
 30
0.0
 10
8574.054477916998
 20
5613.110844580354
 30
0.0
 10
8573.178442043081
 20
5613.1061800336
 30
0.0
 10
8572.736298220017
 20
5613.103825791501
 30
0.0
  0
LINE
  5
1E9
330
1F
100
AcDbEntity
  8
0
  6
SLD-Plná
 62
     7
370
    25
100
AcDbLine
 10
8572.73629822
 20
5613.1038257915
 30
0.0
 11
8568.80389753
 21
5613.0494173786
 31
0.0
  0
SPLINE
  5
1EA
330
1F
100
AcDbEntity
  8
0
  6
SLD-Plná
 62
     7
370
    25
100
AcDbSpline
210
0.0
220
0.0
230
1.0
 70
     8
 71
     3
 72
    17
 73
    13
 74
     0
 42
0.00000001
 43
0.00000001
 40
0.0
 40
0.0
 40
0.0
 40
0.0
 40
0.0452801030293439
 40
0.1021373179225589
 40
0.156723278374986
 40
0.2225777897248256
 40
0.3226579507696741
 40
0.5046200739493806
 40
0.6593718092947084
 40
0.8219521427075746
 40
0.9722907076521285
 40
1.0
 40
1.0
 40
1.0
 40
1.0
 10
8465.206235164365
 20
5611.462532526744
 30
0.0
 10
8465.203429963854
 20
5611.571176601953
 30
0.0
 10
8465.197102335665
 20
5611.816242617879
 30
0.0
 10
8465.007525046898
 20
5612.132460278432
 30
0.0
 10
8464.75751010613
 20
5612.370463777551
 30
0.0
 10
8464.460996653645
 20
5612.535748252933
 30
0.0
 10
8464.030520755969
 20
5612.684949555055
 30
0.0
 10
8463.366274885653
 20
5612.816418023731
 30
0.0
 10
8462.363517286458
 20
5612.93368545433
 30
0.0
 10
8461.24586787005
 20
5613.010351474466
 30
0.0
 10
8460.347117115847
 20
5613.041094100463
 30
0.0
 10
8459.868257129705
 20
5613.048295786624
 30
0.0
 10
8459.793732945298
 20
5613.049416573082
 30
0.0
  0
SPLINE
  5
1EB
330
1F
100
AcDbEntity
  8
0
  6
SLD-Plná
 62
     7
370
    25
100
AcDbSpline
210
0.0
220
0.0
230
1.0
 70
     8
 71
     3
 72
    17
 73
    13
 74
     0
 42
0.00000001
 43
0.00000001
 40
0.0
 40
0.0
 40
0.0
 40
0.0
 40
0.0718520191449973
 40
0.2094354015946818
 40
0.3475300025720606
 40
0.4865706225531464
 40
0.6281948194631469
 40
0.7785190055382583
 40
0.8764120131868754
 40
0.93726515876917
 40
0.9926824653512897
 40
1.0
 40
1.0
 40
1.0
 40
1.0
 10
8455.861332255301
 20
5613.103824985996
 30
0.0
 10
8455.638142042306
 20
5613.105957202653
 30
0.0
 10
8454.987583680177
 20
5613.112172221485
 30
0.0
 10
8453.90288788487
 20
5613.093047130555
 30
0.0
 10
8452.692407019998
 20
5613.034013481076
 30
0.0
 10
8451.62445462691
 20
5612.939154885033
 30
0.0
 10
8450.732073816205
 20
5612.805526372334
 30
0.0
 10
8450.160972921638
 20
5612.657447882579
 30
0.0
 10
8449.67937574254
 20
5612.428736180862
 30
0.0
 10
8449.353183563742
 20
5612.019280994844
 30
0.0
 10
8449.22439467853
 20
5611.67724360548
 30
0.0
 10
8449.259195665345
 20
5611.511820099817
 30
0.0
 10
8449.263254931644
 20
5611.492524725657
 30
0.0
  0
LINE
  5
1EC
330
1F
100
AcDbEntity
  8
0
  6
SLD-Plná
 62
     7
370
    25
100
AcDbLine
 10
8459.7937329453
 20
5613.0494165731
 30
0.0
 11
8455.8613322553
 21
5613.103824986
 31
0.0
  0
SPLINE
  5
1ED
330
1F
100
AcDbEntity
  8
0
  6
SLD-Plná
 62
     7
370
    25
100
AcDbSpline
210
0.0
220
0.0
230
1.0
 70
     8
 71
     3
 72
    42
 73
    38
 74
     0
 42
0.00000001
 43
0.00000001
 40
0.0
 40
0.0
 40
0.0
 40
0.0
 40
0.0137117665787894
 40
0.0327642017607722
 40
0.0571539961123932
 40
0.0868771712553226
 40
0.1219292708071169
 40
0.1623055958054965
 40
0.1977620663699435
 40
0.2216255574588467
 40
0.2446296072835773
 40
0.2676298833955186
 40
0.2906267124945396
 40
0.3136204427671337
 40
0.3264957329891569
 40
0.3393702204360678
 40
0.3511550003381947
 40
0.3590594610828267
 40
0.369186674828665
 40
0.3815364158192547
 40
0.3952159038627784
 40
0.4108707878940321
 40
0.4287751618062293
 40
0.4471174631320824
 40
0.4628753578106624
 40
0.4774108279331205
 40
0.4887276499493761
 40
0.4968259162834119
 40
0.5058056967075923
 40
0.519357170245553
 40
0.5329087415566728
 40
0.5464604796165456
 40
0.5600124534642549
 40
0.6626301559968547
 40
0.7799788392784037
 40
0.8899309142358168
 40
1.0
 40
1.0
 40
1.0
 40
1.0
 10
8619.853681086586
 20
5596.693419104785
 30
0.0
 10
8618.89917327683
 20
5596.653555040833
 30
0.0
 10
8616.618381353963
 20
5596.558300047479
 30
0.0
 10
8612.634578754258
 20
5596.397299734821
 30
0.0
 10
8607.528249490319
 20
5596.198115314075
 30
0.0
 10
8601.295233923633
 20
5595.966986854192
 30
0.0
 10
8593.931681075515
 20
5595.711282715849
 30
0.0
 10
8586.151899366778
 20
5595.463470165563
 30
0.0
 10
8579.145247533013
 20
5595.261501139393
 30
0.0
 10
8573.35265808606
 20
5595.108790828667
 30
0.0
 10
8568.432262677527
 20
5594.988848232832
 30
0.0
 10
8563.569107244539
 20
5594.88004659513
 30
0.0
 10
8558.703228481683
 20
5594.781012278087
 30
0.0
 10
8554.5488001091
 20
5594.704912770586
 30
0.0
 10
8551.107237589606
 20
5594.647373441357
 30
0.0
 10
8548.456302519771
 20
5594.606117741012
 30
0.0
 10
8546.155836496893
 20
5594.572842044076
 30
0.0
 10
8544.04904415981
 20
5594.544319418234
 30
0.0
 10
8541.901970121773
 20
5594.517069962011
 30
0.0
 10
8539.346272934916
 20
5594.487291165517
 30
0.0
 10
8536.399253569056
 20
5594.456501081399
 30
0.0
 10
8533.058847253924
 20
5594.426139232101
 30
0.0
 10
8529.38798977108
 20
5594.398506302246
 30
0.0
 10
8525.709217437709
 20
5594.377030156138
 30
0.0
 10
8522.268351578648
 20
5594.362442712288
 30
0.0
 10
8519.32430367927
 20
5594.354164500005
 30
0.0
 10
8516.922106478985
 20
5594.350345654138
 30
0.0
 10
8514.912977931031
 20
5594.349001129683
 30
0.0
 10
8512.745724925851
 20
5594.349266681397
 30
0.0
 10
8510.192631712784
 20
5594.352319029182
 30
0.0
 10
8507.316145144972
 20
5594.359442626277
 30
0.0
 10
8504.439786529794
 20
5594.370232829075
 30
0.0
 10
8495.262840937477
 20
5594.416326416367
 30
0.0
 10
8478.748490895256
 20
5594.588057192837
 30
0.0
 10
8455.475730868106
 20
5595.067988076272
 30
0.0
 10
8431.765674720109
 20
5595.77457736996
 30
0.0
 10
8416.420328178785
 20
5596.387029955784
 30
0.0
 10
8408.743574456557
 20
5596.693419104785
 30
0.0
  0
SPLINE
  5
1EE
330
1F
100
AcDbEntity
  8
0
  6
SLD-Plná
 62
     7
370
    25
100
AcDbSpline
210
0.0
220
0.0
230
1.0
 70
     8
 71
     3
 72
    17
 73
    13
 74
     0
 42
0.00000001
 43
0.00000001
 40
0.0
 40
0.0
 40
0.0
 40
0.0
 40
0.137721280436664
 40
0.1978026787233185
 40
0.2519578940912969
 40
0.3839425845945456
 40
0.4450814798495122
 40
0.5029215538065821
 40
0.6298488357454728
 40
0.7517158787679598
 40
0.8741571092254713
 40
1.0
 40
1.0
 40
1.0
 40
1.0
 10
8410.489069697562
 20
5608.695704452297
 30
0.0
 10
8410.367985566178
 20
5608.523410482744
 30
0.0
 10
8410.194078051938
 20
5608.275952656347
 30
0.0
 10
8409.977789570721
 20
5607.684897174806
 30
0.0
 10
8409.772065551642
 20
5607.012762310947
 30
0.0
 10
8409.575949585702
 20
5606.16443231162
 30
0.0
 10
8409.395942654724
 20
5605.159719590592
 30
0.0
 10
8409.23209888047
 20
5604.09551030292
 30
0.0
 10
8409.053941865444
 20
5602.628246464596
 30
0.0
 10
8408.89274246593
 20
5600.703916524923
 30
0.0
 10
8408.78429393895
 20
5598.704373204361
 30
0.0
 10
8408.766653017308
 20
5597.379625737238
 30
0.0
 10
8408.757711710208
 20
5596.70817703572
 30
0.0
  0
SPLINE
  5
1EF
330
1F
100
AcDbEntity
  8
0
  6
SLD-Plná
 62
     7
370
    25
100
AcDbSpline
210
0.0
220
0.0
230
1.0
 70
     8
 71
     3
 72
    28
 73
    24
 74
     0
 42
0.00000001
 43
0.00000001
 40
0.0
 40
0.0
 40
0.0
 40
0.0
 40
0.0163557176761494
 40
0.0328021923427867
 40
0.0492732327637738
 40
0.0655689162600472
 40
0.0819672124423527
 40
0.0983597911451867
 40
0.1756337944442462
 40
0.2446181760030862
 40
0.3136410686869249
 40
0.4368029040733148
 40
0.5600075829406042
 40
0.6831685575408809
 40
0.8063848896445547
 40
0.9148078824327596
 40
0.926978859834411
 40
0.9391533775765024
 40
0.9513331149636767
 40
0.9634975458117782
 40
0.9754901000014828
 40
0.9869322825257245
 40
1.0
 40
1.0
 40
1.0
 40
1.0
 10
8618.109209746855
 20
5608.666270361214
 30
0.0
 10
8616.990254176026
 20
5608.624962815432
 30
0.0
 10
8614.74613401058
 20
5608.542118510534
 30
0.0
 10
8611.37031280251
 20
5608.421344063738
 30
0.0
 10
8607.995204362713
 20
5608.303564195988
 30
0.0
 10
8604.619844180384
 20
5608.189037918911
 30
0.0
 10
8601.246459468503
 20
5608.077964826805
 30
0.0
 10
8593.675172453173
 20
5607.836412471211
 30
0.0
 10
8582.456049762428
 20
5607.512305043617
 30
0.0
 10
8567.557222426802
 20
5607.160084721915
 30
0.0
 10
8549.43782437735
 20
5606.827555260326
 30
0.0
 10
8527.498968792639
 20
5606.595335699163
 30
0.0
 10
8501.766841454566
 20
5606.591829432253
 30
0.0
 10
8476.05749836786
 20
5606.857033962284
 30
0.0
 10
8451.455254581659
 20
5607.356604950532
 30
0.0
 10
8434.633468890377
 20
5607.84101143876
 30
0.0
 10
8425.506366896716
 20
5608.138522340513
 30
0.0
 10
8422.99729338918
 20
5608.222195064117
 30
0.0
 10
8420.490556663332
 20
5608.307611914326
 30
0.0
 10
8417.99824073601
 20
5608.394317321889
 30
0.0
 10
8415.558423943947
 20
5608.480856058231
 30
0.0
 10
8413.059237897824
 20
5608.571818736714
 30
0.0
 10
8411.382185284745
 20
5608.633424535709
 30
0.0
 10
8410.488046600438
 20
5608.666270331738
 30
0.0
  0
SPLINE
  5
1F0
330
1F
100
AcDbEntity
  8
0
  6
SLD-Plná
 62
     7
370
    25
100
AcDbSpline
210
0.0
220
0.0
230
1.0
 70
     8
 71
     3
 72
    17
 73
    13
 74
     0
 42
0.00000001
 43
0.00000001
 40
0.0
 40
0.0
 40
0.0
 40
0.0
 40
0.1377212909514879
 40
0.1978026866021382
 40
0.2519578940516602
 40
0.3839425855191099
 40
0.4450814805373971
 40
0.5029215537770038
 40
0.6298488338859369
 40
0.7517158787534818
 40
0.8741571100937184
 40
1.0
 40
1.0
 40
1.0
 40
1.0
 10
8618.108185845584
 20
5608.695704452297
 30
0.0
 10
8618.229269986268
 20
5608.523410466412
 30
0.0
 10
8618.403177507513
 20
5608.275952625595
 30
0.0
 10
8618.619465987776
 20
5607.684897126052
 30
0.0
 10
8618.825189998655
 20
5607.012762281227
 30
0.0
 10
8619.02130595931
 20
5606.164432305636
 30
0.0
 10
8619.201312889929
 20
5605.159719583427
 30
0.0
 10
8619.365156661695
 20
5604.095510307407
 30
0.0
 10
8619.543313676246
 20
5602.628246474073
 30
0.0
 10
8619.704513077164
 20
5600.703916530288
 30
0.0
 10
8619.812961604472
 20
5598.704373199484
 30
0.0
 10
8619.830602525972
 20
5597.379625732497
 30
0.0
 10
8619.839543832935
 20
5596.70817703572
 30
0.0
  0
SPLINE
  5
1F1
330
1F
100
AcDbEntity
  8
0
  6
SLD-Plná
 62
     7
370
    25
100
AcDbSpline
210
0.0
220
0.0
230
1.0
 70
     8
 71
     3
 72
    45
 73
    41
 74
     0
 42
0.00000001
 43
0.00000001
 40
0.0
 40
0.0
 40
0.0
 40
0.0
 40
0.0221079710703738
 40
0.052038730402778
 40
0.0897925531221108
 40
0.1324539412938658
 40
0.1820408180673469
 40
0.2385542761527689
 40
0.2610786640772279
 40
0.2795567060227248
 40
0.2980350822888684
 40
0.3165138017157461
 40
0.3349928715965861
 40
0.4273926252927772
 40
0.4394934000564871
 40
0.4515943294405905
 40
0.4636954123677191
 40
0.4757966474975316
 40
0.4878980332284225
 40
0.4999995676991281
 40
0.5155942388163806
 40
0.5351188318504866
 40
0.5610585409986677
 40
0.5934138797071834
 40
0.6303799592624141
 40
0.659844015673467
 40
0.6752218088719905
 40
0.6897668778803542
 40
0.7034791832439679
 40
0.7163586883592027
 40
0.7284053595486671
 40
0.7396191660763051
 40
0.7500000801132404
 40
0.7597619953255688
 40
0.7756629019938707
 40
0.7977030242774447
 40
0.825882638402723
 40
0.8730062144352242
 40
0.9310453866311007
 40
1.0
 40
1.0
 40
1.0
 40
1.0
 10
8619.853693652969
 20
5581.185959884921
 30
0.0
 10
8619.083366518185
 20
5581.05607771433
 30
0.0
 10
8617.270136079198
 20
5580.750355256218
 30
0.0
 10
8614.138352101132
 20
5580.225966432564
 30
0.0
 10
8610.286116852098
 20
5579.585368000438
 30
0.0
 10
8605.74251522909
 20
5578.836530636359
 30
0.0
 10
8600.536975142222
 20
5577.987426914945
 30
0.0
 10
8596.030186474993
 20
5577.261308920857
 30
0.0
 10
8592.610363356585
 20
5576.71552729215
 30
0.0
 10
8590.523468670646
 20
5576.384142443068
 30
0.0
 10
8588.577752035171
 20
5576.076589608544
 30
0.0
 10
8586.631253535379
 20
5575.770338932193
 30
0.0
 10
8582.087520595074
 20
5575.058808656499
 30
0.0
 10
8577.763015026252
 20
5574.391253555682
 30
0.0
 10
8573.659353153831
 20
5573.766763229794
 30
0.0
 10
8572.38146227877
 20
5573.572945380285
 30
0.0
 10
8571.103310242535
 20
5573.379740911924
 30
0.0
 10
8569.824901764116
 20
5573.187155590844
 30
0.0
 10
8568.546243555393
 20
5572.995188068232
 30
0.0
 10
8567.144290600161
 20
5572.785456174016
 30
0.0
 10
8565.480519663755
 20
5572.537453073147
 30
0.0
 10
8563.328657222693
 20
5572.21826506837
 30
0.0
 10
8560.585281738675
 20
5571.813993540941
 30
0.0
 10
8557.225820606967
 20
5571.323118848225
 30
0.0
 10
8553.740684002423
 20
5570.81904929523
 30
0.0
 10
8550.853521899815
 20
5570.405586919688
 30
0.0
 10
8548.75719764284
 20
5570.107401292987
 30
0.0
 10
8547.21669295244
 20
5569.889268395973
 30
0.0
 10
8545.764211975997
 20
5569.684483059516
 30
0.0
 10
8544.39979688569
 20
5569.492895830911
 30
0.0
 10
8543.123485160853
 20
5569.314365366141
 30
0.0
 10
8541.935309495324
 20
5569.148761406461
 30
0.0
 10
8540.827743624672
 20
5568.9949052322
 30
0.0
 10
8539.554531133295
 20
5568.818613537156
 30
0.0
 10
8537.869323490024
 20
5568.586218475769
 30
0.0
 10
8535.533199791626
 20
5568.265971631271
 30
0.0
 10
8532.093467021954
 20
5567.798114047622
 30
0.0
 10
8527.380824782147
 20
5567.164950354369
 30
0.0
 10
8521.225992654801
 20
5566.350690956303
 30
0.0
 10
8516.736380620072
 20
5565.772523017147
 30
0.0
 10
8514.298627775284
 20
5565.458591539874
 30
0.0
  0
SPLINE
  5
1F2
330
1F
100
AcDbEntity
  8
0
  6
SLD-Plná
 62
     7
370
    25
100
AcDbSpline
210
0.0
220
0.0
230
1.0
 70
     8
 71
     3
 72
    38
 73
    34
 74
     0
 42
0.00000001
 43
0.00000001
 40
0.0
 40
0.0
 40
0.0
 40
0.0
 40
0.1400160660493853
 40
0.2800216070908128
 40
0.403212578615053
 40
0.4153110811694303
 40
0.427409431708841
 40
0.439507630425114
 40
0.4516056778012013
 40
0.4637035746124678
 40
0.4758013219279506
 40
0.4878989211116371
 40
0.4999963734945914
 40
0.5130081135541341
 40
0.5317130258561207
 40
0.5578915715823475
 40
0.5915431071365188
 40
0.6299181076966469
 40
0.6573635937229123
 40
0.7122214700207329
 40
0.7188430762694619
 40
0.7253345007146357
 40
0.7316957462766615
 40
0.737926815797838
 40
0.7440277120405466
 40
0.7499984376857941
 40
0.8181108161634375
 40
0.8756432135792273
 40
0.9225974562947054
 40
0.9508719499434392
 40
0.9731971265644641
 40
0.9895731246274776
 40
1.0
 40
1.0
 40
1.0
 40
1.0
 10
8514.298627767861
 20
5565.458591539874
 30
0.0
 10
8509.348599798253
 20
5566.100483963291
 30
0.0
 10
8499.44891595265
 20
5567.384220559072
 30
0.0
 10
8485.201530191192
 20
5569.340575705886
 30
0.0
 10
8475.483830063464
 20
5570.725444586589
 30
0.0
 10
8470.285309696308
 20
5571.4819720652
 30
0.0
 10
8469.005326300889
 20
5571.668904801822
 30
0.0
 10
8467.725547439326
 20
5571.856476126643
 30
0.0
 10
8466.445978302549
 20
5572.044683113416
 30
0.0
 10
8465.166624760199
 20
5572.233525008895
 30
0.0
 10
8463.88749277318
 20
5572.423002482844
 30
0.0
 10
8462.60858727022
 20
5572.613108338595
 30
0.0
 10
8461.297699533472
 20
5572.808671784005
 30
0.0
 10
8459.754287465632
 20
5573.039668843588
 30
0.0
 10
8457.715323872917
 20
5573.346185617941
 30
0.0
 10
8454.950413737339
 20
5573.764445777285
 30
0.0
 10
8451.494663313468
 20
5574.291531302392
 30
0.0
 10
8447.996487434844
 20
5574.830279397444
 30
0.0
 10
8443.755120054673
 20
5575.48917441399
 30
0.0
 10
8440.632206695303
 20
5575.979513504479
 30
0.0
 10
8438.246734343891
 20
5576.356965776324
 30
0.0
 10
8437.563370002825
 20
5576.465271256941
 30
0.0
 10
8436.893802373725
 20
5576.571559728342
 30
0.0
 10
8436.238026321567
 20
5576.675821352793
 30
0.0
 10
8435.596036711824
 20
5576.778046384082
 30
0.0
 10
8432.783860439364
 20
5577.22650054165
 30
0.0
 10
8428.171653229798
 20
5577.968626926284
 30
0.0
 10
8422.132631822256
 20
5578.954598549483
 30
0.0
 10
8417.493933761165
 20
5579.720855970484
 30
0.0
 10
8414.089006516027
 20
5580.287924473719
 30
0.0
 10
8411.753109231362
 20
5580.679115101213
 30
0.0
 10
8410.040631605798
 20
5580.967028601106
 30
0.0
 10
8409.106830101948
 20
5581.124644155308
 30
0.0
 10
8408.743561890175
 20
5581.185959884921
 30
0.0
  0
LINE
  5
1F3
330
1F
100
AcDbEntity
  8
0
  6
SLD-Plná
 62
     7
370
    25
100
AcDbLine
 10
8408.7435744566
 20
5581.1859764941
 30
0.0
 11
8408.7435744566
 21
5596.6934190954
 31
0.0
  0
LINE
  5
1F4
330
1F
100
AcDbEntity
  8
0
  6
SLD-Plná
 62
     7
370
    25
100
AcDbLine
 10
8619.8536810866
 20
5581.1859764941
 30
0.0
 11
8619.8536810866
 21
5596.6934190872
 31
0.0
  0
SPLINE
  5
1F5
330
1F
100
AcDbEntity
  8
0
  6
SLD-Plná
 62
     7
370
    25
100
AcDbSpline
210
0.0
220
0.0
230
1.0
 70
     8
 71
     3
 72
    20
 73
    16
 74
     0
 42
0.00000001
 43
0.00000001
 40
0.0
 40
0.0
 40
0.0
 40
0.0
 40
0.0189851248282602
 40
0.0951939426842533
 40
0.1908282819484742
 40
0.2912668805630006
 40
0.3967390316816022
 40
0.4892043639043496
 40
0.589726468062641
 40
0.6983194795963831
 40
0.7449216621728698
 40
0.795207040084344
 40
0.8491780954102538
 40
0.9074486149841213
 40
1.0
 40
1.0
 40
1.0
 40
1.0
 10
8514.298593303332
 20
5557.71880342112
 30
0.0
 10
8514.298594034408
 20
5557.722141335631
 30
0.0
 10
8514.298597700115
 20
5557.738878083245
 30
0.0
 10
8514.29866500186
 20
5557.885865021853
 30
0.0
 10
8514.298468380342
 20
5558.192240694519
 30
0.0
 10
8514.298454310967
 20
5558.699843199611
 30
0.0
 10
8514.298735854101
 20
5559.345342209588
 30
0.0
 10
8514.298385797809
 20
5560.115153002421
 30
0.0
 10
8514.298412437673
 20
5561.001703866858
 30
0.0
 10
8514.29866544799
 20
5561.83993691019
 30
0.0
 10
8514.298603113231
 20
5562.555742475841
 30
0.0
 10
8514.298591590303
 20
5563.099373043846
 30
0.0
 10
8514.29867209906
 20
5563.704310873281
 30
0.0
 10
8514.29841391543
 20
5564.488442005918
 30
0.0
 10
8514.298546442837
 20
5565.089657527692
 30
0.0
 10
8514.298627767861
 20
5565.458591532236
 30
0.0
  0
SPLINE
  5
1F6
330
1F
100
AcDbEntity
  8
0
  6
SLD-Plná
 62
     7
370
    25
100
AcDbSpline
210
0.0
220
0.0
230
1.0
 70
     8
 71
     3
 72
    29
 73
    25
 74
     0
 42
0.00000001
 43
0.00000001
 40
0.0
 40
0.0
 40
0.0
 40
0.0
 40
0.0104834487320559
 40
0.0310524079365898
 40
0.0512099584364711
 40
0.0713630954692012
 40
0.0915939314644778
 40
0.1118696218212354
 40
0.1316854614519347
 40
0.1682260320604183
 40
0.2054944088121274
 40
0.2434911995221255
 40
0.3040928313053603
 40
0.3699590325369279
 40
0.4331365140306591
 40
0.4962631769425019
 40
0.546727701825936
 40
0.5971215897560168
 40
0.6499254581400452
 40
0.7014791563283479
 40
0.7482855275488872
 40
0.8338030338089047
 40
0.9169638081143734
 40
1.0
 40
1.0
 40
1.0
 40
1.0
 10
8662.819908713014
 20
5604.258593102183
 30
0.0
 10
8662.820723622723
 20
5604.243501806565
 30
0.0
 10
8662.823137418918
 20
5604.198800765925
 30
0.0
 10
8662.78182732042
 20
5604.11715743854
 30
0.0
 10
8662.698801114684
 20
5604.014665111968
 30
0.0
 10
8662.573222653624
 20
5603.905428551426
 30
0.0
 10
8662.406967235658
 20
5603.789364990394
 30
0.0
 10
8662.20075976051
 20
5603.667338177635
 30
0.0
 10
8661.887877444218
 20
5603.504210103619
 30
0.0
 10
8661.41841390529
 20
5603.291300250859
 30
0.0
 10
8660.722965428527
 20
5603.017460523105
 30
0.0
 10
8659.713075464586
 20
5602.662370723464
 30
0.0
 10
8658.233008677324
 20
5602.199788079166
 30
0.0
 10
8656.157545295417
 20
5601.630062033874
 30
0.0
 10
8653.689869925014
 20
5601.02669158412
 30
0.0
 10
8651.108300192122
 20
5600.460544541158
 30
0.0
 10
8648.470378609698
 20
5599.937458863542
 30
0.0
 10
8645.807874032364
 20
5599.453967249272
 30
0.0
 10
8642.943519412474
 20
5598.983793140633
 30
0.0
 10
8639.97945033464
 20
5598.546477402869
 30
0.0
 10
8636.202362384436
 20
5598.046621304949
 30
0.0
 10
8631.524119286109
 20
5597.526490279834
 30
0.0
 10
8625.77820655878
 20
5597.025754422651
 30
0.0
 10
8621.818108569085
 20
5596.813983246328
 30
0.0
 10
8619.839543832953
 20
5596.708177030752
 30
0.0
  0
SPLINE
  5
1F7
330
1F
100
AcDbEntity
  8
0
  6
SLD-Plná
 62
     7
370
    25
100
AcDbSpline
210
0.0
220
0.0
230
1.0
 70
     8
 71
     3
 72
    25
 73
    21
 74
     0
 42
0.00000001
 43
0.00000001
 40
0.0
 40
0.0
 40
0.0
 40
0.0
 40
0.0496774417970443
 40
0.0999710192872839
 40
0.149302695108133
 40
0.1989553433572023
 40
0.2499684336733771
 40
0.310302786447969
 40
0.3749427948269631
 40
0.4315953922647579
 40
0.4999183900316122
 40
0.5624131997634857
 40
0.624915787780392
 40
0.691854103961411
 40
0.7499447698919629
 40
0.8018324939989298
 40
0.8512363588939058
 40
0.900551572343056
 40
0.9522236003745912
 40
1.0
 40
1.0
 40
1.0
 40
1.0
 10
8652.799002710875
 20
5614.386463308432
 30
0.0
 10
8652.7804482214
 20
5614.300354634067
 30
0.0
 10
8652.743109116202
 20
5614.127069303053
 30
0.0
 10
8652.445224152072
 20
5613.85450027604
 30
0.0
 10
8651.970599130638
 20
5613.573608062908
 30
0.0
 10
8651.30086359247
 20
5613.28314365273
 30
0.0
 10
8650.377809291558
 20
5612.964038242644
 30
0.0
 10
8649.123731177933
 20
5612.607805016768
 30
0.0
 10
8647.550240347364
 20
5612.233838883048
 30
0.0
 10
8645.634009637495
 20
5611.839565905049
 30
0.0
 10
8643.466458486226
 20
5611.448213216148
 30
0.0
 10
8640.952259050044
 20
5611.04659693056
 30
0.0
 10
8638.204431272285
 20
5610.653180157492
 30
0.0
 10
8635.281049119538
 20
5610.278196865151
 30
0.0
 10
8632.326902215009
 20
5609.937085005437
 30
0.0
 10
8629.524520735524
 20
5609.64302844837
 30
0.0
 10
8626.76834559742
 20
5609.378651868005
 30
0.0
 10
8623.923710971583
 20
5609.130259044035
 30
0.0
 10
8621.035567704239
 20
5608.90026061814
 30
0.0
 10
8619.05815989627
 20
5608.762085627984
 30
0.0
 10
8618.108185845584
 20
5608.695704452297
 30
0.0
  0
SPLINE
  5
1F8
330
1F
100
AcDbEntity
  8
0
  6
SLD-Plná
 62
     7
370
    25
100
AcDbSpline
210
0.0
220
0.0
230
1.0
 70
     8
 71
     3
 72
    15
 73
    11
 74
     0
 42
0.00000001
 43
0.00000001
 40
0.0
 40
0.0
 40
0.0
 40
0.0
 40
0.1396123866429277
 40
0.2792247732858556
 40
0.418837159928781
 40
0.5584495465717082
 40
0.6980619332146392
 40
0.8376743198575684
 40
0.9772867063224452
 40
1.0
 40
1.0
 40
1.0
 40
1.0
 10
8652.798627771572
 20
5614.283783598999
 30
0.0
 10
8653.453130291995
 20
5614.24662873547
 30
0.0
 10
8654.762135332841
 20
5614.17231900841
 30
0.0
 10
8656.650016847461
 20
5613.578650969117
 30
0.0
 10
8658.390569848649
 20
5612.656046678518
 30
0.0
 10
8659.913684368548
 20
5611.404636802185
 30
0.0
 10
8661.17286617778
 20
5609.883357451934
 30
0.0
 10
8662.074794287535
 20
5608.142614512435
 30
0.0
 10
8662.56334625514
 20
5606.793146234519
 30
0.0
 10
8662.628608847526
 20
5606.036853125253
 30
0.0
 10
8662.637740664659
 20
5605.931029404189
 30
0.0
  0
SPLINE
  5
1F9
330
1F
100
AcDbEntity
  8
0
  6
SLD-Plná
 62
     7
370
    25
100
AcDbSpline
210
0.0
220
0.0
230
1.0
 70
     8
 71
     3
 72
    24
 73
    20
 74
     0
 42
0.00000001
 43
0.00000001
 40
0.0
 40
0.0
 40
0.0
 40
0.0
 40
0.0618531967714482
 40
0.1259488445065659
 40
0.1870113157602709
 40
0.2517892957843981
 40
0.3005431536794983
 40
0.3509805847698074
 40
0.4001319960801982
 40
0.4402513551375659
 40
0.5038228400022158
 40
0.5563004442313698
 40
0.6061757213898729
 40
0.6571315152440533
 40
0.7085701094490434
 40
0.7566385896743818
 40
0.8419057390970384
 40
0.9253687542289911
 40
1.0
 40
1.0
 40
1.0
 40
1.0
 10
8408.757711710192
 20
5596.708177030752
 30
0.0
 10
8407.281866821288
 20
5596.784147235358
 30
0.0
 10
8404.276671162359
 20
5596.93884189928
 30
0.0
 10
8399.944578138195
 20
5597.272030378568
 30
0.0
 10
8395.68306541977
 20
5597.676783112264
 30
0.0
 10
8391.927401054994
 20
5598.108133680031
 30
0.0
 10
8388.561599825247
 20
5598.55394010199
 30
0.0
 10
8385.65742499658
 20
5598.983822892208
 30
0.0
 10
8383.068782837505
 20
5599.40835162332
 30
0.0
 10
8380.392844336842
 20
5599.886398850963
 30
0.0
 10
8377.85327649404
 20
5600.384702115077
 30
0.0
 10
8375.407588178585
 20
5600.915771253615
 30
0.0
 10
8373.36437650107
 20
5601.400166358056
 30
0.0
 10
8371.55635787019
 20
5601.868537080439
 30
0.0
 10
8370.001209216898
 20
5602.311827087143
 30
0.0
 10
8368.373600628893
 20
5602.827075179013
 30
0.0
 10
8366.937123268232
 20
5603.371411863353
 30
0.0
 10
8365.933561926919
 20
5603.893249934593
 30
0.0
 10
8365.848406878999
 20
5604.137817717236
 30
0.0
 10
8365.808207903567
 20
5604.253270347774
 30
0.0
  0
SPLINE
  5
1FA
330
1F
100
AcDbEntity
  8
0
  6
SLD-Plná
 62
     7
370
    25
100
AcDbSpline
210
0.0
220
0.0
230
1.0
 70
     8
 71
     3
 72
    15
 73
    11
 74
     0
 42
0.00000001
 43
0.00000001
 40
0.0
 40
0.0
 40
0.0
 40
0.0
 40
0.1396102671587864
 40
0.279220534317573
 40
0.41883080147636
 40
0.5584410686351485
 40
0.6980513357939321
 40
0.8376616029527206
 40
0.9772718699334603
 40
0.9999999999999999
 40
0.9999999999999999
 40
0.9999999999999999
 40
0.9999999999999999
 10
8375.798627771572
 20
5614.283783598999
 30
0.0
 10
8375.144125252917
 20
5614.246628735194
 30
0.0
 10
8373.835120215605
 20
5614.172319007583
 30
0.0
 10
8371.947238674476
 20
5613.578650972427
 30
0.0
 10
8370.20668577402
 20
5612.656046666108
 30
0.0
 10
8368.683570877709
 20
5611.404636848513
 30
0.0
 10
8367.424390473388
 20
5609.883357279029
 30
0.0
 10
8366.5224571204
 20
5608.142615157723
 30
0.0
 10
8366.033894695636
 20
5606.793076827196
 30
0.0
 10
8365.968631179938
 20
5606.036712177586
 30
0.0
 10
8365.959493984421
 20
5605.930817611379
 30
0.0
  0
SPLINE
  5
1FB
330
1F
100
AcDbEntity
  8
0
  6
SLD-Plná
 62
     7
370
    25
100
AcDbSpline
210
0.0
220
0.0
230
1.0
 70
     8
 71
     3
 72
    26
 73
    22
 74
     0
 42
0.00000001
 43
0.00000001
 40
0.0
 40
0.0
 40
0.0
 40
0.0
 40
0.0425104060274217
 40
0.0831159941106352
 40
0.1250064141670175
 40
0.1649578524213835
 40
0.2066493556749112
 40
0.2500680869634672
 40
0.3112148508127596
 40
0.3692388604808906
 40
0.4315813427128038
 40
0.5000890758539526
 40
0.5564143223234421
 40
0.6059119347367733
 40
0.6505295009471278
 40
0.7023678473948549
 40
0.751853135324506
 40
0.8130314291141773
 40
0.8753897072839734
 40
0.9378349391130046
 40
0.9999999999999999
 40
0.9999999999999999
 40
0.9999999999999999
 40
0.9999999999999999
 10
8410.489069697562
 20
5608.695704452297
 30
0.0
 10
8409.643438324894
 20
5608.754607220222
 30
0.0
 10
8407.990066862269
 20
5608.869773424675
 30
0.0
 10
8405.551687322779
 20
5609.059509009897
 30
0.0
 10
8403.209352916767
 20
5609.256275925094
 30
0.0
 10
8400.90439712769
 20
5609.466005244275
 30
0.0
 10
8398.636849905899
 20
5609.688292735127
 30
0.0
 10
8396.075590806695
 20
5609.959078627901
 30
0.0
 10
8393.363899761689
 20
5610.272902025011
 30
0.0
 10
8390.53145113534
 20
5610.635549896982
 30
0.0
 10
8387.804006441409
 20
5611.021903571102
 30
0.0
 10
8385.357073457095
 20
5611.410773789125
 30
0.0
 10
8383.318578114586
 20
5611.774453340166
 30
0.0
 10
8381.743081960907
 20
5612.087699623789
 30
0.0
 10
8380.377441976334
 20
5612.389744405525
 30
0.0
 10
8379.181048348497
 20
5612.688781375306
 30
0.0
 10
8378.05271215782
 20
5613.016801705617
 30
0.0
 10
8377.089227148434
 20
5613.358951917254
 30
0.0
 10
8376.350626839023
 20
5613.715411217154
 30
0.0
 10
8375.885520369482
 20
5614.061602668875
 30
0.0
 10
8375.82729837634
 20
5614.278338863486
 30
0.0
 10
8375.798252832268
 20
5614.386463308431
 30
0.0
  0
SPLINE
  5
1FC
330
1F
100
AcDbEntity
  8
0
  6
SLD-Plná
 62
     7
370
    25
100
AcDbSpline
210
0.0
220
0.0
230
1.0
 70
     8
 71
     3
 72
     9
 73
     5
 74
     0
 42
0.00000001
 43
0.00000001
 40
0.0
 40
0.0
 40
0.0
 40
0.0
 40
0.6799813722845424
 40
1.0
 40
1.0
 40
1.0
 40
1.0
 10
8662.79848118273
 20
5593.062156221431
 30
0.0
 10
8662.760833904402
 20
5592.935672068523
 30
0.0
 10
8662.705468743143
 20
5592.749660865768
 30
0.0
 10
8662.135822561951
 20
5592.423130022837
 30
0.0
 10
8661.953525172765
 20
5592.318634070575
 30
0.0
  0
LINE
  5
1FD
330
1F
100
AcDbEntity
  8
0
  6
SLD-Plná
 62
     7
370
    25
100
AcDbLine
 10
8662.7986277716
 20
5593.0621558813
 30
0.0
 11
8662.7986277716
 21
5604.3001962113
 31
0.0
  0
LINE
  5
1FE
330
1F
100
AcDbEntity
  8
0
  6
SLD-Plná
 62
     7
370
    25
100
AcDbLine
 10
8365.7986277716
 20
5593.0621558813
 30
0.0
 11
8365.7986277716
 21
5604.3001962113
 31
0.0
  0
SPLINE
  5
1FF
330
1F
100
AcDbEntity
  8
0
  6
SLD-Plná
 62
     7
370
    25
100
AcDbSpline
210
0.0
220
0.0
230
1.0
 70
     8
 71
     3
 72
     9
 73
     5
 74
     0
 42
0.00000001
 43
0.00000001
 40
0.0
 40
0.0
 40
0.0
 40
0.0
 40
0.3208361224619407
 40
1.0
 40
1.0
 40
1.0
 40
1.0
 10
8366.64558928167
 20
5592.317509084501
 30
0.0
 10
8366.462561205486
 20
5592.422410374853
 30
0.0
 10
8365.89208904425
 20
5592.749372593285
 30
0.0
 10
8365.836516931793
 20
5592.935646031113
 30
0.0
 10
8365.798774360414
 20
5593.06215622143
 30
0.0
  0
LINE
  5
200
330
1F
100
AcDbEntity
  8
0
  6
SLD-Plná
 62
     7
370
    25
100
AcDbLine
 10
8375.7986277716
 20
5614.8037667889
 30
0.0
 11
8375.7986277716
 21
5614.283783599
 31
0.0
  0
LINE
  5
201
330
1F
100
AcDbEntity
  8
0
  6
SLD-Plná
 62
     7
370
    25
100
AcDbLine
 10
8652.7986277716
 20
5614.8037667889
 30
0.0
 11
8375.7986277716
 21
5614.8037667889
 31
0.0
  0
LINE
  5
202
330
1F
100
AcDbEntity
  8
0
  6
SLD-Plná
 62
     7
370
    25
100
AcDbLine
 10
8652.7986277716
 20
5614.8037667889
 30
0.0
 11
8652.7986277716
 21
5614.283783599
 31
0.0
  0
LINE
  5
203
330
1F
100
AcDbEntity
  8
0
  6
SLD-Plná
 62
     7
370
    25
100
AcDbLine
 10
8516.3028917277
 20
5614.0637792856
 30
0.0
 11
8532.8329143563
 21
5614.0872167603
 31
0.0
  0
SPLINE
  5
204
330
1F
100
AcDbEntity
  8
0
  6
SLD-Plná
 62
     7
370
    25
100
AcDbSpline
210
0.0
220
0.0
230
1.0
 70
     8
 71
     3
 72
    18
 73
    14
 74
     0
 42
0.00000001
 43
0.00000001
 40
0.0
 40
0.0
 40
0.0
 40
0.0
 40
0.0253864584493984
 40
0.1325316929159857
 40
0.2397061428491942
 40
0.3469899421977664
 40
0.4544235992845403
 40
0.5619885201091817
 40
0.6696071301415986
 40
0.7771698587188545
 40
0.8845841565879871
 40
0.9918234618945111
 40
1.0
 40
1.0
 40
1.0
 40
1.0
 10
8532.832914356295
 20
5614.087216760307
 30
0.0
 10
8532.859348732776
 20
5614.087328217481
 30
0.0
 10
8532.997351151393
 20
5614.087910087059
 30
0.0
 10
8533.242413147025
 20
5614.092872035198
 30
0.0
 10
8533.519840482508
 20
5614.106144414355
 30
0.0
 10
8533.716110226736
 20
5614.12464870324
 30
0.0
 10
8533.808724587176
 20
5614.146072759781
 30
0.0
 10
8533.787046638843
 20
5614.1679329537
 30
0.0
 10
8533.65327234525
 20
5614.187769435511
 30
0.0
 10
8533.4223753246
 20
5614.203465150054
 30
0.0
 10
8533.121142294183
 20
5614.21339916694
 30
0.0
 10
8532.886374040452
 20
5614.215687466095
 30
0.0
 10
8532.766039004624
 20
5614.215471357595
 30
0.0
 10
8532.757513970479
 20
5614.21545604757
 30
0.0
  0
LINE
  5
205
330
1F
100
AcDbEntity
  8
0
  6
SLD-Plná
 62
     7
370
    25
100
AcDbLine
 10
8532.7575139705
 20
5614.2154560476
 30
0.0
 11
8516.2947387476
 21
5614.1942790553
 31
0.0
  0
SPLINE
  5
206
330
1F
100
AcDbEntity
  8
0
  6
SLD-Plná
 62
     7
370
    25
100
AcDbSpline
210
0.0
220
0.0
230
1.0
 70
     8
 71
     3
 72
    18
 73
    14
 74
     0
 42
0.00000001
 43
0.00000001
 40
0.0
 40
0.0
 40
0.0
 40
0.0
 40
0.0025525082370275
 40
0.109658489510673
 40
0.2167653472881218
 40
0.3239853713359603
 40
0.4313735504000482
 40
0.4987349306683727
 40
0.6062671367404088
 40
0.7138021808999764
 40
0.8212584778160272
 40
0.9285700889681713
 40
1.0
 40
1.0
 40
1.0
 40
1.0
 10
8516.29473874763
 20
5614.194279055315
 30
0.0
 10
8516.292075595473
 20
5614.194277947373
 30
0.0
 10
8516.177663724557
 20
5614.194230348986
 30
0.0
 10
8515.950155494978
 20
5614.191650811713
 30
0.0
 10
8515.65350958643
 20
5614.181109869039
 30
0.0
 10
8515.428922277164
 20
5614.164857706333
 30
0.0
 10
8515.318052282326
 20
5614.147018490155
 30
0.0
 10
8515.286904237113
 20
5614.127918582313
 30
0.0
 10
8515.337148393697
 20
5614.108443006787
 30
0.0
 10
8515.503455755472
 20
5614.088400090638
 30
0.0
 10
8515.759420033724
 20
5614.07308869133
 30
0.0
 10
8516.041373314249
 20
5614.064896911204
 30
0.0
 10
8516.228221983169
 20
5614.064098394364
 30
0.0
 10
8516.30289172769
 20
5614.063779285596
 30
0.0
  0
LINE
  5
207
330
1F
100
AcDbEntity
  8
0
  6
SLD-Plná
 62
     7
370
    25
100
AcDbLine
 10
8455.8126929502
 20
5614.2831577252
 30
0.0
 11
8471.7604301177
 21
5614.1842870684
 31
0.0
  0
SPLINE
  5
208
330
1F
100
AcDbEntity
  8
0
  6
SLD-Plná
 62
     7
370
    25
100
AcDbSpline
210
0.0
220
0.0
230
1.0
 70
     8
 71
     3
 72
    17
 73
    13
 74
     0
 42
0.00000001
 43
0.00000001
 40
0.0
 40
0.0
 40
0.0
 40
0.0
 40
0.1071245782786951
 40
0.2142472974294464
 40
0.3214287349895729
 40
0.4287663927498989
 40
0.5362813536090536
 40
0.643921190308686
 40
0.7515733898612547
 40
0.8591099431033338
 40
0.9664485316661311
 40
0.9999999999999999
 40
0.9999999999999999
 40
0.9999999999999999
 40
0.9999999999999999
 10
8471.760430117667
 20
5614.184287068431
 30
0.0
 10
8471.873255936156
 20
5614.18436725624
 30
0.0
 10
8472.098905615061
 20
5614.184527630468
 30
0.0
 10
8472.411632683408
 20
5614.193611669075
 30
0.0
 10
8472.660215713888
 20
5614.207997892724
 30
0.0
 10
8472.817641089421
 20
5614.226538482593
 30
0.0
 10
8472.865744421755
 20
5614.24684173794
 30
0.0
 10
8472.798824249816
 20
5614.266607604855
 30
0.0
 10
8472.624148196866
 20
5614.283667403622
 30
0.0
 10
8472.361789961951
 20
5614.296165660768
 30
0.0
 10
8472.114274508129
 20
5614.30155863695
 30
0.0
 10
8471.968257168954
 20
5614.302543003611
 30
0.0
 10
8471.933484692885
 20
5614.302777420061
 30
0.0
  0
LINE
  5
209
330
1F
100
AcDbEntity
  8
0
  6
SLD-Plná
 62
     7
370
    25
100
AcDbLine
 10
8471.9334846929
 20
5614.3027774201
 30
0.0
 11
8456.0506260786
 21
5614.3909566501
 31
0.0
  0
SPLINE
  5
20A
330
1F
100
AcDbEntity
  8
0
  6
SLD-Plná
 62
     7
370
    25
100
AcDbSpline
210
0.0
220
0.0
230
1.0
 70
     8
 71
     3
 72
    17
 73
    13
 74
     0
 42
0.00000001
 43
0.00000001
 40
0.0
 40
0.0
 40
0.0
 40
0.0
 40
0.1070361466044396
 40
0.2140698553214014
 40
0.3211839672417299
 40
0.4285189405981015
 40
0.5360852126701767
 40
0.643787274284256
 40
0.7514751742425277
 40
0.859015304878458
 40
0.9663446245370282
 40
1.0
 40
1.0
 40
1.0
 40
1.0
 10
8456.050626078568
 20
5614.390956650108
 30
0.0
 10
8455.937893345743
 20
5614.391080781463
 30
0.0
 10
8455.712430447731
 20
5614.391329041345
 30
0.0
 10
8455.395296815846
 20
5614.384417136564
 30
0.0
 10
8455.139284945997
 20
5614.37280500561
 30
0.0
 10
8454.97185911617
 20
5614.357081196861
 30
0.0
 10
8454.912479937802
 20
5614.338976936041
 30
0.0
 10
8454.968221670431
 20
5614.320438873972
 30
0.0
 10
8455.133094209781
 20
5614.303627131048
 30
0.0
 10
8455.388119102068
 20
5614.290689991725
 30
0.0
 10
8455.632474744525
 20
5614.284740321026
 30
0.0
 10
8455.777962596729
 20
5614.283462711625
 30
0.0
 10
8455.81269295017
 20
5614.283157725158
 30
0.0
  0
LINE
  5
20B
330
1F
100
AcDbEntity
  8
0
  6
SLD-Plná
 62
     7
370
    25
100
AcDbLine
 10
8416.2527568021
 20
5614.5854093573
 30
0.0
 11
8432.0133383178
 21
5614.4621871322
 31
0.0
  0
SPLINE
  5
20C
330
1F
100
AcDbEntity
  8
0
  6
SLD-Plná
 62
     7
370
    25
100
AcDbSpline
210
0.0
220
0.0
230
1.0
 70
     8
 71
     3
 72
    17
 73
    13
 74
     0
 42
0.00000001
 43
0.00000001
 40
0.0
 40
0.0
 40
0.0
 40
0.0
 40
0.0911233969161265
 40
0.1980427350259925
 40
0.3050203600696888
 40
0.4122126234681297
 40
0.5196939058544194
 40
0.6274214794431356
 40
0.7352422312291003
 40
0.8429497554980969
 40
0.95037708787186
 40
1.0
 40
1.0
 40
1.0
 40
1.0
 10
8432.013338317824
 20
5614.462187132183
 30
0.0
 10
8432.108773421905
 20
5614.461811300518
 30
0.0
 10
8432.316186991522
 20
5614.460994488004
 30
0.0
 10
8432.628559477513
 20
5614.465525204369
 30
0.0
 10
8432.905449192165
 20
5614.47463524978
 30
0.0
 10
8433.101577450116
 20
5614.487333372287
 30
0.0
 10
8433.194229999444
 20
5614.501926979198
 30
0.0
 10
8433.172558731449
 20
5614.51670881245
 30
0.0
 10
8433.038498210351
 20
5614.530030568812
 30
0.0
 10
8432.807163678981
 20
5614.540427586373
 30
0.0
 10
8432.559188914282
 20
5614.545965085752
 30
0.0
 10
8432.398777021072
 20
5614.547379724409
 30
0.0
 10
8432.34809193423
 20
5614.5478267055
 30
0.0
  0
LINE
  5
20D
330
1F
100
AcDbEntity
  8
0
  6
SLD-Plná
 62
     7
370
    25
100
AcDbLine
 10
8432.3480919342
 20
5614.5478267055
 30
0.0
 11
8416.6516275855
 21
5614.652325226
 31
0.0
  0
SPLINE
  5
20E
330
1F
100
AcDbEntity
  8
0
  6
SLD-Plná
 62
     7
370
    25
100
AcDbSpline
210
0.0
220
0.0
230
1.0
 70
     8
 71
     3
 72
    18
 73
    14
 74
     0
 42
0.00000001
 43
0.00000001
 40
0.0
 40
0.0
 40
0.0
 40
0.0
 40
0.0684027205863367
 40
0.1751693340044854
 40
0.2819394923985055
 40
0.3889753951529559
 40
0.4964118153157261
 40
0.5639886527703643
 40
0.6718060726492051
 40
0.7796302467047808
 40
0.8872635693216799
 40
0.9945315899102565
 40
1.0
 40
1.0
 40
1.0
 40
1.0
 10
8416.651627585468
 20
5614.652325226026
 30
0.0
 10
8416.580603651919
 20
5614.652628565994
 30
0.0
 10
8416.398721776002
 20
5614.653405375154
 30
0.0
 10
8416.102327957551
 20
5614.651592941918
 30
0.0
 10
8415.806553631155
 20
5614.646351359053
 30
0.0
 10
8415.582363454361
 20
5614.638118906609
 30
0.0
 10
8415.471478252684
 20
5614.628956648773
 30
0.0
 10
8415.440239052272
 20
5614.619001762214
 30
0.0
 10
8415.49063289964
 20
5614.608711581281
 30
0.0
 10
8415.657532175079
 20
5614.597988041225
 30
0.0
 10
8415.914096320226
 20
5614.589664663378
 30
0.0
 10
8416.131930107229
 20
5614.586351393572
 30
0.0
 10
8416.247167099438
 20
5614.585452937904
 30
0.0
 10
8416.252756802138
 20
5614.58540935728
 30
0.0
  0
LINE
  5
20F
330
1F
100
AcDbEntity
  8
0
  6
SLD-Plná
 62
     7
370
    25
100
AcDbLine
 10
8396.7005465688
 20
5614.7185269222
 30
0.0
 11
8412.3286533863
 21
5614.6147258469
 31
0.0
  0
SPLINE
  5
210
330
1F
100
AcDbEntity
  8
0
  6
SLD-Plná
 62
     7
370
    25
100
AcDbSpline
210
0.0
220
0.0
230
1.0
 70
     8
 71
     3
 72
    13
 73
     9
 74
     0
 42
0.00000001
 43
0.00000001
 40
0.0
 40
0.0
 40
0.0
 40
0.0
 40
0.1838978578679941
 40
0.3725188726859678
 40
0.5612804672077636
 40
0.7505552675133698
 40
0.9405167555119393
 40
1.0
 40
1.0
 40
1.0
 40
1.0
 10
8412.32865338631
 20
5614.614725846915
 30
0.0
 10
8412.43769162411
 20
5614.614295072782
 30
0.0
 10
8412.658568592971
 20
5614.613422460689
 30
0.0
 10
8412.983757097696
 20
5614.616960683252
 30
0.0
 10
8413.262006065459
 20
5614.623727487875
 30
0.0
 10
8413.451583241369
 20
5614.633070642121
 30
0.0
 10
8413.541558154278
 20
5614.641377186887
 30
0.0
 10
8413.527047795338
 20
5614.645965825685
 30
0.0
 10
8413.523587617126
 20
5614.647060044515
 30
0.0
  0
SPLINE
  5
211
330
1F
100
AcDbEntity
  8
0
  6
SLD-Plná
 62
     7
370
    25
100
AcDbSpline
210
0.0
220
0.0
230
1.0
 70
     8
 71
     3
 72
    11
 73
     7
 74
     0
 42
0.00000001
 43
0.00000001
 40
0.0
 40
0.0
 40
0.0
 40
0.0
 40
0.3002387919692014
 40
0.60004653199691
 40
0.8988131856209746
 40
1.0
 40
1.0
 40
1.0
 40
1.0
 10
8413.50894383216
 20
5614.654309457951
 30
0.0
 10
8413.472096415822
 20
5614.65758592236
 30
0.0
 10
8413.398454484874
 20
5614.66413414717
 30
0.0
 10
8413.160384699342
 20
5614.671476876095
 30
0.0
 10
8412.925875930854
 20
5614.675191628654
 30
0.0
 10
8412.779934860606
 20
5614.67622424954
 30
0.0
 10
8412.743012285437
 20
5614.676485498975
 30
0.0
  0
LINE
  5
212
330
1F
100
AcDbEntity
  8
0
  6
SLD-Plná
 62
     7
370
    25
100
AcDbLine
 10
8412.7430122854
 20
5614.676485499
 30
0.0
 11
8397.1794319598
 21
5614.7577837677
 31
0.0
  0
SPLINE
  5
213
330
1F
100
AcDbEntity
  8
0
  6
SLD-Plná
 62
     7
370
    25
100
AcDbSpline
210
0.0
220
0.0
230
1.0
 70
     8
 71
     3
 72
    17
 73
    13
 74
     0
 42
0.00000001
 43
0.00000001
 40
0.0
 40
0.0
 40
0.0
 40
0.0
 40
0.081707154610914
 40
0.1882745772262684
 40
0.2948479146379716
 40
0.401775831962019
 40
0.5092396784643565
 40
0.5769378025148049
 40
0.6849249413582866
 40
0.7929211347242598
 40
0.9006599897865039
 40
1.0
 40
1.0
 40
1.0
 40
1.0
 10
8397.179431959808
 20
5614.757783767678
 30
0.0
 10
8397.094769798834
 20
5614.758026075158
 30
0.0
 10
8396.899686116863
 20
5614.758584414737
 30
0.0
 10
8396.58940041723
 20
5614.757529740927
 30
0.0
 10
8396.294144679188
 20
5614.754627518761
 30
0.0
 10
8396.07018972783
 20
5614.749987417244
 30
0.0
 10
8395.959298302538
 20
5614.744704294867
 30
0.0
 10
8395.928022020491
 20
5614.738850270827
 30
0.0
 10
8395.97843094368
 20
5614.732673774804
 30
0.0
 10
8396.145980258772
 20
5614.726159589844
 30
0.0
 10
8396.395542463993
 20
5614.720981871337
 30
0.0
 10
8396.601665222663
 20
5614.719322808807
 30
0.0
 10
8396.700546568782
 20
5614.718526922233
 30
0.0
  0
SPLINE
  5
214
330
1F
100
AcDbEntity
  8
0
  6
SLD-Plná
 62
     7
370
    25
100
AcDbSpline
210
0.0
220
0.0
230
1.0
 70
     8
 71
     3
 72
    18
 73
    14
 74
     0
 42
0.00000001
 43
0.00000001
 40
0.0
 40
0.0
 40
0.0
 40
0.0
 40
0.0707324556002418
 40
0.1777214370498131
 40
0.2848773321076543
 40
0.3922831310017153
 40
0.4597217921767995
 40
0.5673535190945794
 40
0.6749894583269948
 40
0.7825075017848448
 40
0.88980414769281
 40
0.9969071026887005
 40
1.0
 40
1.0
 40
1.0
 40
1.0
 10
8576.508533518325
 20
5614.415694594997
 30
0.0
 10
8576.435811141151
 20
5614.41498865798
 30
0.0
 10
8576.253089853342
 20
5614.413214929921
 30
0.0
 10
8575.990162458409
 20
5614.40551136706
 30
0.0
 10
8575.765726125417
 20
5614.392562825808
 30
0.0
 10
8575.654846410427
 20
5614.378197437149
 30
0.0
 10
8575.623663150292
 20
5614.362780428963
 30
0.0
 10
8575.673975351085
 20
5614.346993507881
 30
0.0
 10
8575.840423534913
 20
5614.330716021313
 30
0.0
 10
8576.096837030394
 20
5614.318155590275
 30
0.0
 10
8576.4134559869
 20
5614.310932301212
 30
0.0
 10
8576.645317153454
 20
5614.310265309005
 30
0.0
 10
8576.75944549232
 20
5614.311061461124
 30
0.0
 10
8576.762648763814
 20
5614.311083806945
 30
0.0
  0
LINE
  5
215
330
1F
100
AcDbEntity
  8
0
  6
SLD-Plná
 62
     7
370
    25
100
AcDbLine
 10
8576.7626487638
 20
5614.3110838069
 30
0.0
 11
8592.6299911889
 21
5614.4310321357
 31
0.0
  0
SPLINE
  5
216
330
1F
100
AcDbEntity
  8
0
  6
SLD-Plná
 62
     7
370
    25
100
AcDbSpline
210
0.0
220
0.0
230
1.0
 70
     8
 71
     3
 72
    12
 73
     8
 74
     0
 42
0.00000001
 43
0.00000001
 40
0.0
 40
0.0
 40
0.0
 40
0.0
 40
0.208752503545082
 40
0.4470549755530039
 40
0.6858086500942489
 40
0.9251706811490329
 40
1.0
 40
1.0
 40
1.0
 40
1.0
 10
8592.629991188927
 20
5614.431032135728
 30
0.0
 10
8592.725464582798
 20
5614.432198796371
 30
0.0
 10
8592.929926110393
 20
5614.434697264351
 30
0.0
 10
8593.196627323437
 20
5614.444183795514
 30
0.0
 10
8593.386463273962
 20
5614.45733183475
 30
0.0
 10
8593.476390409749
 20
5614.469204746359
 30
0.0
 10
8593.46189108361
 20
5614.475835729479
 30
0.0
 10
8593.458437854553
 20
5614.477414996222
 30
0.0
  0
SPLINE
  5
217
330
1F
100
AcDbEntity
  8
0
  6
SLD-Plná
 62
     7
370
    25
100
AcDbSpline
210
0.0
220
0.0
230
1.0
 70
     8
 71
     3
 72
    12
 73
     8
 74
     0
 42
0.00000001
 43
0.00000001
 40
0.0
 40
0.0
 40
0.0
 40
0.0
 40
0.2260499002570187
 40
0.4518762111888177
 40
0.6771464025971159
 40
0.9017760030504403
 40
1.0
 40
1.0
 40
1.0
 40
1.0
 10
8593.443794440787
 20
5614.487879669465
 30
0.0
 10
8593.407017993968
 20
5614.492643750646
 30
0.0
 10
8593.333501476463
 20
5614.502167200786
 30
0.0
 10
8593.095799572307
 20
5614.513057249938
 30
0.0
 10
8592.79597734958
 20
5614.519943454812
 30
0.0
 10
8592.51979271341
 20
5614.521888400756
 30
0.0
 10
8592.359953460395
 20
5614.521103814787
 30
0.0
 10
8592.311324451994
 20
5614.520865114737
 30
0.0
  0
LINE
  5
218
330
1F
100
AcDbEntity
  8
0
  6
SLD-Plná
 62
     7
370
    25
100
AcDbLine
 10
8592.311324452
 20
5614.5208651147
 30
0.0
 11
8576.5085335183
 21
5614.415694595
 31
0.0
  0
LINE
  5
219
330
1F
100
AcDbEntity
  8
0
  6
SLD-Plná
 62
     7
370
    25
100
AcDbLine
 10
8475.7549310518
 20
5614.1634213977
 30
0.0
 11
8491.756563139
 21
5614.0984535305
 31
0.0
  0
SPLINE
  5
21A
330
1F
100
AcDbEntity
  8
0
  6
SLD-Plná
 62
     7
370
    25
100
AcDbSpline
210
0.0
220
0.0
230
1.0
 70
     8
 71
     3
 72
    17
 73
    13
 74
     0
 42
0.00000001
 43
0.00000001
 40
0.0
 40
0.0
 40
0.0
 40
0.0
 40
0.1071651193206384
 40
0.2143283304217046
 40
0.3215491623660515
 40
0.428909552620705
 40
0.5364210329621613
 40
0.6440317993317571
 40
0.7516407148028551
 40
0.8591382166505553
 40
0.9664599076593109
 40
1.0
 40
1.0
 40
1.0
 40
1.0
 10
8491.756563138968
 20
5614.098453530542
 30
0.0
 10
8491.869271740457
 20
5614.098846507898
 30
0.0
 10
8492.094686936502
 20
5614.099632455613
 30
0.0
 10
8492.401284613727
 20
5614.110160492526
 30
0.0
 10
8492.640192486027
 20
5614.126156622662
 30
0.0
 10
8492.785035942481
 20
5614.146335716487
 30
0.0
 10
8492.81917783496
 20
5614.16811600723
 30
0.0
 10
8492.738514067636
 20
5614.189046302423
 30
0.0
 10
8492.551914324693
 20
5614.206841022584
 30
0.0
 10
8492.280863374675
 20
5614.219566187335
 30
0.0
 10
8492.029730449167
 20
5614.224735444479
 30
0.0
 10
8491.883167145686
 20
5614.22543128714
 30
0.0
 10
8491.848269484906
 20
5614.225596971733
 30
0.0
  0
LINE
  5
21B
330
1F
100
AcDbEntity
  8
0
  6
SLD-Plná
 62
     7
370
    25
100
AcDbLine
 10
8491.8482694849
 20
5614.2255969717
 30
0.0
 11
8475.9117352061
 21
5614.2840638851
 31
0.0
  0
SPLINE
  5
21C
330
1F
100
AcDbEntity
  8
0
  6
SLD-Plná
 62
     7
370
    25
100
AcDbSpline
210
0.0
220
0.0
230
1.0
 70
     8
 71
     3
 72
    17
 73
    13
 74
     0
 42
0.00000001
 43
0.00000001
 40
0.0
 40
0.0
 40
0.0
 40
0.0
 40
0.1071035455586008
 40
0.2142045854020799
 40
0.3213833313568419
 40
0.4287509380255285
 40
0.5363030646652112
 40
0.6439513868378456
 40
0.7515711355415592
 40
0.8590592829160147
 40
0.9663746050264869
 40
1.0
 40
1.0
 40
1.0
 40
1.0
 10
8475.911735206124
 20
5614.284063885064
 30
0.0
 10
8475.798948918371
 20
5614.283939288881
 30
0.0
 10
8475.573378981531
 20
5614.283690099431
 30
0.0
 10
8475.261906039103
 20
5614.275187183785
 30
0.0
 10
8475.015216462034
 20
5614.261552731507
 30
0.0
 10
8474.860198080778
 20
5614.243536609305
 30
0.0
 10
8474.814796610288
 20
5614.223157877654
 30
0.0
 10
8474.884445073798
 20
5614.202633294435
 30
0.0
 10
8475.061505232015
 20
5614.184359749859
 30
0.0
 10
8475.325571519888
 20
5614.170661495967
 30
0.0
 10
8475.573846363677
 20
5614.16470584589
 30
0.0
 10
8475.720050031136
 20
5614.16366881159
 30
0.0
 10
8475.754931051799
 20
5614.163421397721
 30
0.0
  0
LINE
  5
21D
330
1F
100
AcDbEntity
  8
0
  6
SLD-Plná
 62
     7
370
    25
100
AcDbLine
 10
8495.764716119
 20
5614.0872167603
 30
0.0
 11
8512.2947387476
 21
5614.0637792856
 31
0.0
  0
SPLINE
  5
21E
330
1F
100
AcDbEntity
  8
0
  6
SLD-Plná
 62
     7
370
    25
100
AcDbSpline
210
0.0
220
0.0
230
1.0
 70
     8
 71
     3
 72
    17
 73
    13
 74
     0
 42
0.00000001
 43
0.00000001
 40
0.0
 40
0.0
 40
0.0
 40
0.0
 40
0.1071846326419733
 40
0.2143671794598856
 40
0.3216105756090147
 40
0.428989605832606
 40
0.5365082104888774
 40
0.6441109162751035
 40
0.7516989384575208
 40
0.8591711878860987
 40
0.96647483015261
 40
0.9999999999999999
 40
0.9999999999999999
 40
0.9999999999999999
 40
0.9999999999999999
 10
8512.29473874763
 20
5614.063779285596
 30
0.0
 10
8512.407118023968
 20
5614.064503738507
 30
0.0
 10
8512.631874389732
 20
5614.065952630232
 30
0.0
 10
8512.931622773107
 20
5614.077591749729
 30
0.0
 10
8513.160189577631
 20
5614.094616878096
 30
0.0
 10
8513.291913630446
 20
5614.115645509124
 30
0.0
 10
8513.311737154407
 20
5614.138003827871
 30
0.0
 10
8513.217165783128
 20
5614.159189658406
 30
0.0
 10
8513.018672677876
 20
5614.176901693691
 30
0.0
 10
8512.739160750585
 20
5614.189221625836
 30
0.0
 10
8512.48473247925
 20
5614.193866547755
 30
0.0
 10
8512.33785647018
 20
5614.194199737447
 30
0.0
 10
8512.302891727692
 20
5614.194279055315
 30
0.0
  0
LINE
  5
21F
330
1F
100
AcDbEntity
  8
0
  6
SLD-Plná
 62
     7
370
    25
100
AcDbLine
 10
8512.3028917277
 20
5614.1942790553
 30
0.0
 11
8495.8401165048
 21
5614.2154560476
 31
0.0
  0
SPLINE
  5
220
330
1F
100
AcDbEntity
  8
0
  6
SLD-Plná
 62
     7
370
    25
100
AcDbSpline
210
0.0
220
0.0
230
1.0
 70
     8
 71
     3
 72
    17
 73
    13
 74
     0
 42
0.00000001
 43
0.00000001
 40
0.0
 40
0.0
 40
0.0
 40
0.0
 40
0.107143725073393
 40
0.2142848141319228
 40
0.3215041047202212
 40
0.4288948344789164
 40
0.5364420732486868
 40
0.6440604304246502
 40
0.7516396048452147
 40
0.8590949535055553
 40
0.966398908540039
 40
1.0
 40
1.0
 40
1.0
 40
1.0
 10
8495.840116504847
 20
5614.21545604757
 30
0.0
 10
8495.727483627597
 20
5614.215042910752
 30
0.0
 10
8495.502220644155
 20
5614.21421664728
 30
0.0
 10
8495.196977146914
 20
5614.204389714292
 30
0.0
 10
8494.96004169439
 20
5614.189257322959
 30
0.0
 10
8494.817660044693
 20
5614.169699495009
 30
0.0
 10
8494.786243658764
 20
5614.147931851362
 30
0.0
 10
8494.869617865823
 20
5614.126342666026
 30
0.0
 10
8495.058545283198
 20
5614.10746150763
 30
0.0
 10
8495.331225703309
 20
5614.093688334818
 30
0.0
 10
8495.583038606528
 20
5614.088076555525
 30
0.0
 10
8495.72973418209
 20
5614.087382313553
 30
0.0
 10
8495.764716119033
 20
5614.087216760307
 30
0.0
  0
LINE
  5
221
330
1F
100
AcDbEntity
  8
0
  6
SLD-Plná
 62
     7
370
    25
100
AcDbLine
 10
8556.8372003577
 20
5614.1842870684
 30
0.0
 11
8572.7849375252
 21
5614.2831577252
 31
0.0
  0
SPLINE
  5
222
330
1F
100
AcDbEntity
  8
0
  6
SLD-Plná
 62
     7
370
    25
100
AcDbSpline
210
0.0
220
0.0
230
1.0
 70
     8
 71
     3
 72
    12
 73
     8
 74
     0
 42
0.00000001
 43
0.00000001
 40
0.0
 40
0.0
 40
0.0
 40
0.0
 40
0.2306607064357817
 40
0.4625104101316703
 40
0.6946961012105025
 40
0.9273377530520472
 40
1.0
 40
1.0
 40
1.0
 40
1.0
 10
8572.784937525159
 20
5614.283157725159
 30
0.0
 10
8572.894423209835
 20
5614.284542545367
 30
0.0
 10
8573.113958950036
 20
5614.287319324179
 30
0.0
 10
8573.391889914086
 20
5614.299025883995
 30
0.0
 10
8573.581789856602
 20
5614.314614017389
 30
0.0
 10
8573.671708849537
 20
5614.328728053523
 30
0.0
 10
8573.657214407054
 20
5614.336647050405
 30
0.0
 10
8573.653764733586
 20
5614.338531769563
 30
0.0
  0
SPLINE
  5
223
330
1F
100
AcDbEntity
  8
0
  6
SLD-Plná
 62
     7
370
    25
100
AcDbSpline
210
0.0
220
0.0
230
1.0
 70
     8
 71
     3
 72
    12
 73
     8
 74
     0
 42
0.00000001
 43
0.00000001
 40
0.0
 40
0.0
 40
0.0
 40
0.0
 40
0.2321426669592262
 40
0.4641113256459696
 40
0.6956359165949497
 40
0.9266441255905984
 40
1.0
 40
1.0
 40
1.0
 40
1.0
 10
8573.63912091136
 20
5614.351023302906
 30
0.0
 10
8573.602380399245
 20
5614.356725987946
 30
0.0
 10
8573.528926914776
 20
5614.36812708344
 30
0.0
 10
8573.291457990208
 20
5614.381228644545
 30
0.0
 10
8572.991781213992
 20
5614.389551724699
 30
0.0
 10
8572.729272730807
 20
5614.391763010439
 30
0.0
 10
8572.582402190137
 20
5614.391113250961
 30
0.0
 10
8572.54700439676
 20
5614.390956650109
 30
0.0
  0
LINE
  5
224
330
1F
100
AcDbEntity
  8
0
  6
SLD-Plná
 62
     7
370
    25
100
AcDbLine
 10
8572.5470043968
 20
5614.3909566501
 30
0.0
 11
8556.6641457824
 21
5614.3027774201
 31
0.0
  0
SPLINE
  5
225
330
1F
100
AcDbEntity
  8
0
  6
SLD-Plná
 62
     7
370
    25
100
AcDbSpline
210
0.0
220
0.0
230
1.0
 70
     8
 71
     3
 72
    17
 73
    13
 74
     0
 42
0.00000001
 43
0.00000001
 40
0.0
 40
0.0
 40
0.0
 40
0.0
 40
0.1071474881051304
 40
0.2142906150290485
 40
0.3215527308138489
 40
0.4290205617141635
 40
0.5366431012177493
 40
0.6443029766377875
 40
0.7518750687310016
 40
0.8592805400449524
 40
0.9665133187352912
 40
0.9999999999999999
 40
0.9999999999999999
 40
0.9999999999999999
 40
0.9999999999999999
 10
8556.664145782443
 20
5614.302777420061
 30
0.0
 10
8556.55321235493
 20
5614.301611655939
 30
0.0
 10
8556.331350015183
 20
5614.299280175145
 30
0.0
 10
8556.048381552615
 20
5614.288097226997
 30
0.0
 10
8555.843577059772
 20
5614.272453759546
 30
0.0
 10
8555.74092079348
 20
5614.253340569623
 30
0.0
 10
8555.75211941355
 20
5614.232949267297
 30
0.0
 10
8555.87625598273
 20
5614.213569626796
 30
0.0
 10
8556.099388689045
 20
5614.197523540063
 30
0.0
 10
8556.395589094702
 20
5614.186889625908
 30
0.0
 10
8556.655630630523
 20
5614.183669577819
 30
0.0
 10
8556.802298215076
 20
5614.184168371633
 30
0.0
 10
8556.83720035766
 20
5614.184287068432
 30
0.0
  0
LINE
  5
226
330
1F
100
AcDbEntity
  8
0
  6
SLD-Plná
 62
     7
370
    25
100
AcDbLine
 10
8454.5373442163
 20
5610.6919384741
 30
0.0
 11
8458.5588518614
 21
5610.6167327875
 31
0.0
  0
SPLINE
  5
227
330
1F
100
AcDbEntity
  8
0
  6
SLD-Plná
 62
     7
370
    25
100
AcDbSpline
210
0.0
220
0.0
230
1.0
 70
     8
 71
     3
 72
    12
 73
     8
 74
     0
 42
0.00000001
 43
0.00000001
 40
0.0
 40
0.0
 40
0.0
 40
0.0
 40
0.2003591649161427
 40
0.4007158927503013
 40
0.6011500858708997
 40
0.8017470129840362
 40
1.0
 40
1.0
 40
1.0
 40
1.0
 10
8458.558851861399
 20
5610.616732787455
 30
0.0
 10
8459.236030036982
 20
5610.615284851183
 30
0.0
 10
8460.590378151246
 20
5610.612388996251
 30
0.0
 10
8462.49162446519
 20
5610.746140886213
 30
0.0
 10
8464.006730492163
 20
5610.960944367462
 30
0.0
 10
8465.03106039682
 20
5611.236214267726
 30
0.0
 10
8465.158001560774
 20
5611.431154000439
 30
0.0
 10
8465.221099142189
 20
5611.528051061036
 30
0.0
  0
SPLINE
  5
228
330
1F
100
AcDbEntity
  8
0
  6
SLD-Plná
 62
     7
370
    25
100
AcDbSpline
210
0.0
220
0.0
230
1.0
 70
     8
 71
     3
 72
    13
 73
     9
 74
     0
 42
0.00000001
 43
0.00000001
 40
0.0
 40
0.0
 40
0.0
 40
0.0
 40
0.0295619352602071
 40
0.2551398484729909
 40
0.4807158730488664
 40
0.706324985883257
 40
0.9318575569679717
 40
1.0
 40
1.0
 40
1.0
 40
1.0
 10
8449.279481876125
 20
5611.630513582375
 30
0.0
 10
8449.269043521934
 20
5611.618281398562
 30
0.0
 10
8449.178953340657
 20
5611.512709232975
 30
0.0
 10
8449.506067913702
 20
5611.300914925889
 30
0.0
 10
8450.471009904171
 20
5611.029550924583
 30
0.0
 10
8452.013086196474
 20
5610.816119720564
 30
0.0
 10
8453.471254422177
 20
5610.717957040599
 30
0.0
 10
8454.336563514265
 20
5610.696838648605
 30
0.0
 10
8454.53734421633
 20
5610.691938474077
 30
0.0
  0
LINE
  5
229
330
1F
100
AcDbEntity
  8
0
  6
SLD-Plná
 62
     7
370
    25
100
AcDbLine
 10
8570.0387786154
 20
5610.6167327875
 30
0.0
 11
8574.0602862575
 21
5610.6919384741
 31
0.0
  0
SPLINE
  5
22A
330
1F
100
AcDbEntity
  8
0
  6
SLD-Plná
 62
     7
370
    25
100
AcDbSpline
210
0.0
220
0.0
230
1.0
 70
     8
 71
     3
 72
    12
 73
     8
 74
     0
 42
0.00000001
 43
0.00000001
 40
0.0
 40
0.0
 40
0.0
 40
0.0
 40
0.23019540681637
 40
0.4624722287128071
 40
0.6949222213948572
 40
0.9274986209164675
 40
1.0
 40
1.0
 40
1.0
 40
1.0
 10
8574.060286257549
 20
5610.69193847405
 30
0.0
 10
8574.715277932046
 20
5610.715110389712
 30
0.0
 10
8576.031183682218
 20
5610.761663740312
 30
0.0
 10
8577.699435573326
 20
5610.956432560884
 30
0.0
 10
8578.840450908552
 20
5611.211468687612
 30
0.0
 10
8579.380383331147
 20
5611.438931434535
 30
0.0
 10
8579.293492831204
 20
5611.56237101694
 30
0.0
 10
8579.272843405004
 20
5611.591706290059
 30
0.0
  0
SPLINE
  5
22B
330
1F
100
AcDbEntity
  8
0
  6
SLD-Plná
 62
     7
370
    25
100
AcDbSpline
210
0.0
220
0.0
230
1.0
 70
     8
 71
     3
 72
    13
 73
     9
 74
     0
 42
0.00000001
 43
0.00000001
 40
0.0
 40
0.0
 40
0.0
 40
0.0
 40
0.0283346292748137
 40
0.2233020889695323
 40
0.4182679194361462
 40
0.6132612259572265
 40
0.8081799677217884
 40
1.0
 40
1.0
 40
1.0
 40
1.0
 10
8563.403288437752
 20
5611.569248153114
 30
0.0
 10
8563.391590633204
 20
5611.555545375716
 30
0.0
 10
8563.299401525435
 20
5611.447555297995
 30
0.0
 10
8563.626050585139
 20
5611.232352174164
 30
0.0
 10
8564.592219242835
 20
5610.958126308754
 30
0.0
 10
8566.133522339205
 20
5610.743604299812
 30
0.0
 10
8568.026004908967
 20
5610.611998919448
 30
0.0
 10
8569.371447458865
 20
5610.615163282862
 30
0.0
 10
8570.038778615377
 20
5610.616732787482
 30
0.0
  0
LINE
  5
22C
330
1F
100
AcDbEntity
  8
0
  6
SLD-Plná
 62
     7
370
    25
100
AcDbLine
 10
8512.2746188686
 20
5610.0987606903
 30
0.0
 11
8516.3230116067
 21
5610.0987606903
 31
0.0
  0
SPLINE
  5
22D
330
1F
100
AcDbEntity
  8
0
  6
SLD-Plná
 62
     7
370
    25
100
AcDbSpline
210
0.0
220
0.0
230
1.0
 70
     8
 71
     3
 72
    13
 73
     9
 74
     0
 42
0.00000001
 43
0.00000001
 40
0.0
 40
0.0
 40
0.0
 40
0.0
 40
0.0721922124857391
 40
0.2871079821389528
 40
0.5021048761550296
 40
0.7173549384588557
 40
0.9328188222205573
 40
1.0
 40
1.0
 40
1.0
 40
1.0
 10
8516.323011606704
 20
5610.098760690326
 30
0.0
 10
8516.548282343823
 20
5610.100260937414
 30
0.0
 10
8517.444182670766
 20
5610.106227410794
 30
0.0
 10
8518.977303742684
 20
5610.186056470209
 30
0.0
 10
8520.653193782036
 20
5610.387459534242
 30
0.0
 10
8521.792988116205
 20
5610.662926200421
 30
0.0
 10
8522.333303218324
 20
5610.906830229565
 30
0.0
 10
8522.246344382062
 20
5611.040060028492
 30
0.0
 10
8522.225675359909
 20
5611.071727076763
 30
0.0
  0
SPLINE
  5
22E
330
1F
100
AcDbEntity
  8
0
  6
SLD-Plná
 62
     7
370
    25
100
AcDbSpline
210
0.0
220
0.0
230
1.0
 70
     8
 71
     3
 72
    13
 73
     9
 74
     0
 42
0.00000001
 43
0.00000001
 40
0.0
 40
0.0
 40
0.0
 40
0.0
 40
0.0394534021716372
 40
0.246385615428197
 40
0.453316295065342
 40
0.6602631663548866
 40
0.8670608382987567
 40
1.0
 40
1.0
 40
1.0
 40
1.0
 10
8506.33922560476
 20
5611.131569428747
 30
0.0
 10
8506.32339776901
 20
5611.112375291294
 30
0.0
 10
8506.224553288255
 20
5610.992508331577
 30
0.0
 10
8506.550220797702
 20
5610.758580673035
 30
0.0
 10
8507.519756204474
 20
5610.467031597407
 30
0.0
 10
8509.061636894417
 20
5610.239101817547
 30
0.0
 10
8510.736662669957
 20
5610.116879067955
 30
0.0
 10
8511.842071817795
 20
5610.10385644716
 30
0.0
 10
8512.274618868621
 20
5610.098760690326
 30
0.0
  0
LINE
  5
22F
330
1F
100
AcDbEntity
  8
0
  6
SLD-Plná
 62
     7
370
    25
100
AcDbLine
 10
8616.268977089
 20
5614.6147258469
 30
0.0
 11
8631.8970839065
 21
5614.7185269222
 31
0.0
  0
SPLINE
  5
230
330
1F
100
AcDbEntity
  8
0
  6
SLD-Plná
 62
     7
370
    25
100
AcDbSpline
210
0.0
220
0.0
230
1.0
 70
     8
 71
     3
 72
    12
 73
     8
 74
     0
 42
0.00000001
 43
0.00000001
 40
0.0
 40
0.0
 40
0.0
 40
0.0
 40
0.1608561237122088
 40
0.4130158128094024
 40
0.6660581886894825
 40
0.9202761133555498
 40
1.0
 40
1.0
 40
1.0
 40
1.0
 10
8631.897083906544
 20
5614.718526922235
 30
0.0
 10
8631.965084773297
 20
5614.719025927674
 30
0.0
 10
8632.139684487662
 20
5614.720307179097
 30
0.0
 10
8632.383832672205
 20
5614.724423665076
 30
0.0
 10
8632.573388727296
 20
5614.730547637922
 30
0.0
 10
8632.663357105215
 20
5614.735979581025
 30
0.0
 10
8632.648838470928
 20
5614.738902454672
 30
0.0
 10
8632.645372352235
 20
5614.739600249435
 30
0.0
  0
SPLINE
  5
231
330
1F
100
AcDbEntity
  8
0
  6
SLD-Plná
 62
     7
370
    25
100
AcDbSpline
210
0.0
220
0.0
230
1.0
 70
     8
 71
     3
 72
    12
 73
     8
 74
     0
 42
0.00000001
 43
0.00000001
 40
0.0
 40
0.0
 40
0.0
 40
0.0
 40
0.2151598566129752
 40
0.4299195725078868
 40
0.643729567455924
 40
0.8564665715344822
 40
1.0
 40
1.0
 40
1.0
 40
1.0
 10
8632.630727041324
 20
5614.744228991041
 30
0.0
 10
8632.593820230091
 20
5614.746287255773
 30
0.0
 10
8632.520075244589
 20
5614.750399957407
 30
0.0
 10
8632.281539658876
 20
5614.754914915568
 30
0.0
 10
8631.98118899267
 20
5614.75770115744
 30
0.0
 10
8631.677689899794
 20
5614.758564810972
 30
0.0
 10
8631.492719124397
 20
5614.758008067311
 30
0.0
 10
8631.41819851552
 20
5614.75778376768
 30
0.0
  0
LINE
  5
232
330
1F
100
AcDbEntity
  8
0
  6
SLD-Plná
 62
     7
370
    25
100
AcDbLine
 10
8631.4181985155
 20
5614.7577837677
 30
0.0
 11
8615.8546181899
 21
5614.676485499
 31
0.0
  0
SPLINE
  5
233
330
1F
100
AcDbEntity
  8
0
  6
SLD-Plná
 62
     7
370
    25
100
AcDbSpline
210
0.0
220
0.0
230
1.0
 70
     8
 71
     3
 72
    17
 73
    13
 74
     0
 42
0.00000001
 43
0.00000001
 40
0.0
 40
0.0
 40
0.0
 40
0.0
 40
0.107013691050293
 40
0.2140163883272496
 40
0.3213051419482852
 40
0.4290110595104694
 40
0.5369750597500523
 40
0.6449304190531797
 40
0.7526269936443375
 40
0.8599370209991963
 40
0.9668982389607715
 40
1.0
 40
1.0
 40
1.0
 40
1.0
 10
8615.85461818989
 20
5614.676485498977
 30
0.0
 10
8615.74708646773
 20
5614.67551592984
 30
0.0
 10
8615.532034070406
 20
5614.673576891173
 30
0.0
 10
8615.275354238605
 20
5614.666900630697
 30
0.0
 10
8615.105059558377
 20
5614.658081681042
 30
0.0
 10
8615.042687361338
 20
5614.647644943143
 30
0.0
 10
8615.095509601259
 20
5614.63677191358
 30
0.0
 10
8615.258124839915
 20
5614.626748878964
 30
0.0
 10
8615.511954014693
 20
5614.618879898608
 30
0.0
 10
8615.82700136701
 20
5614.614281014323
 30
0.0
 10
8616.09087614597
 20
5614.613622900912
 30
0.0
 10
8616.234931735118
 20
5614.614515010373
 30
0.0
 10
8616.268977089017
 20
5614.614725846916
 30
0.0
  0
LINE
  5
234
330
1F
100
AcDbEntity
  8
0
  6
SLD-Plná
 62
     7
370
    25
100
AcDbLine
 10
8435.9676392864
 20
5614.4310321357
 30
0.0
 11
8451.8349817115
 21
5614.3110838069
 31
0.0
  0
SPLINE
  5
235
330
1F
100
AcDbEntity
  8
0
  6
SLD-Plná
 62
     7
370
    25
100
AcDbSpline
210
0.0
220
0.0
230
1.0
 70
     8
 71
     3
 72
    13
 73
     9
 74
     0
 42
0.00000001
 43
0.00000001
 40
0.0
 40
0.0
 40
0.0
 40
0.0
 40
0.1444934346770065
 40
0.3425283038991974
 40
0.5406445601875282
 40
0.7390626137600005
 40
0.9378897091050201
 40
1.0
 40
1.0
 40
1.0
 40
1.0
 10
8451.834981711516
 20
5614.311083806944
 30
0.0
 10
8451.9167608413
 20
5614.31083199296
 30
0.0
 10
8452.110622013488
 20
5614.310235056377
 30
0.0
 10
8452.40920862548
 20
5614.315406765166
 30
0.0
 10
8452.688081191089
 20
5614.326372492686
 30
0.0
 10
8452.877824259498
 20
5614.341647493226
 30
0.0
 10
8452.967778366194
 20
5614.3553383607
 30
0.0
 10
8452.953281466476
 20
5614.363031194967
 30
0.0
 10
8452.949830804724
 20
5614.364862301583
 30
0.0
  0
SPLINE
  5
236
330
1F
100
AcDbEntity
  8
0
  6
SLD-Plná
 62
     7
370
    25
100
AcDbSpline
210
0.0
220
0.0
230
1.0
 70
     8
 71
     3
 72
    11
 73
     7
 74
     0
 42
0.00000001
 43
0.00000001
 40
0.0
 40
0.0
 40
0.0
 40
0.0
 40
0.2793612777290967
 40
0.5585019956807584
 40
0.8370827027701342
 40
1.0
 40
1.0
 40
1.0
 40
1.0
 10
8452.935187084204
 20
5614.376995843605
 30
0.0
 10
8452.898439012655
 20
5614.382537786856
 30
0.0
 10
8452.82497188269
 20
5614.393617297912
 30
0.0
 10
8452.587487289202
 20
5614.406253406293
 30
0.0
 10
8452.328958703016
 20
5614.413456634948
 30
0.0
 10
8452.15375056069
 20
5614.415091363408
 30
0.0
 10
8452.089096957001
 20
5614.415694594995
 30
0.0
  0
LINE
  5
237
330
1F
100
AcDbEntity
  8
0
  6
SLD-Plná
 62
     7
370
    25
100
AcDbLine
 10
8452.089096957
 20
5614.415694595
 30
0.0
 11
8436.2863060233
 21
5614.5208651147
 31
0.0
  0
SPLINE
  5
238
330
1F
100
AcDbEntity
  8
0
  6
SLD-Plná
 62
     7
370
    25
100
AcDbSpline
210
0.0
220
0.0
230
1.0
 70
     8
 71
     3
 72
    18
 73
    14
 74
     0
 42
0.00000001
 43
0.00000001
 40
0.0
 40
0.0
 40
0.0
 40
0.0
 40
0.0552222254331126
 40
0.1621223726712487
 40
0.2690247484002489
 40
0.3761297959700329
 40
0.4835392193494759
 40
0.5510236090832116
 40
0.6587145512157022
 40
0.7664106231876827
 40
0.8739625356251125
 40
0.9812413225937646
 40
1.0
 40
1.0
 40
1.0
 40
1.0
 10
8436.286306023334
 20
5614.520865114736
 30
0.0
 10
8436.228864958872
 20
5614.521128599758
 30
0.0
 10
8436.060228479877
 20
5614.521902143684
 30
0.0
 10
8435.777621838875
 20
5614.519567069065
 30
0.0
 10
8435.481473461567
 20
5614.512412714791
 30
0.0
 10
8435.257120833165
 20
5614.50124943447
 30
0.0
 10
8435.14623905894
 20
5614.48892230212
 30
0.0
 10
8435.115036563056
 20
5614.475628033383
 30
0.0
 10
8435.165369926413
 20
5614.461981949153
 30
0.0
 10
8435.332013999729
 20
5614.447858485944
 30
0.0
 10
8435.588356281738
 20
5614.436972004623
 30
0.0
 10
8435.818871574642
 20
5614.432337620997
 30
0.0
 10
8435.948366082854
 20
5614.431201264383
 30
0.0
 10
8435.967639286402
 20
5614.431032135726
 30
0.0
  0
SPLINE
  5
239
330
1F
100
AcDbEntity
  8
0
  6
SLD-Plná
 62
     7
370
    25
100
AcDbSpline
210
0.0
220
0.0
230
1.0
 70
     8
 71
     3
 72
    17
 73
    13
 74
     0
 42
0.00000001
 43
0.00000001
 40
0.0
 40
0.0
 40
0.0
 40
0.0
 40
0.0964534635292389
 40
0.2035424285120142
 40
0.3107508953545806
 40
0.4181371413306161
 40
0.4855051832685767
 40
0.5930449773066603
 40
0.700587771103903
 40
0.8080472257749473
 40
0.9153530340174775
 40
1.0
 40
1.0
 40
1.0
 40
1.0
 10
8536.749360990421
 20
5614.225596971733
 30
0.0
 10
8536.648865270383
 20
5614.224775945733
 30
0.0
 10
8536.43679260691
 20
5614.223043362791
 30
0.0
 10
8536.14986701793
 20
5614.212751033517
 30
0.0
 10
8535.925332200244
 20
5614.197016634238
 30
0.0
 10
8535.814452074432
 20
5614.179601977137
 30
0.0
 10
8535.783302027252
 20
5614.160980179068
 30
0.0
 10
8535.83355023858
 20
5614.14197925342
 30
0.0
 10
8535.99988778736
 20
5614.122416293947
 30
0.0
 10
8536.255854140643
 20
5614.107478520383
 30
0.0
 10
8536.550954350645
 20
5614.099079217105
 30
0.0
 10
8536.752284953502
 20
5614.098645007472
 30
0.0
 10
8536.841067336358
 20
5614.098453530542
 30
0.0
  0
LINE
  5
23A
330
1F
100
AcDbEntity
  8
0
  6
SLD-Plná
 62
     7
370
    25
100
AcDbLine
 10
8536.8410673364
 20
5614.0984535305
 30
0.0
 11
8552.8426994235
 21
5614.1634213977
 31
0.0
  0
SPLINE
  5
23B
330
1F
100
AcDbEntity
  8
0
  6
SLD-Plná
 62
     7
370
    25
100
AcDbSpline
210
0.0
220
0.0
230
1.0
 70
     8
 71
     3
 72
    18
 73
    14
 74
     0
 42
0.00000001
 43
0.00000001
 40
0.0
 40
0.0
 40
0.0
 40
0.0
 40
0.0124140818120885
 40
0.1195270312497935
 40
0.226673588724679
 40
0.333945544169764
 40
0.4413886611271579
 40
0.548980752635999
 40
0.6566327344336594
 40
0.7642201573124345
 40
0.8716389205683974
 40
0.9788599485480893
 40
1.0
 40
1.0
 40
1.0
 40
1.0
 10
8552.842699423527
 20
5614.163421397722
 30
0.0
 10
8552.855595930532
 20
5614.163496240186
 30
0.0
 10
8552.979767916751
 20
5614.164216849059
 30
0.0
 10
8553.211609188113
 20
5614.168607299848
 30
0.0
 10
8553.48893647801
 20
5614.181170991993
 30
0.0
 10
8553.68518918069
 20
5614.198643622842
 30
0.0
 10
8553.777808217053
 20
5614.218864110224
 30
0.0
 10
8553.756131310802
 20
5614.239476373165
 30
0.0
 10
8553.622315137203
 20
5614.258160644428
 30
0.0
 10
8553.391344113174
 20
5614.272935283905
 30
0.0
 10
8553.090047743373
 20
5614.282255247473
 30
0.0
 10
8552.841611805432
 20
5614.284579049188
 30
0.0
 10
8552.707914203564
 20
5614.28413673131
 30
0.0
 10
8552.685895269204
 20
5614.284063885065
 30
0.0
  0
LINE
  5
23C
330
1F
100
AcDbEntity
  8
0
  6
SLD-Plná
 62
     7
370
    25
100
AcDbLine
 10
8552.6858952692
 20
5614.2840638851
 30
0.0
 11
8536.7493609904
 21
5614.2255969717
 31
0.0
  0
LINE
  5
23D
330
1F
100
AcDbEntity
  8
0
  6
SLD-Plná
 62
     7
370
    25
100
AcDbLine
 10
8596.5842921575
 20
5614.4621871322
 30
0.0
 11
8612.3448736732
 21
5614.5854093573
 31
0.0
  0
SPLINE
  5
23E
330
1F
100
AcDbEntity
  8
0
  6
SLD-Plná
 62
     7
370
    25
100
AcDbSpline
210
0.0
220
0.0
230
1.0
 70
     8
 71
     3
 72
    12
 73
     8
 74
     0
 42
0.00000001
 43
0.00000001
 40
0.0
 40
0.0
 40
0.0
 40
0.0
 40
0.2454584975995591
 40
0.490897135883037
 40
0.7368601511587815
 40
0.983663854499516
 40
1.0
 40
1.0
 40
1.0
 40
1.0
 10
8612.34487367319
 20
5614.585409357282
 30
0.0
 10
8612.4525190602
 20
5614.586644210795
 30
0.0
 10
8612.667801124953
 20
5614.589113817914
 30
0.0
 10
8612.928910617255
 20
5614.597487811729
 30
0.0
 10
8613.09166568141
 20
5614.607927836644
 30
0.0
 10
8613.161672826007
 20
5614.616140025288
 30
0.0
 10
8613.143088352836
 20
5614.620113361756
 30
0.0
 10
8613.141934598818
 20
5614.620360032882
 30
0.0
  0
SPLINE
  5
23F
330
1F
100
AcDbEntity
  8
0
  6
SLD-Plná
 62
     7
370
    25
100
AcDbSpline
210
0.0
220
0.0
230
1.0
 70
     8
 71
     3
 72
    12
 73
     8
 74
     0
 42
0.00000001
 43
0.00000001
 40
0.0
 40
0.0
 40
0.0
 40
0.0
 40
0.2330656553029437
 40
0.4656861404565949
 40
0.6974805964020336
 40
0.9284447283244484
 40
0.9999999999999999
 40
0.9999999999999999
 40
0.9999999999999999
 40
0.9999999999999999
 10
8613.095957407018
 20
5614.630843101795
 30
0.0
 10
8613.050303944474
 20
5614.634253835788
 30
0.0
 10
8612.959084220387
 20
5614.641068789054
 30
0.0
 10
8612.70092317198
 20
5614.64838646382
 30
0.0
 10
8612.388582610614
 20
5614.652622613226
 30
0.0
 10
8612.12440368884
 20
5614.65326716452
 30
0.0
 10
8611.980128476225
 20
5614.652505405733
 30
0.0
 10
8611.946002889861
 20
5614.652325226028
 30
0.0
  0
LINE
  5
240
330
1F
100
AcDbEntity
  8
0
  6
SLD-Plná
 62
     7
370
    25
100
AcDbLine
 10
8611.9460028899
 20
5614.652325226
 30
0.0
 11
8596.2495385411
 21
5614.5478267055
 31
0.0
  0
SPLINE
  5
241
330
1F
100
AcDbEntity
  8
0
  6
SLD-Plná
 62
     7
370
    25
100
AcDbSpline
210
0.0
220
0.0
230
1.0
 70
     8
 71
     3
 72
    17
 73
    13
 74
     0
 42
0.00000001
 43
0.00000001
 40
0.0
 40
0.0
 40
0.0
 40
0.0
 40
0.1070717455179325
 40
0.2141356022313111
 40
0.3214075177629104
 40
0.4289993098853875
 40
0.5368031692099475
 40
0.6446223950840153
 40
0.7522648083455397
 40
0.8596241036442026
 40
0.9667154965652265
 40
0.9999999999999999
 40
0.9999999999999999
 40
0.9999999999999999
 40
0.9999999999999999
 10
8596.2495385411
 20
5614.547826705502
 30
0.0
 10
8596.140693020252
 20
5614.546630699117
 30
0.0
 10
8595.92300999805
 20
5614.544238774464
 30
0.0
 10
8595.657144402478
 20
5614.535280114843
 30
0.0
 10
8595.475107464854
 20
5614.52328915048
 30
0.0
 10
8595.399251580358
 20
5614.509018939936
 30
0.0
 10
8595.43827947761
 20
5614.494099678361
 30
0.0
 10
8595.588268011074
 20
5614.480250769405
 30
0.0
 10
8595.832210132623
 20
5614.469197547422
 30
0.0
 10
8596.141484705382
 20
5614.462433047976
 30
0.0
 10
8596.404607920273
 20
5614.461042318851
 30
0.0
 10
8596.54985309933
 20
5614.461967712309
 30
0.0
 10
8596.584292157506
 20
5614.462187132185
 30
0.0
  0
ARC
  5
242
330
1F
100
AcDbEntity
  8
0
  6
SLD-Plná
 62
     7
370
    25
100
AcDbCircle
 10
8652.7986277716
 20
5604.8037667889
 30
0.0
 40
10.0
100
AcDbArc
 50
0.0
 51
90.0
  0
LINE
  5
243
330
1F
100
AcDbEntity
  8
0
  6
SLD-Plná
 62
     7
370
    25
100
AcDbLine
 10
8662.7986277716
 20
5604.8037667889
 30
0.0
 11
8662.7986277716
 21
5604.3001962209
 31
0.0
  0
ARC
  5
244
330
1F
100
AcDbEntity
  8
0
  6
SLD-Plná
 62
     7
370
    25
100
AcDbCircle
 10
8375.7986277716
 20
5604.8037667889
 30
0.0
 40
10.0
100
AcDbArc
 50
90.0
 51
179.9999999856
  0
ARC
  5
245
330
1F
100
AcDbEntity
  8
0
  6
SLD-Plná
 62
     7
370
    25
100
AcDbCircle
 10
8550.2249420184
 20
5684.5573909106
 30
0.0
 40
2.180652379503382
100
AcDbArc
 50
339.7818352453
 51
6.4872808622
  0
LINE
  5
246
330
1F
100
AcDbEntity
  8
0
  6
SLD-Plná
 62
     7
370
    25
100
AcDbLine
 10
8552.2712302394
 20
5683.8037667889
 30
0.0
 11
8546.6692234552
 21
5683.8037667889
 31
0.0
  0
LINE
  5
247
330
1F
100
AcDbEntity
  8
0
  6
SLD-Plná
 62
     7
370
    25
100
AcDbLine
 10
8592.2348939221
 20
5683.8037667889
 30
0.0
 11
8552.2712302394
 21
5683.8037667889
 31
0.0
  0
ARC
  5
248
330
1F
100
AcDbEntity
  8
0
  6
SLD-Plná
 62
     7
370
    25
100
AcDbCircle
 10
8591.2850016674
 20
5684.5690333506
 30
0.0
 40
1.219806626429835
100
AcDbArc
 50
321.1438610642
 51
11.0949198519
  0
LINE
  5
249
330
1F
100
AcDbEntity
  8
0
  6
SLD-Plná
 62
     7
370
    25
100
AcDbLine
 10
8595.9993146383
 20
5683.8037667889
 30
0.0
 11
8592.2348939221
 21
5683.8037667889
 31
0.0
  0
LINE
  5
24A
330
1F
100
AcDbEntity
  8
0
  6
SLD-Plná
 62
     7
370
    25
100
AcDbLine
 10
8481.9280320879
 20
5683.8037667889
 30
0.0
 11
8476.3260253037
 21
5683.8037667889
 31
0.0
  0
ARC
  5
24B
330
1F
100
AcDbEntity
  8
0
  6
SLD-Plná
 62
     7
370
    25
100
AcDbCircle
 10
8478.3723135248
 20
5684.5573909106
 30
0.0
 40
2.180652379596228
100
AcDbArc
 50
173.5127191383
 51
200.2181647541
  0
LINE
  5
24C
330
1F
100
AcDbEntity
  8
0
  6
SLD-Plná
 62
     7
370
    25
100
AcDbLine
 10
8476.3260253037
 20
5683.8037667889
 30
0.0
 11
8436.362361621
 21
5683.8037667889
 31
0.0
  0
ARC
  5
24D
330
1F
100
AcDbEntity
  8
0
  6
SLD-Plná
 62
     7
370
    25
100
AcDbCircle
 10
8437.3122538756
 20
5684.5690333506
 30
0.0
 40
1.219806626404594
100
AcDbArc
 50
168.9050801476
 51
218.8561389364
  0
LINE
  5
24E
330
1F
100
AcDbEntity
  8
0
  6
SLD-Plná
 62
     7
370
    25
100
AcDbLine
 10
8436.362361621
 20
5683.8037667889
 30
0.0
 11
8432.5979409048
 21
5683.8037667889
 31
0.0
  0
LINE
  5
24F
330
1F
100
AcDbEntity
  8
0
  6
SLD-Plná
 62
     7
370
    25
100
AcDbLine
 10
8534.6208098365
 20
5683.8037667889
 30
0.0
 11
8493.9764457066
 21
5683.8037667889
 31
0.0
  0
ARC
  5
250
330
1F
100
AcDbEntity
  8
0
  6
SLD-Plná
 62
     7
370
    25
100
AcDbCircle
 10
8497.8401304717
 20
5684.5548048018
 30
0.0
 40
3.936002802437101
100
AcDbArc
 50
176.3734781857
 51
191.0001968189
  0
ARC
  5
251
330
1F
100
AcDbEntity
  8
0
  6
SLD-Plná
 62
     7
370
    25
100
AcDbCircle
 10
8530.7571250715
 20
5684.5548048018
 30
0.0
 40
3.936002802254039
100
AcDbArc
 50
348.9998031806
 51
3.6265218145
  0
LINE
  5
252
330
1F
100
AcDbEntity
  8
0
  6
SLD-Plná
 62
     7
370
    25
100
AcDbLine
 10
8539.2986277715
 20
5683.8037667889
 30
0.0
 11
8534.6208098365
 21
5683.8037667889
 31
0.0
  0
LINE
  5
253
330
1F
100
AcDbEntity
  8
0
  6
SLD-Plná
 62
     7
370
    25
100
AcDbLine
 10
8493.9764457066
 20
5683.8037667889
 30
0.0
 11
8489.2986277715
 21
5683.8037667889
 31
0.0
  0
LWPOLYLINE
  5
254
330
1F
100
AcDbEntity
  8
0
  6
SLD-Plná
 62
     7
370
    25
100
AcDbPolyline
 90
        9
 70
   128
 43
0.0
 10
8516.3230116067
 20
5610.2157351507
 10
8515.8169643147
 20
5610.215521842
 10
8515.3109154797
 20
5610.2153694786
 10
8514.8048656159
 20
5610.2152780604
 10
8514.2988152377
 20
5610.2152475877
 10
8513.7927648595
 20
5610.2152780604
 10
8513.2867149957
 20
5610.2153694786
 10
8512.7806661606
 20
5610.215521842
 10
8512.2746188686
 20
5610.2157351507
  0
ARC
  5
255
330
1F
100
AcDbEntity
  8
0
  6
SLD-Plná
 62
     7
370
    25
100
AcDbCircle
 10
8603.8445031997
 20
5610.4398943927
 30
0.0
 40
91.57015869685118
100
AcDbArc
 50
179.4442819242
 51
180.1402573886
  0
LWPOLYLINE
  5
256
330
1F
100
AcDbEntity
  8
0
  6
SLD-Plná
 62
     7
370
    25
100
AcDbPolyline
 90
        9
 70
   128
 43
0.0
 10
8512.2786515968
 20
5611.328029522
 10
8512.7836907103
 20
5611.3278166383
 10
8513.2887313639
 20
5611.3276645784
 10
8513.7937730441
 20
5611.3275733424
 10
8514.2988152377
 20
5611.3275429304
 10
8514.8038574313
 20
5611.3275733424
 10
8515.3088991115
 20
5611.3276645784
 10
8515.813939765
 20
5611.3278166383
 10
8516.3189788785
 20
5611.328029522
  0
ARC
  5
257
330
1F
100
AcDbEntity
  8
0
  6
SLD-Plná
 62
     7
370
    25
100
AcDbCircle
 10
8424.7531272995
 20
5610.4398943929
 30
0.0
 40
91.57015867302853
100
AcDbArc
 50
359.8597426112
 51
0.5557180758
  0
LWPOLYLINE
  5
258
330
1F
100
AcDbEntity
  8
0
  6
SLD-Plná
 62
     7
370
    25
100
AcDbPolyline
 90
       12
 70
   128
 43
0.0
 10
8512.3189788785
 20
5612.5225780695
 10
8510.9095107797
 20
5612.4990628639
 10
8509.6125958656
 20
5612.4290651109
 10
8508.5333024694
 20
5612.3182556121
 10
8507.7590685233
 20
5612.1756114941
 10
8507.3526178571
 20
5612.0126889351
 10
8507.3468786866
 20
5611.8426869517
 10
8507.742315965
 20
5611.6793780937
 10
8508.5068937161
 20
5611.5359926735
 10
8509.5786703973
 20
5611.4241469251
 10
8510.8708170363
 20
5611.3529019259
 10
8512.2786515968
 20
5611.328029522
  0
LINE
  5
259
330
1F
100
AcDbEntity
  8
0
  6
SLD-Plná
 62
     7
370
    25
100
AcDbLine
 10
8512.3189788785
 20
5612.5225780695
 30
0.0
 11
8512.3194590516
 21
5612.5297383614
 31
0.0
  0
ARC
  5
25A
330
1F
100
AcDbEntity
  8
0
  6
SLD-Plná
 62
     7
370
    25
100
AcDbCircle
 10
8516.8422498972
 20
5589.3917254397
 30
0.0
 40
23.13771783096973
100
AcDbArc
 50
80.2646667586
 51
91.3957728389
  0
LINE
  5
25B
330
1F
100
AcDbEntity
  8
0
  6
SLD-Plná
 62
     7
370
    25
100
AcDbLine
 10
8516.2781708902
 20
5612.5297384043
 30
0.0
 11
8516.2786515968
 21
5612.5225780695
 31
0.0
  0
LWPOLYLINE
  5
25C
330
1F
100
AcDbEntity
  8
0
  6
SLD-Plná
 62
     7
370
    25
100
AcDbPolyline
 90
        9
 70
   128
 43
0.0
 10
8516.2786515968
 20
5612.5225780695
 10
8515.7836942679
 20
5612.5223694355
 10
8515.2887354296
 20
5612.5222204111
 10
8514.7937755852
 20
5612.5221309964
 10
8514.2988152377
 20
5612.5221011914
 10
8513.8038548902
 20
5612.5221309964
 10
8513.3088950457
 20
5612.5222204111
 10
8512.8139362075
 20
5612.5223694355
 10
8512.3189788785
 20
5612.5225780695
  0
ARC
  5
25D
330
1F
100
AcDbEntity
  8
0
  6
SLD-Plná
 62
     7
370
    25
100
AcDbCircle
 10
8568.9567458419
 20
5635.7843070134
 30
0.0
 40
23.94882289120916
100
AcDbArc
 50
260.2532494876
 51
272.3236444631
  0
ARC
  5
25E
330
1F
100
AcDbEntity
  8
0
  6
SLD-Plná
 62
     7
370
    25
100
AcDbCircle
 10
8566.6345334412
 20
5610.9648483142
 30
0.0
 40
3.411426000117079
100
AcDbArc
 50
356.2817969104
 51
15.1284599333
  0
LINE
  5
25F
330
1F
100
AcDbEntity
  8
0
  6
SLD-Plná
 62
     7
370
    25
100
AcDbLine
 10
8568.8172442976
 20
5613.0423459672
 30
0.0
 11
8568.8039402584
 21
5613.0494178738
 31
0.0
  0
LWPOLYLINE
  5
260
330
1F
100
AcDbEntity
  8
0
  6
SLD-Plná
 62
     7
370
    25
100
AcDbPolyline
 90
        9
 70
   128
 43
0.0
 10
8574.060286259
 20
5610.7992608576
 10
8573.5578050427
 20
5610.792093829
 10
8573.0552635934
 20
5610.7849873196
 10
8572.552662422
 20
5610.7779413366
 10
8572.0500020392
 20
5610.7709558873
 10
8571.5472829559
 20
5610.7640309787
 10
8571.0445056833
 20
5610.7571666178
 10
8570.5416707323
 20
5610.7503628116
 10
8570.0387786139
 20
5610.7436195671
  0
LWPOLYLINE
  5
261
330
1F
100
AcDbEntity
  8
0
  6
SLD-Plná
 62
     7
370
    25
100
AcDbPolyline
 90
        9
 70
   128
 43
0.0
 10
8569.9277300397
 20
5611.855176073
 10
8570.4296202655
 20
5611.8619058833
 10
8570.9314534379
 20
5611.8686961345
 10
8571.4332290468
 20
5611.8755468197
 10
8571.9349465823
 20
5611.8824579322
 10
8572.4366055342
 20
5611.8894294647
 10
8572.9382053928
 20
5611.8964614102
 10
8573.4397456482
 20
5611.9035537616
 10
8573.9412257906
 20
5611.9107065116
  0
ARC
  5
262
330
1F
100
AcDbEntity
  8
0
  6
SLD-Plná
 62
     7
370
    25
100
AcDbCircle
 10
8570.874113737
 20
5611.0200509832
 30
0.0
 40
3.19381333515011
100
AcDbArc
 50
356.0359486211
 51
16.1927146485
  0
LWPOLYLINE
  5
263
330
1F
100
AcDbEntity
  8
0
  6
SLD-Plná
 62
     7
370
    25
100
AcDbPolyline
 90
        9
 70
   128
 43
0.0
 10
8572.7506211063
 20
5613.0967678858
 10
8572.259151703
 20
5613.0897579217
 10
8571.7676233866
 20
5613.0828071506
 10
8571.2760366569
 20
5613.0759155795
 10
8570.7843920134
 20
5613.0690832154
 10
8570.2926899559
 20
5613.0623100652
 10
8569.8009309842
 20
5613.055596136
 10
8569.3091155982
 20
5613.0489414344
 10
8568.8172442976
 20
5613.0423459672
  0
LWPOLYLINE
  5
264
330
1F
100
AcDbEntity
  8
0
  6
SLD-Plná
 62
     7
370
    25
100
AcDbPolyline
 90
       12
 70
   128
 43
0.0
 10
8573.9412257906
 20
5611.9107065116
 10
8575.3157548359
 20
5611.9547630807
 10
8576.5306998572
 20
5612.043294268
 10
8577.4876332345
 20
5612.1691278032
 10
8578.1090299166
 20
5612.3220694015
 10
8578.34454804
 20
5612.4897286444
 10
8578.1751073269
 20
5612.6585227771
 10
8577.6144348562
 20
5612.8147771027
 10
8576.7079529771
 20
5612.9458328252
 10
8575.5290994604
 20
5613.0410725892
 10
8574.173378007
 20
5613.0927806356
 10
8572.7506211063
 20
5613.0967678858
  0
LINE
  5
265
330
1F
100
AcDbEntity
  8
0
  6
SLD-Plná
 62
     7
370
    25
100
AcDbLine
 10
8572.7363283264
 20
5613.1038261903
 30
0.0
 11
8572.7506211063
 21
5613.0967678858
 31
0.0
  0
ARC
  5
266
330
1F
100
AcDbEntity
  8
0
  6
SLD-Plná
 62
     7
370
    25
100
AcDbCircle
 10
8461.9630970341
 20
5610.9648475087
 30
0.0
 40
3.411426000167332
100
AcDbArc
 50
164.8715400669
 51
183.7182030895
  0
LWPOLYLINE
  5
267
330
1F
100
AcDbEntity
  8
0
  6
SLD-Plná
 62
     7
370
    25
100
AcDbPolyline
 90
       12
 70
   128
 43
0.0
 10
8458.6699004356
 20
5611.8551752675
 10
8460.0923418497
 20
5611.8605331545
 10
8461.4445279953
 20
5611.9135456996
 10
8462.6169127926
 20
5612.0099181416
 10
8463.5145165978
 20
5612.1418429585
 10
8464.0646208888
 20
5612.2986323862
 10
8464.2226594876
 20
5612.4675842777
 10
8463.9758290468
 20
5612.6350111555
 10
8463.3441263007
 20
5612.7873490898
 10
8462.378728049
 20
5612.9122565671
 10
8461.1578451165
 20
5612.9996143265
 10
8459.7803861777
 20
5613.0423451617
  0
LINE
  5
268
330
1F
100
AcDbEntity
  8
0
  6
SLD-Plná
 62
     7
370
    25
100
AcDbLine
 10
8459.7937049224
 20
5613.0494169148
 30
0.0
 11
8459.7803861777
 21
5613.0423451617
 31
0.0
  0
LWPOLYLINE
  5
269
330
1F
100
AcDbEntity
  8
0
  6
SLD-Plná
 62
     7
370
    25
100
AcDbPolyline
 90
        9
 70
   128
 43
0.0
 10
8458.5588518614
 20
5610.7436187616
 10
8458.0559597431
 20
5610.7503620061
 10
8457.553124792
 20
5610.7571658123
 10
8457.0503475194
 20
5610.7640301731
 10
8456.5476284362
 20
5610.7709550818
 10
8456.0449680534
 20
5610.7779405311
 10
8455.5423668819
 20
5610.7849865141
 10
8455.0398254326
 20
5610.7920930235
 10
8454.5373442163
 20
5610.7992600521
  0
ARC
  5
26A
330
1F
100
AcDbEntity
  8
0
  6
SLD-Plná
 62
     7
370
    25
100
AcDbCircle
 10
8457.7235167383
 20
5611.0200501777
 30
0.0
 40
3.193813335063632
100
AcDbArc
 50
163.8072853514
 51
183.9640513793
  0
LWPOLYLINE
  5
26B
330
1F
100
AcDbEntity
  8
0
  6
SLD-Plná
 62
     7
370
    25
100
AcDbPolyline
 90
        9
 70
   128
 43
0.0
 10
8454.6564046847
 20
5611.9107057061
 10
8455.1578848271
 20
5611.9035529561
 10
8455.6594250825
 20
5611.8964606047
 10
8456.1610249411
 20
5611.8894286592
 10
8456.662683893
 20
5611.8824571266
 10
8457.1644014285
 20
5611.8755460142
 10
8457.6661770374
 20
5611.868695329
 10
8458.1680102098
 20
5611.8619050778
 10
8458.6699004356
 20
5611.8551752675
  0
LWPOLYLINE
  5
26C
330
1F
100
AcDbEntity
  8
0
  6
SLD-Plná
 62
     7
370
    25
100
AcDbPolyline
 90
        9
 70
   128
 43
0.0
 10
8459.7803861777
 20
5613.0423451617
 10
8459.2885148771
 20
5613.0489406289
 10
8458.7966994911
 20
5613.0555953305
 10
8458.3049405194
 20
5613.0623092597
 10
8457.8132384619
 20
5613.0690824099
 10
8457.3215938184
 20
5613.075914774
 10
8456.8300070887
 20
5613.0828063451
 10
8456.3384787723
 20
5613.0897571162
 10
8455.847009369
 20
5613.0967670803
  0
LWPOLYLINE
  5
26D
330
1F
100
AcDbEntity
  8
0
  6
SLD-Plná
 62
     7
370
    25
100
AcDbPolyline
 90
       12
 70
   128
 43
0.0
 10
8455.847009369
 20
5613.0967670803
 10
8454.4242524683
 20
5613.0927798301
 10
8453.0685310149
 20
5613.0410717837
 10
8451.8896774982
 20
5612.9458320197
 10
8450.9831956191
 20
5612.8147762972
 10
8450.4225231484
 20
5612.6585219716
 10
8450.2530824354
 20
5612.4897278389
 10
8450.4886005587
 20
5612.322068596
 10
8451.1099972408
 20
5612.1691269976
 10
8452.0669306181
 20
5612.0432934625
 10
8453.2818756394
 20
5611.9547622752
 10
8454.6564046847
 20
5611.9107057061
  0
LINE
  5
26E
330
1F
100
AcDbEntity
  8
0
  6
SLD-Plná
 62
     7
370
    25
100
AcDbLine
 10
8455.847009369
 20
5613.0967670803
 30
0.0
 11
8455.8612863838
 21
5613.1038255678
 31
0.0
  0
LINE
  5
26F
330
1F
100
AcDbEntity
  8
0
  6
SLD-Plná
 62
     7
370
    25
100
AcDbLine
 10
8456.3656150696
 20
5737.3718961162
 30
0.0
 11
8453.7906946386
 21
5734.8037667889
 31
0.0
  0
ARC
  5
270
330
1F
100
AcDbEntity
  8
0
  6
SLD-Plná
 62
     7
370
    25
100
AcDbCircle
 10
8457.5700588099
 20
5735.9186550989
 30
0.0
 40
1.887483556964856
100
AcDbArc
 50
87.1273236924
 51
129.6518828048
  0
LINE
  5
271
330
1F
100
AcDbEntity
  8
0
  6
SLD-Plná
 62
     7
370
    25
100
AcDbLine
 10
8488.9326023678
 20
5737.8037667889
 30
0.0
 11
8457.6646531753
 21
5737.8037667889
 31
0.0
  0
ARC
  5
272
330
1F
100
AcDbEntity
  8
0
  6
SLD-Plná
 62
     7
370
    25
100
AcDbCircle
 10
8489.0271967332
 20
5735.9186550989
 30
0.0
 40
1.88748355694877
100
AcDbArc
 50
50.348117195
 51
92.8726763077
  0
LINE
  5
273
330
1F
100
AcDbEntity
  8
0
  6
SLD-Plná
 62
     7
370
    25
100
AcDbLine
 10
8492.8065609045
 20
5734.8037667889
 30
0.0
 11
8490.2316404734
 21
5737.3718961162
 31
0.0
  0
LINE
  5
274
330
1F
100
AcDbEntity
  8
0
  6
SLD-Plná
 62
     7
370
    25
100
AcDbLine
 10
8503.2986277715
 20
5735.3037667889
 30
0.0
 11
8503.2986277715
 21
5734.8037667889
 31
0.0
  0
ARC
  5
275
330
1F
100
AcDbEntity
  8
0
  6
SLD-Plná
 62
     7
370
    25
100
AcDbCircle
 10
8504.7986277715
 20
5735.3037667889
 30
0.0
 40
1.5
100
AcDbArc
 50
90.0
 51
180.0
  0
LINE
  5
276
330
1F
100
AcDbEntity
  8
0
  6
SLD-Plná
 62
     7
370
    25
100
AcDbLine
 10
8523.7986277715
 20
5736.8037667889
 30
0.0
 11
8504.7986277715
 21
5736.8037667889
 31
0.0
  0
ARC
  5
277
330
1F
100
AcDbEntity
  8
0
  6
SLD-Plná
 62
     7
370
    25
100
AcDbCircle
 10
8523.7986277715
 20
5735.3037667889
 30
0.0
 40
1.5
100
AcDbArc
 50
0.0
 51
90.0
  0
LINE
  5
278
330
1F
100
AcDbEntity
  8
0
  6
SLD-Plná
 62
     7
370
    25
100
AcDbLine
 10
8525.2986277715
 20
5734.8037667889
 30
0.0
 11
8525.2986277715
 21
5735.3037667889
 31
0.0
  0
LINE
  5
279
330
1F
100
AcDbEntity
  8
0
  6
SLD-Plná
 62
     7
370
    25
100
AcDbLine
 10
8538.3656150696
 20
5737.3718961162
 30
0.0
 11
8535.7906946386
 21
5734.8037667889
 31
0.0
  0
ARC
  5
27A
330
1F
100
AcDbEntity
  8
0
  6
SLD-Plná
 62
     7
370
    25
100
AcDbCircle
 10
8539.5700588099
 20
5735.9186550989
 30
0.0
 40
1.88748355694853
100
AcDbArc
 50
87.1273236923
 51
129.6518828051
  0
LINE
  5
27B
330
1F
100
AcDbEntity
  8
0
  6
SLD-Plná
 62
     7
370
    25
100
AcDbLine
 10
8539.6646531753
 20
5737.8037667889
 30
0.0
 11
8570.9326023678
 21
5737.8037667889
 31
0.0
  0
ARC
  5
27C
330
1F
100
AcDbEntity
  8
0
  6
SLD-Plná
 62
     7
370
    25
100
AcDbCircle
 10
8571.0271967331
 20
5735.9186550989
 30
0.0
 40
1.887483556964933
100
AcDbArc
 50
50.3481171952
 51
92.8726763077
  0
LINE
  5
27D
330
1F
100
AcDbEntity
  8
0
  6
SLD-Plná
 62
     7
370
    25
100
AcDbLine
 10
8574.8065609045
 20
5734.8037667889
 30
0.0
 11
8572.2316404734
 21
5737.3718961162
 31
0.0
  0
LINE
  5
27E
330
1F
100
AcDbEntity
  8
0
  6
SLD-Plná
 62
     7
370
    25
100
AcDbLine
 10
8411.3602814661
 20
5734.8037667889
 30
0.0
 11
8617.236974077
 21
5734.8037667889
 31
0.0
  0
LINE
  5
27F
330
1F
100
AcDbEntity
  8
0
  6
SLD-Plná
 62
     7
370
    25
100
AcDbLine
 10
8617.236974077
 20
5734.8037667889
 30
0.0
 11
8619.8536810866
 21
5726.1435127511
 31
0.0
  0
LINE
  5
280
330
1F
100
AcDbEntity
  8
0
  6
SLD-Plná
 62
     7
370
    25
100
AcDbLine
 10
8619.8536810866
 20
5726.1435127511
 30
0.0
 11
8408.7435744565
 21
5726.1435127511
 31
0.0
  0
LINE
  5
281
330
1F
100
AcDbEntity
  8
0
  6
SLD-Plná
 62
     7
370
    25
100
AcDbLine
 10
8411.3602814661
 20
5734.8037667889
 30
0.0
 11
8408.7435744565
 21
5726.1435127511
 31
0.0
  0
LINE
  5
282
330
1F
100
AcDbEntity
  8
0
  6
SLD-Plná
 62
     7
370
    25
100
AcDbLine
 10
8619.8536810866
 20
5694.8037667889
 30
0.0
 11
8619.8536810866
 21
5726.1435127511
 31
0.0
  0
LINE
  5
283
330
1F
100
AcDbEntity
  8
0
  6
SLD-Plná
 62
     7
370
    25
100
AcDbLine
 10
8408.7435744565
 20
5694.8037667889
 30
0.0
 11
8619.8536810866
 21
5694.8037667889
 31
0.0
  0
LINE
  5
284
330
1F
100
AcDbEntity
  8
0
  6
SLD-Plná
 62
     7
370
    25
100
AcDbLine
 10
8408.7435744565
 20
5694.8037667889
 30
0.0
 11
8408.7435744565
 21
5726.1435127511
 31
0.0
  0
LWPOLYLINE
  5
285
330
1F
100
AcDbEntity
  8
0
  6
SLD-Plná
 62
     7
370
    25
100
AcDbPolyline
 90
        9
 70
   128
 43
0.0
 10
8619.8536810866
 20
5694.8037667889
 10
8619.8201615589
 20
5692.8528635688
 10
8619.7208911127
 20
5690.9769324653
 10
8619.5596846553
 20
5689.2480644587
 10
8619.3427372607
 20
5687.7326989771
 10
8619.0783860955
 20
5686.4890706659
 10
8618.7767900268
 20
5685.5649714638
 10
8618.4495392222
 20
5684.9959139849
 10
8618.1092097468
 20
5684.8037667889
  0
LINE
  5
286
330
1F
100
AcDbEntity
  8
0
  6
SLD-Plná
 62
     7
370
    25
100
AcDbLine
 10
8618.1092097468
 20
5684.8037667889
 30
0.0
 11
8410.4880457963
 21
5684.8037667889
 31
0.0
  0
LWPOLYLINE
  5
287
330
1F
100
AcDbEntity
  8
0
  6
SLD-Plná
 62
     7
370
    25
100
AcDbPolyline
 90
        9
 70
   128
 43
0.0
 10
8408.7435744565
 20
5694.8037667889
 10
8408.7770939842
 20
5692.8528635688
 10
8408.8763644304
 20
5690.9769324653
 10
8409.0375708877
 20
5689.2480644587
 10
8409.2545182823
 20
5687.7326989771
 10
8409.5188694475
 20
5686.4890706659
 10
8409.8204655163
 20
5685.5649714638
 10
8410.1477163208
 20
5684.9959139849
 10
8410.4880457963
 20
5684.8037667889
  0
LINE
  5
288
330
1F
100
AcDbEntity
  8
0
  6
SLD-Plná
 62
     7
370
    25
100
AcDbLine
 10
8365.7986277715
 20
5709.8037667889
 30
0.0
 11
8391.942221311
 21
5726.1435127511
 31
0.0
  0
LINE
  5
289
330
1F
100
AcDbEntity
  8
0
  6
SLD-Plná
 62
     7
370
    25
100
AcDbLine
 10
8408.7435744565
 20
5726.1435127511
 30
0.0
 11
8391.942221311
 21
5726.1435127511
 31
0.0
  0
LINE
  5
28A
330
1F
100
AcDbEntity
  8
0
  6
SLD-Plná
 62
     7
370
    25
100
AcDbLine
 10
8365.7986277715
 20
5694.8037667889
 30
0.0
 11
8408.7435744565
 21
5694.8037667889
 31
0.0
  0
LINE
  5
28B
330
1F
100
AcDbEntity
  8
0
  6
SLD-Plná
 62
     7
370
    25
100
AcDbLine
 10
8365.7986277715
 20
5694.8037667889
 30
0.0
 11
8365.7986277715
 21
5709.8037667889
 31
0.0
  0
LINE
  5
28C
330
1F
100
AcDbEntity
  8
0
  6
SLD-Plná
 62
     7
370
    25
100
AcDbLine
 10
8405.7986277715
 20
5734.8037667889
 30
0.0
 11
8411.3602814661
 21
5734.8037667889
 31
0.0
  0
SPLINE
  5
28D
330
1F
100
AcDbEntity
  8
0
  6
SLD-Plná
 62
     7
370
    25
100
AcDbSpline
210
0.0
220
0.0
230
1.0
 70
    24
 71
     3
 72
    10
 73
     6
 74
     0
 42
0.00000001
 43
0.00000001
 40
0.0
 40
0.0
 40
0.0
 40
0.0
 40
0.5
 40
0.5
 40
1.0
 40
1.0
 40
1.0
 40
1.0
 10
8391.942221310986
 20
5726.143512751086
 30
0.0
 10
8394.301212221872
 20
5727.617882070389
 30
0.0
 10
8396.64013289821
 20
5729.0797074931
 30
0.0
 10
8401.264517645379
 20
5731.96994796008
 30
0.0
 10
8403.55014575156
 20
5733.398465526443
 30
0.0
 10
8405.798627771537
 20
5734.803766788929
 30
0.0
  0
LINE
  5
28E
330
1F
100
AcDbEntity
  8
0
  6
SLD-Plná
 62
     7
370
    25
100
AcDbLine
 10
8410.4880457963
 20
5684.8037667889
 30
0.0
 11
8375.7986277715
 21
5684.8037667889
 31
0.0
  0
ARC
  5
28F
330
1F
100
AcDbEntity
  8
0
  6
SLD-Plná
 62
     7
370
    25
100
AcDbCircle
 10
8375.7986277715
 20
5694.8037667889
 30
0.0
 40
10.00000000000182
100
AcDbArc
 50
180.0
 51
270.0
  0
LINE
  5
290
330
1F
100
AcDbEntity
  8
0
  6
SLD-Plná
 62
     7
370
    25
100
AcDbLine
 10
8636.6550342321
 20
5726.1435127511
 30
0.0
 11
8619.8536810866
 21
5726.1435127511
 31
0.0
  0
LINE
  5
291
330
1F
100
AcDbEntity
  8
0
  6
SLD-Plná
 62
     7
370
    25
100
AcDbLine
 10
8636.6550342321
 20
5726.1435127511
 30
0.0
 11
8662.7986277715
 21
5709.8037667889
 31
0.0
  0
LINE
  5
292
330
1F
100
AcDbEntity
  8
0
  6
SLD-Plná
 62
     7
370
    25
100
AcDbLine
 10
8662.7986277715
 20
5694.8037667889
 30
0.0
 11
8662.7986277715
 21
5709.8037667889
 31
0.0
  0
LINE
  5
293
330
1F
100
AcDbEntity
  8
0
  6
SLD-Plná
 62
     7
370
    25
100
AcDbLine
 10
8619.8536810866
 20
5694.8037667889
 30
0.0
 11
8662.7986277715
 21
5694.8037667889
 31
0.0
  0
LINE
  5
294
330
1F
100
AcDbEntity
  8
0
  6
SLD-Plná
 62
     7
370
    25
100
AcDbLine
 10
8617.236974077
 20
5734.8037667889
 30
0.0
 11
8622.7986277715
 21
5734.8037667889
 31
0.0
  0
SPLINE
  5
295
330
1F
100
AcDbEntity
  8
0
  6
SLD-Plná
 62
     7
370
    25
100
AcDbSpline
210
0.0
220
0.0
230
1.0
 70
    24
 71
     3
 72
    10
 73
     6
 74
     0
 42
0.00000001
 43
0.00000001
 40
0.0
 40
0.0
 40
0.0
 40
0.0
 40
0.5
 40
0.5
 40
1.0
 40
1.0
 40
1.0
 40
1.0
 10
8622.798627771537
 20
5734.803766788929
 30
0.0
 10
8625.047109791514
 20
5733.398465526443
 30
0.0
 10
8627.332737897696
 20
5731.96994796008
 30
0.0
 10
8631.957122644864
 20
5729.0797074931
 30
0.0
 10
8634.296043321203
 20
5727.617882070389
 30
0.0
 10
8636.655034232088
 20
5726.143512751086
 30
0.0
  0
ARC
  5
296
330
1F
100
AcDbEntity
  8
0
  6
SLD-Plná
 62
     7
370
    25
100
AcDbCircle
 10
8652.7986277715
 20
5694.8037667889
 30
0.0
 40
10.0
100
AcDbArc
 50
270.0
 51
0.0
  0
LINE
  5
297
330
1F
100
AcDbEntity
  8
0
  6
SLD-Plná
 62
     7
370
    25
100
AcDbLine
 10
8652.7986277715
 20
5684.8037667889
 30
0.0
 11
8618.1092097468
 21
5684.8037667889
 31
0.0
  0
ARC
  5
298
330
1F
100
AcDbEntity
  8
0
  6
SLD-Plná
 62
     7
370
    25
100
AcDbCircle
 10
8375.7986277715
 20
5604.8037667889
 30
0.0
 40
10.00000000000182
100
AcDbArc
 50
90.0
 51
180.0
  0
LINE
  5
299
330
1F
100
AcDbEntity
  8
0
  6
SLD-Plná
 62
     7
370
    25
100
AcDbLine
 10
8375.7986277715
 20
5614.8037667889
 30
0.0
 11
8652.7986277715
 21
5614.8037667889
 31
0.0
  0
ARC
  5
29A
330
1F
100
AcDbEntity
  8
0
  6
SLD-Plná
 62
     7
370
    25
100
AcDbCircle
 10
8652.7986277715
 20
5604.8037667889
 30
0.0
 40
10.0
100
AcDbArc
 50
0.0
 51
90.0
  0
ARC
  5
29B
330
1F
100
AcDbEntity
  8
0
  6
SLD-Plná
 62
     7
370
    25
100
AcDbCircle
 10
8652.7986277715
 20
5593.5472515564
 30
0.0
 40
9.999999999999808
100
AcDbArc
 50
317.1706552147
 51
356.47069559
  0
ARC
  5
29C
330
1F
100
AcDbEntity
  8
0
  6
SLD-Plná
 62
     7
370
    25
100
AcDbCircle
 10
8375.7986277715
 20
5593.5472515564
 30
0.0
 40
10.00000000000182
100
AcDbArc
 50
180.0
 51
227.0739940523
  0
SPLINE
  5
29D
330
1F
100
AcDbEntity
  8
0
  6
SLD-Plná
 62
     7
370
    25
100
AcDbSpline
210
0.0
220
0.0
230
1.0
 70
     8
 71
     3
 72
    20
 73
    16
 74
     0
 42
0.00000001
 43
0.00000001
 40
0.0
 40
0.0
 40
0.0
 40
0.0
 40
0.1250000000000015
 40
0.1250000000000015
 40
0.2500000000000029
 40
0.2500000000000029
 40
0.3750000000000044
 40
0.3750000000000044
 40
0.5000000000000059
 40
0.5000000000000059
 40
0.7500000000000033
 40
0.7500000000000033
 40
0.8750000000000018
 40
0.8750000000000018
 40
1.0
 40
1.0
 40
1.0
 40
1.0
 10
8643.251215109485
 20
5622.899617796478
 30
0.0
 10
8643.469696292352
 20
5622.382265273972
 30
0.0
 10
8643.750531662681
 20
5621.860108456754
 30
0.0
 10
8644.384705153154
 20
5620.831816401956
 30
0.0
 10
8644.738467024685
 20
5620.32529062203
 30
0.0
 10
8645.48818242072
 20
5619.348403887851
 30
0.0
 10
8645.884302169288
 20
5618.878094589503
 30
0.0
 10
8646.700469455725
 20
5617.99296044009
 30
0.0
 10
8647.121206218097
 20
5617.577657242588
 30
0.0
 10
8648.399892609697
 20
5616.443814795071
 30
0.0
 10
8649.271260014699
 20
5615.839719465253
 30
0.0
 10
8650.586325670803
 20
5615.224703466443
 30
0.0
 10
8651.026503994062
 20
5615.067831763038
 30
0.0
 10
8651.910982995645
 20
5614.857212351599
 30
0.0
 10
8652.355477668598
 20
5614.803766788929
 30
0.0
 10
8652.798627771537
 20
5614.803766788929
 30
0.0
  0
SPLINE
  5
29E
330
1F
100
AcDbEntity
  8
0
  6
SLD-Plná
 62
     7
370
    25
100
AcDbSpline
210
0.0
220
0.0
230
1.0
 70
     8
 71
     3
 72
    10
 73
     6
 74
     0
 42
0.00000001
 43
0.00000001
 40
0.0
 40
0.0
 40
0.0
 40
0.0
 40
0.5
 40
0.5
 40
1.0
 40
1.0
 40
1.0
 40
1.0
 10
8642.798627771537
 20
5626.233540749377
 30
0.0
 10
8642.798627771537
 20
5625.543369239466
 30
0.0
 10
8642.826853180133
 20
5624.914461532185
 30
0.0
 10
8642.966193465789
 20
5623.800648740394
 30
0.0
 10
8643.076605444041
 20
5623.313084758201
 30
0.0
 10
8643.251215109485
 20
5622.899617796478
 30
0.0
  0
LINE
  5
29F
330
1F
100
AcDbEntity
  8
0
  6
SLD-Plná
 62
     7
370
    25
100
AcDbLine
 10
8642.7986277715
 20
5626.2335407494
 30
0.0
 11
8642.7986277715
 21
5673.3739928285
 31
0.0
  0
SPLINE
  5
2A0
330
1F
100
AcDbEntity
  8
0
  6
SLD-Plná
 62
     7
370
    25
100
AcDbSpline
210
0.0
220
0.0
230
1.0
 70
     8
 71
     3
 72
    12
 73
     8
 74
     0
 42
0.00000001
 43
0.00000001
 40
0.0
 40
0.0
 40
0.0
 40
0.0
 40
0.2500000000000054
 40
0.2500000000000054
 40
0.5000000000000109
 40
0.5000000000000109
 40
1.0
 40
1.0
 40
1.0
 40
1.0
 10
8643.251215109485
 20
5676.707915781381
 30
0.0
 10
8643.16395383112
 20
5676.501285435058
 30
0.0
 10
8643.092492857584
 20
5676.274561292345
 30
0.0
 10
8642.975882338962
 20
5675.785896784069
 30
0.0
 10
8642.930684361581
 20
5675.524118726777
 30
0.0
 10
8642.826525841825
 20
5674.688279467725
 30
0.0
 10
8642.798627771537
 20
5674.063957052823
 30
0.0
 10
8642.798627771537
 20
5673.373992828481
 30
0.0
  0
SPLINE
  5
2A1
330
1F
100
AcDbEntity
  8
0
  6
SLD-Plná
 62
     7
370
    25
100
AcDbSpline
210
0.0
220
0.0
230
1.0
 70
     8
 71
     3
 72
    24
 73
    20
 74
     0
 42
0.00000001
 43
0.00000001
 40
0.0
 40
0.0
 40
0.0
 40
0.0
 40
0.1249999999999982
 40
0.1249999999999982
 40
0.2499999999999964
 40
0.2499999999999964
 40
0.3749999999999947
 40
0.3749999999999947
 40
0.4999999999999929
 40
0.4999999999999929
 40
0.7499999999999938
 40
0.7499999999999938
 40
0.8749999999999946
 40
0.8749999999999946
 40
0.937499999999995
 40
0.937499999999995
 40
0.9687499999999974
 40
0.9687499999999974
 40
1.0
 40
1.0
 40
1.0
 40
1.0
 10
8643.251215109485
 20
5676.707915781381
 30
0.0
 10
8643.470435628908
 20
5677.227019015908
 30
0.0
 10
8643.751546168332
 20
5677.749323577908
 30
0.0
 10
8644.387234052136
 20
5678.779562819248
 30
0.0
 10
8644.742104032468
 20
5679.287397015059
 30
0.0
 10
8645.494661114255
 20
5680.267150873701
 30
0.0
 10
8645.893006981192
 20
5680.739539452162
 30
0.0
 10
8646.711639683526
 20
5681.626010946247
 30
0.0
 10
8647.131600710625
 20
5682.039694238339
 30
0.0
 10
8648.406774778332
 20
5683.168599892268
 30
0.0
 10
8649.275758344342
 20
5683.770259329956
 30
0.0
 10
8650.587531014618
 20
5684.383222395461
 30
0.0
 10
8651.026651715536
 20
5684.539669203705
 30
0.0
 10
8651.6884901743
 20
5684.697373200638
 30
0.0
 10
8651.909641635637
 20
5684.73712875434
 30
0.0
 10
8652.242301896506
 20
5684.777027522733
 30
0.0
 10
8652.35334454598
 20
5684.787038865428
 30
0.0
 10
8652.57576584074
 20
5684.800409265557
 30
0.0
 10
8652.687802912533
 20
5684.803766788929
 30
0.0
 10
8652.798627771537
 20
5684.803766788929
 30
0.0
  0
LINE
  5
2A2
330
1F
100
AcDbEntity
  8
0
  6
SLD-Plná
 62
     7
370
    25
100
AcDbLine
 10
8652.7986277715
 20
5684.8037667889
 30
0.0
 11
8652.7986277715
 21
5614.8037667889
 31
0.0
  0
LINE
  5
2A3
330
1F
100
AcDbEntity
  8
0
  6
SLD-Plná
 62
     7
370
    25
100
AcDbLine
 10
8385.7986277715
 20
5673.3739928285
 30
0.0
 11
8385.7986277715
 21
5626.2335407494
 31
0.0
  0
SPLINE
  5
2A4
330
1F
100
AcDbEntity
  8
0
  6
SLD-Plná
 62
     7
370
    25
100
AcDbSpline
210
0.0
220
0.0
230
1.0
 70
     8
 71
     3
 72
    10
 73
     6
 74
     0
 42
0.00000001
 43
0.00000001
 40
0.0
 40
0.0
 40
0.0
 40
0.0
 40
0.5
 40
0.5
 40
1.0
 40
1.0
 40
1.0
 40
1.0
 10
8385.34604043359
 20
5622.899617796479
 30
0.0
 10
8385.520650099033
 20
5623.313084758201
 30
0.0
 10
8385.631062077284
 20
5623.800648740394
 30
0.0
 10
8385.770402362938
 20
5624.914461532185
 30
0.0
 10
8385.798627771537
 20
5625.543369239466
 30
0.0
 10
8385.798627771537
 20
5626.233540749377
 30
0.0
  0
SPLINE
  5
2A5
330
1F
100
AcDbEntity
  8
0
  6
SLD-Plná
 62
     7
370
    25
100
AcDbSpline
210
0.0
220
0.0
230
1.0
 70
     8
 71
     3
 72
    24
 73
    20
 74
     0
 42
0.00000001
 43
0.00000001
 40
0.0
 40
0.0
 40
0.0
 40
0.0
 40
0.1250000000000017
 40
0.1250000000000017
 40
0.2500000000000034
 40
0.2500000000000034
 40
0.3750000000000052
 40
0.3750000000000052
 40
0.5000000000000069
 40
0.5000000000000069
 40
0.7500000000000057
 40
0.7500000000000057
 40
0.8750000000000051
 40
0.8750000000000051
 40
0.9375000000000044
 40
0.9375000000000044
 40
0.9687500000000022
 40
0.9687500000000022
 40
1.0
 40
1.0
 40
1.0
 40
1.0
 10
8385.34604043359
 20
5622.899617796479
 30
0.0
 10
8385.126819914165
 20
5622.380514561951
 30
0.0
 10
8384.845709374742
 20
5621.858209999952
 30
0.0
 10
8384.210021490939
 20
5620.827970758612
 30
0.0
 10
8383.855151510605
 20
5620.320136562801
 30
0.0
 10
8383.10259442882
 20
5619.340382704158
 30
0.0
 10
8382.704248561882
 20
5618.867994125698
 30
0.0
 10
8381.885615859548
 20
5617.981522631612
 30
0.0
 10
8381.465654832447
 20
5617.567839339521
 30
0.0
 10
8380.190480764742
 20
5616.438933685591
 30
0.0
 10
8379.321497198733
 20
5615.837274247902
 30
0.0
 10
8378.009724528456
 20
5615.224311182398
 30
0.0
 10
8377.570603827538
 20
5615.067864374155
 30
0.0
 10
8376.908765368775
 20
5614.910160377221
 30
0.0
 10
8376.687613907437
 20
5614.870404823519
 30
0.0
 10
8376.354953646569
 20
5614.830506055127
 30
0.0
 10
8376.243910997095
 20
5614.820494712432
 30
0.0
 10
8376.021489702334
 20
5614.807124312301
 30
0.0
 10
8375.909452630514
 20
5614.803766788929
 30
0.0
 10
8375.798627771537
 20
5614.803766788929
 30
0.0
  0
LINE
  5
2A6
330
1F
100
AcDbEntity
  8
0
  6
SLD-Plná
 62
     7
370
    25
100
AcDbLine
 10
8375.7986277715
 20
5614.8037667889
 30
0.0
 11
8375.7986277715
 21
5684.8037667889
 31
0.0
  0
SPLINE
  5
2A7
330
1F
100
AcDbEntity
  8
0
  6
SLD-Plná
 62
     7
370
    25
100
AcDbSpline
210
0.0
220
0.0
230
1.0
 70
     8
 71
     3
 72
    20
 73
    16
 74
     0
 42
0.00000001
 43
0.00000001
 40
0.0
 40
0.0
 40
0.0
 40
0.0
 40
0.1250000000000005
 40
0.1250000000000005
 40
0.2500000000000011
 40
0.2500000000000011
 40
0.3750000000000016
 40
0.3750000000000016
 40
0.5000000000000021
 40
0.5000000000000021
 40
0.7499999999999987
 40
0.7499999999999987
 40
0.8749999999999993
 40
0.8749999999999993
 40
1.0
 40
1.0
 40
1.0
 40
1.0
 10
8385.34604043359
 20
5676.707915781381
 30
0.0
 10
8385.127559250723
 20
5677.225268303887
 30
0.0
 10
8384.846723880393
 20
5677.747425121104
 30
0.0
 10
8384.21255038992
 20
5678.775717175903
 30
0.0
 10
8383.85878851839
 20
5679.282242955828
 30
0.0
 10
8383.109073122352
 20
5680.259129690007
 30
0.0
 10
8382.712953373786
 20
5680.729438988356
 30
0.0
 10
8381.896786087349
 20
5681.61457313777
 30
0.0
 10
8381.476049324978
 20
5682.029876335271
 30
0.0
 10
8380.197362933377
 20
5683.163718782788
 30
0.0
 10
8379.325995528376
 20
5683.767814112606
 30
0.0
 10
8378.010929872271
 20
5684.382830111416
 30
0.0
 10
8377.570751549012
 20
5684.539701814821
 30
0.0
 10
8376.68627254743
 20
5684.750321226261
 30
0.0
 10
8376.241777874608
 20
5684.803766788929
 30
0.0
 10
8375.798627771537
 20
5684.803766788929
 30
0.0
  0
SPLINE
  5
2A8
330
1F
100
AcDbEntity
  8
0
  6
SLD-Plná
 62
     7
370
    25
100
AcDbSpline
210
0.0
220
0.0
230
1.0
 70
     8
 71
     3
 72
    12
 73
     8
 74
     0
 42
0.00000001
 43
0.00000001
 40
0.0
 40
0.0
 40
0.0
 40
0.0
 40
0.4999999999999898
 40
0.4999999999999898
 40
0.7499999999999949
 40
0.7499999999999949
 40
1.0
 40
1.0
 40
1.0
 40
1.0
 10
8385.798627771537
 20
5673.373992828481
 30
0.0
 10
8385.798627771537
 20
5674.063957052823
 30
0.0
 10
8385.77072970125
 20
5674.688279467725
 30
0.0
 10
8385.666571181493
 20
5675.524118726777
 30
0.0
 10
8385.62137320411
 20
5675.785896784069
 30
0.0
 10
8385.50476268549
 20
5676.274561292345
 30
0.0
 10
8385.433301711955
 20
5676.501285435058
 30
0.0
 10
8385.34604043359
 20
5676.707915781381
 30
0.0
  0
ARC
  5
2A9
330
1F
100
AcDbEntity
  8
0
  6
SLD-Plná
 62
     7
370
    25
100
AcDbCircle
 10
8633.5995057623
 20
5675.0032270487
 30
0.0
 40
9.801094683701011
100
AcDbArc
 50
10.0163037448
 51
89.3902851817
  0
LINE
  5
2AA
330
1F
100
AcDbEntity
  8
0
  6
SLD-Plná
 62
     7
370
    25
100
AcDbLine
 10
8365.7986277715
 20
5604.8037667889
 30
0.0
 11
8365.7986277715
 21
5694.8037667889
 31
0.0
  0
ARC
  5
2AB
330
1F
100
AcDbEntity
  8
0
  6
SLD-Plná
 62
     7
370
    25
100
AcDbCircle
 10
8394.9977497808
 20
5675.0032270487
 30
0.0
 40
9.801094683702456
100
AcDbArc
 50
90.6097148183
 51
169.9836962552
  0
LINE
  5
2AC
330
1F
100
AcDbEntity
  8
0
  6
SLD-Plná
 62
     7
370
    25
100
AcDbLine
 10
8662.7986277715
 20
5694.8037667889
 30
0.0
 11
8662.7986277715
 21
5604.8037667889
 31
0.0
  0
ARC
  5
2AD
330
1F
100
AcDbEntity
  8
0
  6
SLD-Plná
 62
     7
370
    25
100
AcDbCircle
 10
8394.9977497808
 20
5624.6043065292
 30
0.0
 40
9.801094683705616
100
AcDbArc
 50
190.0163037448
 51
269.3902851817
  0
ARC
  5
2AE
330
1F
100
AcDbEntity
  8
0
  6
SLD-Plná
 62
     7
370
    25
100
AcDbCircle
 10
8633.5995057623
 20
5624.6043065292
 30
0.0
 40
9.801094683705616
100
AcDbArc
 50
270.6097148183
 51
349.9836962552
  0
SPLINE
  5
2AF
330
1F
100
AcDbEntity
  8
0
  6
SLD-Plná
 62
     7
370
    25
100
AcDbSpline
210
0.0
220
0.0
230
1.0
 70
     8
 71
     3
 72
    12
 73
     8
 74
     0
 42
0.00000001
 43
0.00000001
 40
0.0
 40
0.0
 40
0.0
 40
0.0
 40
0.4999999999999998
 40
0.4999999999999998
 40
0.7499999999999999
 40
0.7499999999999999
 40
1.0
 40
1.0
 40
1.0
 40
1.0
 10
8633.703802447435
 20
5614.803766788929
 30
0.0
 10
8633.365957851882
 20
5614.803766788929
 30
0.0
 10
8633.143643784364
 20
5614.970140791207
 30
0.0
 10
8632.930490787887
 20
5615.468674696681
 30
0.0
 10
8632.879860348174
 20
5615.676533180615
 30
0.0
 10
8632.813852711419
 20
5616.177931545026
 30
0.0
 10
8632.798627771537
 20
5616.471532874198
 30
0.0
 10
8632.798627771537
 20
5616.805450333557
 30
0.0
  0
SPLINE
  5
2B0
330
1F
100
AcDbEntity
  8
0
  6
SLD-Plná
 62
     7
370
    25
100
AcDbSpline
210
0.0
220
0.0
230
1.0
 70
     8
 71
     3
 72
    12
 73
     8
 74
     0
 42
0.00000001
 43
0.00000001
 40
0.0
 40
0.0
 40
0.0
 40
0.0
 40
0.2499999999999999
 40
0.2499999999999999
 40
0.4999999999999998
 40
0.4999999999999998
 40
1.0
 40
1.0
 40
1.0
 40
1.0
 10
8395.798627771537
 20
5616.805450333557
 30
0.0
 10
8395.798627771537
 20
5616.471532874198
 30
0.0
 10
8395.783402831656
 20
5616.177931545026
 30
0.0
 10
8395.717395194899
 20
5615.676533180615
 30
0.0
 10
8395.666764755188
 20
5615.468674696681
 30
0.0
 10
8395.45361175871
 20
5614.970140791207
 30
0.0
 10
8395.23129769119
 20
5614.803766788929
 30
0.0
 10
8394.89345309564
 20
5614.803766788929
 30
0.0
  0
LINE
  5
2B1
330
1F
100
AcDbEntity
  8
0
  6
SLD-Plná
 62
     7
370
    25
100
AcDbLine
 10
8395.7986277715
 20
5682.8020832443
 30
0.0
 11
8395.7986277715
 21
5616.8054503336
 31
0.0
  0
SPLINE
  5
2B2
330
1F
100
AcDbEntity
  8
0
  6
SLD-Plná
 62
     7
370
    25
100
AcDbSpline
210
0.0
220
0.0
230
1.0
 70
     8
 71
     3
 72
    12
 73
     8
 74
     0
 42
0.00000001
 43
0.00000001
 40
0.0
 40
0.0
 40
0.0
 40
0.0
 40
0.2499999999999966
 40
0.2499999999999966
 40
0.4999999999999931
 40
0.4999999999999931
 40
1.0
 40
1.0
 40
1.0
 40
1.0
 10
8394.89345309564
 20
5684.803766788929
 30
0.0
 10
8395.062318103637
 20
5684.803766788929
 30
0.0
 10
8395.203301422058
 20
5684.761678581046
 30
0.0
 10
8395.43546974541
 20
5684.593480615994
 30
0.0
 10
8395.526758064783
 20
5684.467774866671
 30
0.0
 10
8395.738887918398
 20
5683.967197027293
 30
0.0
 10
8395.798627771537
 20
5683.469740057163
 30
0.0
 10
8395.798627771537
 20
5682.802083244302
 30
0.0
  0
SPLINE
  5
2B3
330
1F
100
AcDbEntity
  8
0
  6
SLD-Plná
 62
     7
370
    25
100
AcDbSpline
210
0.0
220
0.0
230
1.0
 70
     8
 71
     3
 72
    12
 73
     8
 74
     0
 42
0.00000001
 43
0.00000001
 40
0.0
 40
0.0
 40
0.0
 40
0.0
 40
0.4999999999999931
 40
0.4999999999999931
 40
0.7499999999999966
 40
0.7499999999999966
 40
1.0
 40
1.0
 40
1.0
 40
1.0
 10
8632.798627771537
 20
5682.802083244302
 30
0.0
 10
8632.798627771537
 20
5683.469740057163
 30
0.0
 10
8632.858367624676
 20
5683.967197027293
 30
0.0
 10
8633.070497478291
 20
5684.467774866671
 30
0.0
 10
8633.161785797665
 20
5684.593480615994
 30
0.0
 10
8633.393954121017
 20
5684.761678581046
 30
0.0
 10
8633.534937439437
 20
5684.803766788929
 30
0.0
 10
8633.703802447433
 20
5684.803766788929
 30
0.0
  0
LINE
  5
2B4
330
1F
100
AcDbEntity
  8
0
  6
SLD-Plná
 62
     7
370
    25
100
AcDbLine
 10
8632.7986277715
 20
5616.8054503336
 30
0.0
 11
8632.7986277715
 21
5682.8020832443
 31
0.0
  0
SPLINE
  5
2B5
330
1F
100
AcDbEntity
  8
0
  6
SLD-Plná
 62
     7
370
    25
100
AcDbSpline
210
0.0
220
0.0
230
1.0
 70
    11
 71
     3
 72
    76
 73
    72
 74
     0
 42
0.00000001
 43
0.00000001
 40
0.0
 40
0.0
 40
0.0
 40
0.0
 40
0.0312500000000014
 40
0.0312500000000014
 40
0.0468750000000021
 40
0.0468750000000021
 40
0.0625000000000029
 40
0.0625000000000029
 40
0.0937500000000044
 40
0.0937500000000044
 40
0.1250000000000059
 40
0.1250000000000059
 40
0.1562500000000075
 40
0.1562500000000075
 40
0.187500000000009
 40
0.187500000000009
 40
0.2187500000000106
 40
0.2187500000000106
 40
0.2500000000000121
 40
0.2500000000000121
 40
0.2812500000000137
 40
0.2812500000000137
 40
0.3125000000000152
 40
0.3125000000000152
 40
0.3281250000000158
 40
0.3281250000000158
 40
0.3437500000000163
 40
0.3437500000000163
 40
0.3750000000000159
 40
0.3750000000000159
 40
0.4062500000000154
 40
0.4062500000000154
 40
0.4375000000000149
 40
0.4375000000000149
 40
0.4687500000000145
 40
0.4687500000000145
 40
0.500000000000014
 40
0.500000000000014
 40
0.5312500000000135
 40
0.5312500000000135
 40
0.5625000000000132
 40
0.5625000000000132
 40
0.5937500000000128
 40
0.5937500000000128
 40
0.6250000000000123
 40
0.6250000000000123
 40
0.656250000000012
 40
0.656250000000012
 40
0.6875000000000115
 40
0.6875000000000115
 40
0.7031250000000111
 40
0.7031250000000111
 40
0.7187500000000108
 40
0.7187500000000108
 40
0.7500000000000095
 40
0.7500000000000095
 40
0.7812500000000083
 40
0.7812500000000083
 40
0.8125000000000072
 40
0.8125000000000072
 40
0.843750000000006
 40
0.843750000000006
 40
0.8750000000000048
 40
0.8750000000000048
 40
0.9062500000000037
 40
0.9062500000000037
 40
0.9375000000000024
 40
0.9375000000000024
 40
0.9687500000000013
 40
0.9687500000000013
 40
1.0
 40
1.0
 40
1.0
 40
1.0
 10
8415.798627771535
 20
5654.803766788929
 30
0.0
 10
8415.46785026553
 20
5654.803766788929
 30
0.0
 10
8415.14268599483
 20
5654.771266897711
 30
0.0
 10
8414.66299514069
 20
5654.675821567362
 30
0.0
 10
8414.504450650042
 20
5654.636165639544
 30
0.0
 10
8414.190123174714
 20
5654.540821362736
 30
0.0
 10
8414.034005607959
 20
5654.484893590294
 30
0.0
 10
8413.580037468259
 20
5654.296562701134
 30
0.0
 10
8413.2930228004
 20
5654.142962135382
 30
0.0
 10
8412.749837180929
 20
5653.780140571747
 30
0.0
 10
8412.49298382318
 20
5653.569240798627
 30
0.0
 10
8412.032433469089
 20
5653.108590068204
 30
0.0
 10
8411.82561438568
 20
5652.857159234078
 30
0.0
 10
8411.460079246037
 20
5652.310764491396
 30
0.0
 10
8411.305009393682
 20
5652.020383947242
 30
0.0
 10
8411.05550410567
 20
5651.418937257528
 30
0.0
 10
8410.95928313195
 20
5651.1034120551
 30
0.0
 10
8410.830674764138
 20
5650.457813633469
 30
0.0
 10
8410.798812287325
 20
5650.133121858475
 30
0.0
 10
8410.798444838549
 20
5649.480038083603
 30
0.0
 10
8410.830999023032
 20
5649.148291342143
 30
0.0
 10
8410.958726768073
 20
5648.506715625335
 30
0.0
 10
8411.053227272676
 20
5648.194835661935
 30
0.0
 10
8411.241268602444
 20
5647.740432419424
 30
0.0
 10
8411.312139267598
 20
5647.590554131006
 30
0.0
 10
8411.466792873895
 20
5647.301348801314
 30
0.0
 10
8411.550734363553
 20
5647.161440211682
 30
0.0
 10
8411.821975269808
 20
5646.755457837042
 30
0.0
 10
8412.028901721817
 20
5646.502586515231
 30
0.0
 10
8412.494842954246
 20
5646.036323150277
 30
0.0
 10
8412.746891981093
 20
5645.829743937962
 30
0.0
 10
8413.28788016547
 20
5645.467628482403
 30
0.0
 10
8413.580345499813
 20
5645.310828673767
 30
0.0
 10
8414.185395899007
 20
5645.05984941305
 30
0.0
 10
8414.49703704801
 20
5644.965083082585
 30
0.0
 10
8415.138538160516
 20
5644.836747549281
 30
0.0
 10
8415.470211766951
 20
5644.803891901495
 30
0.0
 10
8416.123223088453
 20
5644.803642406247
 30
0.0
 10
8416.448026549668
 20
5644.835190426145
 30
0.0
 10
8417.094143459723
 20
5644.963301010978
 30
0.0
 10
8417.409392386367
 20
5645.059135719523
 30
0.0
 10
8418.01131611885
 20
5645.308202652267
 30
0.0
 10
8418.302580545043
 20
5645.46349168261
 30
0.0
 10
8418.84856887318
 20
5645.828137685631
 30
0.0
 10
8419.100135619467
 20
5646.034647171056
 30
0.0
 10
8419.56147769523
 20
5646.495114916106
 30
0.0
 10
8419.772667768071
 20
5646.751968996318
 30
0.0
 10
8420.135580648022
 20
5647.294323940767
 30
0.0
 10
8420.289445895334
 20
5647.581142257785
 30
0.0
 10
8420.478294273316
 20
5648.035265095689
 30
0.0
 10
8420.534363380577
 20
5648.191397817959
 30
0.0
 10
8420.629888860753
 20
5648.505367102733
 30
0.0
 10
8420.669664003033
 20
5648.663780871231
 30
0.0
 10
8420.765511756104
 20
5649.143228426463
 30
0.0
 10
8420.798340339574
 20
5649.46891466148
 30
0.0
 10
8420.79891147139
 20
5650.12997934423
 30
0.0
 10
8420.766739318547
 20
5650.455099176943
 30
0.0
 10
8420.640033478394
 20
5651.09495113085
 30
0.0
 10
8420.5438807307
 20
5651.413060573806
 30
0.0
 10
8420.293426680835
 20
5652.018272353937
 30
0.0
 10
8420.14009830105
 20
5652.305452512476
 30
0.0
 10
8419.77753466319
 20
5652.849271306341
 30
0.0
 10
8419.566936694106
 20
5653.106169780267
 30
0.0
 10
8419.106817724854
 20
5653.566996370801
 30
0.0
 10
8418.855515658415
 20
5653.774115168486
 30
0.0
 10
8418.30894333085
 20
5654.140418216085
 30
0.0
 10
8418.01923828285
 20
5654.295413511302
 30
0.0
 10
8417.418003203637
 20
5654.545456839056
 30
0.0
 10
8417.102472116754
 20
5654.642004982236
 30
0.0
 10
8416.456308042216
 20
5654.771262692631
 30
0.0
 10
8416.129405277543
 20
5654.803766788929
 30
0.0
 10
8415.798627771535
 20
5654.803766788929
 30
0.0
  0
ARC
  5
2B6
330
1F
100
AcDbEntity
  8
0
  6
SLD-Plná
 62
     7
370
    25
100
AcDbCircle
 10
8395.5208499938
 20
5673.079365003
 30
0.0
 40
9.726685483441873
100
AcDbArc
 50
88.3635064054
 51
178.2642069112
  0
ARC
  5
2B7
330
1F
100
AcDbEntity
  8
0
  6
SLD-Plná
 62
     7
370
    25
100
AcDbCircle
 10
8633.0764055493
 20
5673.079365003
 30
0.0
 40
9.72668548344188
100
AcDbArc
 50
1.7357930888
 51
91.6364935946
  0
ARC
  5
2B8
330
1F
100
AcDbEntity
  8
0
  6
SLD-Plná
 62
     7
370
    25
100
AcDbCircle
 10
8633.0764055493
 20
5626.5281685749
 30
0.0
 40
9.726685483444502
100
AcDbArc
 50
268.3635064054
 51
358.2642069111
  0
ARC
  5
2B9
330
1F
100
AcDbEntity
  8
0
  6
SLD-Plná
 62
     7
370
    25
100
AcDbCircle
 10
8395.5208499938
 20
5626.5281685749
 30
0.0
 40
9.726685483444502
100
AcDbArc
 50
181.7357930889
 51
271.6364935946
  0
SPLINE
  5
2BA
330
1F
100
AcDbEntity
  8
0
  6
SLD-Plná
 62
     7
370
    25
100
AcDbSpline
210
0.0
220
0.0
230
1.0
 70
     8
 71
     3
 72
    14
 73
    10
 74
     0
 42
0.00000001
 43
0.00000001
 40
0.0
 40
0.0
 40
0.0
 40
0.0
 40
0.1545196582254719
 40
0.3086978846854316
 40
0.4621341198532505
 40
0.6143660242683219
 40
0.7651098596969043
 40
0.9143006685945614
 40
1.0
 40
1.0
 40
1.0
 40
1.0
 10
8408.743561890175
 20
5581.185959884921
 30
0.0
 10
8408.66638646019
 20
5580.575093545029
 30
0.0
 10
8408.512206129613
 20
5579.354710655785
 30
0.0
 10
8408.372000841573
 20
5577.694286753432
 30
0.0
 10
8408.305781903247
 20
5576.235001055674
 30
0.0
 10
8408.3214679851
 20
5575.030201353686
 30
0.0
 10
8408.420357446406
 20
5574.138234799875
 30
0.0
 10
8408.562482564212
 20
5573.602303819834
 30
0.0
 10
8408.697166604336
 20
5573.513581031706
 30
0.0
 10
8408.746305883553
 20
5573.48121064948
 30
0.0
  0
SPLINE
  5
2BB
330
1F
100
AcDbEntity
  8
0
  6
SLD-Plná
 62
     7
370
    25
100
AcDbSpline
210
0.0
220
0.0
230
1.0
 70
     8
 71
     3
 72
    14
 73
    10
 74
     0
 42
0.00000001
 43
0.00000001
 40
0.0
 40
0.0
 40
0.0
 40
0.0
 40
0.0856990098241303
 40
0.2348898712961364
 40
0.3856337598465111
 40
0.5378657179076226
 40
0.691302007145963
 40
0.8454802876299845
 40
1.0
 40
1.0
 40
1.0
 40
1.0
 10
8619.85095023839
 20
5573.481211178199
 30
0.0
 10
8619.900089310642
 20
5573.513581453509
 30
0.0
 10
8620.034773134654
 20
5573.602304179905
 30
0.0
 10
8620.176898088126
 20
5574.138234842425
 30
0.0
 10
8620.275787560386
 20
5575.030201342111
 30
0.0
 10
8620.291473639263
 20
5576.235001058813
 30
0.0
 10
8620.225254701787
 20
5577.694286751615
 30
0.0
 10
8620.085049413796
 20
5579.354710652592
 30
0.0
 10
8619.930869083706
 20
5580.575093539022
 30
0.0
 10
8619.853693653966
 20
5581.185959877509
 30
0.0
  0
SPLINE
  5
2BC
330
1F
100
AcDbEntity
  8
0
  6
SLD-Plná
 62
     7
370
    25
100
AcDbSpline
210
0.0
220
0.0
230
1.0
 70
     8
 71
     3
 72
    18
 73
    14
 74
     0
 42
0.00000001
 43
0.00000001
 40
0.0
 40
0.0
 40
0.0
 40
0.0
 40
0.0501820953619314
 40
0.144983208885468
 40
0.2397786529340048
 40
0.3345818113213551
 40
0.4294012012948087
 40
0.5242661705321269
 40
0.6192064034442154
 40
0.7142353328559063
 40
0.8093761681487883
 40
0.9046333014074097
 40
1.0
 40
1.0
 40
1.0
 40
1.0
 10
8661.953525172765
 20
5592.318634070575
 30
0.0
 10
8661.78642073321
 20
5592.21121152205
 30
0.0
 10
8661.30363224678
 20
5591.900852504961
 30
0.0
 10
8659.753486774576
 20
5591.193292750803
 30
0.0
 10
8657.382948556118
 20
5590.237796998333
 30
0.0
 10
8654.346611028543
 20
5589.150004831424
 30
0.0
 10
8650.730962182666
 20
5587.977982949338
 30
0.0
 10
8646.573827999475
 20
5586.754693508722
 30
0.0
 10
8641.93364726277
 20
5585.518323006534
 30
0.0
 10
8636.871990272251
 20
5584.307418683909
 30
0.0
 10
8631.456767732843
 20
5583.15958067087
 30
0.0
 10
8625.77152743916
 20
5582.093433832396
 30
0.0
 10
8621.827033010357
 20
5581.488603621566
 30
0.0
 10
8619.853652202519
 20
5581.186014696268
 30
0.0
  0
SPLINE
  5
2BD
330
1F
100
AcDbEntity
  8
0
  6
SLD-Plná
 62
     7
370
    25
100
AcDbSpline
210
0.0
220
0.0
230
1.0
 70
     8
 71
     3
 72
    18
 73
    14
 74
     0
 42
0.00000001
 43
0.00000001
 40
0.0
 40
0.0
 40
0.0
 40
0.0
 40
0.0953827084004726
 40
0.1906558330735568
 40
0.2858126402572292
 40
0.3808575227733688
 40
0.4758136938998629
 40
0.5706945887165974
 40
0.6655298966177904
 40
0.7603489702079853
 40
0.8551603281643052
 40
0.9499773565473971
 40
1.0
 40
1.0
 40
1.0
 40
1.0
 10
8408.743603340627
 20
5581.186014696267
 30
0.0
 10
8406.770222533338
 20
5581.488603621423
 30
0.0
 10
8402.825728105629
 20
5582.093433831971
 30
0.0
 10
8397.140487803732
 20
5583.159580672568
 30
0.0
 10
8391.725265295487
 20
5584.307418677552
 30
0.0
 10
8386.663608188715
 20
5585.518323030224
 30
0.0
 10
8382.023427885302
 20
5586.754693420426
 30
0.0
 10
8377.866292086825
 20
5587.977983278517
 30
0.0
 10
8374.250649265197
 20
5589.150003603621
 30
0.0
 10
8371.214289261234
 20
5590.237801579602
 30
0.0
 10
8368.843834918269
 20
5591.193275654267
 30
0.0
 10
8367.294510824298
 20
5591.900408272627
 30
0.0
 10
8366.812172393995
 20
5592.210436122931
 30
0.0
 10
8366.64558928167
 20
5592.317509084501
 30
0.0
  0
LINE
  5
2BE
330
1F
100
AcDbEntity
  8
0
  6
SLD-Plná
 62
     7
370
    25
100
AcDbLine
 10
8512.3028917277
 20
5614.0638716981
 30
0.0
 11
8512.3028917277
 21
5614.1942790553
 31
0.0
  0
LINE
  5
2BF
330
1F
100
AcDbEntity
  8
0
  6
SLD-Plná
 62
     7
370
    25
100
AcDbLine
 10
8516.2947387476
 20
5614.0638396871
 30
0.0
 11
8516.2947387476
 21
5614.1942790553
 31
0.0
  0
LINE
  5
2C0
330
1F
100
AcDbEntity
  8
0
  6
SLD-Plná
 62
     7
370
    25
100
AcDbLine
 10
8491.8482694849
 20
5614.0992075514
 30
0.0
 11
8491.8482694849
 21
5614.2255969717
 31
0.0
  0
LINE
  5
2C1
330
1F
100
AcDbEntity
  8
0
  6
SLD-Plná
 62
     7
370
    25
100
AcDbLine
 10
8536.7493609904
 20
5614.0989875148
 30
0.0
 11
8536.7493609904
 21
5614.2255969717
 31
0.0
  0
LINE
  5
2C2
330
1F
100
AcDbEntity
  8
0
  6
SLD-Plná
 62
     7
370
    25
100
AcDbLine
 10
8556.6641457824
 20
5614.1848698829
 30
0.0
 11
8556.6641457824
 21
5614.3027774201
 31
0.0
  0
LINE
  5
2C3
330
1F
100
AcDbEntity
  8
0
  6
SLD-Plná
 62
     7
370
    25
100
AcDbLine
 10
8471.9334846929
 20
5614.1851747881
 30
0.0
 11
8471.9334846929
 21
5614.3027774201
 31
0.0
  0
LINE
  5
2C4
330
1F
100
AcDbEntity
  8
0
  6
SLD-Plná
 62
     7
370
    25
100
AcDbLine
 10
8452.089096957
 20
5614.3111751746
 30
0.0
 11
8452.089096957
 21
5614.415694595
 31
0.0
  0
LINE
  5
2C5
330
1F
100
AcDbEntity
  8
0
  6
SLD-Plná
 62
     7
370
    25
100
AcDbLine
 10
8576.5085335183
 20
5614.311711468
 30
0.0
 11
8576.5085335183
 21
5614.415694595
 31
0.0
  0
LINE
  5
2C6
330
1F
100
AcDbEntity
  8
0
  6
SLD-Plná
 62
     7
370
    25
100
AcDbLine
 10
8596.2495385411
 20
5614.4627546641
 30
0.0
 11
8596.2495385411
 21
5614.5478267055
 31
0.0
  0
LINE
  5
2C7
330
1F
100
AcDbEntity
  8
0
  6
SLD-Plná
 62
     7
370
    25
100
AcDbLine
 10
8432.3480919342
 20
5614.4625310821
 30
0.0
 11
8432.3480919342
 21
5614.5478267055
 31
0.0
  0
LINE
  5
2C8
330
1F
100
AcDbEntity
  8
0
  6
SLD-Plná
 62
     7
370
    25
100
AcDbLine
 10
8615.8546181899
 20
5614.6148510552
 30
0.0
 11
8615.8546181899
 21
5614.676485499
 31
0.0
  0
LINE
  5
2C9
330
1F
100
AcDbEntity
  8
0
  6
SLD-Plná
 62
     7
370
    25
100
AcDbLine
 10
8412.7430122854
 20
5614.6151210657
 30
0.0
 11
8412.7430122854
 21
5614.676485499
 31
0.0
  0
ARC
  5
2CA
330
1F
100
AcDbEntity
  8
0
  6
SLD-Plná
 62
     7
370
    25
100
AcDbCircle
 10
8511.7692669853
 20
5641.051470994
 30
0.0
 40
30.83987654844559
100
AcDbArc
 50
261.6085905717
 51
270.9389086225
  0
ARC
  5
2CB
330
1F
100
AcDbEntity
  8
0
  6
SLD-Plná
 62
     7
370
    25
100
AcDbCircle
 10
8516.8050269591
 20
5641.7581099988
 30
0.0
 40
31.54605759611812
100
AcDbArc
 50
269.1245016901
 51
278.0506954826
  0
LWPOLYLINE
  5
2CC
330
1F
100
AcDbEntity
  8
0
  6
SLD-Plná
 62
     7
370
    25
100
AcDbPolyline
 90
        9
 70
   128
 43
0.0
 10
8516.3189788785
 20
5611.328029522
 10
8517.7268134391
 20
5611.3529019259
 10
8519.018960078
 20
5611.4241469251
 10
8520.0907367593
 20
5611.5359926735
 10
8520.8553145103
 20
5611.6793780937
 10
8521.2507517888
 20
5611.8426869517
 10
8521.2450126182
 20
5612.0126889351
 10
8520.838561952
 20
5612.1756114941
 10
8520.7547734856
 20
5612.1962457284
  0
LINE
  5
2CD
330
1F
100
AcDbEntity
  8
0
  6
SLD-Plná
 62
     7
370
    25
100
AcDbLine
 10
8512.2746188686
 20
5610.0987606903
 30
0.0
 11
8512.2746188686
 21
5610.2157351507
 31
0.0
  0
LINE
  5
2CE
330
1F
100
AcDbEntity
  8
0
  6
SLD-Plná
 62
     7
370
    25
100
AcDbLine
 10
8516.3230116067
 20
5610.0987606903
 30
0.0
 11
8516.3230116067
 21
5610.2157351507
 31
0.0
  0
LWPOLYLINE
  5
2CF
330
1F
100
AcDbEntity
  8
0
  6
SLD-Plná
 62
     7
370
    25
100
AcDbPolyline
 90
        8
 70
   128
 43
0.0
 10
8568.8172442976
 20
5613.0423459672
 10
8567.4397853588
 20
5612.999615132
 10
8566.2189024263
 20
5612.9122573726
 10
8565.2535041746
 20
5612.7873498953
 10
8564.6218014285
 20
5612.6350119611
 10
8564.3749709877
 20
5612.4675850832
 10
8564.5330095865
 20
5612.2986331917
 10
8564.9023631954
 20
5612.1811695264
  0
ARC
  5
2D0
330
1F
100
AcDbEntity
  8
0
  6
SLD-Plná
 62
     7
370
    25
100
AcDbCircle
 10
8568.7932740248
 20
5637.4238808298
 30
0.0
 40
26.70931715199338
100
AcDbArc
 50
259.3279915037
 51
272.6727768602
  0
LINE
  5
2D1
330
1F
100
AcDbEntity
  8
0
  6
SLD-Plná
 62
     7
370
    25
100
AcDbLine
 10
8570.0387786139
 20
5610.6167327875
 30
0.0
 11
8570.0387786139
 21
5610.7436195671
 31
0.0
  0
LINE
  5
2D2
330
1F
100
AcDbEntity
  8
0
  6
SLD-Plná
 62
     7
370
    25
100
AcDbLine
 10
8574.060286259
 20
5610.6919384741
 30
0.0
 11
8574.060286259
 21
5610.7992608576
 31
0.0
  0
ARC
  5
2D3
330
1F
100
AcDbEntity
  8
0
  6
SLD-Plná
 62
     7
370
    25
100
AcDbCircle
 10
8574.5538876771
 20
5632.2832817011
 30
0.0
 40
21.4896904110614
100
AcDbArc
 50
268.6838449104
 51
281.5986294453
  0
ARC
  5
2D4
330
1F
100
AcDbEntity
  8
0
  6
SLD-Plná
 62
     7
370
    25
100
AcDbCircle
 10
8459.6666173995
 20
5640.032862164
 30
0.0
 40
29.31018463906355
100
AcDbArc
 50
267.8340153435
 51
279.7820924163
  0
LINE
  5
2D5
330
1F
100
AcDbEntity
  8
0
  6
SLD-Plná
 62
     7
370
    25
100
AcDbLine
 10
8458.5588518614
 20
5610.6167327875
 30
0.0
 11
8458.5588518614
 21
5610.7436187616
 31
0.0
  0
LINE
  5
2D6
330
1F
100
AcDbEntity
  8
0
  6
SLD-Plná
 62
     7
370
    25
100
AcDbLine
 10
8454.5373442163
 20
5610.6919384741
 30
0.0
 11
8454.5373442163
 21
5610.7992600521
 31
0.0
  0
ARC
  5
2D7
330
1F
100
AcDbEntity
  8
0
  6
SLD-Plná
 62
     7
370
    25
100
AcDbCircle
 10
8454.253698678
 20
5635.1633358285
 30
0.0
 40
24.36572681507216
100
AcDbArc
 50
259.5890474256
 51
270.6670049054
  0
ENDSEC
  0
SECTION
  2
OBJECTS
  0
DICTIONARY
  5
C
330
0
100
AcDbDictionary
281
     1
  3
ACAD_GROUP
350
D
  3
ACAD_LAYOUT
350
1A
  3
ACAD_MLINESTYLE
350
17
  3
ACAD_PLOTSETTINGS
350
19
  3
ACAD_PLOTSTYLENAME
350
E
  3
ACAD_SCALELIST
350
47
  3
DWGPROPS
350
2D8
  0
DICTIONARY
  5
D
102
{ACAD_REACTORS
330
C
102
}
330
C
100
AcDbDictionary
281
     1
  0
DICTIONARY
  5
1A
102
{ACAD_REACTORS
330
C
102
}
330
C
100
AcDbDictionary
281
     1
  3
Layout1
350
1E
  3
Layout2
350
26
  3
Model
350
22
  0
DICTIONARY
  5
17
102
{ACAD_REACTORS
330
C
102
}
330
C
100
AcDbDictionary
281
     1
  3
Standard
350
18
  0
DICTIONARY
  5
19
102
{ACAD_REACTORS
330
C
102
}
330
C
100
AcDbDictionary
281
     1
  0
ACDBDICTIONARYWDFLT
  5
E
102
{ACAD_REACTORS
330
C
102
}
330
C
100
AcDbDictionary
281
     1
  3
Normal
350
F
100
AcDbDictionaryWithDefault
340
F
  0
DICTIONARY
  5
47
102
{ACAD_REACTORS
330
C
102
}
330
C
100
AcDbDictionary
281
     1
  3
A0
350
48
  3
A1
350
49
  3
A2
350
4A
  3
A3
350
4B
  3
A4
350
4C
  3
A5
350
4D
  3
A6
350
4E
  3
A7
350
4F
  3
A8
350
50
  3
A9
350
51
  3
B0
350
52
  3
B1
350
53
  3
B2
350
54
  3
B3
350
55
  3
B4
350
56
  3
B5
350
57
  3
B6
350
58
  0
XRECORD
  5
2D8
102
{ACAD_REACTORS
330
C
102
}
330
C
100
AcDbXrecord
280
     1
  1
DWGPROPS COOKIE
  2

  3

  4

  6

  7

  8
radek.stransky
  9

300
=
301
=
302
=
303
=
304
=
305
=
306
=
307
=
308
=
309
=
 40
0.0
 41
2460969.21018397
 42
2460969.210185891
  1

 90
        0
  0
LAYOUT
  5
1E
102
{ACAD_REACTORS
330
1A
102
}
330
1A
100
AcDbPlotSettings
  1

  2
none_device
  4

  6

 40
0.0
 41
0.0
 42
0.0
 43
0.0
 44
0.0
 45
0.0
 46
0.0
 47
0.0
 48
0.0
 49
0.0
140
0.0
141
0.0
142
1.0
143
1.0
 70
   688
 72
     1
 73
     0
 74
     5
  7

 75
    16
147
1.0
148
0.0
149
0.0
100
AcDbLayout
  1
Layout1
 70
     1
 71
     1
 10
0.0
 20
0.0
 11
420.0
 21
297.0
 12
0.0
 22
0.0
 32
0.0
 14
1.0000000000E+20
 24
1.0000000000E+20
 34
1.0000000000E+20
 15
-1.0000000000E+20
 25
-1.0000000000E+20
 35
-1.0000000000E+20
146
0.0
 13
0.0
 23
0.0
 33
0.0
 16
1.0
 26
0.0
 36
0.0
 17
0.0
 27
1.0
 37
0.0
 76
     0
330
1B
  0
LAYOUT
  5
26
102
{ACAD_REACTORS
330
1A
102
}
330
1A
100
AcDbPlotSettings
  1

  2
none_device
  4

  6

 40
0.0
 41
0.0
 42
0.0
 43
0.0
 44
0.0
 45
0.0
 46
0.0
 47
0.0
 48
0.0
 49
0.0
140
0.0
141
0.0
142
1.0
143
1.0
 70
   688
 72
     1
 73
     0
 74
     5
  7

 75
    16
147
1.0
148
0.0
149
0.0
100
AcDbLayout
  1
Layout2
 70
     1
 71
     2
 10
0.0
 20
0.0
 11
0.0
 21
0.0
 12
0.0
 22
0.0
 32
0.0
 14
0.0
 24
0.0
 34
0.0
 15
0.0
 25
0.0
 35
0.0
146
0.0
 13
0.0
 23
0.0
 33
0.0
 16
1.0
 26
0.0
 36
0.0
 17
0.0
 27
1.0
 37
0.0
 76
     0
330
23
  0
LAYOUT
  5
22
102
{ACAD_REACTORS
330
1A
102
}
330
1A
100
AcDbPlotSettings
  1

  2
none_device
  4
Letter_(8.50_x_11.00_Inches)
  6

 40
6.35
 41
6.35
 42
6.35000508
 43
6.35000508
 44
215.9
 45
279.4
 46
0.0
 47
0.0
 48
0.0
 49
0.0
140
0.0
141
0.0
142
1.0
143
1.0
 70
  1712
 72
     1
 73
     0
 74
     0
  7

 75
     0
147
1.0
148
0.0
149
0.0
100
AcDbLayout
  1
Model
 70
     1
 71
     0
 10
0.0
 20
0.0
 11
20000.0
 21
10000.0
 12
0.0
 22
0.0
 32
0.0
 14
0.0
 24
0.0
 34
0.0
 15
20000.0
 25
10000.0
 35
0.0
146
0.0
 13
0.0
 23
0.0
 33
0.0
 16
1.0
 26
0.0
 36
0.0
 17
0.0
 27
1.0
 37
0.0
 76
     0
330
1F
331
29
  0
MLINESTYLE
  5
18
102
{ACAD_REACTORS
330
17
102
}
330
17
100
AcDbMlineStyle
  2
Standard
 70
     0
  3

 62
   256
 51
90.0
 52
90.0
 71
     2
 49
0.5
 62
   256
  6
BYLAYER
 49
-0.5
 62
   256
  6
BYLAYER
  0
ACDBPLACEHOLDER
  5
F
102
{ACAD_REACTORS
330
E
102
}
330
E
  0
SCALE
  5
48
102
{ACAD_REACTORS
330
47
102
}
330
47
100
AcDbScale
 70
     0
300
1:1
140
1.0
141
1.0
290
     1
  0
SCALE
  5
49
102
{ACAD_REACTORS
330
47
102
}
330
47
100
AcDbScale
 70
     0
300
1:2
140
1.0
141
2.0
290
     0
  0
SCALE
  5
4A
102
{ACAD_REACTORS
330
47
102
}
330
47
100
AcDbScale
 70
     0
300
1:4
140
1.0
141
4.0
290
     0
  0
SCALE
  5
4B
102
{ACAD_REACTORS
330
47
102
}
330
47
100
AcDbScale
 70
     0
300
1:5
140
1.0
141
5.0
290
     0
  0
SCALE
  5
4C
102
{ACAD_REACTORS
330
47
102
}
330
47
100
AcDbScale
 70
     0
300
1:8
140
1.0
141
8.0
290
     0
  0
SCALE
  5
4D
102
{ACAD_REACTORS
330
47
102
}
330
47
100
AcDbScale
 70
     0
300
1:10
140
1.0
141
10.0
290
     0
  0
SCALE
  5
4E
102
{ACAD_REACTORS
330
47
102
}
330
47
100
AcDbScale
 70
     0
300
1:16
140
1.0
141
16.0
290
     0
  0
SCALE
  5
4F
102
{ACAD_REACTORS
330
47
102
}
330
47
100
AcDbScale
 70
     0
300
1:20
140
1.0
141
20.0
290
     0
  0
SCALE
  5
50
102
{ACAD_REACTORS
330
47
102
}
330
47
100
AcDbScale
 70
     0
300
1:30
140
1.0
141
30.0
290
     0
  0
SCALE
  5
51
102
{ACAD_REACTORS
330
47
102
}
330
47
100
AcDbScale
 70
     0
300
1:40
140
1.0
141
40.0
290
     0
  0
SCALE
  5
52
102
{ACAD_REACTORS
330
47
102
}
330
47
100
AcDbScale
 70
     0
300
1:50
140
1.0
141
50.0
290
     0
  0
SCALE
  5
53
102
{ACAD_REACTORS
330
47
102
}
330
47
100
AcDbScale
 70
     0
300
1:100
140
1.0
141
100.0
290
     0
  0
SCALE
  5
54
102
{ACAD_REACTORS
330
47
102
}
330
47
100
AcDbScale
 70
     0
300
2:1
140
2.0
141
1.0
290
     0
  0
SCALE
  5
55
102
{ACAD_REACTORS
330
47
102
}
330
47
100
AcDbScale
 70
     0
300
4:1
140
4.0
141
1.0
290
     0
  0
SCALE
  5
56
102
{ACAD_REACTORS
330
47
102
}
330
47
100
AcDbScale
 70
     0
300
8:1
140
8.0
141
1.0
290
     0
  0
SCALE
  5
57
102
{ACAD_REACTORS
330
47
102
}
330
47
100
AcDbScale
 70
     0
300
10:1
140
10.0
141
1.0
290
     0
  0
SCALE
  5
58
102
{ACAD_REACTORS
330
47
102
}
330
47
100
AcDbScale
 70
     0
300
100:1
140
100.0
141
1.0
290
     0
  0
ENDSEC
  0
EOF
