  0
SECTION
  2
HEADER
  9
$ACADVER
  1
AC1015
  9
$ACADMAINTVER
 70
     6
  9
$DWGCODEPAGE
  3
ANSI_1250
  9
$INSBASE
 10
0.0
 20
0.0
 30
0.0
  9
$EXTMIN
 10
0.0
 20
0.0
 30
0.0
  9
$EXTMAX
 10
20000.0
 20
10000.0
 30
0.0
  9
$LIMMIN
 10
0.0
 20
0.0
  9
$LIMMAX
 10
20000.0
 20
10000.0
  9
$ORTHOMODE
 70
     0
  9
$REGENMODE
 70
     1
  9
$FILLMODE
 70
     1
  9
$QTEXTMODE
 70
     0
  9
$MIRRTEXT
 70
     1
  9
$LTSCALE
 40
1.0
  9
$ATTMODE
 70
     1
  9
$TEXTSIZE
 40
2.0
  9
$TRACEWID
 40
1.0
  9
$TEXTSTYLE
  7
Standard
  9
$CLAYER
  8
0
  9
$CELTYPE
  6
ByLayer
  9
$CECOLOR
 62
   256
  9
$CELTSCALE
 40
1.0
  9
$DISPSILH
 70
     0
  9
$DIMSCALE
 40
1.0
  9
$DIMASZ
 40
2.0
  9
$DIMEXO
 40
1.0
  9
$DIMDLI
 40
3.75
  9
$DIMRND
 40
0.0
  9
$DIMDLE
 40
0.0
  9
$DIMEXE
 40
1.0
  9
$DIMTP
 40
0.0
  9
$DIMTM
 40
0.0
  9
$DIMTXT
 40
2.0
  9
$DIMCEN
 40
2.5
  9
$DIMTSZ
 40
0.0
  9
$DIMTOL
 70
     0
  9
$DIMLIM
 70
     0
  9
$DIMTIH
 70
     1
  9
$DIMTOH
 70
     1
  9
$DIMSE1
 70
     0
  9
$DIMSE2
 70
     0
  9
$DIMTAD
 70
     1
  9
$DIMZIN
 70
     0
  9
$DIMBLK
  1

  9
$DIMASO
 70
     1
  9
$DIMSHO
 70
     1
  9
$DIMPOST
  1

  9
$DIMAPOST
  1

  9
$DIMALT
 70
     0
  9
$DIMALTD
 70
     3
  9
$DIMALTF
 40
0.0393700787
  9
$DIMLFAC
 40
1.0
  9
$DIMTOFL
 70
     1
  9
$DIMTVP
 40
0.0
  9
$DIMTIX
 70
     0
  9
$DIMSOXD
 70
     0
  9
$DIMSAH
 70
     0
  9
$DIMBLK1
  1

  9
$DIMBLK2
  1

  9
$DIMSTYLE
  2
ISO-25
  9
$DIMCLRD
 70
     0
  9
$DIMCLRE
 70
     0
  9
$DIMCLRT
 70
     0
  9
$DIMTFAC
 40
1.0
  9
$DIMGAP
 40
1.524
  9
$DIMJUST
 70
     0
  9
$DIMSD1
 70
     0
  9
$DIMSD2
 70
     0
  9
$DIMTOLJ
 70
     0
  9
$DIMTZIN
 70
     0
  9
$DIMALTZ
 70
     0
  9
$DIMALTTZ
 70
     0
  9
$DIMUPT
 70
     0
  9
$DIMDEC
 70
     2
  9
$DIMTDEC
 70
     0
  9
$DIMALTU
 70
     2
  9
$DIMALTTD
 70
     3
  9
$DIMTXSTY
  7
Standard
  9
$DIMAUNIT
 70
     0
  9
$DIMADEC
 70
     2
  9
$DIMALTRND
 40
0.0
  9
$DIMAZIN
 70
     0
  9
$DIMDSEP
 70
    44
  9
$DIMATFIT
 70
     3
  9
$DIMFRAC
 70
     0
  9
$DIMLDRBLK
  1

  9
$DIMLUNIT
 70
     2
  9
$DIMLWD
 70
    -2
  9
$DIMLWE
 70
    -2
  9
$DIMTMOVE
 70
     0
  9
$LUNITS
 70
     2
  9
$LUPREC
 70
     3
  9
$SKETCHINC
 40
1.0
  9
$FILLETRAD
 40
10.0
  9
$AUNITS
 70
     0
  9
$AUPREC
 70
     2
  9
$MENU
  1
.
  9
$ELEVATION
 40
0.0
  9
$PELEVATION
 40
0.0
  9
$THICKNESS
 40
0.0
  9
$LIMCHECK
 70
     0
  9
$CHAMFERA
 40
0.0
  9
$CHAMFERB
 40
0.0
  9
$CHAMFERC
 40
0.0
  9
$CHAMFERD
 40
0.0
  9
$SKPOLY
 70
     0
  9
$TDCREATE
 40
2459107.53399147
  9
$TDUCREATE
 40
2459107.450658137
  9
$TDUPDATE
 40
2459107.533992014
  9
$TDUUPDATE
 40
2459107.45065868
  9
$TDINDWG
 40
0.0000000116
  9
$TDUSRTIMER
 40
0.0000000116
  9
$USRTIMER
 70
     1
  9
$ANGBASE
 50
0.0
  9
$ANGDIR
 70
     0
  9
$PDMODE
 70
     0
  9
$PDSIZE
 40
-1.0
  9
$PLINEWID
 40
0.0
  9
$SPLFRAME
 70
     0
  9
$SPLINETYPE
 70
     6
  9
$SPLINESEGS
 70
     8
  9
$HANDSEED
  5
5BA
  9
$SURFTAB1
 70
     6
  9
$SURFTAB2
 70
     6
  9
$SURFTYPE
 70
     6
  9
$SURFU
 70
     6
  9
$SURFV
 70
     6
  9
$UCSBASE
  2

  9
$UCSNAME
  2

  9
$UCSORG
 10
0.0
 20
0.0
 30
0.0
  9
$UCSXDIR
 10
1.0
 20
0.0
 30
0.0
  9
$UCSYDIR
 10
0.0
 20
1.0
 30
0.0
  9
$UCSORTHOREF
  2

  9
$UCSORTHOVIEW
 70
     0
  9
$UCSORGTOP
 10
0.0
 20
0.0
 30
0.0
  9
$UCSORGBOTTOM
 10
0.0
 20
0.0
 30
0.0
  9
$UCSORGLEFT
 10
0.0
 20
0.0
 30
0.0
  9
$UCSORGRIGHT
 10
0.0
 20
0.0
 30
0.0
  9
$UCSORGFRONT
 10
0.0
 20
0.0
 30
0.0
  9
$UCSORGBACK
 10
0.0
 20
0.0
 30
0.0
  9
$PUCSBASE
  2

  9
$PUCSNAME
  2

  9
$PUCSORG
 10
0.0
 20
0.0
 30
0.0
  9
$PUCSXDIR
 10
1.0
 20
0.0
 30
0.0
  9
$PUCSYDIR
 10
0.0
 20
1.0
 30
0.0
  9
$PUCSORTHOREF
  2

  9
$PUCSORTHOVIEW
 70
     0
  9
$PUCSORGTOP
 10
0.0
 20
0.0
 30
0.0
  9
$PUCSORGBOTTOM
 10
0.0
 20
0.0
 30
0.0
  9
$PUCSORGLEFT
 10
0.0
 20
0.0
 30
0.0
  9
$PUCSORGRIGHT
 10
0.0
 20
0.0
 30
0.0
  9
$PUCSORGFRONT
 10
0.0
 20
0.0
 30
0.0
  9
$PUCSORGBACK
 10
0.0
 20
0.0
 30
0.0
  9
$USERI1
 70
     0
  9
$USERI2
 70
     0
  9
$USERI3
 70
     0
  9
$USERI4
 70
     0
  9
$USERI5
 70
     0
  9
$USERR1
 40
0.0
  9
$USERR2
 40
0.0
  9
$USERR3
 40
0.0
  9
$USERR4
 40
0.0
  9
$USERR5
 40
0.0
  9
$WORLDVIEW
 70
     1
  9
$SHADEDGE
 70
     3
  9
$SHADEDIF
 70
    70
  9
$TILEMODE
 70
     1
  9
$MAXACTVP
 70
    64
  9
$PINSBASE
 10
0.0
 20
0.0
 30
0.0
  9
$PLIMCHECK
 70
     0
  9
$PEXTMIN
 10
1.0000000000E+20
 20
1.0000000000E+20
 30
1.0000000000E+20
  9
$PEXTMAX
 10
-1.0000000000E+20
 20
-1.0000000000E+20
 30
-1.0000000000E+20
  9
$PLIMMIN
 10
0.0
 20
0.0
  9
$PLIMMAX
 10
420.0
 20
297.0
  9
$UNITMODE
 70
     0
  9
$VISRETAIN
 70
     1
  9
$PLINEGEN
 70
     0
  9
$PSLTSCALE
 70
     1
  9
$TREEDEPTH
 70
  3020
  9
$CMLSTYLE
  2
Standard
  9
$CMLJUST
 70
     0
  9
$CMLSCALE
 40
20.0
  9
$PROXYGRAPHICS
 70
     1
  9
$MEASUREMENT
 70
     1
  9
$CELWEIGHT
370
    -1
  9
$ENDCAPS
280
     0
  9
$JOINSTYLE
280
     0
  9
$LWDISPLAY
290
     1
  9
$INSUNITS
 70
     4
  9
$HYPERLINKBASE
  1

  9
$STYLESHEET
  1

  9
$XEDIT
290
     1
  9
$CEPSNTYPE
380
     0
  9
$PSTYLEMODE
290
     1
  9
$FINGERPRINTGUID
  2
{9ef290a8-d434-429c-9d4e-f1f0bc7b5483}
  9
$VERSIONGUID
  2
{FAEB1C32-E019-11D5-929B-00C0DF256EC4}
  9
$EXTNAMES
290
     1
  9
$PSVPSCALE
 40
0.0
  9
$OLESTARTUP
290
     0
  0
ENDSEC
  0
SECTION
  2
CLASSES
  0
CLASS
  1
ACDBDICTIONARYWDFLT
  2
AcDbDictionaryWithDefault
  3
ObjectDBX Classes
 90
        0
280
     0
281
     0
  0
CLASS
  1
VISUALSTYLE
  2
AcDbVisualStyle
  3
ObjectDBX Classes
 90
     4095
280
     0
281
     0
  0
CLASS
  1
MATERIAL
  2
AcDbMaterial
  3
ObjectDBX Classes
 90
     1153
280
     0
281
     0
  0
CLASS
  1
SCALE
  2
AcDbScale
  3
ObjectDBX Classes
 90
     1153
280
     0
281
     0
  0
CLASS
  1
TABLESTYLE
  2
AcDbTableStyle
  3
ObjectDBX Classes
 90
     4095
280
     0
281
     0
  0
CLASS
  1
MLEADERSTYLE
  2
AcDbMLeaderStyle
  3
ACDB_MLEADERSTYLE_CLASS
 90
     4095
280
     0
281
     0
  0
CLASS
  1
SUN
  2
AcDbSun
  3
SCENEOE
 90
     1153
280
     0
281
     0
  0
CLASS
  1
ACDBPLACEHOLDER
  2
AcDbPlaceHolder
  3
ObjectDBX Classes
 90
        0
280
     0
281
     0
  0
CLASS
  1
LAYOUT
  2
AcDbLayout
  3
ObjectDBX Classes
 90
        0
280
     0
281
     0
  0
ENDSEC
  0
SECTION
  2
TABLES
  0
TABLE
  2
VPORT
  5
8
330
0
100
AcDbSymbolTable
 70
     1
  0
VPORT
  5
29
330
8
100
AcDbSymbolTableRecord
100
AcDbViewportTableRecord
  2
*Active
 70
     0
 10
0.0
 20
0.0
 11
1.0
 21
1.0
 12
10000.0
 22
5000.0
 13
0.0
 23
0.0
 14
10.0
 24
10.0
 15
10.0
 25
10.0
 16
0.0
 26
0.0
 36
1.0
 17
0.0
 27
0.0
 37
0.0
 40
10000.0
 41
2.0
 42
50.0
 43
0.0
 44
0.0
 50
0.0
 51
0.0
 71
     0
 72
  2000
 73
     1
 74
     3
 75
     0
 76
     0
 77
     0
 78
     0
281
     0
 65
     1
110
0.0
120
0.0
130
0.0
111
1.0
121
0.0
131
0.0
112
0.0
122
1.0
132
0.0
 79
     0
146
0.0
  0
ENDTAB
  0
TABLE
  2
LTYPE
  5
5
330
0
100
AcDbSymbolTable
 70
     6
  0
LTYPE
  5
14
330
5
100
AcDbSymbolTableRecord
100
AcDbLinetypeTableRecord
  2
ByBlock
 70
     0
  3

 72
    65
 73
     0
 40
0.0
  0
LTYPE
  5
15
330
5
100
AcDbSymbolTableRecord
100
AcDbLinetypeTableRecord
  2
ByLayer
 70
     0
  3

 72
    65
 73
     0
 40
0.0
  0
LTYPE
  5
16
330
5
100
AcDbSymbolTableRecord
100
AcDbLinetypeTableRecord
  2
Continuous
 70
     0
  3
Solid line
 72
    65
 73
     0
 40
0.0
  0
LTYPE
  5
6E
330
5
100
AcDbSymbolTableRecord
100
AcDbLinetypeTableRecord
  2
HIDDEN
 70
     0
  3
Hidden __ __ __ __ __ __ __ __ __ __ __ __ __ __
 72
    65
 73
     2
 40
1.905
 49
1.27
 74
     0
 49
-0.635
 74
     0
  0
LTYPE
  5
6F
330
5
100
AcDbSymbolTableRecord
100
AcDbLinetypeTableRecord
  2
PHANTOM
 70
     0
  3
Phantom ______  __  __  ______  __  __  ______
 72
    65
 73
     6
 40
12.7
 49
6.35
 74
     0
 49
-1.27
 74
     0
 49
1.27
 74
     0
 49
-1.27
 74
     0
 49
1.27
 74
     0
 49
-1.27
 74
     0
  0
LTYPE
  5
70
330
5
100
AcDbSymbolTableRecord
100
AcDbLinetypeTableRecord
  2
CENTER
 70
     0
  3
Center ____ _ ____ _ ____ _ ____ _ ____ _ ____
 72
    65
 73
     4
 40
10.16
 49
6.35
 74
     0
 49
-1.27
 74
     0
 49
1.27
 74
     0
 49
-1.27
 74
     0
  0
LTYPE
  5
71
330
5
100
AcDbSymbolTableRecord
100
AcDbLinetypeTableRecord
  2
CENTERX2
 70
     0
  3
Center (2x) ________  __  ________  __  _____
 72
    65
 73
     4
 40
20.32
 49
12.7
 74
     0
 49
-2.54
 74
     0
 49
2.54
 74
     0
 49
-2.54
 74
     0
  0
LTYPE
  5
72
330
5
100
AcDbSymbolTableRecord
100
AcDbLinetypeTableRecord
  2
DOT2
 70
     0
  3
Dot (.5x) ........................................
 72
    65
 73
     2
 40
0.635
 49
0.0
 74
     0
 49
-0.635
 74
     0
  0
ENDTAB
  0
TABLE
  2
LAYER
  5
2
330
0
100
AcDbSymbolTable
 70
    13
  0
LAYER
  5
10
330
2
100
AcDbSymbolTableRecord
100
AcDbLayerTableRecord
  2
0
 70
     0
 62
     7
  6
Continuous
370
    -3
390
F
  0
LAYER
  5
73
330
2
100
AcDbSymbolTableRecord
100
AcDbLayerTableRecord
  2
FORMAT
 70
     0
 62
     7
  6
Continuous
370
    -3
390
F
  0
LAYER
  5
74
330
2
100
AcDbSymbolTableRecord
100
AcDbLayerTableRecord
  2
OSA
 70
     0
 62
     7
  6
CENTER
370
    -3
390
F
  0
LAYER
  5
75
330
2
100
AcDbSymbolTableRecord
100
AcDbLayerTableRecord
  2
0_35
 70
     0
 62
     7
  6
Continuous
370
    35
390
F
  0
LAYER
  5
76
330
2
100
AcDbSymbolTableRecord
100
AcDbLayerTableRecord
  2
0_5
 70
     0
 62
     7
  6
Continuous
370
    50
390
F
  0
LAYER
  5
77
330
2
100
AcDbSymbolTableRecord
100
AcDbLayerTableRecord
  2
0_25
 70
     0
 62
     7
  6
Continuous
370
    25
390
F
  0
LAYER
  5
78
330
2
100
AcDbSymbolTableRecord
100
AcDbLayerTableRecord
  2
0_18
 70
     0
 62
     7
  6
Continuous
370
    -3
390
F
  0
LAYER
  5
79
330
2
100
AcDbSymbolTableRecord
100
AcDbLayerTableRecord
  2
SLD-0
 70
     0
 62
   179
  6
Continuous
370
    -3
390
F
  0
LAYER
  5
7A
330
2
100
AcDbSymbolTableRecord
100
AcDbLayerTableRecord
  2
KOTY
 70
     0
 62
     7
  6
Continuous
370
    -3
390
F
  0
LAYER
  5
7B
330
2
100
AcDbSymbolTableRecord
100
AcDbLayerTableRecord
  2
SILNA
 70
     0
 62
   179
  6
Continuous
370
    -3
390
F
  0
LAYER
  5
7C
330
2
100
AcDbSymbolTableRecord
100
AcDbLayerTableRecord
  2
0_18_1
 70
     0
 62
   179
  6
Continuous
370
    -3
390
F
  0
LAYER
  5
7D
330
2
100
AcDbSymbolTableRecord
100
AcDbLayerTableRecord
  2
0_35_1
 70
     0
 62
   179
  6
Continuous
370
    35
390
F
  0
LAYER
  5
7E
330
2
100
AcDbSymbolTableRecord
100
AcDbLayerTableRecord
  2
0_5_1
 70
     0
 62
   179
  6
Continuous
370
    50
390
F
  0
ENDTAB
  0
TABLE
  2
STYLE
  5
3
330
0
100
AcDbSymbolTable
 70
     1
  0
STYLE
  5
11
330
3
100
AcDbSymbolTableRecord
100
AcDbTextStyleTableRecord
  2
Standard
 70
     0
 40
0.0
 41
1.0
 50
0.0
 71
     0
 42
2.0
  3
txt
  4

  0
ENDTAB
  0
TABLE
  2
VIEW
  5
6
330
0
100
AcDbSymbolTable
 70
     0
  0
ENDTAB
  0
TABLE
  2
UCS
  5
7
330
0
100
AcDbSymbolTable
 70
     0
  0
ENDTAB
  0
TABLE
  2
APPID
  5
9
330
0
100
AcDbSymbolTable
 70
     1
  0
APPID
  5
12
330
9
100
AcDbSymbolTableRecord
100
AcDbRegAppTableRecord
  2
ACAD
 70
     0
  0
ENDTAB
  0
TABLE
  2
DIMSTYLE
  5
A
330
0
100
AcDbSymbolTable
 70
     1
100
AcDbDimStyleTable
  0
DIMSTYLE
105
27
330
A
100
AcDbSymbolTableRecord
100
AcDbDimStyleTableRecord
  2
ISO-25
 70
     0
 41
2.5
 42
0.625
 43
3.75
 44
1.25
 73
     0
 74
     0
 77
     1
 78
     8
140
2.5
141
2.5
143
0.0393700787
147
0.625
171
     3
172
     1
178
     0
271
     2
272
     2
274
     3
278
    44
283
     0
284
     8
340
11
  0
ENDTAB
  0
TABLE
  2
BLOCK_RECORD
  5
1
330
0
100
AcDbSymbolTable
 70
     1
  0
BLOCK_RECORD
  5
1F
330
1
100
AcDbSymbolTableRecord
100
AcDbBlockTableRecord
  2
*Model_Space
340
22
  0
BLOCK_RECORD
  5
1B
330
1
100
AcDbSymbolTableRecord
100
AcDbBlockTableRecord
  2
*Paper_Space
340
1E
  0
BLOCK_RECORD
  5
23
330
1
100
AcDbSymbolTableRecord
100
AcDbBlockTableRecord
  2
*Paper_Space0
340
26
  0
ENDTAB
  0
ENDSEC
  0
SECTION
  2
BLOCKS
  0
BLOCK
  5
20
330
1F
100
AcDbEntity
  8
0
100
AcDbBlockBegin
  2
*Model_Space
 70
     0
 10
0.0
 20
0.0
 30
0.0
  3
*Model_Space
  1

  0
ENDBLK
  5
21
330
1F
100
AcDbEntity
  8
0
100
AcDbBlockEnd
  0
BLOCK
  5
1C
330
1B
100
AcDbEntity
 67
     1
  8
0
100
AcDbBlockBegin
  2
*Paper_Space
 70
     0
 10
0.0
 20
0.0
 30
0.0
  3
*Paper_Space
  1

  0
ENDBLK
  5
1D
330
1B
100
AcDbEntity
 67
     1
  8
0
100
AcDbBlockEnd
  0
BLOCK
  5
24
330
23
100
AcDbEntity
  8
0
100
AcDbBlockBegin
  2
*Paper_Space0
 70
     0
 10
0.0
 20
0.0
 30
0.0
  3
*Paper_Space0
  1

  0
ENDBLK
  5
25
330
23
100
AcDbEntity
  8
0
100
AcDbBlockEnd
  0
ENDSEC
  0
SECTION
  2
ENTITIES
  0
LINE
  5
7F
330
1F
100
AcDbEntity
  8
0
  6
Continuous
 62
     7
370
    25
100
AcDbLine
 10
6240.7687553361
 20
5229.0492985395
 30
0.0
 11
6240.7687553361
 21
5228.003805859
 31
0.0
  0
LINE
  5
80
330
1F
100
AcDbEntity
  8
0
  6
Continuous
 62
     7
370
    25
100
AcDbLine
 10
6307.2687553361
 20
5228.003805859
 30
0.0
 11
6307.2687553361
 21
5229.0492985395
 31
0.0
  0
LINE
  5
81
330
1F
100
AcDbEntity
  8
0
  6
Continuous
 62
     7
370
    25
100
AcDbLine
 10
6234.0187553361
 20
5226.495731245
 30
0.0
 11
6234.0187553361
 21
5225.9994420927
 31
0.0
  0
LINE
  5
82
330
1F
100
AcDbEntity
  8
0
  6
Continuous
 62
     7
370
    25
100
AcDbLine
 10
6314.0187553361
 20
5225.9994420927
 30
0.0
 11
6314.0187553361
 21
5226.495731245
 31
0.0
  0
ARC
  5
83
330
1F
100
AcDbEntity
  8
0
  6
Continuous
 62
     7
370
    25
100
AcDbCircle
 10
6234.6690973836
 20
5226.550500793
 30
0.0
 40
0.0547695479958025
100
AcDbArc
 50
270.0
 51
330.0000000008
  0
ARC
  5
84
330
1F
100
AcDbEntity
  8
0
  6
Continuous
 62
     7
370
    25
100
AcDbCircle
 10
6313.3684132886
 20
5226.550500793
 30
0.0
 40
0.0547695479963295
100
AcDbArc
 50
210.0000000005
 51
270.0
  0
LINE
  5
85
330
1F
100
AcDbEntity
  8
0
  6
Continuous
 62
     7
370
    25
100
AcDbLine
 10
6313.3209814687
 20
5226.523116019
 30
0.0
 11
6313.0818700835
 21
5226.9372690868
 31
0.0
  0
LINE
  5
86
330
1F
100
AcDbEntity
  8
0
  6
Continuous
 62
     7
370
    25
100
AcDbLine
 10
6234.9556405887
 20
5226.9372690868
 30
0.0
 11
6234.7165292035
 21
5226.523116019
 31
0.0
  0
ARC
  5
87
330
1F
100
AcDbEntity
  8
0
  6
Continuous
 62
     7
370
    25
100
AcDbCircle
 10
6235.0504726402
 20
5226.8825177764
 30
0.0
 40
0.109502620936837
100
AcDbArc
 50
90.0
 51
149.9999999999
  0
ARC
  5
88
330
1F
100
AcDbEntity
  8
0
  6
Continuous
 62
     7
370
    25
100
AcDbCircle
 10
6312.987038032
 20
5226.8825177764
 30
0.0
 40
0.1095026209371498
100
AcDbArc
 50
29.9999999999
 51
90.0
  0
LINE
  5
89
330
1F
100
AcDbEntity
  8
0
  6
Continuous
 62
     7
370
    25
100
AcDbLine
 10
6312.987038032
 20
5226.9920203973
 30
0.0
 11
6235.0504726402
 21
5226.9920203973
 31
0.0
  0
LINE
  5
8A
330
1F
100
AcDbEntity
  8
0
  6
Continuous
 62
     7
370
    25
100
AcDbLine
 10
6320.940503559
 20
5209.0326765883
 30
0.0
 11
6321.0187553361
 21
5217.9994420927
 31
0.0
  0
ARC
  5
8B
330
1F
100
AcDbEntity
  8
0
  6
Continuous
 62
     7
370
    25
100
AcDbCircle
 10
6314.0573135552
 20
5209.0613713722
 30
0.0
 40
6.853085275273202
100
AcDbArc
 50
305.7382565022
 51
359.7686518058
  0
ARC
  5
8C
330
1F
100
AcDbEntity
  8
0
  6
Continuous
 62
     7
370
    25
100
AcDbCircle
 10
6321.0187553361
 20
5220.9994420927
 30
0.0
 40
2.000000000000909
100
AcDbArc
 50
0.0
 51
90.0
  0
LINE
  5
8D
330
1F
100
AcDbEntity
  8
0
  6
Continuous
 62
     7
370
    25
100
AcDbLine
 10
6323.0187553361
 20
5217.9994420927
 30
0.0
 11
6323.0187553361
 21
5220.9994420927
 31
0.0
  0
LINE
  5
8E
330
1F
100
AcDbEntity
  8
0
  6
Continuous
 62
     7
370
    25
100
AcDbLine
 10
6315.7687553361
 20
5222.9994420927
 30
0.0
 11
6315.7687553361
 21
5225.9994420927
 31
0.0
  0
LINE
  5
8F
330
1F
100
AcDbEntity
  8
0
  6
Continuous
 62
     7
370
    25
100
AcDbLine
 10
6232.2687553361
 20
5225.9994420927
 30
0.0
 11
6232.2687553361
 21
5222.9994420927
 31
0.0
  0
LINE
  5
90
330
1F
100
AcDbEntity
  8
0
  6
Continuous
 62
     7
370
    25
100
AcDbLine
 10
6306.2595003184
 20
5150.8162034546
 30
0.0
 11
6307.4613636571
 21
5196.7135126483
 31
0.0
  0
ARC
  5
91
330
1F
100
AcDbEntity
  8
0
  6
Continuous
 62
     7
370
    25
100
AcDbCircle
 10
6299.2618990435
 20
5150.9994420927
 30
0.0
 40
7.000000000000909
100
AcDbArc
 50
270.0
 51
358.5
  0
ARC
  5
92
330
1F
100
AcDbEntity
  8
0
  6
Continuous
 62
     7
370
    25
100
AcDbCircle
 10
6142.4529357327
 20
5190.8502945412
 30
0.0
 40
27.0
100
AcDbArc
 50
73.1772087534
 51
90.0
  0
ARC
  5
93
330
1F
100
AcDbEntity
  8
0
  6
Continuous
 62
     7
370
    25
100
AcDbCircle
 10
6142.4529357327
 20
5190.8502945412
 30
0.0
 40
27.00000000000062
100
AcDbArc
 50
228.2942528904
 51
287.8227912466
  0
ARC
  5
94
330
1F
100
AcDbEntity
  8
0
  6
Continuous
 62
     7
370
    25
100
AcDbCircle
 10
6142.4529357327
 20
5190.8502945412
 30
0.0
 40
27.0
100
AcDbArc
 50
90.0
 51
132.7057471096
  0
ARC
  5
95
330
1F
100
AcDbEntity
  8
0
  6
Continuous
 62
     7
370
    25
100
AcDbCircle
 10
6207.0187553361
 20
5215.9278209955
 30
0.0
 40
1.99999999999944
100
AcDbArc
 50
0.5
 51
92.0154937467
  0
ARC
  5
96
330
1F
100
AcDbEntity
  8
0
  6
Continuous
 62
     7
370
    25
100
AcDbCircle
 10
6207.4465848332
 20
5166.9034164414
 30
0.0
 40
2.000000000000349
100
AcDbArc
 50
268.9845062533
 51
0.5
  0
LINE
  5
97
330
1F
100
AcDbEntity
  8
0
  6
Continuous
 62
     7
370
    25
100
AcDbLine
 10
6209.4465086793
 20
5166.9208695124
 30
0.0
 11
6209.0186791822
 21
5215.9452740665
 31
0.0
  0
LINE
  5
98
330
1F
100
AcDbEntity
  8
0
  6
Continuous
 62
     7
370
    25
100
AcDbLine
 10
6206.9484158409
 20
5217.9265837016
 30
0.0
 11
6181.9484158409
 21
5217.0467957338
 31
0.0
  0
LINE
  5
99
330
1F
100
AcDbEntity
  8
0
  6
Continuous
 62
     7
370
    25
100
AcDbLine
 10
6182.3995924741
 20
5165.3470743739
 30
0.0
 11
6207.4111392702
 21
5164.903730563
 31
0.0
  0
ARC
  5
9A
330
1F
100
AcDbEntity
  8
0
  6
Continuous
 62
     7
370
    25
100
AcDbCircle
 10
6182.0187553361
 20
5215.0480330277
 30
0.0
 40
2.000000000000287
100
AcDbArc
 50
92.0154937467
 51
180.0
  0
ARC
  5
9B
330
1F
100
AcDbEntity
  8
0
  6
Continuous
 62
     7
370
    25
100
AcDbCircle
 10
6182.4350380371
 20
5167.3467602523
 30
0.0
 40
2.00000000000027
100
AcDbArc
 50
181.0
 51
268.9845062533
  0
LINE
  5
9C
330
1F
100
AcDbEntity
  8
0
  6
Continuous
 62
     7
370
    25
100
AcDbLine
 10
6180.0187553361
 20
5215.0480330277
 30
0.0
 11
6180.0187553361
 21
5211.1788880501
 31
0.0
  0
LINE
  5
9D
330
1F
100
AcDbEntity
  8
0
  6
Continuous
 62
     7
370
    25
100
AcDbLine
 10
6180.367816756
 20
5171.1804111275
 30
0.0
 11
6180.4353426467
 21
5167.3118554394
 31
0.0
  0
ARC
  5
9E
330
1F
100
AcDbEntity
  8
0
  6
Continuous
 62
     7
370
    25
100
AcDbCircle
 10
6158.4387992462
 20
5213.9548644475
 30
0.0
 40
0.25
100
AcDbArc
 50
90.0
 51
168.5
  0
ARC
  5
9F
330
1F
100
AcDbEntity
  8
0
  6
Continuous
 62
     7
370
    25
100
AcDbCircle
 10
6158.8395948663
 20
5168.0282353602
 30
0.0
 40
0.2500000000000639
100
AcDbArc
 50
192.5
 51
271.0000000001
  0
LINE
  5
A0
330
1F
100
AcDbEntity
  8
0
  6
Continuous
 62
     7
370
    25
100
AcDbLine
 10
6158.8439579679
 20
5167.7782734364
 30
0.0
 11
6159.6816489914
 21
5167.7928953876
 31
0.0
  0
LINE
  5
A1
330
1F
100
AcDbEntity
  8
0
  6
Continuous
 62
     7
370
    25
100
AcDbLine
 10
6159.2766178735
 20
5214.2048644475
 30
0.0
 11
6158.4387992462
 21
5214.2048644475
 31
0.0
  0
ARC
  5
A2
330
1F
100
AcDbEntity
  8
0
  6
Continuous
 62
     7
370
    25
100
AcDbCircle
 10
6159.2766178735
 20
5213.9548644475
 30
0.0
 40
0.25
100
AcDbArc
 50
10.5
 51
90.0
  0
ARC
  5
A3
330
1F
100
AcDbEntity
  8
0
  6
Continuous
 62
     7
370
    25
100
AcDbCircle
 10
6159.6772858898
 20
5168.0428573114
 30
0.0
 40
0.250000000000231
100
AcDbArc
 50
271.0000000001
 51
350.5000000002
  0
LINE
  5
A4
330
1F
100
AcDbEntity
  8
0
  6
Continuous
 62
     7
370
    25
100
AcDbLine
 10
6158.19381807
 20
5214.0047064311
 30
0.0
 11
6157.7776256225
 21
5211.9590551963
 31
0.0
  0
LINE
  5
A5
330
1F
100
AcDbEntity
  8
0
  6
Continuous
 62
     7
370
    25
100
AcDbLine
 10
6158.1436902683
 20
5170.0122015691
 30
0.0
 11
6158.5955208645
 21
5167.9741254567
 31
0.0
  0
LINE
  5
A6
330
1F
100
AcDbEntity
  8
0
  6
Continuous
 62
     7
370
    25
100
AcDbLine
 10
6159.9238572901
 20
5168.0015954099
 30
0.0
 11
6160.4266870424
 21
5171.0063875249
 31
0.0
  0
LINE
  5
A7
330
1F
100
AcDbEntity
  8
0
  6
Continuous
 62
     7
370
    25
100
AcDbLine
 10
6160.0776256225
 20
5211.0048644475
 30
0.0
 11
6159.5224316004
 21
5214.0004233288
 31
0.0
  0
ARC
  5
A8
330
1F
100
AcDbEntity
  8
0
  6
Continuous
 62
     7
370
    25
100
AcDbCircle
 10
6142.4529357327
 20
5190.8502945412
 30
0.0
 40
23.99999999999965
100
AcDbArc
 50
57.0896848103
 51
70.9987276534
  0
ARC
  5
A9
330
1F
100
AcDbEntity
  8
0
  6
Continuous
 62
     7
370
    25
100
AcDbCircle
 10
6142.4529357327
 20
5190.8502945412
 30
0.0
 40
23.99999999999999
100
AcDbArc
 50
290.0012723466
 51
303.9103151897
  0
LINE
  5
AA
330
1F
100
AcDbEntity
  8
0
  6
Continuous
 62
     7
370
    25
100
AcDbLine
 10
6247.9587877665
 20
5173.3603045953
 30
0.0
 11
6248.5555511569
 21
5150.5708301516
 31
0.0
  0
LWPOLYLINE
  5
AB
330
1F
100
AcDbEntity
  8
0
  6
Continuous
 62
     7
370
    25
100
AcDbPolyline
 90
        7
 70
   128
 43
0.0
 10
6248.5546292297
 20
5150.6102552623
 10
6248.7298527927
 20
5149.45138289
 10
6249.682352959
 20
5147.5519705093
 10
6251.4345951168
 20
5145.8133017446
 10
6253.372505967
 20
5144.6942660688
 10
6254.5536721013
 20
5144.2771100743
 10
6256.5859270358
 20
5143.9994420927
  0
LINE
  5
AC
330
1F
100
AcDbEntity
  8
0
  6
Continuous
 62
     7
370
    25
100
AcDbLine
 10
6215.075531391
 20
5211.4848238999
 30
0.0
 11
6209.0580632208
 21
5211.4323102507
 31
0.0
  0
LINE
  5
AD
330
1F
100
AcDbEntity
  8
0
  6
Continuous
 62
     7
370
    25
100
AcDbLine
 10
6209.4071246407
 20
5171.4338333282
 30
0.0
 11
6216.6498673256
 21
5171.497039786
 31
0.0
  0
ARC
  5
AE
330
1F
100
AcDbEntity
  8
0
  6
Continuous
 62
     7
370
    25
100
AcDbCircle
 10
6156.3077385655
 20
5212.2581070979
 30
0.0
 40
1.500000000000395
100
AcDbArc
 50
237.0896848103
 51
348.5
  0
ARC
  5
AF
330
1F
100
AcDbEntity
  8
0
  6
Continuous
 62
     7
370
    25
100
AcDbCircle
 10
6156.6792462576
 20
5169.6875421482
 30
0.0
 40
1.500000000000391
100
AcDbArc
 50
12.5
 51
123.9103151897
  0
LINE
  5
B0
330
1F
100
AcDbEntity
  8
0
  6
Continuous
 62
     7
370
    25
100
AcDbLine
 10
6180.0187553361
 20
5211.1788880501
 30
0.0
 11
6160.0776256225
 21
5211.0048644475
 31
0.0
  0
LINE
  5
B1
330
1F
100
AcDbEntity
  8
0
  6
Continuous
 62
     7
370
    25
100
AcDbLine
 10
6160.4266870424
 20
5171.0063875249
 30
0.0
 11
6180.367816756
 21
5171.1804111275
 31
0.0
  0
LINE
  5
B2
330
1F
100
AcDbEntity
  8
0
  6
Continuous
 62
     7
370
    25
100
AcDbLine
 10
6055.5892852738
 20
5210.092913316
 30
0.0
 11
6052.103555101
 21
5209.7771837445
 31
0.0
  0
LINE
  5
B3
330
1F
100
AcDbEntity
  8
0
  6
Continuous
 62
     7
370
    25
100
AcDbLine
 10
6052.4476355123
 20
5170.3494738827
 30
0.0
 11
6055.9383450323
 21
5170.0946267781
 31
0.0
  0
LINE
  5
B4
330
1F
100
AcDbEntity
  8
0
  6
Continuous
 62
     7
370
    25
100
AcDbLine
 10
6124.1406343974
 20
5210.6911518767
 30
0.0
 11
6055.5892852738
 21
5210.092913316
 31
0.0
  0
LINE
  5
B5
330
1F
100
AcDbEntity
  8
0
  6
Continuous
 62
     7
370
    25
100
AcDbLine
 10
6055.9383450323
 20
5170.0946267781
 30
0.0
 11
6124.4896941558
 21
5170.6928653388
 31
0.0
  0
LINE
  5
B6
330
1F
100
AcDbEntity
  8
0
  6
Continuous
 62
     7
370
    25
100
AcDbLine
 10
6052.103555101
 20
5209.7771837445
 30
0.0
 11
6052.103555101
 21
5207.5623986136
 31
0.0
  0
LINE
  5
B7
330
1F
100
AcDbEntity
  8
0
  6
Continuous
 62
     7
370
    25
100
AcDbLine
 10
6052.408982182
 20
5172.5639216911
 30
0.0
 11
6052.4476355123
 21
5170.3494738827
 31
0.0
  0
ARC
  5
B8
330
1F
100
AcDbEntity
  8
0
  6
Continuous
 62
     7
370
    25
100
AcDbCircle
 10
6215.05807832
 20
5213.484747746
 30
0.0
 40
2.000000000000349
100
AcDbArc
 50
270.5
 51
0.5
  0
ARC
  5
B9
330
1F
100
AcDbEntity
  8
0
  6
Continuous
 62
     7
370
    25
100
AcDbCircle
 10
6216.8306388976
 20
5169.8667380291
 30
0.0
 40
1.612651671725335
100
AcDbArc
 50
48.4360533117
 51
96.2068831894
  0
ARC
  5
BA
330
1F
100
AcDbEntity
  8
0
  6
Continuous
 62
     7
370
    25
100
AcDbCircle
 10
6222.9650514226
 20
5178.3389327585
 30
0.0
 40
8.83661006998881
100
AcDbArc
 50
235.0092265524
 51
282.7578591479
  0
LWPOLYLINE
  5
BB
330
1F
100
AcDbEntity
  8
0
  6
Continuous
 62
     7
370
    25
100
AcDbPolyline
 90
        3
 70
   128
 43
0.0
 10
6224.9633717952
 20
5169.7248300348
 10
6224.9688376205
 20
5169.7253367031
 10
6224.9584834298
 20
5169.7244743841
  0
LINE
  5
BC
330
1F
100
AcDbEntity
  8
0
  6
Continuous
 62
     7
370
    25
100
AcDbLine
 10
6731.3187553361
 20
5133.7994420927
 30
0.0
 11
6731.3187553361
 21
5203.7994420927
 31
0.0
  0
LINE
  5
BD
330
1F
100
AcDbEntity
  8
0
  6
Continuous
 62
     7
370
    25
100
AcDbLine
 10
6721.3187553361
 20
5203.7994420927
 30
0.0
 11
6721.3187553361
 21
5133.7994420927
 31
0.0
  0
LINE
  5
BE
330
1F
100
AcDbEntity
  8
0
  6
Continuous
 62
     7
370
    25
100
AcDbLine
 10
6731.3187553361
 20
5212.7994420927
 30
0.0
 11
6730.3187553361
 21
5213.7994420927
 31
0.0
  0
LINE
  5
BF
330
1F
100
AcDbEntity
  8
0
  6
Continuous
 62
     7
370
    25
100
AcDbLine
 10
6722.3187553361
 20
5213.7994420927
 30
0.0
 11
6721.3187553361
 21
5212.7994420927
 31
0.0
  0
LINE
  5
C0
330
1F
100
AcDbEntity
  8
0
  6
Continuous
 62
     7
370
    25
100
AcDbLine
 10
5826.7187553361
 20
5128.7994420927
 30
0.0
 11
5826.7187553361
 21
5203.7994420927
 31
0.0
  0
LINE
  5
C1
330
1F
100
AcDbEntity
  8
0
  6
Continuous
 62
     7
370
    25
100
AcDbLine
 10
5816.7187553361
 20
5203.7994420927
 30
0.0
 11
5816.7187553361
 21
5128.7994420927
 31
0.0
  0
LINE
  5
C2
330
1F
100
AcDbEntity
  8
0
  6
Continuous
 62
     7
370
    25
100
AcDbLine
 10
5826.7187553361
 20
5212.7994420927
 30
0.0
 11
5825.7187553361
 21
5213.7994420927
 31
0.0
  0
LINE
  5
C3
330
1F
100
AcDbEntity
  8
0
  6
Continuous
 62
     7
370
    25
100
AcDbLine
 10
5817.7187553361
 20
5213.7994420927
 30
0.0
 11
5816.7187553361
 21
5212.7994420927
 31
0.0
  0
LINE
  5
C4
330
1F
100
AcDbEntity
  8
0
  6
Continuous
 62
     7
370
    25
100
AcDbLine
 10
6744.6187553361
 20
5247.7994420927
 30
0.0
 11
5803.4187553361
 21
5247.7994420927
 31
0.0
  0
LINE
  5
C5
330
1F
100
AcDbEntity
  8
0
  6
Continuous
 62
     7
370
    25
100
AcDbLine
 10
5803.4187553361
 20
5247.7994420927
 30
0.0
 11
5800.7187553361
 21
5247.7994420927
 31
0.0
  0
LINE
  5
C6
330
1F
100
AcDbEntity
  8
0
  6
Continuous
 62
     7
370
    25
100
AcDbLine
 10
6747.3187553361
 20
5247.7994420927
 30
0.0
 11
6744.6187553361
 21
5247.7994420927
 31
0.0
  0
LINE
  5
C7
330
1F
100
AcDbEntity
  8
0
  6
Continuous
 62
     7
370
    25
100
AcDbLine
 10
6238.2332985674
 20
5230.5994420927
 30
0.0
 11
6240.7687553361
 21
5229.0492985395
 31
0.0
  0
LINE
  5
C8
330
1F
100
AcDbEntity
  8
0
  6
Continuous
 62
     7
370
    25
100
AcDbLine
 10
6242.478791473
 20
5228.003805859
 30
0.0
 11
6244.13369517
 21
5226.9920203973
 31
0.0
  0
LINE
  5
C9
330
1F
100
AcDbEntity
  8
0
  6
Continuous
 62
     7
370
    25
100
AcDbLine
 10
6303.9038155022
 20
5226.9920203973
 30
0.0
 11
6305.5587191992
 21
5228.003805859
 31
0.0
  0
LINE
  5
CA
330
1F
100
AcDbEntity
  8
0
  6
Continuous
 62
     7
370
    25
100
AcDbLine
 10
6307.2687553361
 20
5229.0492985395
 30
0.0
 11
6309.8042121048
 21
5230.5994420927
 31
0.0
  0
LINE
  5
CB
330
1F
100
AcDbEntity
  8
0
  6
Continuous
 62
     7
370
    25
100
AcDbLine
 10
6307.2687553361
 20
5228.003805859
 30
0.0
 11
6240.7687553361
 21
5228.003805859
 31
0.0
  0
LINE
  5
CC
330
1F
100
AcDbEntity
  8
0
  6
Continuous
 62
     7
370
    25
100
AcDbLine
 10
6234.0187553361
 20
5226.495731245
 30
0.0
 11
6314.0187553361
 21
5226.495731245
 31
0.0
  0
LINE
  5
CD
330
1F
100
AcDbEntity
  8
0
  6
Continuous
 62
     7
370
    25
100
AcDbLine
 10
6239.2281711583
 20
5179.6922772075
 30
0.0
 11
6238.978939987
 21
5217.9994420927
 31
0.0
  0
LWPOLYLINE
  5
CE
330
1F
100
AcDbEntity
  8
0
  6
Continuous
 62
     7
370
    25
100
AcDbPolyline
 90
       18
 70
   128
 43
0.0
 10
6317.7728701909
 20
5203.2989149751
 10
6317.8179474112
 20
5203.3297948121
 10
6317.0746431675
 20
5202.8267816506
 10
6315.5331883308
 20
5201.8006261862
 10
6313.4513558374
 20
5200.4468850163
 10
6310.813533529
 20
5198.7831937465
 10
6307.714577978
 20
5196.9001311353
 10
6304.1299940575
 20
5194.818326852
 10
6300.166592331
 20
5192.62863267
 10
6295.901327706
 20
5190.3990989528
 10
6289.4196487345
 20
5187.2588153027
 10
6282.5436487513
 20
5184.2312301293
 10
6275.8778265166
 20
5181.5868912103
 10
6269.1422089835
 20
5179.1871456617
 10
6262.71152514
 20
5177.1476879949
 10
6256.5475900396
 20
5175.4109099715
 10
6250.8859445234
 20
5174.003256867
 10
6245.8615497504
 20
5172.8978461541
  0
LWPOLYLINE
  5
CF
330
1F
100
AcDbEntity
  8
0
  6
Continuous
 62
     7
370
    25
100
AcDbPolyline
 90
        9
 70
   128
 43
0.0
 10
6239.2281711583
 20
5179.6922772075
 10
6239.4919429644
 20
5178.2197669863
 10
6239.9821298386
 20
5176.8173371852
 10
6240.6763318122
 20
5175.5490743506
 10
6241.54282608
 20
5174.4729340288
 10
6242.5420166316
 20
5173.6380923831
 10
6243.6282436615
 20
5173.0826990006
 10
6244.7518700762
 20
5172.8321335788
 10
6245.8615497504
 20
5172.8978461541
  0
ARC
  5
D0
330
1F
100
AcDbEntity
  8
0
  6
Continuous
 62
     7
370
    25
100
AcDbCircle
 10
6240.07644716
 20
5221.2367915091
 30
0.0
 40
1.791632486068305
100
AcDbArc
 50
100.3196220904
 51
187.6127302624
  0
LINE
  5
D1
330
1F
100
AcDbEntity
  8
0
  6
Continuous
 62
     7
370
    25
100
AcDbLine
 10
6239.7554956289
 20
5222.9994420927
 30
0.0
 11
6321.0187553361
 21
5222.9994420927
 31
0.0
  0
LINE
  5
D2
330
1F
100
AcDbEntity
  8
0
  6
Continuous
 62
     7
370
    25
100
AcDbLine
 10
6238.3006058891
 20
5220.9994420927
 30
0.0
 11
6238.3006058891
 21
5217.9994420927
 31
0.0
  0
LINE
  5
D3
330
1F
100
AcDbEntity
  8
0
  6
Continuous
 62
     7
370
    25
100
AcDbLine
 10
6238.3006058891
 20
5217.9994420927
 30
0.0
 11
6323.0187553361
 21
5217.9994420927
 31
0.0
  0
LINE
  5
D4
330
1F
100
AcDbEntity
  8
0
  6
Continuous
 62
     7
370
    25
100
AcDbLine
 10
6232.2687553361
 20
5225.9994420927
 30
0.0
 11
6315.7687553361
 21
5225.9994420927
 31
0.0
  0
LINE
  5
D5
330
1F
100
AcDbEntity
  8
0
  6
Continuous
 62
     7
370
    25
100
AcDbLine
 10
6250.1743875592
 20
5150.8162034546
 30
0.0
 11
6249.7305071389
 21
5173.7363495965
 31
0.0
  0
LINE
  5
D6
330
1F
100
AcDbEntity
  8
0
  6
Continuous
 62
     7
370
    25
100
AcDbLine
 10
6220.7625077158
 20
5220.9994420927
 30
0.0
 11
6220.7625077158
 21
5217.9994420927
 31
0.0
  0
LINE
  5
D7
330
1F
100
AcDbEntity
  8
0
  6
Continuous
 62
     7
370
    25
100
AcDbLine
 10
6238.3006058891
 20
5220.9994420927
 30
0.0
 11
6220.7625077158
 21
5220.9994420927
 31
0.0
  0
LINE
  5
D8
330
1F
100
AcDbEntity
  8
0
  6
Continuous
 62
     7
370
    25
100
AcDbLine
 10
6220.7625077158
 20
5217.9994420927
 30
0.0
 11
6238.3006058891
 21
5217.9994420927
 31
0.0
  0
ARC
  5
D9
330
1F
100
AcDbEntity
  8
0
  6
Continuous
 62
     7
370
    25
100
AcDbCircle
 10
6223.8177785637
 20
5221.4833384388
 30
0.0
 40
3.093353459924823
100
AcDbArc
 50
150.6517591703
 51
188.9997984493
  0
LINE
  5
DA
330
1F
100
AcDbEntity
  8
0
  6
Continuous
 62
     7
370
    25
100
AcDbLine
 10
6221.1214356073
 20
5222.9994420927
 30
0.0
 11
6239.7554956289
 21
5222.9994420927
 31
0.0
  0
ARC
  5
DB
330
1F
100
AcDbEntity
  8
0
  6
Continuous
 62
     7
370
    25
100
AcDbCircle
 10
6207.3936298623
 20
5304.4161190319
 30
0.0
 40
128.7224717714666
100
AcDbArc
 50
276.5444516408
 51
284.318474563
  0
LINE
  5
DC
330
1F
100
AcDbEntity
  8
0
  6
Continuous
 62
     7
370
    25
100
AcDbLine
 10
6222.0646474319
 20
5176.5324375771
 30
0.0
 11
6222.0034090068
 21
5217.9994420927
 31
0.0
  0
LWPOLYLINE
  5
DD
330
1F
100
AcDbEntity
  8
0
  6
Continuous
 62
     7
370
    25
100
AcDbPolyline
 90
        6
 70
   128
 43
0.0
 10
6222.0646474319
 20
5176.5324375771
 10
6222.2378171069
 20
5175.188973021
 10
6222.5043085579
 20
5173.8485377856
 10
6223.230756787
 20
5171.6224314335
 10
6224.1303911652
 20
5170.1803989899
 10
6225.0664761678
 20
5169.7354391237
  0
ARC
  5
DE
330
1F
100
AcDbEntity
  8
0
  6
Continuous
 62
     7
370
    25
100
AcDbCircle
 10
6205.4363668663
 20
5368.7697547797
 30
0.0
 40
199.9999999996451
100
AcDbArc
 50
275.6326806458
 51
281.6613043232
  0
LINE
  5
DF
330
1F
100
AcDbEntity
  8
0
  6
Continuous
 62
     7
370
    25
100
AcDbLine
 10
6299.2618990435
 20
5143.9994420927
 30
0.0
 11
6256.5859270358
 21
5143.9994420927
 31
0.0
  0
ARC
  5
E0
330
1F
100
AcDbEntity
  8
0
  6
Continuous
 62
     7
370
    25
100
AcDbCircle
 10
6256.8854772398
 20
5150.704769226
 30
0.0
 40
6.712014771171348
100
AcDbArc
 50
179.0487201604
 51
267.4420996518
  0
LINE
  5
E1
330
1F
100
AcDbEntity
  8
0
  6
Continuous
 62
     7
370
    25
100
AcDbLine
 10
6150.2670753606
 20
5216.694814693
 30
0.0
 11
6150.7169342992
 21
5165.1460861758
 31
0.0
  0
LINE
  5
E2
330
1F
100
AcDbEntity
  8
0
  6
Continuous
 62
     7
370
    25
100
AcDbLine
 10
6124.1406343974
 20
5210.6911518767
 30
0.0
 11
6124.4896941558
 21
5170.6928653388
 31
0.0
  0
LINE
  5
E3
330
1F
100
AcDbEntity
  8
0
  6
Continuous
 62
     7
370
    25
100
AcDbLine
 10
6220.7625077158
 20
5220.9994420927
 30
0.0
 11
6215.0187553361
 21
5220.9994420927
 31
0.0
  0
ARC
  5
E4
330
1F
100
AcDbEntity
  8
0
  6
Continuous
 62
     7
370
    25
100
AcDbCircle
 10
6217.0187553361
 20
5220.9994420927
 30
0.0
 40
2.000000000000909
100
AcDbArc
 50
90.0
 51
180.0
  0
LINE
  5
E5
330
1F
100
AcDbEntity
  8
0
  6
Continuous
 62
     7
370
    25
100
AcDbLine
 10
6217.0187553361
 20
5222.9994420927
 30
0.0
 11
6221.1214356073
 21
5222.9994420927
 31
0.0
  0
LINE
  5
E6
330
1F
100
AcDbEntity
  8
0
  6
Continuous
 62
     7
370
    25
100
AcDbLine
 10
6215.0187553361
 20
5220.9994420927
 30
0.0
 11
6215.0187553361
 21
5217.9994420927
 31
0.0
  0
LINE
  5
E7
330
1F
100
AcDbEntity
  8
0
  6
Continuous
 62
     7
370
    25
100
AcDbLine
 10
6215.0187553361
 20
5217.9994420927
 30
0.0
 11
6220.7625077158
 21
5217.9994420927
 31
0.0
  0
LINE
  5
E8
330
1F
100
AcDbEntity
  8
0
  6
Continuous
 62
     7
370
    25
100
AcDbLine
 10
6180.367816756
 20
5171.1804111275
 30
0.0
 11
6180.0187553361
 21
5211.1788880501
 31
0.0
  0
LINE
  5
E9
330
1F
100
AcDbEntity
  8
0
  6
Continuous
 62
     7
370
    25
100
AcDbLine
 10
6160.0776256225
 20
5211.0048644475
 30
0.0
 11
6160.4266870424
 21
5171.0063875249
 31
0.0
  0
ARC
  5
EA
330
1F
100
AcDbEntity
  8
0
  6
Continuous
 62
     7
370
    25
100
AcDbCircle
 10
6220.6942476887
 20
5220.2725354273
 30
0.0
 40
43.76156024869589
100
AcDbArc
 50
265.6588877915
 51
271.794519202
  0
LWPOLYLINE
  5
EB
330
1F
100
AcDbEntity
  8
0
  6
Continuous
 62
     7
370
    25
100
AcDbPolyline
 90
       11
 70
   128
 43
0.0
 10
6217.1183232808
 20
5206.5900857163
 10
6217.2756194896
 20
5204.5459684464
 10
6217.6396865851
 20
5202.3537643256
 10
6218.3510606342
 20
5198.9386980482
 10
6219.0238711509
 20
5195.3231139123
 10
6219.2969571782
 20
5192.7890494266
 10
6219.3229421487
 20
5190.1896126429
 10
6218.7048671643
 20
5185.18831514
 10
6218.0542560291
 20
5181.8281453917
 10
6217.5167526775
 20
5178.5548522935
 10
6217.3817542264
 20
5176.6365196461
  0
LINE
  5
EC
330
1F
100
AcDbEntity
  8
0
  6
Continuous
 62
     7
370
    25
100
AcDbLine
 10
6217.1183232808
 20
5206.5900857163
 30
0.0
 11
6217.0187553361
 21
5217.9994420927
 31
0.0
  0
ARC
  5
ED
330
1F
100
AcDbEntity
  8
0
  6
Continuous
 62
     7
370
    25
100
AcDbCircle
 10
6224.3794223422
 20
5176.7016401717
 30
0.0
 40
6.999999999998608
100
AcDbArc
 50
181.914945567
 51
275.6326806459
  0
LWPOLYLINE
  5
EE
330
1F
100
AcDbEntity
  8
0
  6
Continuous
 62
     7
370
    25
100
AcDbPolyline
 90
        4
 70
   128
 43
0.0
 10
6217.3817629049
 20
5176.6365238281
 10
6217.3817622372
 20
5176.6364785739
 10
6217.3833347494
 20
5176.4678109383
 10
6217.3833362467
 20
5176.467766233
  0
LWPOLYLINE
  5
EF
330
1F
100
AcDbEntity
  8
0
  6
Continuous
 62
     7
370
    25
100
AcDbPolyline
 90
       12
 70
   128
 43
0.0
 10
6215.3707559867
 20
5177.9705704716
 10
6215.5609290267
 20
5179.7146721789
 10
6216.2809055865
 20
5182.6213807274
 10
6217.1898760065
 20
5185.7464269353
 10
6217.7247271125
 20
5187.9792341511
 10
6218.0380611415
 20
5190.2937653676
 10
6218.0047626296
 20
5192.6462346668
 10
6217.6498913252
 20
5194.960309078
 10
6216.7567617548
 20
5198.2595640621
 10
6215.813584782
 20
5201.3503969661
 10
6215.3325011085
 20
5203.3464597124
 10
6215.1303687679
 20
5205.2010828993
  0
ARC
  5
F0
330
1F
100
AcDbEntity
  8
0
  6
Continuous
 62
     7
370
    25
100
AcDbCircle
 10
6215.379857893
 20
5206.9611030543
 30
0.0
 40
1.777615191625212
100
AcDbArc
 50
261.931873147
 51
347.952862863
  0
ARC
  5
F1
330
1F
100
AcDbEntity
  8
0
  6
Continuous
 62
     7
370
    25
100
AcDbCircle
 10
6215.62363942
 20
5176.1690239508
 30
0.0
 40
1.819208590991405
100
AcDbArc
 50
14.8907936099
 51
97.9904121159
  0
LINE
  5
F2
330
1F
100
AcDbEntity
  8
0
  6
Continuous
 62
     7
370
    25
100
AcDbLine
 10
6215.3724892376
 20
5177.7721709099
 30
0.0
 11
6215.370773051
 21
5177.9705703682
 31
0.0
  0
LINE
  5
F3
330
1F
100
AcDbEntity
  8
0
  6
Continuous
 62
     7
370
    25
100
AcDbLine
 10
6215.7718976569
 20
5175.6152807386
 30
0.0
 11
6215.3724833559
 21
5177.7721707739
 31
0.0
  0
LINE
  5
F4
330
1F
100
AcDbEntity
  8
0
  6
Continuous
 62
     7
370
    25
100
AcDbLine
 10
6055.5892852738
 20
5210.092913316
 30
0.0
 11
6055.9383450323
 21
5170.0946267781
 31
0.0
  0
LINE
  5
F5
330
1F
100
AcDbEntity
  8
0
  6
Continuous
 62
     7
370
    25
100
AcDbLine
 10
6052.103555101
 20
5209.7771837445
 30
0.0
 11
6052.4476355123
 21
5170.3494738827
 31
0.0
  0
LINE
  5
F6
330
1F
100
AcDbEntity
  8
0
  6
Continuous
 62
     7
370
    25
100
AcDbLine
 10
6052.103555101
 20
5207.5623986136
 30
0.0
 11
6052.408982182
 21
5172.5639216911
 31
0.0
  0
ARC
  5
F7
330
1F
100
AcDbEntity
  8
0
  6
Continuous
 62
     7
370
    25
100
AcDbCircle
 10
6215.6724657455
 20
5176.0325230256
 30
0.0
 40
1.765353851705701
100
AcDbArc
 50
14.2723990243
 51
99.7836484595
  0
ARC
  5
F8
330
1F
100
AcDbEntity
  8
0
  6
Continuous
 62
     7
370
    25
100
AcDbCircle
 10
6216.1314120213
 20
5173.9522614256
 30
0.0
 40
1.701435809416282
100
AcDbArc
 50
23.1834570492
 51
102.1985801329
  0
LINE
  5
F9
330
1F
100
AcDbEntity
  8
0
  6
Continuous
 62
     7
370
    25
100
AcDbLine
 10
6717.8187553361
 20
5133.7994420927
 30
0.0
 11
6717.8187553361
 21
5126.7994420927
 31
0.0
  0
LINE
  5
FA
330
1F
100
AcDbEntity
  8
0
  6
Continuous
 62
     7
370
    25
100
AcDbLine
 10
6717.8187553361
 20
5133.7994420927
 30
0.0
 11
6726.3187553361
 21
5133.7994420927
 31
0.0
  0
LINE
  5
FB
330
1F
100
AcDbEntity
  8
0
  6
Continuous
 62
     7
370
    25
100
AcDbLine
 10
6726.3187553361
 20
5133.7994420927
 30
0.0
 11
6726.3187553361
 21
5126.7994420927
 31
0.0
  0
LINE
  5
FC
330
1F
100
AcDbEntity
  8
0
  6
Continuous
 62
     7
370
    25
100
AcDbLine
 10
6717.8187553361
 20
5126.7994420927
 30
0.0
 11
6726.3187553361
 21
5126.7994420927
 31
0.0
  0
LINE
  5
FD
330
1F
100
AcDbEntity
  8
0
  6
Continuous
 62
     7
370
    25
100
AcDbLine
 10
6734.8187553361
 20
5133.7994420927
 30
0.0
 11
6734.8187553361
 21
5126.7994420927
 31
0.0
  0
LINE
  5
FE
330
1F
100
AcDbEntity
  8
0
  6
Continuous
 62
     7
370
    25
100
AcDbLine
 10
6726.3187553361
 20
5133.7994420927
 30
0.0
 11
6734.8187553361
 21
5133.7994420927
 31
0.0
  0
LINE
  5
FF
330
1F
100
AcDbEntity
  8
0
  6
Continuous
 62
     7
370
    25
100
AcDbLine
 10
6726.3187553361
 20
5126.7994420927
 30
0.0
 11
6734.8187553361
 21
5126.7994420927
 31
0.0
  0
LINE
  5
100
330
1F
100
AcDbEntity
  8
0
  6
Continuous
 62
     7
370
    25
100
AcDbLine
 10
6726.3187553361
 20
5213.7994420927
 30
0.0
 11
6730.3187553361
 21
5213.7994420927
 31
0.0
  0
LINE
  5
101
330
1F
100
AcDbEntity
  8
0
  6
Continuous
 62
     7
370
    25
100
AcDbLine
 10
6722.3187553361
 20
5213.7994420927
 30
0.0
 11
6726.3187553361
 21
5213.7994420927
 31
0.0
  0
LINE
  5
102
330
1F
100
AcDbEntity
  8
0
  6
Continuous
 62
     7
370
    25
100
AcDbLine
 10
5826.7187553361
 20
5133.7994420927
 30
0.0
 11
5830.2187553361
 21
5133.7994420927
 31
0.0
  0
LINE
  5
103
330
1F
100
AcDbEntity
  8
0
  6
Continuous
 62
     7
370
    25
100
AcDbLine
 10
5830.2187553361
 20
5133.7994420927
 30
0.0
 11
5830.2187553361
 21
5128.7994420927
 31
0.0
  0
LINE
  5
104
330
1F
100
AcDbEntity
  8
0
  6
Continuous
 62
     7
370
    25
100
AcDbLine
 10
5813.2187553361
 20
5133.7994420927
 30
0.0
 11
5813.2187553361
 21
5128.7994420927
 31
0.0
  0
LINE
  5
105
330
1F
100
AcDbEntity
  8
0
  6
Continuous
 62
     7
370
    25
100
AcDbLine
 10
5813.2187553361
 20
5133.7994420927
 30
0.0
 11
5816.7187553361
 21
5133.7994420927
 31
0.0
  0
LINE
  5
106
330
1F
100
AcDbEntity
  8
0
  6
Continuous
 62
     7
370
    25
100
AcDbLine
 10
5807.7187553361
 20
5128.7994420927
 30
0.0
 11
5807.7187553361
 21
5126.7994420927
 31
0.0
  0
LINE
  5
107
330
1F
100
AcDbEntity
  8
0
  6
Continuous
 62
     7
370
    25
100
AcDbLine
 10
5807.7187553361
 20
5128.7994420927
 30
0.0
 11
5857.7187553361
 21
5128.7994420927
 31
0.0
  0
LINE
  5
108
330
1F
100
AcDbEntity
  8
0
  6
Continuous
 62
     7
370
    25
100
AcDbLine
 10
5807.7187553361
 20
5126.7994420927
 30
0.0
 11
5857.7187553361
 21
5126.7994420927
 31
0.0
  0
LINE
  5
109
330
1F
100
AcDbEntity
  8
0
  6
Continuous
 62
     7
370
    25
100
AcDbLine
 10
5857.7187553361
 20
5128.7994420927
 30
0.0
 11
5857.7187553361
 21
5126.7994420927
 31
0.0
  0
LINE
  5
10A
330
1F
100
AcDbEntity
  8
0
  6
Continuous
 62
     7
370
    25
100
AcDbLine
 10
5817.7187553361
 20
5213.7994420927
 30
0.0
 11
5825.7187553361
 21
5213.7994420927
 31
0.0
  0
LINE
  5
10B
330
1F
100
AcDbEntity
  8
0
  6
Continuous
 62
     7
370
    25
100
AcDbLine
 10
6690.3187553361
 20
5128.7994420927
 30
0.0
 11
6690.3187553361
 21
5126.7994420927
 31
0.0
  0
LINE
  5
10C
330
1F
100
AcDbEntity
  8
0
  6
Continuous
 62
     7
370
    25
100
AcDbLine
 10
6740.3187553361
 20
5128.7994420927
 30
0.0
 11
6740.3187553361
 21
5126.7994420927
 31
0.0
  0
LINE
  5
10D
330
1F
100
AcDbEntity
  8
0
  6
Continuous
 62
     7
370
    25
100
AcDbLine
 10
6690.3187553361
 20
5126.7994420927
 30
0.0
 11
6717.8187553361
 21
5126.7994420927
 31
0.0
  0
LINE
  5
10E
330
1F
100
AcDbEntity
  8
0
  6
Continuous
 62
     7
370
    25
100
AcDbLine
 10
6734.8187553361
 20
5126.7994420927
 30
0.0
 11
6740.3187553361
 21
5126.7994420927
 31
0.0
  0
LINE
  5
10F
330
1F
100
AcDbEntity
  8
0
  6
Continuous
 62
     7
370
    25
100
AcDbLine
 10
6690.3187553361
 20
5128.7994420927
 30
0.0
 11
6717.8187553361
 21
5128.7994420927
 31
0.0
  0
LINE
  5
110
330
1F
100
AcDbEntity
  8
0
  6
Continuous
 62
     7
370
    25
100
AcDbLine
 10
6734.8187553361
 20
5128.7994420927
 30
0.0
 11
6740.3187553361
 21
5128.7994420927
 31
0.0
  0
LINE
  5
111
330
1F
100
AcDbEntity
  8
0
  6
Continuous
 62
     7
370
    25
100
AcDbLine
 10
5823.7507325016
 20
5205.7994420927
 30
0.0
 11
5821.7187553361
 21
5205.7994420927
 31
0.0
  0
LINE
  5
112
330
1F
100
AcDbEntity
  8
0
  6
Continuous
 62
     7
370
    25
100
AcDbLine
 10
5821.7187553361
 20
5212.7994420927
 30
0.0
 11
5821.7187553361
 21
5205.7994420927
 31
0.0
  0
LINE
  5
113
330
1F
100
AcDbEntity
  8
0
  6
Continuous
 62
     7
370
    25
100
AcDbLine
 10
5830.2187553361
 20
5212.7994420927
 30
0.0
 11
5830.2187553361
 21
5205.7994420927
 31
0.0
  0
LINE
  5
114
330
1F
100
AcDbEntity
  8
0
  6
Continuous
 62
     7
370
    25
100
AcDbLine
 10
5830.2187553361
 20
5212.7994420927
 30
0.0
 11
5821.7187553361
 21
5212.7994420927
 31
0.0
  0
LINE
  5
115
330
1F
100
AcDbEntity
  8
0
  6
Continuous
 62
     7
370
    25
100
AcDbLine
 10
6717.8187553361
 20
5212.7994420927
 30
0.0
 11
6717.8187553361
 21
5205.7994420927
 31
0.0
  0
LINE
  5
116
330
1F
100
AcDbEntity
  8
0
  6
Continuous
 62
     7
370
    25
100
AcDbLine
 10
6717.8187553361
 20
5212.7994420927
 30
0.0
 11
6726.3187553361
 21
5212.7994420927
 31
0.0
  0
LINE
  5
117
330
1F
100
AcDbEntity
  8
0
  6
Continuous
 62
     7
370
    25
100
AcDbLine
 10
6726.3187553361
 20
5212.7994420927
 30
0.0
 11
6726.3187553361
 21
5205.7994420927
 31
0.0
  0
LINE
  5
118
330
1F
100
AcDbEntity
  8
0
  6
Continuous
 62
     7
370
    25
100
AcDbLine
 10
6724.2867781706
 20
5205.7994420927
 30
0.0
 11
6726.3187553361
 21
5205.7994420927
 31
0.0
  0
LINE
  5
119
330
1F
100
AcDbEntity
  8
0
  6
Continuous
 62
     7
370
    25
100
AcDbLine
 10
6726.3187553361
 20
5212.7994420927
 30
0.0
 11
6734.8187553361
 21
5212.7994420927
 31
0.0
  0
LINE
  5
11A
330
1F
100
AcDbEntity
  8
0
  6
Continuous
 62
     7
370
    25
100
AcDbLine
 10
6734.8187553361
 20
5212.7994420927
 30
0.0
 11
6734.8187553361
 21
5205.7994420927
 31
0.0
  0
LINE
  5
11B
330
1F
100
AcDbEntity
  8
0
  6
Continuous
 62
     7
370
    25
100
AcDbLine
 10
6726.3187553361
 20
5205.7994420927
 30
0.0
 11
6728.3507325016
 21
5205.7994420927
 31
0.0
  0
LINE
  5
11C
330
1F
100
AcDbEntity
  8
0
  6
Continuous
 62
     7
370
    25
100
AcDbLine
 10
5813.2187553361
 20
5212.7994420927
 30
0.0
 11
5813.2187553361
 21
5205.7994420927
 31
0.0
  0
LINE
  5
11D
330
1F
100
AcDbEntity
  8
0
  6
Continuous
 62
     7
370
    25
100
AcDbLine
 10
5821.7187553361
 20
5205.7994420927
 30
0.0
 11
5819.6867781706
 21
5205.7994420927
 31
0.0
  0
LINE
  5
11E
330
1F
100
AcDbEntity
  8
0
  6
Continuous
 62
     7
370
    25
100
AcDbLine
 10
5821.7187553361
 20
5212.7994420927
 30
0.0
 11
5813.2187553361
 21
5212.7994420927
 31
0.0
  0
LINE
  5
11F
330
1F
100
AcDbEntity
  8
0
  6
Continuous
 62
     7
370
    25
100
AcDbLine
 10
6716.3187553361
 20
5203.7994420927
 30
0.0
 11
6736.3187553361
 21
5203.7994420927
 31
0.0
  0
LINE
  5
120
330
1F
100
AcDbEntity
  8
0
  6
Continuous
 62
     7
370
    25
100
AcDbLine
 10
6716.3187553361
 20
5205.7994420927
 30
0.0
 11
6716.3187553361
 21
5203.7994420927
 31
0.0
  0
LINE
  5
121
330
1F
100
AcDbEntity
  8
0
  6
Continuous
 62
     7
370
    25
100
AcDbLine
 10
6728.3507325016
 20
5205.7994420927
 30
0.0
 11
6736.3187553361
 21
5205.7994420927
 31
0.0
  0
LINE
  5
122
330
1F
100
AcDbEntity
  8
0
  6
Continuous
 62
     7
370
    25
100
AcDbLine
 10
6716.3187553361
 20
5205.7994420927
 30
0.0
 11
6724.2867781706
 21
5205.7994420927
 31
0.0
  0
LINE
  5
123
330
1F
100
AcDbEntity
  8
0
  6
Continuous
 62
     7
370
    25
100
AcDbLine
 10
6736.3187553361
 20
5205.7994420927
 30
0.0
 11
6736.3187553361
 21
5203.7994420927
 31
0.0
  0
LINE
  5
124
330
1F
100
AcDbEntity
  8
0
  6
Continuous
 62
     7
370
    25
100
AcDbLine
 10
5819.6867781706
 20
5205.7994420927
 30
0.0
 11
5811.7187553361
 21
5205.7994420927
 31
0.0
  0
LINE
  5
125
330
1F
100
AcDbEntity
  8
0
  6
Continuous
 62
     7
370
    25
100
AcDbLine
 10
5831.7187553361
 20
5205.7994420927
 30
0.0
 11
5823.7507325016
 21
5205.7994420927
 31
0.0
  0
LINE
  5
126
330
1F
100
AcDbEntity
  8
0
  6
Continuous
 62
     7
370
    25
100
AcDbLine
 10
5811.7187553361
 20
5205.7994420927
 30
0.0
 11
5811.7187553361
 21
5203.7994420927
 31
0.0
  0
LINE
  5
127
330
1F
100
AcDbEntity
  8
0
  6
Continuous
 62
     7
370
    25
100
AcDbLine
 10
5831.7187553361
 20
5203.7994420927
 30
0.0
 11
5811.7187553361
 21
5203.7994420927
 31
0.0
  0
LINE
  5
128
330
1F
100
AcDbEntity
  8
0
  6
Continuous
 62
     7
370
    25
100
AcDbLine
 10
5831.7187553361
 20
5205.7994420927
 30
0.0
 11
5831.7187553361
 21
5203.7994420927
 31
0.0
  0
LINE
  5
129
330
1F
100
AcDbEntity
  8
0
  6
Continuous
 62
     7
370
    25
100
AcDbLine
 10
5811.7187553361
 20
5206.0493281103
 30
0.0
 11
5811.7187553361
 21
5205.7994420927
 31
0.0
  0
LINE
  5
12A
330
1F
100
AcDbEntity
  8
0
  6
Continuous
 62
     7
370
    25
100
AcDbLine
 10
5831.7187553361
 20
5206.0493281103
 30
0.0
 11
5831.7187553361
 21
5205.7994420927
 31
0.0
  0
LINE
  5
12B
330
1F
100
AcDbEntity
  8
0
  6
Continuous
 62
     7
370
    25
100
AcDbLine
 10
6716.3187553361
 20
5206.0493281103
 30
0.0
 11
6716.3187553361
 21
5205.7994420927
 31
0.0
  0
LINE
  5
12C
330
1F
100
AcDbEntity
  8
0
  6
Continuous
 62
     7
370
    25
100
AcDbLine
 10
6736.3187553361
 20
5206.0493281103
 30
0.0
 11
6736.3187553361
 21
5205.7994420927
 31
0.0
  0
LINE
  5
12D
330
1F
100
AcDbEntity
  8
0
  6
Continuous
 62
     7
370
    25
100
AcDbLine
 10
6716.3187553361
 20
5229.8497840399
 30
0.0
 11
6736.3187553361
 21
5229.8497840399
 31
0.0
  0
LINE
  5
12E
330
1F
100
AcDbEntity
  8
0
  6
Continuous
 62
     7
370
    25
100
AcDbLine
 10
6716.3187553361
 20
5229.8497840399
 30
0.0
 11
6716.3187553361
 21
5206.0493281103
 31
0.0
  0
LINE
  5
12F
330
1F
100
AcDbEntity
  8
0
  6
Continuous
 62
     7
370
    25
100
AcDbLine
 10
6736.3187553361
 20
5229.8497840399
 30
0.0
 11
6736.3187553361
 21
5206.0493281103
 31
0.0
  0
LINE
  5
130
330
1F
100
AcDbEntity
  8
0
  6
Continuous
 62
     7
370
    25
100
AcDbLine
 10
5831.7187553361
 20
5229.8497840399
 30
0.0
 11
5811.7187553361
 21
5229.8497840399
 31
0.0
  0
LINE
  5
131
330
1F
100
AcDbEntity
  8
0
  6
Continuous
 62
     7
370
    25
100
AcDbLine
 10
5811.7187553361
 20
5229.8497840399
 30
0.0
 11
5811.7187553361
 21
5206.0493281103
 31
0.0
  0
LINE
  5
132
330
1F
100
AcDbEntity
  8
0
  6
Continuous
 62
     7
370
    25
100
AcDbLine
 10
5831.7187553361
 20
5229.8497840399
 30
0.0
 11
5831.7187553361
 21
5206.0493281103
 31
0.0
  0
LINE
  5
133
330
1F
100
AcDbEntity
  8
0
  6
Continuous
 62
     7
370
    25
100
AcDbLine
 10
5771.7187553361
 20
5230.5994420927
 30
0.0
 11
6776.3187553361
 21
5230.5994420927
 31
0.0
  0
LINE
  5
134
330
1F
100
AcDbEntity
  8
0
  6
Continuous
 62
     7
370
    25
100
AcDbLine
 10
6776.3187553361
 20
5231.7994420927
 30
0.0
 11
6776.3187553361
 21
5230.5994420927
 31
0.0
  0
LINE
  5
135
330
1F
100
AcDbEntity
  8
0
  6
Continuous
 62
     7
370
    25
100
AcDbLine
 10
5771.7187553361
 20
5231.7994420927
 30
0.0
 11
5771.7187553361
 21
5230.5994420927
 31
0.0
  0
LINE
  5
136
330
1F
100
AcDbEntity
  8
0
  6
Continuous
 62
     7
370
    25
100
AcDbLine
 10
5771.7187553361
 20
5231.7994420927
 30
0.0
 11
6776.3187553361
 21
5231.7994420927
 31
0.0
  0
LINE
  5
137
330
1F
100
AcDbEntity
  8
0
  6
Continuous
 62
     7
370
    25
100
AcDbLine
 10
6744.6187553361
 20
5245.7479007613
 30
0.0
 11
5803.4187553361
 21
5245.7479007613
 31
0.0
  0
LINE
  5
138
330
1F
100
AcDbEntity
  8
0
  6
Continuous
 62
     7
370
    25
100
AcDbLine
 10
5803.4187553361
 20
5245.7479007613
 30
0.0
 11
5799.055499886
 21
5245.7479007613
 31
0.0
  0
ARC
  5
139
330
1F
100
AcDbEntity
  8
0
  6
Continuous
 62
     7
370
    25
100
AcDbCircle
 10
5800.7187553361
 20
5246.0994420927
 30
0.0
 40
1.700000000000728
100
AcDbArc
 50
90.0
 51
191.9342465732
  0
LINE
  5
13A
330
1F
100
AcDbEntity
  8
0
  6
Continuous
 62
     7
370
    25
100
AcDbLine
 10
6748.9820107862
 20
5245.7479007613
 30
0.0
 11
6744.6187553361
 21
5245.7479007613
 31
0.0
  0
ARC
  5
13B
330
1F
100
AcDbEntity
  8
0
  6
Continuous
 62
     7
370
    25
100
AcDbCircle
 10
6747.3187553361
 20
5246.0994420927
 30
0.0
 40
1.700000000000728
100
AcDbArc
 50
348.0657534268
 51
90.0
  0
LINE
  5
13C
330
1F
100
AcDbEntity
  8
0
  6
Continuous
 62
     7
370
    25
100
AcDbLine
 10
6748.0928180068
 20
5241.5408428581
 30
0.0
 11
6744.6187553361
 21
5241.5408428581
 31
0.0
  0
LINE
  5
13D
330
1F
100
AcDbEntity
  8
0
  6
Continuous
 62
     7
370
    25
100
AcDbLine
 10
6744.6187553361
 20
5245.7479007613
 30
0.0
 11
6744.6187553361
 21
5241.5408428581
 31
0.0
  0
LINE
  5
13E
330
1F
100
AcDbEntity
  8
0
  6
Continuous
 62
     7
370
    25
100
AcDbLine
 10
6748.9820107862
 20
5245.7479007613
 30
0.0
 11
6748.0928180068
 21
5241.5408428581
 31
0.0
  0
LINE
  5
13F
330
1F
100
AcDbEntity
  8
0
  6
Continuous
 62
     7
370
    25
100
AcDbLine
 10
5803.4187553361
 20
5241.5408428581
 30
0.0
 11
5799.9446926654
 21
5241.5408428581
 31
0.0
  0
LINE
  5
140
330
1F
100
AcDbEntity
  8
0
  6
Continuous
 62
     7
370
    25
100
AcDbLine
 10
5799.055499886
 20
5245.7479007613
 30
0.0
 11
5799.9446926654
 21
5241.5408428581
 31
0.0
  0
LINE
  5
141
330
1F
100
AcDbEntity
  8
0
  6
Continuous
 62
     7
370
    25
100
AcDbLine
 10
5803.4187553361
 20
5245.7479007613
 30
0.0
 11
5803.4187553361
 21
5241.5408428581
 31
0.0
  0
LINE
  5
142
330
1F
100
AcDbEntity
  8
0
  6
Continuous
 62
     7
370
    25
100
AcDbLine
 10
6744.6187553361
 20
5241.5408428581
 30
0.0
 11
5803.4187553361
 21
5241.5408428581
 31
0.0
  0
LINE
  5
143
330
1F
100
AcDbEntity
  8
0
  6
Continuous
 62
     7
370
    25
100
AcDbLine
 10
6746.8187553361
 20
5241.5408428581
 30
0.0
 11
6746.8187553361
 21
5231.7994420927
 31
0.0
  0
LINE
  5
144
330
1F
100
AcDbEntity
  8
0
  6
Continuous
 62
     7
370
    25
100
AcDbLine
 10
5801.2187553361
 20
5241.5408428581
 30
0.0
 11
5801.2187553361
 21
5231.7994420927
 31
0.0
  0
LINE
  5
145
330
1F
100
AcDbEntity
  8
0
  6
Continuous
 62
     7
370
    25
100
AcDbLine
 10
6716.3187553361
 20
5230.5994420927
 30
0.0
 11
6716.3187553361
 21
5229.8497840399
 31
0.0
  0
LINE
  5
146
330
1F
100
AcDbEntity
  8
0
  6
Continuous
 62
     7
370
    25
100
AcDbLine
 10
6736.3187553361
 20
5230.5994420927
 30
0.0
 11
6736.3187553361
 21
5229.8497840399
 31
0.0
  0
LINE
  5
147
330
1F
100
AcDbEntity
  8
0
  6
Continuous
 62
     7
370
    25
100
AcDbLine
 10
5811.7187553361
 20
5230.5994420927
 30
0.0
 11
5811.7187553361
 21
5229.8497840399
 31
0.0
  0
LINE
  5
148
330
1F
100
AcDbEntity
  8
0
  6
Continuous
 62
     7
370
    25
100
AcDbLine
 10
5831.7187553361
 20
5230.5994420927
 30
0.0
 11
5831.7187553361
 21
5229.8497840399
 31
0.0
  0
LINE
  5
149
330
1F
100
AcDbEntity
  8
0
  6
Continuous
 62
     7
370
    25
100
AcDbLine
 10
6744.1187553361
 20
5261.7994420927
 30
0.0
 11
6764.1187553361
 21
5261.7994420927
 31
0.0
  0
ARC
  5
14A
330
1F
100
AcDbEntity
  8
0
  6
Continuous
 62
     7
370
    25
100
AcDbCircle
 10
6764.1187553361
 20
5266.7994420927
 30
0.0
 40
5.0
100
AcDbArc
 50
270.0
 51
90.0
  0
LINE
  5
14B
330
1F
100
AcDbEntity
  8
0
  6
Continuous
 62
     7
370
    25
100
AcDbLine
 10
6764.1187553361
 20
5271.7994420927
 30
0.0
 11
6744.1187553361
 21
5271.7994420927
 31
0.0
  0
ARC
  5
14C
330
1F
100
AcDbEntity
  8
0
  6
Continuous
 62
     7
370
    25
100
AcDbCircle
 10
6744.1187553361
 20
5266.7994420927
 30
0.0
 40
5.0
100
AcDbArc
 50
90.0
 51
270.0
  0
LINE
  5
14D
330
1F
100
AcDbEntity
  8
0
  6
Continuous
 62
     7
370
    25
100
AcDbLine
 10
6704.0187553361
 20
5261.7994420927
 30
0.0
 11
6724.0187553361
 21
5261.7994420927
 31
0.0
  0
ARC
  5
14E
330
1F
100
AcDbEntity
  8
0
  6
Continuous
 62
     7
370
    25
100
AcDbCircle
 10
6724.0187553361
 20
5266.7994420927
 30
0.0
 40
5.0
100
AcDbArc
 50
270.0
 51
90.0
  0
LINE
  5
14F
330
1F
100
AcDbEntity
  8
0
  6
Continuous
 62
     7
370
    25
100
AcDbLine
 10
6724.0187553361
 20
5271.7994420927
 30
0.0
 11
6704.0187553361
 21
5271.7994420927
 31
0.0
  0
ARC
  5
150
330
1F
100
AcDbEntity
  8
0
  6
Continuous
 62
     7
370
    25
100
AcDbCircle
 10
6704.0187553361
 20
5266.7994420927
 30
0.0
 40
5.0
100
AcDbArc
 50
90.0
 51
270.0
  0
LINE
  5
151
330
1F
100
AcDbEntity
  8
0
  6
Continuous
 62
     7
370
    25
100
AcDbLine
 10
6663.9187553361
 20
5261.7994420927
 30
0.0
 11
6683.9187553361
 21
5261.7994420927
 31
0.0
  0
ARC
  5
152
330
1F
100
AcDbEntity
  8
0
  6
Continuous
 62
     7
370
    25
100
AcDbCircle
 10
6683.9187553361
 20
5266.7994420927
 30
0.0
 40
5.0
100
AcDbArc
 50
270.0
 51
90.0
  0
LINE
  5
153
330
1F
100
AcDbEntity
  8
0
  6
Continuous
 62
     7
370
    25
100
AcDbLine
 10
6683.9187553361
 20
5271.7994420927
 30
0.0
 11
6663.9187553361
 21
5271.7994420927
 31
0.0
  0
ARC
  5
154
330
1F
100
AcDbEntity
  8
0
  6
Continuous
 62
     7
370
    25
100
AcDbCircle
 10
6663.9187553361
 20
5266.7994420927
 30
0.0
 40
5.0
100
AcDbArc
 50
90.0
 51
270.0
  0
LINE
  5
155
330
1F
100
AcDbEntity
  8
0
  6
Continuous
 62
     7
370
    25
100
AcDbLine
 10
6623.8187553361
 20
5261.7994420927
 30
0.0
 11
6643.8187553361
 21
5261.7994420927
 31
0.0
  0
ARC
  5
156
330
1F
100
AcDbEntity
  8
0
  6
Continuous
 62
     7
370
    25
100
AcDbCircle
 10
6643.8187553361
 20
5266.7994420927
 30
0.0
 40
5.0
100
AcDbArc
 50
270.0
 51
90.0
  0
LINE
  5
157
330
1F
100
AcDbEntity
  8
0
  6
Continuous
 62
     7
370
    25
100
AcDbLine
 10
6643.8187553361
 20
5271.7994420927
 30
0.0
 11
6623.8187553361
 21
5271.7994420927
 31
0.0
  0
ARC
  5
158
330
1F
100
AcDbEntity
  8
0
  6
Continuous
 62
     7
370
    25
100
AcDbCircle
 10
6623.8187553361
 20
5266.7994420927
 30
0.0
 40
5.0
100
AcDbArc
 50
90.0
 51
270.0
  0
LINE
  5
159
330
1F
100
AcDbEntity
  8
0
  6
Continuous
 62
     7
370
    25
100
AcDbLine
 10
6583.7187553361
 20
5261.7994420927
 30
0.0
 11
6603.7187553361
 21
5261.7994420927
 31
0.0
  0
ARC
  5
15A
330
1F
100
AcDbEntity
  8
0
  6
Continuous
 62
     7
370
    25
100
AcDbCircle
 10
6603.7187553361
 20
5266.7994420927
 30
0.0
 40
5.0
100
AcDbArc
 50
270.0
 51
90.0
  0
LINE
  5
15B
330
1F
100
AcDbEntity
  8
0
  6
Continuous
 62
     7
370
    25
100
AcDbLine
 10
6603.7187553361
 20
5271.7994420927
 30
0.0
 11
6583.7187553361
 21
5271.7994420927
 31
0.0
  0
ARC
  5
15C
330
1F
100
AcDbEntity
  8
0
  6
Continuous
 62
     7
370
    25
100
AcDbCircle
 10
6583.7187553361
 20
5266.7994420927
 30
0.0
 40
5.0
100
AcDbArc
 50
90.0
 51
270.0
  0
LINE
  5
15D
330
1F
100
AcDbEntity
  8
0
  6
Continuous
 62
     7
370
    25
100
AcDbLine
 10
6543.6187553361
 20
5261.7994420927
 30
0.0
 11
6563.6187553361
 21
5261.7994420927
 31
0.0
  0
ARC
  5
15E
330
1F
100
AcDbEntity
  8
0
  6
Continuous
 62
     7
370
    25
100
AcDbCircle
 10
6563.6187553361
 20
5266.7994420927
 30
0.0
 40
5.0
100
AcDbArc
 50
270.0
 51
90.0
  0
LINE
  5
15F
330
1F
100
AcDbEntity
  8
0
  6
Continuous
 62
     7
370
    25
100
AcDbLine
 10
6563.6187553361
 20
5271.7994420927
 30
0.0
 11
6543.6187553361
 21
5271.7994420927
 31
0.0
  0
ARC
  5
160
330
1F
100
AcDbEntity
  8
0
  6
Continuous
 62
     7
370
    25
100
AcDbCircle
 10
6543.6187553361
 20
5266.7994420927
 30
0.0
 40
5.0
100
AcDbArc
 50
90.0
 51
270.0
  0
LINE
  5
161
330
1F
100
AcDbEntity
  8
0
  6
Continuous
 62
     7
370
    25
100
AcDbLine
 10
6503.5187553361
 20
5261.7994420927
 30
0.0
 11
6523.5187553361
 21
5261.7994420927
 31
0.0
  0
ARC
  5
162
330
1F
100
AcDbEntity
  8
0
  6
Continuous
 62
     7
370
    25
100
AcDbCircle
 10
6523.5187553361
 20
5266.7994420927
 30
0.0
 40
5.0
100
AcDbArc
 50
270.0
 51
90.0
  0
LINE
  5
163
330
1F
100
AcDbEntity
  8
0
  6
Continuous
 62
     7
370
    25
100
AcDbLine
 10
6523.5187553361
 20
5271.7994420927
 30
0.0
 11
6503.5187553361
 21
5271.7994420927
 31
0.0
  0
ARC
  5
164
330
1F
100
AcDbEntity
  8
0
  6
Continuous
 62
     7
370
    25
100
AcDbCircle
 10
6503.5187553361
 20
5266.7994420927
 30
0.0
 40
5.0
100
AcDbArc
 50
90.0
 51
270.0
  0
LINE
  5
165
330
1F
100
AcDbEntity
  8
0
  6
Continuous
 62
     7
370
    25
100
AcDbLine
 10
6463.4187553361
 20
5261.7994420927
 30
0.0
 11
6483.4187553361
 21
5261.7994420927
 31
0.0
  0
ARC
  5
166
330
1F
100
AcDbEntity
  8
0
  6
Continuous
 62
     7
370
    25
100
AcDbCircle
 10
6483.4187553361
 20
5266.7994420927
 30
0.0
 40
5.000000000000909
100
AcDbArc
 50
270.0
 51
90.0
  0
LINE
  5
167
330
1F
100
AcDbEntity
  8
0
  6
Continuous
 62
     7
370
    25
100
AcDbLine
 10
6483.4187553361
 20
5271.7994420927
 30
0.0
 11
6463.4187553361
 21
5271.7994420927
 31
0.0
  0
ARC
  5
168
330
1F
100
AcDbEntity
  8
0
  6
Continuous
 62
     7
370
    25
100
AcDbCircle
 10
6463.4187553361
 20
5266.7994420927
 30
0.0
 40
5.000000000000909
100
AcDbArc
 50
90.0
 51
270.0
  0
LINE
  5
169
330
1F
100
AcDbEntity
  8
0
  6
Continuous
 62
     7
370
    25
100
AcDbLine
 10
6423.3187553361
 20
5261.7994420927
 30
0.0
 11
6443.3187553361
 21
5261.7994420927
 31
0.0
  0
ARC
  5
16A
330
1F
100
AcDbEntity
  8
0
  6
Continuous
 62
     7
370
    25
100
AcDbCircle
 10
6443.3187553361
 20
5266.7994420927
 30
0.0
 40
5.000000000000909
100
AcDbArc
 50
270.0
 51
90.0
  0
LINE
  5
16B
330
1F
100
AcDbEntity
  8
0
  6
Continuous
 62
     7
370
    25
100
AcDbLine
 10
6443.3187553361
 20
5271.7994420927
 30
0.0
 11
6423.3187553361
 21
5271.7994420927
 31
0.0
  0
ARC
  5
16C
330
1F
100
AcDbEntity
  8
0
  6
Continuous
 62
     7
370
    25
100
AcDbCircle
 10
6423.3187553361
 20
5266.7994420927
 30
0.0
 40
5.000000000000909
100
AcDbArc
 50
90.0
 51
270.0
  0
LINE
  5
16D
330
1F
100
AcDbEntity
  8
0
  6
Continuous
 62
     7
370
    25
100
AcDbLine
 10
6383.2187553361
 20
5261.7994420927
 30
0.0
 11
6403.2187553361
 21
5261.7994420927
 31
0.0
  0
ARC
  5
16E
330
1F
100
AcDbEntity
  8
0
  6
Continuous
 62
     7
370
    25
100
AcDbCircle
 10
6403.2187553361
 20
5266.7994420927
 30
0.0
 40
5.000000000000909
100
AcDbArc
 50
270.0
 51
90.0
  0
LINE
  5
16F
330
1F
100
AcDbEntity
  8
0
  6
Continuous
 62
     7
370
    25
100
AcDbLine
 10
6403.2187553361
 20
5271.7994420927
 30
0.0
 11
6383.2187553361
 21
5271.7994420927
 31
0.0
  0
ARC
  5
170
330
1F
100
AcDbEntity
  8
0
  6
Continuous
 62
     7
370
    25
100
AcDbCircle
 10
6383.2187553361
 20
5266.7994420927
 30
0.0
 40
5.000000000000909
100
AcDbArc
 50
90.0
 51
270.0
  0
LINE
  5
171
330
1F
100
AcDbEntity
  8
0
  6
Continuous
 62
     7
370
    25
100
AcDbLine
 10
6343.1187553361
 20
5261.7994420927
 30
0.0
 11
6363.1187553361
 21
5261.7994420927
 31
0.0
  0
ARC
  5
172
330
1F
100
AcDbEntity
  8
0
  6
Continuous
 62
     7
370
    25
100
AcDbCircle
 10
6363.1187553361
 20
5266.7994420927
 30
0.0
 40
5.000000000000909
100
AcDbArc
 50
270.0
 51
90.0
  0
LINE
  5
173
330
1F
100
AcDbEntity
  8
0
  6
Continuous
 62
     7
370
    25
100
AcDbLine
 10
6363.1187553361
 20
5271.7994420927
 30
0.0
 11
6343.1187553361
 21
5271.7994420927
 31
0.0
  0
ARC
  5
174
330
1F
100
AcDbEntity
  8
0
  6
Continuous
 62
     7
370
    25
100
AcDbCircle
 10
6343.1187553361
 20
5266.7994420927
 30
0.0
 40
5.000000000000909
100
AcDbArc
 50
90.0
 51
270.0
  0
LINE
  5
175
330
1F
100
AcDbEntity
  8
0
  6
Continuous
 62
     7
370
    25
100
AcDbLine
 10
6303.0187553361
 20
5261.7994420927
 30
0.0
 11
6323.0187553361
 21
5261.7994420927
 31
0.0
  0
ARC
  5
176
330
1F
100
AcDbEntity
  8
0
  6
Continuous
 62
     7
370
    25
100
AcDbCircle
 10
6323.0187553361
 20
5266.7994420927
 30
0.0
 40
5.000000000000909
100
AcDbArc
 50
270.0
 51
90.0
  0
LINE
  5
177
330
1F
100
AcDbEntity
  8
0
  6
Continuous
 62
     7
370
    25
100
AcDbLine
 10
6323.0187553361
 20
5271.7994420927
 30
0.0
 11
6303.0187553361
 21
5271.7994420927
 31
0.0
  0
ARC
  5
178
330
1F
100
AcDbEntity
  8
0
  6
Continuous
 62
     7
370
    25
100
AcDbCircle
 10
6303.0187553361
 20
5266.7994420927
 30
0.0
 40
5.000000000000909
100
AcDbArc
 50
90.0
 51
270.0
  0
LINE
  5
179
330
1F
100
AcDbEntity
  8
0
  6
Continuous
 62
     7
370
    25
100
AcDbLine
 10
6262.9187553361
 20
5261.7994420927
 30
0.0
 11
6282.9187553361
 21
5261.7994420927
 31
0.0
  0
ARC
  5
17A
330
1F
100
AcDbEntity
  8
0
  6
Continuous
 62
     7
370
    25
100
AcDbCircle
 10
6282.9187553361
 20
5266.7994420927
 30
0.0
 40
5.000000000000909
100
AcDbArc
 50
270.0
 51
90.0
  0
LINE
  5
17B
330
1F
100
AcDbEntity
  8
0
  6
Continuous
 62
     7
370
    25
100
AcDbLine
 10
6282.9187553361
 20
5271.7994420927
 30
0.0
 11
6262.9187553361
 21
5271.7994420927
 31
0.0
  0
ARC
  5
17C
330
1F
100
AcDbEntity
  8
0
  6
Continuous
 62
     7
370
    25
100
AcDbCircle
 10
6262.9187553361
 20
5266.7994420927
 30
0.0
 40
5.000000000000909
100
AcDbArc
 50
90.0
 51
270.0
  0
LINE
  5
17D
330
1F
100
AcDbEntity
  8
0
  6
Continuous
 62
     7
370
    25
100
AcDbLine
 10
6222.8187553361
 20
5261.7994420927
 30
0.0
 11
6242.8187553361
 21
5261.7994420927
 31
0.0
  0
ARC
  5
17E
330
1F
100
AcDbEntity
  8
0
  6
Continuous
 62
     7
370
    25
100
AcDbCircle
 10
6242.8187553361
 20
5266.7994420927
 30
0.0
 40
5.000000000000909
100
AcDbArc
 50
270.0
 51
90.0
  0
LINE
  5
17F
330
1F
100
AcDbEntity
  8
0
  6
Continuous
 62
     7
370
    25
100
AcDbLine
 10
6242.8187553361
 20
5271.7994420927
 30
0.0
 11
6222.8187553361
 21
5271.7994420927
 31
0.0
  0
ARC
  5
180
330
1F
100
AcDbEntity
  8
0
  6
Continuous
 62
     7
370
    25
100
AcDbCircle
 10
6222.8187553361
 20
5266.7994420927
 30
0.0
 40
5.000000000000909
100
AcDbArc
 50
90.0
 51
270.0
  0
LINE
  5
181
330
1F
100
AcDbEntity
  8
0
  6
Continuous
 62
     7
370
    25
100
AcDbLine
 10
6182.7187553361
 20
5261.7994420927
 30
0.0
 11
6202.7187553361
 21
5261.7994420927
 31
0.0
  0
ARC
  5
182
330
1F
100
AcDbEntity
  8
0
  6
Continuous
 62
     7
370
    25
100
AcDbCircle
 10
6202.7187553361
 20
5266.7994420927
 30
0.0
 40
5.000000000000909
100
AcDbArc
 50
270.0
 51
90.0
  0
LINE
  5
183
330
1F
100
AcDbEntity
  8
0
  6
Continuous
 62
     7
370
    25
100
AcDbLine
 10
6202.7187553361
 20
5271.7994420927
 30
0.0
 11
6182.7187553361
 21
5271.7994420927
 31
0.0
  0
ARC
  5
184
330
1F
100
AcDbEntity
  8
0
  6
Continuous
 62
     7
370
    25
100
AcDbCircle
 10
6182.7187553361
 20
5266.7994420927
 30
0.0
 40
5.000000000000909
100
AcDbArc
 50
90.0
 51
270.0
  0
LINE
  5
185
330
1F
100
AcDbEntity
  8
0
  6
Continuous
 62
     7
370
    25
100
AcDbLine
 10
6142.6187553361
 20
5261.7994420927
 30
0.0
 11
6162.6187553361
 21
5261.7994420927
 31
0.0
  0
ARC
  5
186
330
1F
100
AcDbEntity
  8
0
  6
Continuous
 62
     7
370
    25
100
AcDbCircle
 10
6162.6187553361
 20
5266.7994420927
 30
0.0
 40
5.000000000000909
100
AcDbArc
 50
270.0
 51
90.0
  0
LINE
  5
187
330
1F
100
AcDbEntity
  8
0
  6
Continuous
 62
     7
370
    25
100
AcDbLine
 10
6162.6187553361
 20
5271.7994420927
 30
0.0
 11
6142.6187553361
 21
5271.7994420927
 31
0.0
  0
ARC
  5
188
330
1F
100
AcDbEntity
  8
0
  6
Continuous
 62
     7
370
    25
100
AcDbCircle
 10
6142.6187553361
 20
5266.7994420927
 30
0.0
 40
5.000000000000909
100
AcDbArc
 50
90.0
 51
270.0
  0
LINE
  5
189
330
1F
100
AcDbEntity
  8
0
  6
Continuous
 62
     7
370
    25
100
AcDbLine
 10
6102.5187553361
 20
5261.7994420927
 30
0.0
 11
6122.5187553361
 21
5261.7994420927
 31
0.0
  0
ARC
  5
18A
330
1F
100
AcDbEntity
  8
0
  6
Continuous
 62
     7
370
    25
100
AcDbCircle
 10
6122.5187553361
 20
5266.7994420927
 30
0.0
 40
5.000000000000909
100
AcDbArc
 50
270.0
 51
90.0
  0
LINE
  5
18B
330
1F
100
AcDbEntity
  8
0
  6
Continuous
 62
     7
370
    25
100
AcDbLine
 10
6122.5187553361
 20
5271.7994420927
 30
0.0
 11
6102.5187553361
 21
5271.7994420927
 31
0.0
  0
ARC
  5
18C
330
1F
100
AcDbEntity
  8
0
  6
Continuous
 62
     7
370
    25
100
AcDbCircle
 10
6102.5187553361
 20
5266.7994420927
 30
0.0
 40
5.000000000000909
100
AcDbArc
 50
90.0
 51
270.0
  0
LINE
  5
18D
330
1F
100
AcDbEntity
  8
0
  6
Continuous
 62
     7
370
    25
100
AcDbLine
 10
6062.4187553361
 20
5261.7994420927
 30
0.0
 11
6082.4187553361
 21
5261.7994420927
 31
0.0
  0
ARC
  5
18E
330
1F
100
AcDbEntity
  8
0
  6
Continuous
 62
     7
370
    25
100
AcDbCircle
 10
6082.4187553361
 20
5266.7994420927
 30
0.0
 40
5.000000000000909
100
AcDbArc
 50
270.0
 51
90.0
  0
LINE
  5
18F
330
1F
100
AcDbEntity
  8
0
  6
Continuous
 62
     7
370
    25
100
AcDbLine
 10
6082.4187553361
 20
5271.7994420927
 30
0.0
 11
6062.4187553361
 21
5271.7994420927
 31
0.0
  0
ARC
  5
190
330
1F
100
AcDbEntity
  8
0
  6
Continuous
 62
     7
370
    25
100
AcDbCircle
 10
6062.4187553361
 20
5266.7994420927
 30
0.0
 40
5.000000000000909
100
AcDbArc
 50
90.0
 51
270.0
  0
LINE
  5
191
330
1F
100
AcDbEntity
  8
0
  6
Continuous
 62
     7
370
    25
100
AcDbLine
 10
6022.3187553361
 20
5261.7994420927
 30
0.0
 11
6042.3187553361
 21
5261.7994420927
 31
0.0
  0
ARC
  5
192
330
1F
100
AcDbEntity
  8
0
  6
Continuous
 62
     7
370
    25
100
AcDbCircle
 10
6042.3187553361
 20
5266.7994420927
 30
0.0
 40
5.000000000000909
100
AcDbArc
 50
270.0
 51
90.0
  0
LINE
  5
193
330
1F
100
AcDbEntity
  8
0
  6
Continuous
 62
     7
370
    25
100
AcDbLine
 10
6042.3187553361
 20
5271.7994420927
 30
0.0
 11
6022.3187553361
 21
5271.7994420927
 31
0.0
  0
ARC
  5
194
330
1F
100
AcDbEntity
  8
0
  6
Continuous
 62
     7
370
    25
100
AcDbCircle
 10
6022.3187553361
 20
5266.7994420927
 30
0.0
 40
5.000000000000909
100
AcDbArc
 50
90.0
 51
270.0
  0
LINE
  5
195
330
1F
100
AcDbEntity
  8
0
  6
Continuous
 62
     7
370
    25
100
AcDbLine
 10
5982.2187553361
 20
5261.7994420927
 30
0.0
 11
6002.2187553361
 21
5261.7994420927
 31
0.0
  0
ARC
  5
196
330
1F
100
AcDbEntity
  8
0
  6
Continuous
 62
     7
370
    25
100
AcDbCircle
 10
6002.2187553361
 20
5266.7994420927
 30
0.0
 40
5.000000000000909
100
AcDbArc
 50
270.0
 51
90.0
  0
LINE
  5
197
330
1F
100
AcDbEntity
  8
0
  6
Continuous
 62
     7
370
    25
100
AcDbLine
 10
6002.2187553361
 20
5271.7994420927
 30
0.0
 11
5982.2187553361
 21
5271.7994420927
 31
0.0
  0
ARC
  5
198
330
1F
100
AcDbEntity
  8
0
  6
Continuous
 62
     7
370
    25
100
AcDbCircle
 10
5982.2187553361
 20
5266.7994420927
 30
0.0
 40
5.000000000000909
100
AcDbArc
 50
90.0
 51
270.0
  0
LINE
  5
199
330
1F
100
AcDbEntity
  8
0
  6
Continuous
 62
     7
370
    25
100
AcDbLine
 10
5942.1187553361
 20
5261.7994420927
 30
0.0
 11
5962.1187553361
 21
5261.7994420927
 31
0.0
  0
ARC
  5
19A
330
1F
100
AcDbEntity
  8
0
  6
Continuous
 62
     7
370
    25
100
AcDbCircle
 10
5962.1187553361
 20
5266.7994420927
 30
0.0
 40
5.000000000000909
100
AcDbArc
 50
270.0
 51
90.0
  0
LINE
  5
19B
330
1F
100
AcDbEntity
  8
0
  6
Continuous
 62
     7
370
    25
100
AcDbLine
 10
5962.1187553361
 20
5271.7994420927
 30
0.0
 11
5942.1187553361
 21
5271.7994420927
 31
0.0
  0
ARC
  5
19C
330
1F
100
AcDbEntity
  8
0
  6
Continuous
 62
     7
370
    25
100
AcDbCircle
 10
5942.1187553361
 20
5266.7994420927
 30
0.0
 40
5.000000000000909
100
AcDbArc
 50
90.0
 51
270.0
  0
LINE
  5
19D
330
1F
100
AcDbEntity
  8
0
  6
Continuous
 62
     7
370
    25
100
AcDbLine
 10
5902.0187553361
 20
5261.7994420927
 30
0.0
 11
5922.0187553361
 21
5261.7994420927
 31
0.0
  0
ARC
  5
19E
330
1F
100
AcDbEntity
  8
0
  6
Continuous
 62
     7
370
    25
100
AcDbCircle
 10
5922.0187553361
 20
5266.7994420927
 30
0.0
 40
5.000000000000909
100
AcDbArc
 50
270.0
 51
90.0
  0
LINE
  5
19F
330
1F
100
AcDbEntity
  8
0
  6
Continuous
 62
     7
370
    25
100
AcDbLine
 10
5922.0187553361
 20
5271.7994420927
 30
0.0
 11
5902.0187553361
 21
5271.7994420927
 31
0.0
  0
ARC
  5
1A0
330
1F
100
AcDbEntity
  8
0
  6
Continuous
 62
     7
370
    25
100
AcDbCircle
 10
5902.0187553361
 20
5266.7994420927
 30
0.0
 40
5.000000000000909
100
AcDbArc
 50
90.0
 51
270.0
  0
LINE
  5
1A1
330
1F
100
AcDbEntity
  8
0
  6
Continuous
 62
     7
370
    25
100
AcDbLine
 10
5861.9187553361
 20
5261.7994420927
 30
0.0
 11
5881.9187553361
 21
5261.7994420927
 31
0.0
  0
ARC
  5
1A2
330
1F
100
AcDbEntity
  8
0
  6
Continuous
 62
     7
370
    25
100
AcDbCircle
 10
5881.9187553361
 20
5266.7994420927
 30
0.0
 40
5.000000000000909
100
AcDbArc
 50
270.0
 51
90.0
  0
LINE
  5
1A3
330
1F
100
AcDbEntity
  8
0
  6
Continuous
 62
     7
370
    25
100
AcDbLine
 10
5881.9187553361
 20
5271.7994420927
 30
0.0
 11
5861.9187553361
 21
5271.7994420927
 31
0.0
  0
ARC
  5
1A4
330
1F
100
AcDbEntity
  8
0
  6
Continuous
 62
     7
370
    25
100
AcDbCircle
 10
5861.9187553361
 20
5266.7994420927
 30
0.0
 40
5.000000000000909
100
AcDbArc
 50
90.0
 51
270.0
  0
LINE
  5
1A5
330
1F
100
AcDbEntity
  8
0
  6
Continuous
 62
     7
370
    25
100
AcDbLine
 10
6744.1187553361
 20
5281.7994420927
 30
0.0
 11
6764.1187553361
 21
5281.7994420927
 31
0.0
  0
ARC
  5
1A6
330
1F
100
AcDbEntity
  8
0
  6
Continuous
 62
     7
370
    25
100
AcDbCircle
 10
6764.1187553361
 20
5286.7994420927
 30
0.0
 40
5.0
100
AcDbArc
 50
270.0
 51
90.0
  0
LINE
  5
1A7
330
1F
100
AcDbEntity
  8
0
  6
Continuous
 62
     7
370
    25
100
AcDbLine
 10
6764.1187553361
 20
5291.7994420927
 30
0.0
 11
6744.1187553361
 21
5291.7994420927
 31
0.0
  0
ARC
  5
1A8
330
1F
100
AcDbEntity
  8
0
  6
Continuous
 62
     7
370
    25
100
AcDbCircle
 10
6744.1187553361
 20
5286.7994420927
 30
0.0
 40
5.0
100
AcDbArc
 50
90.0
 51
270.0
  0
LINE
  5
1A9
330
1F
100
AcDbEntity
  8
0
  6
Continuous
 62
     7
370
    25
100
AcDbLine
 10
6704.0187553361
 20
5281.7994420927
 30
0.0
 11
6724.0187553361
 21
5281.7994420927
 31
0.0
  0
ARC
  5
1AA
330
1F
100
AcDbEntity
  8
0
  6
Continuous
 62
     7
370
    25
100
AcDbCircle
 10
6724.0187553361
 20
5286.7994420927
 30
0.0
 40
5.0
100
AcDbArc
 50
270.0
 51
90.0
  0
LINE
  5
1AB
330
1F
100
AcDbEntity
  8
0
  6
Continuous
 62
     7
370
    25
100
AcDbLine
 10
6724.0187553361
 20
5291.7994420927
 30
0.0
 11
6704.0187553361
 21
5291.7994420927
 31
0.0
  0
ARC
  5
1AC
330
1F
100
AcDbEntity
  8
0
  6
Continuous
 62
     7
370
    25
100
AcDbCircle
 10
6704.0187553361
 20
5286.7994420927
 30
0.0
 40
5.0
100
AcDbArc
 50
90.0
 51
270.0
  0
LINE
  5
1AD
330
1F
100
AcDbEntity
  8
0
  6
Continuous
 62
     7
370
    25
100
AcDbLine
 10
6663.9187553361
 20
5281.7994420927
 30
0.0
 11
6683.9187553361
 21
5281.7994420927
 31
0.0
  0
ARC
  5
1AE
330
1F
100
AcDbEntity
  8
0
  6
Continuous
 62
     7
370
    25
100
AcDbCircle
 10
6683.9187553361
 20
5286.7994420927
 30
0.0
 40
5.0
100
AcDbArc
 50
270.0
 51
90.0
  0
LINE
  5
1AF
330
1F
100
AcDbEntity
  8
0
  6
Continuous
 62
     7
370
    25
100
AcDbLine
 10
6683.9187553361
 20
5291.7994420927
 30
0.0
 11
6663.9187553361
 21
5291.7994420927
 31
0.0
  0
ARC
  5
1B0
330
1F
100
AcDbEntity
  8
0
  6
Continuous
 62
     7
370
    25
100
AcDbCircle
 10
6663.9187553361
 20
5286.7994420927
 30
0.0
 40
5.0
100
AcDbArc
 50
90.0
 51
270.0
  0
LINE
  5
1B1
330
1F
100
AcDbEntity
  8
0
  6
Continuous
 62
     7
370
    25
100
AcDbLine
 10
6623.8187553361
 20
5281.7994420927
 30
0.0
 11
6643.8187553361
 21
5281.7994420927
 31
0.0
  0
ARC
  5
1B2
330
1F
100
AcDbEntity
  8
0
  6
Continuous
 62
     7
370
    25
100
AcDbCircle
 10
6643.8187553361
 20
5286.7994420927
 30
0.0
 40
5.0
100
AcDbArc
 50
270.0
 51
90.0
  0
LINE
  5
1B3
330
1F
100
AcDbEntity
  8
0
  6
Continuous
 62
     7
370
    25
100
AcDbLine
 10
6643.8187553361
 20
5291.7994420927
 30
0.0
 11
6623.8187553361
 21
5291.7994420927
 31
0.0
  0
ARC
  5
1B4
330
1F
100
AcDbEntity
  8
0
  6
Continuous
 62
     7
370
    25
100
AcDbCircle
 10
6623.8187553361
 20
5286.7994420927
 30
0.0
 40
5.0
100
AcDbArc
 50
90.0
 51
270.0
  0
LINE
  5
1B5
330
1F
100
AcDbEntity
  8
0
  6
Continuous
 62
     7
370
    25
100
AcDbLine
 10
6583.7187553361
 20
5281.7994420927
 30
0.0
 11
6603.7187553361
 21
5281.7994420927
 31
0.0
  0
ARC
  5
1B6
330
1F
100
AcDbEntity
  8
0
  6
Continuous
 62
     7
370
    25
100
AcDbCircle
 10
6603.7187553361
 20
5286.7994420927
 30
0.0
 40
5.0
100
AcDbArc
 50
270.0
 51
90.0
  0
LINE
  5
1B7
330
1F
100
AcDbEntity
  8
0
  6
Continuous
 62
     7
370
    25
100
AcDbLine
 10
6603.7187553361
 20
5291.7994420927
 30
0.0
 11
6583.7187553361
 21
5291.7994420927
 31
0.0
  0
ARC
  5
1B8
330
1F
100
AcDbEntity
  8
0
  6
Continuous
 62
     7
370
    25
100
AcDbCircle
 10
6583.7187553361
 20
5286.7994420927
 30
0.0
 40
5.0
100
AcDbArc
 50
90.0
 51
270.0
  0
LINE
  5
1B9
330
1F
100
AcDbEntity
  8
0
  6
Continuous
 62
     7
370
    25
100
AcDbLine
 10
6543.6187553361
 20
5281.7994420927
 30
0.0
 11
6563.6187553361
 21
5281.7994420927
 31
0.0
  0
ARC
  5
1BA
330
1F
100
AcDbEntity
  8
0
  6
Continuous
 62
     7
370
    25
100
AcDbCircle
 10
6563.6187553361
 20
5286.7994420927
 30
0.0
 40
5.0
100
AcDbArc
 50
270.0
 51
90.0
  0
LINE
  5
1BB
330
1F
100
AcDbEntity
  8
0
  6
Continuous
 62
     7
370
    25
100
AcDbLine
 10
6563.6187553361
 20
5291.7994420927
 30
0.0
 11
6543.6187553361
 21
5291.7994420927
 31
0.0
  0
ARC
  5
1BC
330
1F
100
AcDbEntity
  8
0
  6
Continuous
 62
     7
370
    25
100
AcDbCircle
 10
6543.6187553361
 20
5286.7994420927
 30
0.0
 40
5.0
100
AcDbArc
 50
90.0
 51
270.0
  0
LINE
  5
1BD
330
1F
100
AcDbEntity
  8
0
  6
Continuous
 62
     7
370
    25
100
AcDbLine
 10
6503.5187553361
 20
5281.7994420927
 30
0.0
 11
6523.5187553361
 21
5281.7994420927
 31
0.0
  0
ARC
  5
1BE
330
1F
100
AcDbEntity
  8
0
  6
Continuous
 62
     7
370
    25
100
AcDbCircle
 10
6523.5187553361
 20
5286.7994420927
 30
0.0
 40
5.0
100
AcDbArc
 50
270.0
 51
90.0
  0
LINE
  5
1BF
330
1F
100
AcDbEntity
  8
0
  6
Continuous
 62
     7
370
    25
100
AcDbLine
 10
6523.5187553361
 20
5291.7994420927
 30
0.0
 11
6503.5187553361
 21
5291.7994420927
 31
0.0
  0
ARC
  5
1C0
330
1F
100
AcDbEntity
  8
0
  6
Continuous
 62
     7
370
    25
100
AcDbCircle
 10
6503.5187553361
 20
5286.7994420927
 30
0.0
 40
5.0
100
AcDbArc
 50
90.0
 51
270.0
  0
LINE
  5
1C1
330
1F
100
AcDbEntity
  8
0
  6
Continuous
 62
     7
370
    25
100
AcDbLine
 10
6463.4187553361
 20
5281.7994420927
 30
0.0
 11
6483.4187553361
 21
5281.7994420927
 31
0.0
  0
ARC
  5
1C2
330
1F
100
AcDbEntity
  8
0
  6
Continuous
 62
     7
370
    25
100
AcDbCircle
 10
6483.4187553361
 20
5286.7994420927
 30
0.0
 40
5.0
100
AcDbArc
 50
270.0
 51
90.0
  0
LINE
  5
1C3
330
1F
100
AcDbEntity
  8
0
  6
Continuous
 62
     7
370
    25
100
AcDbLine
 10
6483.4187553361
 20
5291.7994420927
 30
0.0
 11
6463.4187553361
 21
5291.7994420927
 31
0.0
  0
ARC
  5
1C4
330
1F
100
AcDbEntity
  8
0
  6
Continuous
 62
     7
370
    25
100
AcDbCircle
 10
6463.4187553361
 20
5286.7994420927
 30
0.0
 40
5.0
100
AcDbArc
 50
90.0
 51
270.0
  0
LINE
  5
1C5
330
1F
100
AcDbEntity
  8
0
  6
Continuous
 62
     7
370
    25
100
AcDbLine
 10
6423.3187553361
 20
5281.7994420927
 30
0.0
 11
6443.3187553361
 21
5281.7994420927
 31
0.0
  0
ARC
  5
1C6
330
1F
100
AcDbEntity
  8
0
  6
Continuous
 62
     7
370
    25
100
AcDbCircle
 10
6443.3187553361
 20
5286.7994420927
 30
0.0
 40
5.0
100
AcDbArc
 50
270.0
 51
90.0
  0
LINE
  5
1C7
330
1F
100
AcDbEntity
  8
0
  6
Continuous
 62
     7
370
    25
100
AcDbLine
 10
6443.3187553361
 20
5291.7994420927
 30
0.0
 11
6423.3187553361
 21
5291.7994420927
 31
0.0
  0
ARC
  5
1C8
330
1F
100
AcDbEntity
  8
0
  6
Continuous
 62
     7
370
    25
100
AcDbCircle
 10
6423.3187553361
 20
5286.7994420927
 30
0.0
 40
5.0
100
AcDbArc
 50
90.0
 51
270.0
  0
LINE
  5
1C9
330
1F
100
AcDbEntity
  8
0
  6
Continuous
 62
     7
370
    25
100
AcDbLine
 10
6383.2187553361
 20
5281.7994420927
 30
0.0
 11
6403.2187553361
 21
5281.7994420927
 31
0.0
  0
ARC
  5
1CA
330
1F
100
AcDbEntity
  8
0
  6
Continuous
 62
     7
370
    25
100
AcDbCircle
 10
6403.2187553361
 20
5286.7994420927
 30
0.0
 40
5.0
100
AcDbArc
 50
270.0
 51
90.0
  0
LINE
  5
1CB
330
1F
100
AcDbEntity
  8
0
  6
Continuous
 62
     7
370
    25
100
AcDbLine
 10
6403.2187553361
 20
5291.7994420927
 30
0.0
 11
6383.2187553361
 21
5291.7994420927
 31
0.0
  0
ARC
  5
1CC
330
1F
100
AcDbEntity
  8
0
  6
Continuous
 62
     7
370
    25
100
AcDbCircle
 10
6383.2187553361
 20
5286.7994420927
 30
0.0
 40
5.0
100
AcDbArc
 50
90.0
 51
270.0
  0
LINE
  5
1CD
330
1F
100
AcDbEntity
  8
0
  6
Continuous
 62
     7
370
    25
100
AcDbLine
 10
6343.1187553361
 20
5281.7994420927
 30
0.0
 11
6363.1187553361
 21
5281.7994420927
 31
0.0
  0
ARC
  5
1CE
330
1F
100
AcDbEntity
  8
0
  6
Continuous
 62
     7
370
    25
100
AcDbCircle
 10
6363.1187553361
 20
5286.7994420927
 30
0.0
 40
5.0
100
AcDbArc
 50
270.0
 51
90.0
  0
LINE
  5
1CF
330
1F
100
AcDbEntity
  8
0
  6
Continuous
 62
     7
370
    25
100
AcDbLine
 10
6363.1187553361
 20
5291.7994420927
 30
0.0
 11
6343.1187553361
 21
5291.7994420927
 31
0.0
  0
ARC
  5
1D0
330
1F
100
AcDbEntity
  8
0
  6
Continuous
 62
     7
370
    25
100
AcDbCircle
 10
6343.1187553361
 20
5286.7994420927
 30
0.0
 40
5.0
100
AcDbArc
 50
90.0
 51
270.0
  0
LINE
  5
1D1
330
1F
100
AcDbEntity
  8
0
  6
Continuous
 62
     7
370
    25
100
AcDbLine
 10
6303.0187553361
 20
5281.7994420927
 30
0.0
 11
6323.0187553361
 21
5281.7994420927
 31
0.0
  0
ARC
  5
1D2
330
1F
100
AcDbEntity
  8
0
  6
Continuous
 62
     7
370
    25
100
AcDbCircle
 10
6323.0187553361
 20
5286.7994420927
 30
0.0
 40
5.0
100
AcDbArc
 50
270.0
 51
90.0
  0
LINE
  5
1D3
330
1F
100
AcDbEntity
  8
0
  6
Continuous
 62
     7
370
    25
100
AcDbLine
 10
6323.0187553361
 20
5291.7994420927
 30
0.0
 11
6303.0187553361
 21
5291.7994420927
 31
0.0
  0
ARC
  5
1D4
330
1F
100
AcDbEntity
  8
0
  6
Continuous
 62
     7
370
    25
100
AcDbCircle
 10
6303.0187553361
 20
5286.7994420927
 30
0.0
 40
5.0
100
AcDbArc
 50
90.0
 51
270.0
  0
LINE
  5
1D5
330
1F
100
AcDbEntity
  8
0
  6
Continuous
 62
     7
370
    25
100
AcDbLine
 10
6262.9187553361
 20
5281.7994420927
 30
0.0
 11
6282.9187553361
 21
5281.7994420927
 31
0.0
  0
ARC
  5
1D6
330
1F
100
AcDbEntity
  8
0
  6
Continuous
 62
     7
370
    25
100
AcDbCircle
 10
6282.9187553361
 20
5286.7994420927
 30
0.0
 40
5.0
100
AcDbArc
 50
270.0
 51
90.0
  0
LINE
  5
1D7
330
1F
100
AcDbEntity
  8
0
  6
Continuous
 62
     7
370
    25
100
AcDbLine
 10
6282.9187553361
 20
5291.7994420927
 30
0.0
 11
6262.9187553361
 21
5291.7994420927
 31
0.0
  0
ARC
  5
1D8
330
1F
100
AcDbEntity
  8
0
  6
Continuous
 62
     7
370
    25
100
AcDbCircle
 10
6262.9187553361
 20
5286.7994420927
 30
0.0
 40
5.0
100
AcDbArc
 50
90.0
 51
270.0
  0
LINE
  5
1D9
330
1F
100
AcDbEntity
  8
0
  6
Continuous
 62
     7
370
    25
100
AcDbLine
 10
6222.8187553361
 20
5281.7994420927
 30
0.0
 11
6242.8187553361
 21
5281.7994420927
 31
0.0
  0
ARC
  5
1DA
330
1F
100
AcDbEntity
  8
0
  6
Continuous
 62
     7
370
    25
100
AcDbCircle
 10
6242.8187553361
 20
5286.7994420927
 30
0.0
 40
5.0
100
AcDbArc
 50
270.0
 51
90.0
  0
LINE
  5
1DB
330
1F
100
AcDbEntity
  8
0
  6
Continuous
 62
     7
370
    25
100
AcDbLine
 10
6242.8187553361
 20
5291.7994420927
 30
0.0
 11
6222.8187553361
 21
5291.7994420927
 31
0.0
  0
ARC
  5
1DC
330
1F
100
AcDbEntity
  8
0
  6
Continuous
 62
     7
370
    25
100
AcDbCircle
 10
6222.8187553361
 20
5286.7994420927
 30
0.0
 40
5.0
100
AcDbArc
 50
90.0
 51
270.0
  0
LINE
  5
1DD
330
1F
100
AcDbEntity
  8
0
  6
Continuous
 62
     7
370
    25
100
AcDbLine
 10
6182.7187553361
 20
5281.7994420927
 30
0.0
 11
6202.7187553361
 21
5281.7994420927
 31
0.0
  0
ARC
  5
1DE
330
1F
100
AcDbEntity
  8
0
  6
Continuous
 62
     7
370
    25
100
AcDbCircle
 10
6202.7187553361
 20
5286.7994420927
 30
0.0
 40
5.0
100
AcDbArc
 50
270.0
 51
90.0
  0
LINE
  5
1DF
330
1F
100
AcDbEntity
  8
0
  6
Continuous
 62
     7
370
    25
100
AcDbLine
 10
6202.7187553361
 20
5291.7994420927
 30
0.0
 11
6182.7187553361
 21
5291.7994420927
 31
0.0
  0
ARC
  5
1E0
330
1F
100
AcDbEntity
  8
0
  6
Continuous
 62
     7
370
    25
100
AcDbCircle
 10
6182.7187553361
 20
5286.7994420927
 30
0.0
 40
5.0
100
AcDbArc
 50
90.0
 51
270.0
  0
LINE
  5
1E1
330
1F
100
AcDbEntity
  8
0
  6
Continuous
 62
     7
370
    25
100
AcDbLine
 10
6142.6187553361
 20
5281.7994420927
 30
0.0
 11
6162.6187553361
 21
5281.7994420927
 31
0.0
  0
ARC
  5
1E2
330
1F
100
AcDbEntity
  8
0
  6
Continuous
 62
     7
370
    25
100
AcDbCircle
 10
6162.6187553361
 20
5286.7994420927
 30
0.0
 40
5.0
100
AcDbArc
 50
270.0
 51
90.0
  0
LINE
  5
1E3
330
1F
100
AcDbEntity
  8
0
  6
Continuous
 62
     7
370
    25
100
AcDbLine
 10
6162.6187553361
 20
5291.7994420927
 30
0.0
 11
6142.6187553361
 21
5291.7994420927
 31
0.0
  0
ARC
  5
1E4
330
1F
100
AcDbEntity
  8
0
  6
Continuous
 62
     7
370
    25
100
AcDbCircle
 10
6142.6187553361
 20
5286.7994420927
 30
0.0
 40
5.0
100
AcDbArc
 50
90.0
 51
270.0
  0
LINE
  5
1E5
330
1F
100
AcDbEntity
  8
0
  6
Continuous
 62
     7
370
    25
100
AcDbLine
 10
6102.5187553361
 20
5281.7994420927
 30
0.0
 11
6122.5187553361
 21
5281.7994420927
 31
0.0
  0
ARC
  5
1E6
330
1F
100
AcDbEntity
  8
0
  6
Continuous
 62
     7
370
    25
100
AcDbCircle
 10
6122.5187553361
 20
5286.7994420927
 30
0.0
 40
5.0
100
AcDbArc
 50
270.0
 51
90.0
  0
LINE
  5
1E7
330
1F
100
AcDbEntity
  8
0
  6
Continuous
 62
     7
370
    25
100
AcDbLine
 10
6122.5187553361
 20
5291.7994420927
 30
0.0
 11
6102.5187553361
 21
5291.7994420927
 31
0.0
  0
ARC
  5
1E8
330
1F
100
AcDbEntity
  8
0
  6
Continuous
 62
     7
370
    25
100
AcDbCircle
 10
6102.5187553361
 20
5286.7994420927
 30
0.0
 40
5.0
100
AcDbArc
 50
90.0
 51
270.0
  0
LINE
  5
1E9
330
1F
100
AcDbEntity
  8
0
  6
Continuous
 62
     7
370
    25
100
AcDbLine
 10
6062.4187553361
 20
5281.7994420927
 30
0.0
 11
6082.4187553361
 21
5281.7994420927
 31
0.0
  0
ARC
  5
1EA
330
1F
100
AcDbEntity
  8
0
  6
Continuous
 62
     7
370
    25
100
AcDbCircle
 10
6082.4187553361
 20
5286.7994420927
 30
0.0
 40
5.0
100
AcDbArc
 50
270.0
 51
90.0
  0
LINE
  5
1EB
330
1F
100
AcDbEntity
  8
0
  6
Continuous
 62
     7
370
    25
100
AcDbLine
 10
6082.4187553361
 20
5291.7994420927
 30
0.0
 11
6062.4187553361
 21
5291.7994420927
 31
0.0
  0
ARC
  5
1EC
330
1F
100
AcDbEntity
  8
0
  6
Continuous
 62
     7
370
    25
100
AcDbCircle
 10
6062.4187553361
 20
5286.7994420927
 30
0.0
 40
5.0
100
AcDbArc
 50
90.0
 51
270.0
  0
LINE
  5
1ED
330
1F
100
AcDbEntity
  8
0
  6
Continuous
 62
     7
370
    25
100
AcDbLine
 10
6022.3187553361
 20
5281.7994420927
 30
0.0
 11
6042.3187553361
 21
5281.7994420927
 31
0.0
  0
ARC
  5
1EE
330
1F
100
AcDbEntity
  8
0
  6
Continuous
 62
     7
370
    25
100
AcDbCircle
 10
6042.3187553361
 20
5286.7994420927
 30
0.0
 40
5.0
100
AcDbArc
 50
270.0
 51
90.0
  0
LINE
  5
1EF
330
1F
100
AcDbEntity
  8
0
  6
Continuous
 62
     7
370
    25
100
AcDbLine
 10
6042.3187553361
 20
5291.7994420927
 30
0.0
 11
6022.3187553361
 21
5291.7994420927
 31
0.0
  0
ARC
  5
1F0
330
1F
100
AcDbEntity
  8
0
  6
Continuous
 62
     7
370
    25
100
AcDbCircle
 10
6022.3187553361
 20
5286.7994420927
 30
0.0
 40
5.0
100
AcDbArc
 50
90.0
 51
270.0
  0
LINE
  5
1F1
330
1F
100
AcDbEntity
  8
0
  6
Continuous
 62
     7
370
    25
100
AcDbLine
 10
5982.2187553361
 20
5281.7994420927
 30
0.0
 11
6002.2187553361
 21
5281.7994420927
 31
0.0
  0
ARC
  5
1F2
330
1F
100
AcDbEntity
  8
0
  6
Continuous
 62
     7
370
    25
100
AcDbCircle
 10
6002.2187553361
 20
5286.7994420927
 30
0.0
 40
5.0
100
AcDbArc
 50
270.0
 51
90.0
  0
LINE
  5
1F3
330
1F
100
AcDbEntity
  8
0
  6
Continuous
 62
     7
370
    25
100
AcDbLine
 10
6002.2187553361
 20
5291.7994420927
 30
0.0
 11
5982.2187553361
 21
5291.7994420927
 31
0.0
  0
ARC
  5
1F4
330
1F
100
AcDbEntity
  8
0
  6
Continuous
 62
     7
370
    25
100
AcDbCircle
 10
5982.2187553361
 20
5286.7994420927
 30
0.0
 40
5.0
100
AcDbArc
 50
90.0
 51
270.0
  0
LINE
  5
1F5
330
1F
100
AcDbEntity
  8
0
  6
Continuous
 62
     7
370
    25
100
AcDbLine
 10
5942.1187553361
 20
5281.7994420927
 30
0.0
 11
5962.1187553361
 21
5281.7994420927
 31
0.0
  0
ARC
  5
1F6
330
1F
100
AcDbEntity
  8
0
  6
Continuous
 62
     7
370
    25
100
AcDbCircle
 10
5962.1187553361
 20
5286.7994420927
 30
0.0
 40
5.0
100
AcDbArc
 50
270.0
 51
90.0
  0
LINE
  5
1F7
330
1F
100
AcDbEntity
  8
0
  6
Continuous
 62
     7
370
    25
100
AcDbLine
 10
5962.1187553361
 20
5291.7994420927
 30
0.0
 11
5942.1187553361
 21
5291.7994420927
 31
0.0
  0
ARC
  5
1F8
330
1F
100
AcDbEntity
  8
0
  6
Continuous
 62
     7
370
    25
100
AcDbCircle
 10
5942.1187553361
 20
5286.7994420927
 30
0.0
 40
5.0
100
AcDbArc
 50
90.0
 51
270.0
  0
LINE
  5
1F9
330
1F
100
AcDbEntity
  8
0
  6
Continuous
 62
     7
370
    25
100
AcDbLine
 10
5902.0187553361
 20
5281.7994420927
 30
0.0
 11
5922.0187553361
 21
5281.7994420927
 31
0.0
  0
ARC
  5
1FA
330
1F
100
AcDbEntity
  8
0
  6
Continuous
 62
     7
370
    25
100
AcDbCircle
 10
5922.0187553361
 20
5286.7994420927
 30
0.0
 40
5.0
100
AcDbArc
 50
270.0
 51
90.0
  0
LINE
  5
1FB
330
1F
100
AcDbEntity
  8
0
  6
Continuous
 62
     7
370
    25
100
AcDbLine
 10
5922.0187553361
 20
5291.7994420927
 30
0.0
 11
5902.0187553361
 21
5291.7994420927
 31
0.0
  0
ARC
  5
1FC
330
1F
100
AcDbEntity
  8
0
  6
Continuous
 62
     7
370
    25
100
AcDbCircle
 10
5902.0187553361
 20
5286.7994420927
 30
0.0
 40
5.0
100
AcDbArc
 50
90.0
 51
270.0
  0
LINE
  5
1FD
330
1F
100
AcDbEntity
  8
0
  6
Continuous
 62
     7
370
    25
100
AcDbLine
 10
5861.9187553361
 20
5281.7994420927
 30
0.0
 11
5881.9187553361
 21
5281.7994420927
 31
0.0
  0
ARC
  5
1FE
330
1F
100
AcDbEntity
  8
0
  6
Continuous
 62
     7
370
    25
100
AcDbCircle
 10
5881.9187553361
 20
5286.7994420927
 30
0.0
 40
5.0
100
AcDbArc
 50
270.0
 51
90.0
  0
LINE
  5
1FF
330
1F
100
AcDbEntity
  8
0
  6
Continuous
 62
     7
370
    25
100
AcDbLine
 10
5881.9187553361
 20
5291.7994420927
 30
0.0
 11
5861.9187553361
 21
5291.7994420927
 31
0.0
  0
ARC
  5
200
330
1F
100
AcDbEntity
  8
0
  6
Continuous
 62
     7
370
    25
100
AcDbCircle
 10
5861.9187553361
 20
5286.7994420927
 30
0.0
 40
5.0
100
AcDbArc
 50
90.0
 51
270.0
  0
LINE
  5
201
330
1F
100
AcDbEntity
  8
0
  6
Continuous
 62
     7
370
    25
100
AcDbLine
 10
6748.1474748661
 20
5241.7994420927
 30
0.0
 11
6764.1187553361
 21
5241.7994420927
 31
0.0
  0
ARC
  5
202
330
1F
100
AcDbEntity
  8
0
  6
Continuous
 62
     7
370
    25
100
AcDbCircle
 10
6764.1187553361
 20
5246.7994420927
 30
0.0
 40
5.0
100
AcDbArc
 50
270.0
 51
90.0
  0
LINE
  5
203
330
1F
100
AcDbEntity
  8
0
  6
Continuous
 62
     7
370
    25
100
AcDbLine
 10
6764.1187553361
 20
5251.7994420927
 30
0.0
 11
6744.1187553361
 21
5251.7994420927
 31
0.0
  0
ARC
  5
204
330
1F
100
AcDbEntity
  8
0
  6
Continuous
 62
     7
370
    25
100
AcDbCircle
 10
6744.1187553361
 20
5246.7994420927
 30
0.0
 40
5.0
100
AcDbArc
 50
90.0
 51
168.4630409672
  0
ARC
  5
205
330
1F
100
AcDbEntity
  8
0
  6
Continuous
 62
     7
370
    25
100
AcDbCircle
 10
6724.0187553361
 20
5246.7994420927
 30
0.0
 40
5.0
100
AcDbArc
 50
11.5369590328
 51
90.0
  0
LINE
  5
206
330
1F
100
AcDbEntity
  8
0
  6
Continuous
 62
     7
370
    25
100
AcDbLine
 10
6724.0187553361
 20
5251.7994420927
 30
0.0
 11
6704.0187553361
 21
5251.7994420927
 31
0.0
  0
ARC
  5
207
330
1F
100
AcDbEntity
  8
0
  6
Continuous
 62
     7
370
    25
100
AcDbCircle
 10
6704.0187553361
 20
5246.7994420927
 30
0.0
 40
5.000000000001701
100
AcDbArc
 50
90.0
 51
168.4630409672
  0
ARC
  5
208
330
1F
100
AcDbEntity
  8
0
  6
Continuous
 62
     7
370
    25
100
AcDbCircle
 10
6683.9187553361
 20
5246.7994420927
 30
0.0
 40
5.0
100
AcDbArc
 50
11.5369590328
 51
90.0
  0
LINE
  5
209
330
1F
100
AcDbEntity
  8
0
  6
Continuous
 62
     7
370
    25
100
AcDbLine
 10
6683.9187553361
 20
5251.7994420927
 30
0.0
 11
6663.9187553361
 21
5251.7994420927
 31
0.0
  0
ARC
  5
20A
330
1F
100
AcDbEntity
  8
0
  6
Continuous
 62
     7
370
    25
100
AcDbCircle
 10
6663.9187553361
 20
5246.7994420927
 30
0.0
 40
5.0
100
AcDbArc
 50
90.0
 51
168.4630409672
  0
ARC
  5
20B
330
1F
100
AcDbEntity
  8
0
  6
Continuous
 62
     7
370
    25
100
AcDbCircle
 10
6643.8187553361
 20
5246.7994420927
 30
0.0
 40
5.00000000000081
100
AcDbArc
 50
11.5369590328
 51
90.0
  0
LINE
  5
20C
330
1F
100
AcDbEntity
  8
0
  6
Continuous
 62
     7
370
    25
100
AcDbLine
 10
6643.8187553361
 20
5251.7994420927
 30
0.0
 11
6623.8187553361
 21
5251.7994420927
 31
0.0
  0
ARC
  5
20D
330
1F
100
AcDbEntity
  8
0
  6
Continuous
 62
     7
370
    25
100
AcDbCircle
 10
6623.8187553361
 20
5246.7994420927
 30
0.0
 40
5.0
100
AcDbArc
 50
90.0
 51
168.4630409672
  0
ARC
  5
20E
330
1F
100
AcDbEntity
  8
0
  6
Continuous
 62
     7
370
    25
100
AcDbCircle
 10
6603.7187553361
 20
5246.7994420927
 30
0.0
 40
5.0
100
AcDbArc
 50
11.5369590328
 51
90.0
  0
LINE
  5
20F
330
1F
100
AcDbEntity
  8
0
  6
Continuous
 62
     7
370
    25
100
AcDbLine
 10
6603.7187553361
 20
5251.7994420927
 30
0.0
 11
6583.7187553361
 21
5251.7994420927
 31
0.0
  0
ARC
  5
210
330
1F
100
AcDbEntity
  8
0
  6
Continuous
 62
     7
370
    25
100
AcDbCircle
 10
6583.7187553361
 20
5246.7994420927
 30
0.0
 40
5.00000000000081
100
AcDbArc
 50
90.0
 51
168.4630409672
  0
ARC
  5
211
330
1F
100
AcDbEntity
  8
0
  6
Continuous
 62
     7
370
    25
100
AcDbCircle
 10
6563.6187553361
 20
5246.7994420927
 30
0.0
 40
5.0
100
AcDbArc
 50
11.5369590328
 51
90.0
  0
LINE
  5
212
330
1F
100
AcDbEntity
  8
0
  6
Continuous
 62
     7
370
    25
100
AcDbLine
 10
6563.6187553361
 20
5251.7994420927
 30
0.0
 11
6543.6187553361
 21
5251.7994420927
 31
0.0
  0
ARC
  5
213
330
1F
100
AcDbEntity
  8
0
  6
Continuous
 62
     7
370
    25
100
AcDbCircle
 10
6543.6187553361
 20
5246.7994420927
 30
0.0
 40
5.0
100
AcDbArc
 50
90.0
 51
168.4630409672
  0
ARC
  5
214
330
1F
100
AcDbEntity
  8
0
  6
Continuous
 62
     7
370
    25
100
AcDbCircle
 10
6523.5187553361
 20
5246.7994420927
 30
0.0
 40
5.00000000000081
100
AcDbArc
 50
11.5369590328
 51
90.0
  0
LINE
  5
215
330
1F
100
AcDbEntity
  8
0
  6
Continuous
 62
     7
370
    25
100
AcDbLine
 10
6523.5187553361
 20
5251.7994420927
 30
0.0
 11
6503.5187553361
 21
5251.7994420927
 31
0.0
  0
ARC
  5
216
330
1F
100
AcDbEntity
  8
0
  6
Continuous
 62
     7
370
    25
100
AcDbCircle
 10
6503.5187553361
 20
5246.7994420927
 30
0.0
 40
5.0
100
AcDbArc
 50
90.0
 51
168.4630409672
  0
ARC
  5
217
330
1F
100
AcDbEntity
  8
0
  6
Continuous
 62
     7
370
    25
100
AcDbCircle
 10
6483.4187553361
 20
5246.7994420927
 30
0.0
 40
5.0
100
AcDbArc
 50
11.5369590328
 51
90.0
  0
LINE
  5
218
330
1F
100
AcDbEntity
  8
0
  6
Continuous
 62
     7
370
    25
100
AcDbLine
 10
6483.4187553361
 20
5251.7994420927
 30
0.0
 11
6463.4187553361
 21
5251.7994420927
 31
0.0
  0
ARC
  5
219
330
1F
100
AcDbEntity
  8
0
  6
Continuous
 62
     7
370
    25
100
AcDbCircle
 10
6463.4187553361
 20
5246.7994420927
 30
0.0
 40
5.0
100
AcDbArc
 50
90.0
 51
168.4630409672
  0
ARC
  5
21A
330
1F
100
AcDbEntity
  8
0
  6
Continuous
 62
     7
370
    25
100
AcDbCircle
 10
6443.3187553361
 20
5246.7994420927
 30
0.0
 40
5.0
100
AcDbArc
 50
11.5369590328
 51
90.0
  0
LINE
  5
21B
330
1F
100
AcDbEntity
  8
0
  6
Continuous
 62
     7
370
    25
100
AcDbLine
 10
6443.3187553361
 20
5251.7994420927
 30
0.0
 11
6423.3187553361
 21
5251.7994420927
 31
0.0
  0
ARC
  5
21C
330
1F
100
AcDbEntity
  8
0
  6
Continuous
 62
     7
370
    25
100
AcDbCircle
 10
6423.3187553361
 20
5246.7994420927
 30
0.0
 40
5.0
100
AcDbArc
 50
90.0
 51
168.4630409672
  0
ARC
  5
21D
330
1F
100
AcDbEntity
  8
0
  6
Continuous
 62
     7
370
    25
100
AcDbCircle
 10
6403.2187553361
 20
5246.7994420927
 30
0.0
 40
5.0
100
AcDbArc
 50
11.5369590328
 51
90.0
  0
LINE
  5
21E
330
1F
100
AcDbEntity
  8
0
  6
Continuous
 62
     7
370
    25
100
AcDbLine
 10
6403.2187553361
 20
5251.7994420927
 30
0.0
 11
6383.2187553361
 21
5251.7994420927
 31
0.0
  0
ARC
  5
21F
330
1F
100
AcDbEntity
  8
0
  6
Continuous
 62
     7
370
    25
100
AcDbCircle
 10
6383.2187553361
 20
5246.7994420927
 30
0.0
 40
5.00000000000081
100
AcDbArc
 50
90.0
 51
168.4630409672
  0
ARC
  5
220
330
1F
100
AcDbEntity
  8
0
  6
Continuous
 62
     7
370
    25
100
AcDbCircle
 10
6363.1187553361
 20
5246.7994420927
 30
0.0
 40
5.0
100
AcDbArc
 50
11.5369590328
 51
90.0
  0
LINE
  5
221
330
1F
100
AcDbEntity
  8
0
  6
Continuous
 62
     7
370
    25
100
AcDbLine
 10
6363.1187553361
 20
5251.7994420927
 30
0.0
 11
6343.1187553361
 21
5251.7994420927
 31
0.0
  0
ARC
  5
222
330
1F
100
AcDbEntity
  8
0
  6
Continuous
 62
     7
370
    25
100
AcDbCircle
 10
6343.1187553361
 20
5246.7994420927
 30
0.0
 40
5.0
100
AcDbArc
 50
90.0
 51
168.4630409672
  0
ARC
  5
223
330
1F
100
AcDbEntity
  8
0
  6
Continuous
 62
     7
370
    25
100
AcDbCircle
 10
6323.0187553361
 20
5246.7994420927
 30
0.0
 40
5.00000000000081
100
AcDbArc
 50
11.5369590328
 51
90.0
  0
LINE
  5
224
330
1F
100
AcDbEntity
  8
0
  6
Continuous
 62
     7
370
    25
100
AcDbLine
 10
6323.0187553361
 20
5251.7994420927
 30
0.0
 11
6303.0187553361
 21
5251.7994420927
 31
0.0
  0
ARC
  5
225
330
1F
100
AcDbEntity
  8
0
  6
Continuous
 62
     7
370
    25
100
AcDbCircle
 10
6303.0187553361
 20
5246.7994420927
 30
0.0
 40
5.0
100
AcDbArc
 50
90.0
 51
168.4630409672
  0
ARC
  5
226
330
1F
100
AcDbEntity
  8
0
  6
Continuous
 62
     7
370
    25
100
AcDbCircle
 10
6282.9187553361
 20
5246.7994420927
 30
0.0
 40
5.0
100
AcDbArc
 50
11.5369590328
 51
90.0
  0
LINE
  5
227
330
1F
100
AcDbEntity
  8
0
  6
Continuous
 62
     7
370
    25
100
AcDbLine
 10
6282.9187553361
 20
5251.7994420927
 30
0.0
 11
6262.9187553361
 21
5251.7994420927
 31
0.0
  0
ARC
  5
228
330
1F
100
AcDbEntity
  8
0
  6
Continuous
 62
     7
370
    25
100
AcDbCircle
 10
6262.9187553361
 20
5246.7994420927
 30
0.0
 40
5.00000000000081
100
AcDbArc
 50
90.0
 51
168.4630409672
  0
ARC
  5
229
330
1F
100
AcDbEntity
  8
0
  6
Continuous
 62
     7
370
    25
100
AcDbCircle
 10
6242.8187553361
 20
5246.7994420927
 30
0.0
 40
5.0
100
AcDbArc
 50
11.5369590328
 51
90.0
  0
LINE
  5
22A
330
1F
100
AcDbEntity
  8
0
  6
Continuous
 62
     7
370
    25
100
AcDbLine
 10
6242.8187553361
 20
5251.7994420927
 30
0.0
 11
6222.8187553361
 21
5251.7994420927
 31
0.0
  0
ARC
  5
22B
330
1F
100
AcDbEntity
  8
0
  6
Continuous
 62
     7
370
    25
100
AcDbCircle
 10
6222.8187553361
 20
5246.7994420927
 30
0.0
 40
5.0
100
AcDbArc
 50
90.0
 51
168.4630409672
  0
ARC
  5
22C
330
1F
100
AcDbEntity
  8
0
  6
Continuous
 62
     7
370
    25
100
AcDbCircle
 10
6202.7187553361
 20
5246.7994420927
 30
0.0
 40
5.00000000000081
100
AcDbArc
 50
11.5369590328
 51
90.0
  0
LINE
  5
22D
330
1F
100
AcDbEntity
  8
0
  6
Continuous
 62
     7
370
    25
100
AcDbLine
 10
6202.7187553361
 20
5251.7994420927
 30
0.0
 11
6182.7187553361
 21
5251.7994420927
 31
0.0
  0
ARC
  5
22E
330
1F
100
AcDbEntity
  8
0
  6
Continuous
 62
     7
370
    25
100
AcDbCircle
 10
6182.7187553361
 20
5246.7994420927
 30
0.0
 40
5.00000000000081
100
AcDbArc
 50
90.0
 51
168.4630409672
  0
ARC
  5
22F
330
1F
100
AcDbEntity
  8
0
  6
Continuous
 62
     7
370
    25
100
AcDbCircle
 10
6162.6187553361
 20
5246.7994420927
 30
0.0
 40
5.0
100
AcDbArc
 50
11.5369590328
 51
90.0
  0
LINE
  5
230
330
1F
100
AcDbEntity
  8
0
  6
Continuous
 62
     7
370
    25
100
AcDbLine
 10
6162.6187553361
 20
5251.7994420927
 30
0.0
 11
6142.6187553361
 21
5251.7994420927
 31
0.0
  0
ARC
  5
231
330
1F
100
AcDbEntity
  8
0
  6
Continuous
 62
     7
370
    25
100
AcDbCircle
 10
6142.6187553361
 20
5246.7994420927
 30
0.0
 40
5.0
100
AcDbArc
 50
90.0
 51
168.4630409672
  0
ARC
  5
232
330
1F
100
AcDbEntity
  8
0
  6
Continuous
 62
     7
370
    25
100
AcDbCircle
 10
6122.5187553361
 20
5246.7994420927
 30
0.0
 40
5.0
100
AcDbArc
 50
11.5369590328
 51
90.0
  0
LINE
  5
233
330
1F
100
AcDbEntity
  8
0
  6
Continuous
 62
     7
370
    25
100
AcDbLine
 10
6122.5187553361
 20
5251.7994420927
 30
0.0
 11
6102.5187553361
 21
5251.7994420927
 31
0.0
  0
ARC
  5
234
330
1F
100
AcDbEntity
  8
0
  6
Continuous
 62
     7
370
    25
100
AcDbCircle
 10
6102.5187553361
 20
5246.7994420927
 30
0.0
 40
5.0
100
AcDbArc
 50
90.0
 51
168.4630409672
  0
ARC
  5
235
330
1F
100
AcDbEntity
  8
0
  6
Continuous
 62
     7
370
    25
100
AcDbCircle
 10
6082.4187553361
 20
5246.7994420927
 30
0.0
 40
5.0
100
AcDbArc
 50
11.5369590328
 51
90.0
  0
LINE
  5
236
330
1F
100
AcDbEntity
  8
0
  6
Continuous
 62
     7
370
    25
100
AcDbLine
 10
6082.4187553361
 20
5251.7994420927
 30
0.0
 11
6062.4187553361
 21
5251.7994420927
 31
0.0
  0
ARC
  5
237
330
1F
100
AcDbEntity
  8
0
  6
Continuous
 62
     7
370
    25
100
AcDbCircle
 10
6062.4187553361
 20
5246.7994420927
 30
0.0
 40
5.00000000000081
100
AcDbArc
 50
90.0
 51
168.4630409672
  0
ARC
  5
238
330
1F
100
AcDbEntity
  8
0
  6
Continuous
 62
     7
370
    25
100
AcDbCircle
 10
6042.3187553361
 20
5246.7994420927
 30
0.0
 40
5.0
100
AcDbArc
 50
11.5369590328
 51
90.0
  0
LINE
  5
239
330
1F
100
AcDbEntity
  8
0
  6
Continuous
 62
     7
370
    25
100
AcDbLine
 10
6042.3187553361
 20
5251.7994420927
 30
0.0
 11
6022.3187553361
 21
5251.7994420927
 31
0.0
  0
ARC
  5
23A
330
1F
100
AcDbEntity
  8
0
  6
Continuous
 62
     7
370
    25
100
AcDbCircle
 10
6022.3187553361
 20
5246.7994420927
 30
0.0
 40
5.0
100
AcDbArc
 50
90.0
 51
168.4630409672
  0
ARC
  5
23B
330
1F
100
AcDbEntity
  8
0
  6
Continuous
 62
     7
370
    25
100
AcDbCircle
 10
6002.2187553361
 20
5246.7994420927
 30
0.0
 40
5.00000000000081
100
AcDbArc
 50
11.5369590328
 51
90.0
  0
LINE
  5
23C
330
1F
100
AcDbEntity
  8
0
  6
Continuous
 62
     7
370
    25
100
AcDbLine
 10
6002.2187553361
 20
5251.7994420927
 30
0.0
 11
5982.2187553361
 21
5251.7994420927
 31
0.0
  0
ARC
  5
23D
330
1F
100
AcDbEntity
  8
0
  6
Continuous
 62
     7
370
    25
100
AcDbCircle
 10
5982.2187553361
 20
5246.7994420927
 30
0.0
 40
5.0
100
AcDbArc
 50
90.0
 51
168.4630409672
  0
ARC
  5
23E
330
1F
100
AcDbEntity
  8
0
  6
Continuous
 62
     7
370
    25
100
AcDbCircle
 10
5962.1187553361
 20
5246.7994420927
 30
0.0
 40
5.0
100
AcDbArc
 50
11.5369590328
 51
90.0
  0
LINE
  5
23F
330
1F
100
AcDbEntity
  8
0
  6
Continuous
 62
     7
370
    25
100
AcDbLine
 10
5962.1187553361
 20
5251.7994420927
 30
0.0
 11
5942.1187553361
 21
5251.7994420927
 31
0.0
  0
ARC
  5
240
330
1F
100
AcDbEntity
  8
0
  6
Continuous
 62
     7
370
    25
100
AcDbCircle
 10
5942.1187553361
 20
5246.7994420927
 30
0.0
 40
5.00000000000081
100
AcDbArc
 50
90.0
 51
168.4630409672
  0
ARC
  5
241
330
1F
100
AcDbEntity
  8
0
  6
Continuous
 62
     7
370
    25
100
AcDbCircle
 10
5922.0187553361
 20
5246.7994420927
 30
0.0
 40
5.0
100
AcDbArc
 50
11.5369590328
 51
90.0
  0
LINE
  5
242
330
1F
100
AcDbEntity
  8
0
  6
Continuous
 62
     7
370
    25
100
AcDbLine
 10
5922.0187553361
 20
5251.7994420927
 30
0.0
 11
5902.0187553361
 21
5251.7994420927
 31
0.0
  0
ARC
  5
243
330
1F
100
AcDbEntity
  8
0
  6
Continuous
 62
     7
370
    25
100
AcDbCircle
 10
5902.0187553361
 20
5246.7994420927
 30
0.0
 40
5.0
100
AcDbArc
 50
90.0
 51
168.4630409672
  0
ARC
  5
244
330
1F
100
AcDbEntity
  8
0
  6
Continuous
 62
     7
370
    25
100
AcDbCircle
 10
5881.9187553361
 20
5246.7994420927
 30
0.0
 40
5.00000000000081
100
AcDbArc
 50
11.5369590328
 51
90.0
  0
LINE
  5
245
330
1F
100
AcDbEntity
  8
0
  6
Continuous
 62
     7
370
    25
100
AcDbLine
 10
5881.9187553361
 20
5251.7994420927
 30
0.0
 11
5861.9187553361
 21
5251.7994420927
 31
0.0
  0
ARC
  5
246
330
1F
100
AcDbEntity
  8
0
  6
Continuous
 62
     7
370
    25
100
AcDbCircle
 10
5861.9187553361
 20
5246.7994420927
 30
0.0
 40
5.0
100
AcDbArc
 50
90.0
 51
168.4630409672
  0
LINE
  5
247
330
1F
100
AcDbEntity
  8
0
  6
Continuous
 62
     7
370
    25
100
AcDbLine
 10
5771.7187553361
 20
5300.5994420927
 30
0.0
 11
6776.3187553361
 21
5300.5994420927
 31
0.0
  0
ARC
  5
248
330
1F
100
AcDbEntity
  8
0
  6
Continuous
 62
     7
370
    25
100
AcDbCircle
 10
5801.7187553361
 20
5286.7994420927
 30
0.0
 40
5.0
100
AcDbArc
 50
270.0
 51
90.0
  0
LINE
  5
249
330
1F
100
AcDbEntity
  8
0
  6
Continuous
 62
     7
370
    25
100
AcDbLine
 10
5801.7187553361
 20
5291.7994420927
 30
0.0
 11
5781.7187553361
 21
5291.7994420927
 31
0.0
  0
ARC
  5
24A
330
1F
100
AcDbEntity
  8
0
  6
Continuous
 62
     7
370
    25
100
AcDbCircle
 10
5781.7187553361
 20
5286.7994420927
 30
0.0
 40
5.0
100
AcDbArc
 50
90.0
 51
270.0
  0
LINE
  5
24B
330
1F
100
AcDbEntity
  8
0
  6
Continuous
 62
     7
370
    25
100
AcDbLine
 10
5781.7187553361
 20
5281.7994420927
 30
0.0
 11
5801.7187553361
 21
5281.7994420927
 31
0.0
  0
ARC
  5
24C
330
1F
100
AcDbEntity
  8
0
  6
Continuous
 62
     7
370
    25
100
AcDbCircle
 10
5801.7187553361
 20
5266.7994420927
 30
0.0
 40
5.000000000000909
100
AcDbArc
 50
270.0
 51
90.0
  0
LINE
  5
24D
330
1F
100
AcDbEntity
  8
0
  6
Continuous
 62
     7
370
    25
100
AcDbLine
 10
5801.7187553361
 20
5271.7994420927
 30
0.0
 11
5781.7187553361
 21
5271.7994420927
 31
0.0
  0
ARC
  5
24E
330
1F
100
AcDbEntity
  8
0
  6
Continuous
 62
     7
370
    25
100
AcDbCircle
 10
5781.7187553361
 20
5266.7994420927
 30
0.0
 40
5.000000000000909
100
AcDbArc
 50
90.0
 51
270.0
  0
LINE
  5
24F
330
1F
100
AcDbEntity
  8
0
  6
Continuous
 62
     7
370
    25
100
AcDbLine
 10
5781.7187553361
 20
5261.7994420927
 30
0.0
 11
5801.7187553361
 21
5261.7994420927
 31
0.0
  0
ARC
  5
250
330
1F
100
AcDbEntity
  8
0
  6
Continuous
 62
     7
370
    25
100
AcDbCircle
 10
5801.7187553361
 20
5246.7994420927
 30
0.0
 40
5.0
100
AcDbArc
 50
11.5369590328
 51
90.0
  0
LINE
  5
251
330
1F
100
AcDbEntity
  8
0
  6
Continuous
 62
     7
370
    25
100
AcDbLine
 10
5801.7187553361
 20
5251.7994420927
 30
0.0
 11
5781.7187553361
 21
5251.7994420927
 31
0.0
  0
ARC
  5
252
330
1F
100
AcDbEntity
  8
0
  6
Continuous
 62
     7
370
    25
100
AcDbCircle
 10
5781.7187553361
 20
5246.7994420927
 30
0.0
 40
5.0
100
AcDbArc
 50
90.0
 51
270.0
  0
LINE
  5
253
330
1F
100
AcDbEntity
  8
0
  6
Continuous
 62
     7
370
    25
100
AcDbLine
 10
5781.7187553361
 20
5241.7994420927
 30
0.0
 11
5799.8900358061
 21
5241.7994420927
 31
0.0
  0
ARC
  5
254
330
1F
100
AcDbEntity
  8
0
  6
Continuous
 62
     7
370
    25
100
AcDbCircle
 10
5841.8187553361
 20
5246.7994420927
 30
0.0
 40
5.0
100
AcDbArc
 50
11.5369590328
 51
90.0
  0
LINE
  5
255
330
1F
100
AcDbEntity
  8
0
  6
Continuous
 62
     7
370
    25
100
AcDbLine
 10
5841.8187553361
 20
5251.7994420927
 30
0.0
 11
5821.8187553361
 21
5251.7994420927
 31
0.0
  0
ARC
  5
256
330
1F
100
AcDbEntity
  8
0
  6
Continuous
 62
     7
370
    25
100
AcDbCircle
 10
5821.8187553361
 20
5246.7994420927
 30
0.0
 40
5.0
100
AcDbArc
 50
90.0
 51
168.4630409672
  0
ARC
  5
257
330
1F
100
AcDbEntity
  8
0
  6
Continuous
 62
     7
370
    25
100
AcDbCircle
 10
5841.8187553361
 20
5286.7994420927
 30
0.0
 40
5.0
100
AcDbArc
 50
270.0
 51
90.0
  0
LINE
  5
258
330
1F
100
AcDbEntity
  8
0
  6
Continuous
 62
     7
370
    25
100
AcDbLine
 10
5841.8187553361
 20
5291.7994420927
 30
0.0
 11
5821.8187553361
 21
5291.7994420927
 31
0.0
  0
ARC
  5
259
330
1F
100
AcDbEntity
  8
0
  6
Continuous
 62
     7
370
    25
100
AcDbCircle
 10
5821.8187553361
 20
5286.7994420927
 30
0.0
 40
5.0
100
AcDbArc
 50
90.0
 51
270.0
  0
LINE
  5
25A
330
1F
100
AcDbEntity
  8
0
  6
Continuous
 62
     7
370
    25
100
AcDbLine
 10
5821.8187553361
 20
5281.7994420927
 30
0.0
 11
5841.8187553361
 21
5281.7994420927
 31
0.0
  0
ARC
  5
25B
330
1F
100
AcDbEntity
  8
0
  6
Continuous
 62
     7
370
    25
100
AcDbCircle
 10
5841.8187553361
 20
5266.7994420927
 30
0.0
 40
5.000000000000909
100
AcDbArc
 50
270.0
 51
90.0
  0
LINE
  5
25C
330
1F
100
AcDbEntity
  8
0
  6
Continuous
 62
     7
370
    25
100
AcDbLine
 10
5841.8187553361
 20
5271.7994420927
 30
0.0
 11
5821.8187553361
 21
5271.7994420927
 31
0.0
  0
ARC
  5
25D
330
1F
100
AcDbEntity
  8
0
  6
Continuous
 62
     7
370
    25
100
AcDbCircle
 10
5821.8187553361
 20
5266.7994420927
 30
0.0
 40
5.000000000000909
100
AcDbArc
 50
90.0
 51
270.0
  0
LINE
  5
25E
330
1F
100
AcDbEntity
  8
0
  6
Continuous
 62
     7
370
    25
100
AcDbLine
 10
5821.8187553361
 20
5261.7994420927
 30
0.0
 11
5841.8187553361
 21
5261.7994420927
 31
0.0
  0
LINE
  5
25F
330
1F
100
AcDbEntity
  8
0
  6
Continuous
 62
     7
370
    25
100
AcDbLine
 10
6776.3187553361
 20
5300.5994420927
 30
0.0
 11
6776.3187553361
 21
5231.7994420927
 31
0.0
  0
LINE
  5
260
330
1F
100
AcDbEntity
  8
0
  6
Continuous
 62
     7
370
    25
100
AcDbLine
 10
5771.7187553361
 20
5231.7994420927
 30
0.0
 11
5771.7187553361
 21
5300.5994420927
 31
0.0
  0
LINE
  5
261
330
1F
100
AcDbEntity
  8
0
  6
Continuous
 62
     8
370
    25
100
AcDbLine
 10
6234.7165292035
 20
5226.523116019
 30
0.0
 11
6313.3209814687
 21
5226.523116019
 31
0.0
  0
LINE
  5
262
330
1F
100
AcDbEntity
  8
0
  6
Continuous
 62
     8
370
    25
100
AcDbLine
 10
6234.9556405887
 20
5226.9372690868
 30
0.0
 11
6313.0818700835
 21
5226.9372690868
 31
0.0
  0
LWPOLYLINE
  5
263
330
1F
100
AcDbEntity
  8
0
  6
Continuous
 62
     8
370
    25
100
AcDbPolyline
 90
       21
 70
   128
 43
0.0
 10
6239.2281711583
 20
5179.6922772075
 10
6244.8184801106
 20
5180.7353857179
 10
6251.3617451663
 20
5182.1173837913
 10
6258.2381055483
 20
5183.7611018164
 10
6265.6601580369
 20
5185.7614512324
 10
6273.1951379386
 20
5188.0404152525
 10
6280.8705471193
 20
5190.6289927436
 10
6288.5790349941
 20
5193.5122560854
 10
6292.3725753885
 20
5195.0399401079
 10
6296.0256362785
 20
5196.5809861583
 10
6299.6547344444
 20
5198.1821855839
 10
6303.0844385434
 20
5199.7611850038
 10
6306.3851815572
 20
5201.3433221771
 10
6309.4223907289
 20
5202.8544822144
 10
6312.085423543
 20
5204.2246125666
 10
6314.4495177519
 20
5205.4769802283
 10
6316.5581699416
 20
5206.6234220748
 10
6318.2851979403
 20
5207.5834599385
 10
6320.0229739419
 20
5208.5689759832
 10
6320.8744351873
 20
5209.0591076625
 10
6320.8303750986
 20
5209.0336376648
  0
LINE
  5
264
330
1F
100
AcDbEntity
  8
0
  6
Continuous
 62
     8
370
    25
100
AcDbLine
 10
6323.0187553361
 20
5220.9994420927
 30
0.0
 11
6238.3006058891
 21
5220.9994420927
 31
0.0
  0
LINE
  5
265
330
1F
100
AcDbEntity
  8
0
  6
Continuous
 62
     8
370
    25
100
AcDbLine
 10
6250.1743875592
 20
5150.8162034546
 30
0.0
 11
6306.2595003184
 21
5150.8162034546
 31
0.0
  0
LINE
  5
266
330
1F
100
AcDbEntity
  8
0
  6
Continuous
 62
     8
370
    25
100
AcDbLine
 10
6207.4111392702
 20
5164.903730563
 30
0.0
 11
6206.9484158409
 21
5217.9265837016
 31
0.0
  0
LINE
  5
267
330
1F
100
AcDbEntity
  8
0
  6
Continuous
 62
     8
370
    25
100
AcDbLine
 10
6181.9484158409
 20
5217.0467957338
 30
0.0
 11
6182.3995924741
 21
5165.3470743739
 31
0.0
  0
LINE
  5
268
330
1F
100
AcDbEntity
  8
0
  6
Continuous
 62
     8
370
    25
100
AcDbLine
 10
6180.4353426467
 20
5167.3118554394
 30
0.0
 11
6180.0187553361
 21
5215.0480330277
 31
0.0
  0
LINE
  5
269
330
1F
100
AcDbEntity
  8
0
  6
Continuous
 62
     8
370
    25
100
AcDbLine
 10
6158.4387992462
 20
5214.2048644475
 30
0.0
 11
6158.8439579679
 21
5167.7782734364
 31
0.0
  0
LINE
  5
26A
330
1F
100
AcDbEntity
  8
0
  6
Continuous
 62
     8
370
    25
100
AcDbLine
 10
6158.19381807
 20
5214.0047064311
 30
0.0
 11
6158.5955208645
 21
5167.9741254567
 31
0.0
  0
LINE
  5
26B
330
1F
100
AcDbEntity
  8
0
  6
Continuous
 62
     8
370
    25
100
AcDbLine
 10
6159.2766178735
 20
5214.2048644475
 30
0.0
 11
6159.6816489914
 21
5167.7928953876
 31
0.0
  0
LINE
  5
26C
330
1F
100
AcDbEntity
  8
0
  6
Continuous
 62
     8
370
    25
100
AcDbLine
 10
6159.5224316004
 20
5214.0004233288
 30
0.0
 11
6159.9238572901
 21
5168.0015954099
 31
0.0
  0
LINE
  5
26D
330
1F
100
AcDbEntity
  8
0
  6
Continuous
 62
     8
370
    25
100
AcDbLine
 10
6157.7776256225
 20
5211.9590551963
 30
0.0
 11
6158.1436902683
 21
5170.0122015691
 31
0.0
  0
LINE
  5
26E
330
1F
100
AcDbEntity
  8
0
  6
Continuous
 62
     8
370
    25
100
AcDbLine
 10
6155.4927501636
 20
5210.9988240063
 30
0.0
 11
6155.8424044621
 21
5170.9324099361
 31
0.0
  0
ARC
  5
26F
330
1F
100
AcDbEntity
  8
0
  6
Continuous
 62
     8
370
    25
100
AcDbCircle
 10
6249.9684159886
 20
5146.3229345399
 30
0.0
 40
4.497987308479835
100
AcDbArc
 50
87.3753972298
 51
107.4379694261
  0
LINE
  5
270
330
1F
100
AcDbEntity
  8
0
  6
Continuous
 62
     8
370
    25
100
AcDbLine
 10
6215.1303687679
 20
5205.2010828993
 30
0.0
 11
6215.075531391
 21
5211.4848238999
 31
0.0
  0
LWPOLYLINE
  5
271
330
1F
100
AcDbEntity
  8
0
  6
Continuous
 62
     8
370
    25
100
AcDbPolyline
 90
        6
 70
   128
 43
0.0
 10
6216.6493861121
 20
5171.5521814002
 10
6216.6553650177
 20
5171.5165558936
 10
6216.5931599036
 20
5171.8856250127
 10
6216.4438585374
 20
5172.7406297645
 10
6216.2041408676
 20
5173.9697794088
 10
6215.7718976569
 20
5175.6152807386
  0
ARC
  5
272
330
1F
100
AcDbEntity
  8
0
  6
Continuous
 62
     8
370
    25
100
AcDbCircle
 10
6203.8847664707
 20
5171.9277264701
 30
0.0
 40
14.07105711225061
100
AcDbArc
 50
356.7353387325
 51
11.0392685401
  0
LINE
  5
273
330
1F
100
AcDbEntity
  8
0
  6
Continuous
 62
     8
370
    25
100
AcDbLine
 10
5831.7187553361
 20
5206.0493281103
 30
0.0
 11
5830.2187553361
 21
5206.0493281103
 31
0.0
  0
LINE
  5
274
330
1F
100
AcDbEntity
  8
0
  6
Continuous
 62
     8
370
    25
100
AcDbLine
 10
5813.2187553361
 20
5206.0493281103
 30
0.0
 11
5811.7187553361
 21
5206.0493281103
 31
0.0
  0
LINE
  5
275
330
1F
100
AcDbEntity
  8
0
  6
Continuous
 62
     8
370
    25
100
AcDbLine
 10
6716.3187553361
 20
5206.0493281103
 30
0.0
 11
6717.8187553361
 21
5206.0493281103
 31
0.0
  0
LINE
  5
276
330
1F
100
AcDbEntity
  8
0
  6
Continuous
 62
     8
370
    25
100
AcDbLine
 10
6734.8187553361
 20
5206.0493281103
 30
0.0
 11
6736.3187553361
 21
5206.0493281103
 31
0.0
  0
LINE
  5
277
330
1F
100
AcDbEntity
  8
0
  6
Continuous
 62
     8
370
    25
100
AcDbLine
 10
5803.4187553361
 20
5247.7994420927
 30
0.0
 11
5803.4187553361
 21
5245.7479007613
 31
0.0
  0
LINE
  5
278
330
1F
100
AcDbEntity
  8
0
  6
Continuous
 62
     8
370
    25
100
AcDbLine
 10
6744.6187553361
 20
5247.7994420927
 30
0.0
 11
6744.6187553361
 21
5245.7479007613
 31
0.0
  0
LINE
  5
279
330
1F
100
AcDbEntity
  8
0
  6
Continuous
 62
     8
370
    25
100
AcDbLine
 10
5803.4187553361
 20
5241.5408428581
 30
0.0
 11
5803.4187553361
 21
5231.7994420927
 31
0.0
  0
LINE
  5
27A
330
1F
100
AcDbEntity
  8
0
  6
Continuous
 62
     8
370
    25
100
AcDbLine
 10
6744.6187553361
 20
5241.5408428581
 30
0.0
 11
6744.6187553361
 21
5231.7994420927
 31
0.0
  0
LINE
  5
27B
330
1F
100
AcDbEntity
  8
0
  6
Continuous
 62
     7
370
    25
100
AcDbLine
 10
7042.5706888389
 20
5228.5994420927
 30
0.0
 11
7042.5706888389
 21
5228.003805859
 31
0.0
  0
LINE
  5
27C
330
1F
100
AcDbEntity
  8
0
  6
Continuous
 62
     7
370
    25
100
AcDbLine
 10
7109.0706888389
 20
5228.003805859
 30
0.0
 11
7109.0706888389
 21
5228.5994420927
 31
0.0
  0
LINE
  5
27D
330
1F
100
AcDbEntity
  8
0
  6
Continuous
 62
     7
370
    25
100
AcDbLine
 10
7035.8206888389
 20
5226.495731245
 30
0.0
 11
7035.8206888389
 21
5225.9994420927
 31
0.0
  0
LINE
  5
27E
330
1F
100
AcDbEntity
  8
0
  6
Continuous
 62
     7
370
    25
100
AcDbLine
 10
7115.8206888389
 20
5225.9994420927
 30
0.0
 11
7115.8206888389
 21
5226.495731245
 31
0.0
  0
ARC
  5
27F
330
1F
100
AcDbEntity
  8
0
  6
Continuous
 62
     7
370
    25
100
AcDbCircle
 10
7036.4710308864
 20
5226.550500793
 30
0.0
 40
0.0547695479963295
100
AcDbArc
 50
270.0
 51
329.999999999
  0
ARC
  5
280
330
1F
100
AcDbEntity
  8
0
  6
Continuous
 62
     7
370
    25
100
AcDbCircle
 10
7115.1703467914
 20
5226.550500793
 30
0.0
 40
0.0547695479963295
100
AcDbArc
 50
210.0000000005
 51
270.0
  0
LINE
  5
281
330
1F
100
AcDbEntity
  8
0
  6
Continuous
 62
     7
370
    25
100
AcDbLine
 10
7115.1229149715
 20
5226.523116019
 30
0.0
 11
7114.8838035863
 21
5226.9372690868
 31
0.0
  0
LINE
  5
282
330
1F
100
AcDbEntity
  8
0
  6
Continuous
 62
     7
370
    25
100
AcDbLine
 10
7036.7575740915
 20
5226.9372690868
 30
0.0
 11
7036.5184627063
 21
5226.523116019
 31
0.0
  0
ARC
  5
283
330
1F
100
AcDbEntity
  8
0
  6
Continuous
 62
     7
370
    25
100
AcDbCircle
 10
7036.852406143
 20
5226.8825177764
 30
0.0
 40
0.1095026209379374
100
AcDbArc
 50
90.0
 51
150.0000000003
  0
ARC
  5
284
330
1F
100
AcDbEntity
  8
0
  6
Continuous
 62
     7
370
    25
100
AcDbCircle
 10
7114.7889715348
 20
5226.8825177764
 30
0.0
 40
0.1095026209371498
100
AcDbArc
 50
29.9999999999
 51
90.0
  0
LINE
  5
285
330
1F
100
AcDbEntity
  8
0
  6
Continuous
 62
     7
370
    25
100
AcDbLine
 10
7114.7889715348
 20
5226.9920203973
 30
0.0
 11
7081.5941915308
 21
5226.9920203973
 31
0.0
  0
LINE
  5
286
330
1F
100
AcDbEntity
  8
0
  6
Continuous
 62
     7
370
    25
100
AcDbLine
 10
7070.047186147
 20
5226.9920203973
 30
0.0
 11
7036.852406143
 21
5226.9920203973
 31
0.0
  0
LINE
  5
287
330
1F
100
AcDbEntity
  8
0
  6
Continuous
 62
     7
370
    25
100
AcDbLine
 10
7055.8207840349
 20
5190.6920086077
 30
0.0
 11
7055.8207840349
 21
5190.093770047
 31
0.0
  0
LINE
  5
288
330
1F
100
AcDbEntity
  8
0
  6
Continuous
 62
     7
370
    25
100
AcDbLine
 10
7095.8205936429
 20
5190.093770047
 30
0.0
 11
7095.8205936429
 21
5190.6920086077
 31
0.0
  0
ARC
  5
289
330
1F
100
AcDbEntity
  8
0
  6
Continuous
 62
     7
370
    25
100
AcDbCircle
 10
7075.8206888389
 20
5190.8502945412
 30
0.0
 40
27.0
100
AcDbArc
 50
0.0
 51
83.6206297916
  0
ARC
  5
28A
330
1F
100
AcDbEntity
  8
0
  6
Continuous
 62
     7
370
    25
100
AcDbCircle
 10
7075.8206888389
 20
5190.8502945412
 30
0.0
 40
27.0
100
AcDbArc
 50
96.3793702084
 51
0.0
  0
ARC
  5
28B
330
1F
100
AcDbEntity
  8
0
  6
Continuous
 62
     7
370
    25
100
AcDbCircle
 10
7111.4449914299
 20
5120.6684936444
 30
0.0
 40
52.79442234723063
100
AcDbArc
 50
98.6113344955
 51
109.5792512048
  0
ARC
  5
28C
330
1F
100
AcDbEntity
  8
0
  6
Continuous
 62
     7
370
    25
100
AcDbCircle
 10
7040.4691948099
 20
5121.7091496522
 30
0.0
 40
51.72268379406427
100
AcDbArc
 50
70.3260562123
 51
81.523490746
  0
LINE
  5
28D
330
1F
100
AcDbEntity
  8
0
  6
Continuous
 62
     7
370
    25
100
AcDbLine
 10
7117.5706888389
 20
5222.9994420927
 30
0.0
 11
7117.5706888389
 21
5225.9994420927
 31
0.0
  0
LINE
  5
28E
330
1F
100
AcDbEntity
  8
0
  6
Continuous
 62
     7
370
    25
100
AcDbLine
 10
7034.0706888389
 20
5225.9994420927
 30
0.0
 11
7034.0706888389
 21
5222.9994420927
 31
0.0
  0
LINE
  5
28F
330
1F
100
AcDbEntity
  8
0
  6
Continuous
 62
     7
370
    25
100
AcDbLine
 10
7028.9369848097
 20
5204.6732437898
 30
0.0
 11
7029.0797811393
 21
5188.3104051381
 31
0.0
  0
LINE
  5
290
330
1F
100
AcDbEntity
  8
0
  6
Continuous
 62
     7
370
    25
100
AcDbLine
 10
7122.5616483177
 20
5188.316338443
 30
0.0
 11
7122.8206888389
 21
5217.9994420927
 31
0.0
  0
LWPOLYLINE
  5
291
330
1F
100
AcDbEntity
  8
0
  6
Continuous
 62
     7
370
    25
100
AcDbPolyline
 90
       14
 70
   128
 43
0.0
 10
7029.1161423338
 20
5188.333528274
 10
7029.1308529907
 20
5187.3232870704
 10
7029.4737982022
 20
5185.3427113402
 10
7030.1162648901
 20
5183.4926528822
 10
7031.0254826834
 20
5181.7922906254
 10
7032.1763911576
 20
5180.2442837646
 10
7033.5636143791
 20
5178.8357232882
 10
7035.2041394019
 20
5177.5494555714
 10
7037.1360622228
 20
5176.3712340909
 10
7039.3999542672
 20
5175.300122285
 10
7041.9948520433
 20
5174.355149046
 10
7044.827858392
 20
5173.5664490693
 10
7047.8623720745
 20
5172.9152319412
 10
7048.1317574296
 20
5172.8703111762
  0
LWPOLYLINE
  5
292
330
1F
100
AcDbEntity
  8
0
  6
Continuous
 62
     7
370
    25
100
AcDbPolyline
 90
       13
 70
   128
 43
0.0
 10
7103.4892124217
 20
5172.8801516464
 10
7105.0508544241
 20
5173.1690181167
 10
7107.9283266252
 20
5173.8519074327
 10
7110.6936405915
 20
5174.7101645523
 10
7113.1985352769
 20
5175.7312138368
 10
7115.5629782826
 20
5177.0011174002
 10
7117.3891126791
 20
5178.2859878092
 10
7118.9166191622
 20
5179.6788174684
 10
7120.1713460998
 20
5181.1798106912
 10
7121.1662897745
 20
5182.7892916781
 10
7121.9624472843
 20
5184.6854861808
 10
7122.4200552438
 20
5186.6218144975
 10
7122.5419587194
 20
5188.3427907335
  0
ARC
  5
293
330
1F
100
AcDbEntity
  8
0
  6
Continuous
 62
     7
370
    25
100
AcDbCircle
 10
7028.8206888389
 20
5220.9994420927
 30
0.0
 40
2.000000000000131
100
AcDbArc
 50
120.0010464822
 51
180.0
  0
ARC
  5
294
330
1F
100
AcDbEntity
  8
0
  6
Continuous
 62
     7
370
    25
100
AcDbCircle
 10
7122.8206888389
 20
5220.9994420927
 30
0.0
 40
2.000000000000909
100
AcDbArc
 50
0.0
 51
90.0
  0
LINE
  5
295
330
1F
100
AcDbEntity
  8
0
  6
Continuous
 62
     7
370
    25
100
AcDbLine
 10
7124.8206888389
 20
5217.9994420927
 30
0.0
 11
7124.8206888389
 21
5220.9994420927
 31
0.0
  0
LINE
  5
296
330
1F
100
AcDbEntity
  8
0
  6
Continuous
 62
     7
370
    25
100
AcDbLine
 10
7026.8206888389
 20
5220.9994420927
 30
0.0
 11
7026.8206888389
 21
5217.9994420927
 31
0.0
  0
LINE
  5
297
330
1F
100
AcDbEntity
  8
0
  6
Continuous
 62
     7
370
    25
100
AcDbLine
 10
7042.9706686522
 20
5174.0834847989
 30
0.0
 11
7043.5799438567
 21
5150.8162034546
 31
0.0
  0
LINE
  5
298
330
1F
100
AcDbEntity
  8
0
  6
Continuous
 62
     7
370
    25
100
AcDbLine
 10
7108.0614338212
 20
5150.8162034546
 30
0.0
 11
7108.6706781969
 21
5174.0823074992
 31
0.0
  0
ARC
  5
299
330
1F
100
AcDbEntity
  8
0
  6
Continuous
 62
     7
370
    25
100
AcDbCircle
 10
7101.0638325463
 20
5150.9994420927
 30
0.0
 40
7.000000000000909
100
AcDbArc
 50
270.0
 51
358.5
  0
ARC
  5
29A
330
1F
100
AcDbEntity
  8
0
  6
Continuous
 62
     7
370
    25
100
AcDbCircle
 10
7050.5775451315
 20
5150.9994420927
 30
0.0
 40
7.000000000000909
100
AcDbArc
 50
181.5
 51
270.0
  0
LINE
  5
29B
330
1F
100
AcDbEntity
  8
0
  6
Continuous
 62
     7
370
    25
100
AcDbLine
 10
7020.8206888389
 20
5133.7994420927
 30
0.0
 11
7020.8206888389
 21
5203.7994420927
 31
0.0
  0
LINE
  5
29C
330
1F
100
AcDbEntity
  8
0
  6
Continuous
 62
     7
370
    25
100
AcDbLine
 10
7010.8206888389
 20
5203.7994420927
 30
0.0
 11
7010.8206888389
 21
5133.7994420927
 31
0.0
  0
LINE
  5
29D
330
1F
100
AcDbEntity
  8
0
  6
Continuous
 62
     7
370
    25
100
AcDbLine
 10
7020.8206888389
 20
5212.7994420927
 30
0.0
 11
7019.8206888389
 21
5213.7994420927
 31
0.0
  0
LINE
  5
29E
330
1F
100
AcDbEntity
  8
0
  6
Continuous
 62
     7
370
    25
100
AcDbLine
 10
7011.8206888389
 20
5213.7994420927
 30
0.0
 11
7010.8206888389
 21
5212.7994420927
 31
0.0
  0
LINE
  5
29F
330
1F
100
AcDbEntity
  8
0
  6
Continuous
 62
     7
370
    25
100
AcDbLine
 10
7167.8206888389
 20
5128.7994420927
 30
0.0
 11
7167.8206888389
 21
5203.7994420927
 31
0.0
  0
LINE
  5
2A0
330
1F
100
AcDbEntity
  8
0
  6
Continuous
 62
     7
370
    25
100
AcDbLine
 10
7157.8206888389
 20
5203.7994420927
 30
0.0
 11
7157.8206888389
 21
5128.7994420927
 31
0.0
  0
LINE
  5
2A1
330
1F
100
AcDbEntity
  8
0
  6
Continuous
 62
     7
370
    25
100
AcDbLine
 10
7167.8206888389
 20
5212.7994420927
 30
0.0
 11
7166.8206888389
 21
5213.7994420927
 31
0.0
  0
LINE
  5
2A2
330
1F
100
AcDbEntity
  8
0
  6
Continuous
 62
     7
370
    25
100
AcDbLine
 10
7158.8206888389
 20
5213.7994420927
 30
0.0
 11
7157.8206888389
 21
5212.7994420927
 31
0.0
  0
LINE
  5
2A3
330
1F
100
AcDbEntity
  8
0
  6
Continuous
 62
     7
370
    25
100
AcDbLine
 10
7125.8206888389
 20
5247.7994420927
 30
0.0
 11
7025.8206888389
 21
5247.7994420927
 31
0.0
  0
LINE
  5
2A4
330
1F
100
AcDbEntity
  8
0
  6
Continuous
 62
     7
370
    25
100
AcDbLine
 10
7025.8206888389
 20
5247.7994420927
 30
0.0
 11
7023.1206888389
 21
5247.7994420927
 31
0.0
  0
LINE
  5
2A5
330
1F
100
AcDbEntity
  8
0
  6
Continuous
 62
     7
370
    25
100
AcDbLine
 10
7128.5206888389
 20
5247.7994420927
 30
0.0
 11
7125.8206888389
 21
5247.7994420927
 31
0.0
  0
LINE
  5
2A6
330
1F
100
AcDbEntity
  8
0
  6
Continuous
 62
     7
370
    25
100
AcDbLine
 10
7072.8206888389
 20
5223.5994420927
 30
0.0
 11
7072.8206888389
 21
5208.5994420927
 31
0.0
  0
LINE
  5
2A7
330
1F
100
AcDbEntity
  8
0
  6
Continuous
 62
     7
370
    25
100
AcDbLine
 10
7078.8206888389
 20
5208.5994420927
 30
0.0
 11
7078.8206888389
 21
5223.5994420927
 31
0.0
  0
LINE
  5
2A8
330
1F
100
AcDbEntity
  8
0
  6
Continuous
 62
     7
370
    25
100
AcDbLine
 10
7044.2807249758
 20
5228.003805859
 30
0.0
 11
7045.9356286729
 21
5226.9920203973
 31
0.0
  0
LINE
  5
2A9
330
1F
100
AcDbEntity
  8
0
  6
Continuous
 62
     7
370
    25
100
AcDbLine
 10
7105.705749005
 20
5226.9920203973
 30
0.0
 11
7107.360652702
 21
5228.003805859
 31
0.0
  0
LINE
  5
2AA
330
1F
100
AcDbEntity
  8
0
  6
Continuous
 62
     7
370
    25
100
AcDbLine
 10
7109.0706888389
 20
5228.003805859
 30
0.0
 11
7081.5941915308
 21
5228.003805859
 31
0.0
  0
LINE
  5
2AB
330
1F
100
AcDbEntity
  8
0
  6
Continuous
 62
     7
370
    25
100
AcDbLine
 10
7070.047186147
 20
5228.003805859
 30
0.0
 11
7042.5706888389
 21
5228.003805859
 31
0.0
  0
LINE
  5
2AC
330
1F
100
AcDbEntity
  8
0
  6
Continuous
 62
     7
370
    25
100
AcDbLine
 10
7035.8206888389
 20
5226.495731245
 30
0.0
 11
7070.047186147
 21
5226.495731245
 31
0.0
  0
LINE
  5
2AD
330
1F
100
AcDbEntity
  8
0
  6
Continuous
 62
     7
370
    25
100
AcDbLine
 10
7081.5941915308
 20
5226.495731245
 30
0.0
 11
7115.8206888389
 21
5226.495731245
 31
0.0
  0
LWPOLYLINE
  5
2AE
330
1F
100
AcDbEntity
  8
0
  6
Continuous
 62
     7
370
    25
100
AcDbPolyline
 90
        8
 70
   128
 43
0.0
 10
7085.9057276488
 20
5203.929205835
 10
7085.4649759032
 20
5203.9257997403
 10
7081.8942443914
 20
5203.9000206795
 10
7078.1599537659
 20
5203.8747415932
 10
7074.3726887858
 20
5203.8504714573
 10
7070.6414679993
 20
5203.825497033
 10
7067.0570549479
 20
5203.7998005934
 10
7065.7957871425
 20
5203.7900768358
  0
LINE
  5
2AF
330
1F
100
AcDbEntity
  8
0
  6
Continuous
 62
     7
370
    25
100
AcDbLine
 10
7075.8206888389
 20
5202.4994420927
 30
0.0
 11
7085.5115339825
 21
5202.4994420927
 31
0.0
  0
LINE
  5
2B0
330
1F
100
AcDbEntity
  8
0
  6
Continuous
 62
     7
370
    25
100
AcDbLine
 10
7066.1298436953
 20
5202.4994420927
 30
0.0
 11
7075.8206888389
 21
5202.4994420927
 31
0.0
  0
LWPOLYLINE
  5
2B1
330
1F
100
AcDbEntity
  8
0
  6
Continuous
 62
     7
370
    25
100
AcDbPolyline
 90
        7
 70
   128
 43
0.0
 10
7066.6881508061
 20
5204.8401608872
 10
7066.942433208
 20
5204.8431920886
 10
7071.3380813274
 20
5204.8914444611
 10
7075.8206888389
 20
5204.9369420886
 10
7080.3032963505
 20
5204.9824397162
 10
7084.6989444698
 20
5205.0306920886
 10
7084.7661698995
 20
5205.0314934568
  0
LWPOLYLINE
  5
2B2
330
1F
100
AcDbEntity
  8
0
  6
Continuous
 62
     7
370
    25
100
AcDbPolyline
 90
        5
 70
   128
 43
0.0
 10
7067.0565002924
 20
5205.031944242
 10
7071.3380813274
 20
5205.0789444651
 10
7075.8206888389
 20
5205.1244420927
 10
7080.3032963505
 20
5205.1699397203
 10
7084.3614135373
 20
5205.2144869125
  0
LWPOLYLINE
  5
2B3
330
1F
100
AcDbEntity
  8
0
  6
Continuous
 62
     7
370
    25
100
AcDbPolyline
 90
        7
 70
   128
 43
0.0
 10
7065.9288565245
 20
5204.3580834195
 10
7067.2531334323
 20
5204.3744420907
 10
7071.4949530392
 20
5204.4226944631
 10
7075.8206888389
 20
5204.4681920907
 10
7080.1464246386
 20
5204.5136897182
 10
7084.3882442455
 20
5204.5619420907
 10
7085.5069972637
 20
5204.5757619441
  0
LWPOLYLINE
  5
2B4
330
1F
100
AcDbEntity
  8
0
  6
Continuous
 62
     7
370
    25
100
AcDbPolyline
 90
        4
 70
   128
 43
0.0
 10
7068.7063984615
 20
5205.890973554
 10
7071.4949530392
 20
5205.9226944631
 10
7075.8206888389
 20
5205.9681920907
 10
7078.7918163421
 20
5205.9994420927
  0
LWPOLYLINE
  5
2B5
330
1F
100
AcDbEntity
  8
0
  6
Continuous
 62
     7
370
    25
100
AcDbPolyline
 90
        7
 70
   128
 43
0.0
 10
7065.9171707843
 20
5203.9829390666
 10
7067.2531334323
 20
5203.9994420907
 10
7071.4949530392
 20
5204.0476944631
 10
7075.8206888389
 20
5204.0931920907
 10
7080.1464246386
 20
5204.1386897182
 10
7084.3882442455
 20
5204.1869420907
 10
7085.71733159
 20
5204.2033601847
  0
LWPOLYLINE
  5
2B6
330
1F
100
AcDbEntity
  8
0
  6
Continuous
 62
     7
370
    25
100
AcDbPolyline
 90
        5
 70
   128
 43
0.0
 10
7067.9700656286
 20
5205.5075974774
 10
7071.4949530392
 20
5205.5476944631
 10
7075.8206888389
 20
5205.5931920907
 10
7080.1464246386
 20
5205.6386897182
 10
7083.3427140331
 20
5205.6750487718
  0
ARC
  5
2B7
330
1F
100
AcDbEntity
  8
0
  6
Continuous
 62
     7
370
    25
100
AcDbCircle
 10
7075.8206888389
 20
5190.0628532626
 30
0.0
 40
19.71434232641925
100
AcDbArc
 50
98.7529037444
 51
81.2470962556
  0
CIRCLE
  5
2B8
330
1F
100
AcDbEntity
  8
0
  6
Continuous
 62
     7
370
    25
100
AcDbCircle
 10
7075.8206256198
 20
5190.0627181762
 30
0.0
 40
17.49968043751374
  0
ARC
  5
2B9
330
1F
100
AcDbEntity
  8
0
  6
Continuous
 62
     7
370
    25
100
AcDbCircle
 10
7075.8206888389
 20
5190.0932873615
 30
0.0
 40
19.999637628104
100
AcDbArc
 50
98.6270840614
 51
81.3729159386
  0
ARC
  5
2BA
330
1F
100
AcDbEntity
  8
0
  6
Continuous
 62
     7
370
    25
100
AcDbCircle
 10
7075.8212490938
 20
5190.6917373586
 30
0.0
 40
19.99934455094871
100
AcDbArc
 50
0.0007770969
 51
81.3744119802
  0
ARC
  5
2BB
330
1F
100
AcDbEntity
  8
0
  6
Continuous
 62
     7
370
    25
100
AcDbCircle
 10
7075.8202007227
 20
5190.6916753367
 30
0.0
 40
19.99941669060185
100
AcDbArc
 50
98.6257657018
 51
179.9990452211
  0
ARC
  5
2BC
330
1F
100
AcDbEntity
  8
0
  6
Continuous
 62
     7
370
    25
100
AcDbCircle
 10
7073.3810720948
 20
5190.9405135765
 30
0.0
 40
15.04056685113658
100
AcDbArc
 50
177.7865545129
 51
205.5322813902
  0
ARC
  5
2BD
330
1F
100
AcDbEntity
  8
0
  6
Continuous
 62
     7
370
    25
100
AcDbCircle
 10
7075.8206888389
 20
5191.5213547988
 30
0.0
 40
17.50023986067609
100
AcDbArc
 50
203.8052968745
 51
336.1947031254
  0
ARC
  5
2BE
330
1F
100
AcDbEntity
  8
0
  6
Continuous
 62
     7
370
    25
100
AcDbCircle
 10
7077.4743811132
 20
5191.0467466698
 30
0.0
 40
15.79739587783268
100
AcDbArc
 50
335.3486948419
 51
1.7302785812
  0
ARC
  5
2BF
330
1F
100
AcDbEntity
  8
0
  6
Continuous
 62
     7
370
    25
100
AcDbCircle
 10
7075.8207395052
 20
5191.4134356615
 30
0.0
 40
26.51314417681166
100
AcDbArc
 50
59.5064972454
 51
83.5030967631
  0
ARC
  5
2C0
330
1F
100
AcDbEntity
  8
0
  6
Continuous
 62
     7
370
    25
100
AcDbCircle
 10
7075.8206319805
 20
5191.4134548661
 30
0.0
 40
26.51312449345745
100
AcDbArc
 50
96.248458015
 51
120.4798076071
  0
LINE
  5
2C1
330
1F
100
AcDbEntity
  8
0
  6
Continuous
 62
     7
370
    25
100
AcDbLine
 10
7051.8010725039
 20
5220.9994420927
 30
0.0
 11
7051.8010725039
 21
5217.9994420927
 31
0.0
  0
LINE
  5
2C2
330
1F
100
AcDbEntity
  8
0
  6
Continuous
 62
     7
370
    25
100
AcDbLine
 10
7058.6874243622
 20
5220.9994420927
 30
0.0
 11
7051.8010725039
 21
5220.9994420927
 31
0.0
  0
LINE
  5
2C3
330
1F
100
AcDbEntity
  8
0
  6
Continuous
 62
     7
370
    25
100
AcDbLine
 10
7058.6874243622
 20
5220.9994420927
 30
0.0
 11
7058.6874243622
 21
5217.9994420927
 31
0.0
  0
LINE
  5
2C4
330
1F
100
AcDbEntity
  8
0
  6
Continuous
 62
     7
370
    25
100
AcDbLine
 10
7051.8010725039
 20
5217.9994420927
 30
0.0
 11
7058.6874243622
 21
5217.9994420927
 31
0.0
  0
LINE
  5
2C5
330
1F
100
AcDbEntity
  8
0
  6
Continuous
 62
     7
370
    25
100
AcDbLine
 10
7053.7686016063
 20
5222.9994420927
 30
0.0
 11
7058.6874243622
 21
5222.9994420927
 31
0.0
  0
LINE
  5
2C6
330
1F
100
AcDbEntity
  8
0
  6
Continuous
 62
     7
370
    25
100
AcDbLine
 10
7058.6874243622
 20
5222.9994420927
 30
0.0
 11
7058.6874243622
 21
5220.9994420927
 31
0.0
  0
ARC
  5
2C7
330
1F
100
AcDbEntity
  8
0
  6
Continuous
 62
     7
370
    25
100
AcDbCircle
 10
7053.7849710251
 20
5221.0155457466
 30
0.0
 40
1.983963878171313
100
AcDbArc
 50
90.4727451247
 51
180.4650697253
  0
LINE
  5
2C8
330
1F
100
AcDbEntity
  8
0
  6
Continuous
 62
     7
370
    25
100
AcDbLine
 10
7092.9539533156
 20
5220.9994420927
 30
0.0
 11
7092.9539533156
 21
5217.9994420927
 31
0.0
  0
LINE
  5
2C9
330
1F
100
AcDbEntity
  8
0
  6
Continuous
 62
     7
370
    25
100
AcDbLine
 10
7058.6874243622
 20
5217.9994420927
 30
0.0
 11
7072.8206888389
 21
5217.9994420927
 31
0.0
  0
LINE
  5
2CA
330
1F
100
AcDbEntity
  8
0
  6
Continuous
 62
     7
370
    25
100
AcDbLine
 10
7078.8206888389
 20
5217.9994420927
 30
0.0
 11
7092.9539533156
 21
5217.9994420927
 31
0.0
  0
LINE
  5
2CB
330
1F
100
AcDbEntity
  8
0
  6
Continuous
 62
     7
370
    25
100
AcDbLine
 10
7058.6874243622
 20
5222.9994420927
 30
0.0
 11
7072.8206888389
 21
5222.9994420927
 31
0.0
  0
LINE
  5
2CC
330
1F
100
AcDbEntity
  8
0
  6
Continuous
 62
     7
370
    25
100
AcDbLine
 10
7078.8206888389
 20
5222.9994420927
 30
0.0
 11
7092.9539533156
 21
5222.9994420927
 31
0.0
  0
LINE
  5
2CD
330
1F
100
AcDbEntity
  8
0
  6
Continuous
 62
     7
370
    25
100
AcDbLine
 10
7092.9539533156
 20
5222.9994420927
 30
0.0
 11
7092.9539533156
 21
5220.9994420927
 31
0.0
  0
LINE
  5
2CE
330
1F
100
AcDbEntity
  8
0
  6
Continuous
 62
     7
370
    25
100
AcDbLine
 10
7092.9539533156
 20
5222.9994420927
 30
0.0
 11
7097.8727760715
 21
5222.9994420927
 31
0.0
  0
ARC
  5
2CF
330
1F
100
AcDbEntity
  8
0
  6
Continuous
 62
     7
370
    25
100
AcDbCircle
 10
7097.8564066527
 20
5221.0155457466
 30
0.0
 40
1.983963878172207
100
AcDbArc
 50
359.5349302747
 51
89.5272548754
  0
LINE
  5
2D0
330
1F
100
AcDbEntity
  8
0
  6
Continuous
 62
     7
370
    25
100
AcDbLine
 10
7099.8403051739
 20
5220.9994420927
 30
0.0
 11
7092.9539533156
 21
5220.9994420927
 31
0.0
  0
LINE
  5
2D1
330
1F
100
AcDbEntity
  8
0
  6
Continuous
 62
     7
370
    25
100
AcDbLine
 10
7099.8403051739
 20
5220.9994420927
 30
0.0
 11
7099.8403051739
 21
5217.9994420927
 31
0.0
  0
LINE
  5
2D2
330
1F
100
AcDbEntity
  8
0
  6
Continuous
 62
     7
370
    25
100
AcDbLine
 10
7092.9539533156
 20
5217.9994420927
 30
0.0
 11
7099.8403051739
 21
5217.9994420927
 31
0.0
  0
LWPOLYLINE
  5
2D3
330
1F
100
AcDbEntity
  8
0
  6
Continuous
 62
     7
370
    25
100
AcDbPolyline
 90
        3
 70
   128
 43
0.0
 10
7093.5937296424
 20
5170.4008276112
 10
7093.2617342335
 20
5170.1803989899
 10
7092.8856836798
 20
5170.1149960099
  0
LWPOLYLINE
  5
2D4
330
1F
100
AcDbEntity
  8
0
  6
Continuous
 62
     7
370
    25
100
AcDbPolyline
 90
        3
 70
   128
 43
0.0
 10
7058.0476480354
 20
5170.4008276112
 10
7058.3796434443
 20
5170.1803989899
 10
7058.7771849449
 20
5170.1112582891
  0
LINE
  5
2D5
330
1F
100
AcDbEntity
  8
0
  6
Continuous
 62
     7
370
    25
100
AcDbLine
 10
7051.8010725039
 20
5220.9994420927
 30
0.0
 11
7042.2764821844
 21
5220.9994420927
 31
0.0
  0
ARC
  5
2D6
330
1F
100
AcDbEntity
  8
0
  6
Continuous
 62
     7
370
    25
100
AcDbCircle
 10
7044.0344164829
 20
5221.2640296745
 30
0.0
 40
1.777734397024581
100
AcDbArc
 50
102.5271579556
 51
188.5593696971
  0
LINE
  5
2D7
330
1F
100
AcDbEntity
  8
0
  6
Continuous
 62
     7
370
    25
100
AcDbLine
 10
7043.648821715
 20
5222.9994420927
 30
0.0
 11
7053.7686016063
 21
5222.9994420927
 31
0.0
  0
LINE
  5
2D8
330
1F
100
AcDbEntity
  8
0
  6
Continuous
 62
     7
370
    25
100
AcDbLine
 10
7042.2764821844
 20
5220.9994420927
 30
0.0
 11
7042.2764821844
 21
5217.9994420927
 31
0.0
  0
LINE
  5
2D9
330
1F
100
AcDbEntity
  8
0
  6
Continuous
 62
     7
370
    25
100
AcDbLine
 10
7042.2764821844
 20
5217.9994420927
 30
0.0
 11
7051.8010725039
 21
5217.9994420927
 31
0.0
  0
ARC
  5
2DA
330
1F
100
AcDbEntity
  8
0
  6
Continuous
 62
     7
370
    25
100
AcDbCircle
 10
7107.6039085383
 20
5221.2619350339
 30
0.0
 40
1.780443090941187
100
AcDbArc
 50
351.5219073503
 51
77.3915649969
  0
LINE
  5
2DB
330
1F
100
AcDbEntity
  8
0
  6
Continuous
 62
     7
370
    25
100
AcDbLine
 10
7109.3648954934
 20
5220.9994420927
 30
0.0
 11
7099.8403051739
 21
5220.9994420927
 31
0.0
  0
LINE
  5
2DC
330
1F
100
AcDbEntity
  8
0
  6
Continuous
 62
     7
370
    25
100
AcDbLine
 10
7097.8727760715
 20
5222.9994420927
 30
0.0
 11
7107.9925559628
 21
5222.9994420927
 31
0.0
  0
LINE
  5
2DD
330
1F
100
AcDbEntity
  8
0
  6
Continuous
 62
     7
370
    25
100
AcDbLine
 10
7109.3648954934
 20
5220.9994420927
 30
0.0
 11
7109.3648954934
 21
5217.9994420927
 31
0.0
  0
LINE
  5
2DE
330
1F
100
AcDbEntity
  8
0
  6
Continuous
 62
     7
370
    25
100
AcDbLine
 10
7099.8403051739
 20
5217.9994420927
 30
0.0
 11
7109.3648954934
 21
5217.9994420927
 31
0.0
  0
LINE
  5
2DF
330
1F
100
AcDbEntity
  8
0
  6
Continuous
 62
     7
370
    25
100
AcDbLine
 10
7044.7191991134
 20
5179.6922772075
 30
0.0
 11
7044.4963957056
 21
5217.9994420927
 31
0.0
  0
LINE
  5
2E0
330
1F
100
AcDbEntity
  8
0
  6
Continuous
 62
     7
370
    25
100
AcDbLine
 10
7106.9221785644
 20
5179.6922772075
 30
0.0
 11
7107.1449819722
 21
5217.9994420927
 31
0.0
  0
LINE
  5
2E1
330
1F
100
AcDbEntity
  8
0
  6
Continuous
 62
     7
370
    25
100
AcDbLine
 10
7068.5914257687
 20
5205.9994420927
 30
0.0
 11
7083.0499519091
 21
5205.9994420927
 31
0.0
  0
LINE
  5
2E2
330
1F
100
AcDbEntity
  8
0
  6
Continuous
 62
     7
370
    25
100
AcDbLine
 10
7081.5941915308
 20
5225.9994420927
 30
0.0
 11
7117.5706888389
 21
5225.9994420927
 31
0.0
  0
LINE
  5
2E3
330
1F
100
AcDbEntity
  8
0
  6
Continuous
 62
     7
370
    25
100
AcDbLine
 10
7034.0706888389
 20
5225.9994420927
 30
0.0
 11
7070.047186147
 21
5225.9994420927
 31
0.0
  0
LINE
  5
2E4
330
1F
100
AcDbEntity
  8
0
  6
Continuous
 62
     7
370
    25
100
AcDbLine
 10
7107.9925559628
 20
5222.9994420927
 30
0.0
 11
7122.8206888389
 21
5222.9994420927
 31
0.0
  0
LINE
  5
2E5
330
1F
100
AcDbEntity
  8
0
  6
Continuous
 62
     7
370
    25
100
AcDbLine
 10
7029.8206589454
 20
5222.9994420927
 30
0.0
 11
7043.648821715
 21
5222.9994420927
 31
0.0
  0
LINE
  5
2E6
330
1F
100
AcDbEntity
  8
0
  6
Continuous
 62
     7
370
    25
100
AcDbLine
 10
7109.3648954934
 20
5217.9994420927
 30
0.0
 11
7124.8206888389
 21
5217.9994420927
 31
0.0
  0
LINE
  5
2E7
330
1F
100
AcDbEntity
  8
0
  6
Continuous
 62
     7
370
    25
100
AcDbLine
 10
7026.8206888389
 20
5217.9994420927
 30
0.0
 11
7027.8206264524
 21
5217.9994420927
 31
0.0
  0
LINE
  5
2E8
330
1F
100
AcDbEntity
  8
0
  6
Continuous
 62
     7
370
    25
100
AcDbLine
 10
7029.8206888389
 20
5217.9994420927
 30
0.0
 11
7042.2764821844
 21
5217.9994420927
 31
0.0
  0
LINE
  5
2E9
330
1F
100
AcDbEntity
  8
0
  6
Continuous
 62
     7
370
    25
100
AcDbLine
 10
7064.5614338212
 20
5150.8162034546
 30
0.0
 11
7064.9624368357
 21
5166.1298907534
 31
0.0
  0
ARC
  5
2EA
330
1F
100
AcDbEntity
  8
0
  6
Continuous
 62
     7
370
    25
100
AcDbCircle
 10
7059.3408106149
 20
5199.2275751864
 30
0.0
 40
48.69205088734421
100
AcDbArc
 50
263.8450785085
 51
276.1549214915
  0
ARC
  5
2EB
330
1F
100
AcDbEntity
  8
0
  6
Continuous
 62
     7
370
    25
100
AcDbCircle
 10
7092.300567063
 20
5199.2275751033
 30
0.0
 40
48.69205080478851
100
AcDbArc
 50
263.845078498
 51
276.154921502
  0
LINE
  5
2EC
330
1F
100
AcDbEntity
  8
0
  6
Continuous
 62
     7
370
    25
100
AcDbLine
 10
7087.0799438567
 20
5150.8162034546
 30
0.0
 11
7086.6789408421
 21
5166.1298907534
 31
0.0
  0
LINE
  5
2ED
330
1F
100
AcDbEntity
  8
0
  6
Continuous
 62
     7
370
    25
100
AcDbLine
 10
7065.2591960022
 20
5177.567354234
 30
0.0
 11
7066.1298436953
 21
5202.4994420927
 31
0.0
  0
LINE
  5
2EE
330
1F
100
AcDbEntity
  8
0
  6
Continuous
 62
     7
370
    25
100
AcDbLine
 10
7086.3821816756
 20
5177.567354234
 30
0.0
 11
7085.5115339825
 21
5202.4994420927
 31
0.0
  0
LWPOLYLINE
  5
2EF
330
1F
100
AcDbEntity
  8
0
  6
Continuous
 62
     7
370
    25
100
AcDbPolyline
 90
        6
 70
   128
 43
0.0
 10
7057.5638325463
 20
5143.9994420927
 10
7056.2862149239
 20
5144.4920046844
 10
7055.1816952638
 20
5145.9293494154
 10
7054.4176771306
 20
5148.138336684
 10
7054.2047663343
 20
5149.4420556363
 10
7054.1201874085
 20
5150.8162034546
  0
ARC
  5
2F0
330
1F
100
AcDbEntity
  8
0
  6
Continuous
 62
     7
370
    25
100
AcDbCircle
 10
7057.5638325463
 20
5150.9994420927
 30
0.0
 40
7.000000000001345
100
AcDbArc
 50
270.0
 51
358.5
  0
LWPOLYLINE
  5
2F1
330
1F
100
AcDbEntity
  8
0
  6
Continuous
 62
     7
370
    25
100
AcDbPolyline
 90
        6
 70
   128
 43
0.0
 10
7097.5211902693
 20
5150.8162034546
 10
7097.4366140694
 20
5149.4420739451
 10
7097.2237073534
 20
5148.1383595362
 10
7096.459682414
 20
5145.9293494154
 10
7095.3551627539
 20
5144.4920046844
 10
7094.0775451315
 20
5143.9994420927
  0
ARC
  5
2F2
330
1F
100
AcDbEntity
  8
0
  6
Continuous
 62
     7
370
    25
100
AcDbCircle
 10
7094.0775451315
 20
5150.9994420927
 30
0.0
 40
7.0
100
AcDbArc
 50
181.5
 51
270.0
  0
LINE
  5
2F3
330
1F
100
AcDbEntity
  8
0
  6
Continuous
 62
     7
370
    25
100
AcDbLine
 10
7057.5638325463
 20
5143.9994420927
 30
0.0
 11
7050.5775451315
 21
5143.9994420927
 31
0.0
  0
LINE
  5
2F4
330
1F
100
AcDbEntity
  8
0
  6
Continuous
 62
     7
370
    25
100
AcDbLine
 10
7101.0638325463
 20
5143.9994420927
 30
0.0
 11
7094.0775451315
 21
5143.9994420927
 31
0.0
  0
LINE
  5
2F5
330
1F
100
AcDbEntity
  8
0
  6
Continuous
 62
     7
370
    25
100
AcDbLine
 10
7064.5614338212
 20
5150.8162034546
 30
0.0
 11
7065.9553873425
 21
5150.8162034546
 31
0.0
  0
LWPOLYLINE
  5
2F6
330
1F
100
AcDbEntity
  8
0
  6
Continuous
 62
     7
370
    25
100
AcDbPolyline
 90
        9
 70
   128
 43
0.0
 10
7061.007336029
 20
5143.9994420927
 10
7061.9570919437
 20
5144.1295128788
 10
7062.8715520017
 20
5144.5148914056
 10
7063.7167320492
 20
5145.1412558196
 10
7064.461222591
 20
5145.9853284887
 10
7065.0773560642
 20
5147.0157410716
 10
7065.5422350502
 20
5148.194200261
 10
7065.8385832133
 20
5149.4769108819
 10
7065.9553873425
 20
5150.8162034546
  0
LINE
  5
2F7
330
1F
100
AcDbEntity
  8
0
  6
Continuous
 62
     7
370
    25
100
AcDbLine
 10
7061.007336029
 20
5143.9994420927
 30
0.0
 11
7057.5638325463
 21
5143.9994420927
 31
0.0
  0
LINE
  5
2F8
330
1F
100
AcDbEntity
  8
0
  6
Continuous
 62
     7
370
    25
100
AcDbLine
 10
7085.6859903354
 20
5150.8162034546
 30
0.0
 11
7087.0799438567
 21
5150.8162034546
 31
0.0
  0
LWPOLYLINE
  5
2F9
330
1F
100
AcDbEntity
  8
0
  6
Continuous
 62
     7
370
    25
100
AcDbPolyline
 90
        9
 70
   128
 43
0.0
 10
7085.6859903354
 20
5150.8162034546
 10
7085.8027944645
 20
5149.4769108819
 10
7086.0991426276
 20
5148.194200261
 10
7086.5640216136
 20
5147.0157410716
 10
7087.1801550868
 20
5145.9853284887
 10
7087.9246456286
 20
5145.1412558196
 10
7088.7698256761
 20
5144.5148914056
 10
7089.6842857341
 20
5144.1295128788
 10
7090.6340416488
 20
5143.9994420927
  0
LINE
  5
2FA
330
1F
100
AcDbEntity
  8
0
  6
Continuous
 62
     7
370
    25
100
AcDbLine
 10
7094.0775451315
 20
5143.9994420927
 30
0.0
 11
7090.6340416488
 21
5143.9994420927
 31
0.0
  0
LINE
  5
2FB
330
1F
100
AcDbEntity
  8
0
  6
Continuous
 62
     7
370
    25
100
AcDbLine
 10
7065.9553873425
 20
5150.8162034546
 30
0.0
 11
7069.6980280296
 21
5150.8162034546
 31
0.0
  0
LINE
  5
2FC
330
1F
100
AcDbEntity
  8
0
  6
Continuous
 62
     7
370
    25
100
AcDbLine
 10
7081.9433496482
 20
5150.8162034546
 30
0.0
 11
7085.6859903354
 21
5150.8162034546
 31
0.0
  0
LWPOLYLINE
  5
2FD
330
1F
100
AcDbEntity
  8
0
  6
Continuous
 62
     7
370
    25
100
AcDbPolyline
 90
        9
 70
   128
 43
0.0
 10
7064.7499767161
 20
5143.9994420927
 10
7065.6997326308
 20
5144.1295128788
 10
7066.6141926889
 20
5144.5148914056
 10
7067.4593727364
 20
5145.1412558196
 10
7068.2038632781
 20
5145.9853284887
 10
7068.8199967513
 20
5147.0157410716
 10
7069.2848757374
 20
5148.194200261
 10
7069.5812239004
 20
5149.4769108819
 10
7069.6980280296
 20
5150.8162034546
  0
LINE
  5
2FE
330
1F
100
AcDbEntity
  8
0
  6
Continuous
 62
     7
370
    25
100
AcDbLine
 10
7064.7499767161
 20
5143.9994420927
 30
0.0
 11
7061.007336029
 21
5143.9994420927
 31
0.0
  0
LWPOLYLINE
  5
2FF
330
1F
100
AcDbEntity
  8
0
  6
Continuous
 62
     7
370
    25
100
AcDbPolyline
 90
        9
 70
   128
 43
0.0
 10
7081.9433496482
 20
5150.8162034546
 10
7082.0601537774
 20
5149.4769108819
 10
7082.3565019405
 20
5148.194200261
 10
7082.8213809265
 20
5147.0157410716
 10
7083.4375143997
 20
5145.9853284887
 10
7084.1820049415
 20
5145.1412558196
 10
7085.027184989
 20
5144.5148914056
 10
7085.941645047
 20
5144.1295128788
 10
7086.8914009617
 20
5143.9994420927
  0
LINE
  5
300
330
1F
100
AcDbEntity
  8
0
  6
Continuous
 62
     7
370
    25
100
AcDbLine
 10
7090.6340416488
 20
5143.9994420927
 30
0.0
 11
7086.8914009617
 21
5143.9994420927
 31
0.0
  0
LINE
  5
301
330
1F
100
AcDbEntity
  8
0
  6
Continuous
 62
     7
370
    25
100
AcDbLine
 10
7069.6980280296
 20
5150.8162034546
 30
0.0
 11
7073.063329526
 21
5150.8162034546
 31
0.0
  0
LINE
  5
302
330
1F
100
AcDbEntity
  8
0
  6
Continuous
 62
     7
370
    25
100
AcDbLine
 10
7078.5780481518
 20
5150.8162034546
 30
0.0
 11
7081.9433496482
 21
5150.8162034546
 31
0.0
  0
LINE
  5
303
330
1F
100
AcDbEntity
  8
0
  6
Continuous
 62
     7
370
    25
100
AcDbLine
 10
7073.063329526
 20
5143.9994420927
 30
0.0
 11
7073.063329526
 21
5150.8162034546
 31
0.0
  0
LINE
  5
304
330
1F
100
AcDbEntity
  8
0
  6
Continuous
 62
     7
370
    25
100
AcDbLine
 10
7073.063329526
 20
5143.9994420927
 30
0.0
 11
7064.7499767161
 21
5143.9994420927
 31
0.0
  0
LINE
  5
305
330
1F
100
AcDbEntity
  8
0
  6
Continuous
 62
     7
370
    25
100
AcDbLine
 10
7078.5780481518
 20
5150.8162034546
 30
0.0
 11
7078.5780481518
 21
5143.9994420927
 31
0.0
  0
LINE
  5
306
330
1F
100
AcDbEntity
  8
0
  6
Continuous
 62
     7
370
    25
100
AcDbLine
 10
7086.8914009617
 20
5143.9994420927
 30
0.0
 11
7078.5780481518
 21
5143.9994420927
 31
0.0
  0
LINE
  5
307
330
1F
100
AcDbEntity
  8
0
  6
Continuous
 62
     7
370
    25
100
AcDbLine
 10
7073.063329526
 20
5150.8162034546
 30
0.0
 11
7078.5780481518
 21
5150.8162034546
 31
0.0
  0
LINE
  5
308
330
1F
100
AcDbEntity
  8
0
  6
Continuous
 62
     7
370
    25
100
AcDbLine
 10
7078.5780481518
 20
5143.9994420927
 30
0.0
 11
7073.063329526
 21
5143.9994420927
 31
0.0
  0
LINE
  5
309
330
1F
100
AcDbEntity
  8
0
  6
Continuous
 62
     7
370
    25
100
AcDbLine
 10
7153.0057342627
 20
5133.7994420927
 30
0.0
 11
7153.0057342627
 21
5128.7994420927
 31
0.0
  0
LINE
  5
30A
330
1F
100
AcDbEntity
  8
0
  6
Continuous
 62
     7
370
    25
100
AcDbLine
 10
7153.0057342627
 20
5133.7994420927
 30
0.0
 11
7157.8206888389
 21
5133.7994420927
 31
0.0
  0
LINE
  5
30B
330
1F
100
AcDbEntity
  8
0
  6
Continuous
 62
     7
370
    25
100
AcDbLine
 10
7172.6356434151
 20
5133.7994420927
 30
0.0
 11
7172.6356434151
 21
5128.7994420927
 31
0.0
  0
LINE
  5
30C
330
1F
100
AcDbEntity
  8
0
  6
Continuous
 62
     7
370
    25
100
AcDbLine
 10
7167.8206888389
 20
5133.7994420927
 30
0.0
 11
7172.6356434151
 21
5133.7994420927
 31
0.0
  0
LINE
  5
30D
330
1F
100
AcDbEntity
  8
0
  6
Continuous
 62
     7
370
    25
100
AcDbLine
 10
7010.9132115508
 20
5133.7994420927
 30
0.0
 11
7010.9132115508
 21
5126.7994420927
 31
0.0
  0
LINE
  5
30E
330
1F
100
AcDbEntity
  8
0
  6
Continuous
 62
     7
370
    25
100
AcDbLine
 10
7020.728166127
 20
5133.7994420927
 30
0.0
 11
7020.728166127
 21
5126.7994420927
 31
0.0
  0
LINE
  5
30F
330
1F
100
AcDbEntity
  8
0
  6
Continuous
 62
     7
370
    25
100
AcDbLine
 10
7010.9132115508
 20
5126.7994420927
 30
0.0
 11
7020.728166127
 21
5126.7994420927
 31
0.0
  0
LINE
  5
310
330
1F
100
AcDbEntity
  8
0
  6
Continuous
 62
     7
370
    25
100
AcDbLine
 10
7010.9132115508
 20
5133.7994420927
 30
0.0
 11
7020.728166127
 21
5133.7994420927
 31
0.0
  0
LINE
  5
311
330
1F
100
AcDbEntity
  8
0
  6
Continuous
 62
     7
370
    25
100
AcDbLine
 10
7006.0057342627
 20
5133.7994420927
 30
0.0
 11
7006.0057342627
 21
5126.7994420927
 31
0.0
  0
LINE
  5
312
330
1F
100
AcDbEntity
  8
0
  6
Continuous
 62
     7
370
    25
100
AcDbLine
 10
7006.0057342627
 20
5126.7994420927
 30
0.0
 11
7010.9132115508
 21
5126.7994420927
 31
0.0
  0
LINE
  5
313
330
1F
100
AcDbEntity
  8
0
  6
Continuous
 62
     7
370
    25
100
AcDbLine
 10
7006.0057342627
 20
5133.7994420927
 30
0.0
 11
7010.9132115508
 21
5133.7994420927
 31
0.0
  0
LINE
  5
314
330
1F
100
AcDbEntity
  8
0
  6
Continuous
 62
     7
370
    25
100
AcDbLine
 10
7025.6356434151
 20
5133.7994420927
 30
0.0
 11
7025.6356434151
 21
5126.7994420927
 31
0.0
  0
LINE
  5
315
330
1F
100
AcDbEntity
  8
0
  6
Continuous
 62
     7
370
    25
100
AcDbLine
 10
7020.728166127
 20
5126.7994420927
 30
0.0
 11
7025.6356434151
 21
5126.7994420927
 31
0.0
  0
LINE
  5
316
330
1F
100
AcDbEntity
  8
0
  6
Continuous
 62
     7
370
    25
100
AcDbLine
 10
7020.728166127
 20
5133.7994420927
 30
0.0
 11
7025.6356434151
 21
5133.7994420927
 31
0.0
  0
LINE
  5
317
330
1F
100
AcDbEntity
  8
0
  6
Continuous
 62
     7
370
    25
100
AcDbLine
 10
7011.8206888389
 20
5213.7994420927
 30
0.0
 11
7019.8206888389
 21
5213.7994420927
 31
0.0
  0
LINE
  5
318
330
1F
100
AcDbEntity
  8
0
  6
Continuous
 62
     7
370
    25
100
AcDbLine
 10
7147.8206888389
 20
5128.7994420927
 30
0.0
 11
7147.8206888389
 21
5126.7994420927
 31
0.0
  0
LINE
  5
319
330
1F
100
AcDbEntity
  8
0
  6
Continuous
 62
     7
370
    25
100
AcDbLine
 10
7177.8206888389
 20
5128.7994420927
 30
0.0
 11
7177.8206888389
 21
5126.7994420927
 31
0.0
  0
LINE
  5
31A
330
1F
100
AcDbEntity
  8
0
  6
Continuous
 62
     7
370
    25
100
AcDbLine
 10
7147.8206888389
 20
5128.7994420927
 30
0.0
 11
7177.8206888389
 21
5128.7994420927
 31
0.0
  0
LINE
  5
31B
330
1F
100
AcDbEntity
  8
0
  6
Continuous
 62
     7
370
    25
100
AcDbLine
 10
7147.8206888389
 20
5126.7994420927
 30
0.0
 11
7177.8206888389
 21
5126.7994420927
 31
0.0
  0
LINE
  5
31C
330
1F
100
AcDbEntity
  8
0
  6
Continuous
 62
     7
370
    25
100
AcDbLine
 10
7158.8206888389
 20
5213.7994420927
 30
0.0
 11
7166.8206888389
 21
5213.7994420927
 31
0.0
  0
LINE
  5
31D
330
1F
100
AcDbEntity
  8
0
  6
Continuous
 62
     7
370
    25
100
AcDbLine
 10
7000.8206888389
 20
5128.7994420927
 30
0.0
 11
7000.8206888389
 21
5126.7994420927
 31
0.0
  0
LINE
  5
31E
330
1F
100
AcDbEntity
  8
0
  6
Continuous
 62
     7
370
    25
100
AcDbLine
 10
7000.8206888389
 20
5128.7994420927
 30
0.0
 11
7006.0057342627
 21
5128.7994420927
 31
0.0
  0
LINE
  5
31F
330
1F
100
AcDbEntity
  8
0
  6
Continuous
 62
     7
370
    25
100
AcDbLine
 10
7025.6356434151
 20
5128.7994420927
 30
0.0
 11
7030.8206888389
 21
5128.7994420927
 31
0.0
  0
LINE
  5
320
330
1F
100
AcDbEntity
  8
0
  6
Continuous
 62
     7
370
    25
100
AcDbLine
 10
7030.8206888389
 20
5128.7994420927
 30
0.0
 11
7030.8206888389
 21
5126.7994420927
 31
0.0
  0
LINE
  5
321
330
1F
100
AcDbEntity
  8
0
  6
Continuous
 62
     7
370
    25
100
AcDbLine
 10
7000.8206888389
 20
5126.7994420927
 30
0.0
 11
7006.0057342627
 21
5126.7994420927
 31
0.0
  0
LINE
  5
322
330
1F
100
AcDbEntity
  8
0
  6
Continuous
 62
     7
370
    25
100
AcDbLine
 10
7025.6356434151
 20
5126.7994420927
 30
0.0
 11
7030.8206888389
 21
5126.7994420927
 31
0.0
  0
LINE
  5
323
330
1F
100
AcDbEntity
  8
0
  6
Continuous
 62
     7
370
    25
100
AcDbLine
 10
7003.1206888389
 20
5230.5994420927
 30
0.0
 11
7003.1206888389
 21
5300.5994420927
 31
0.0
  0
LINE
  5
324
330
1F
100
AcDbEntity
  8
0
  6
Continuous
 62
     7
370
    25
100
AcDbLine
 10
7003.1206888389
 20
5300.5994420927
 30
0.0
 11
7004.6206888389
 21
5300.5994420927
 31
0.0
  0
LINE
  5
325
330
1F
100
AcDbEntity
  8
0
  6
Continuous
 62
     7
370
    25
100
AcDbLine
 10
7004.6206888389
 20
5231.7994420927
 30
0.0
 11
7004.6206888389
 21
5300.5994420927
 31
0.0
  0
LINE
  5
326
330
1F
100
AcDbEntity
  8
0
  6
Continuous
 62
     7
370
    25
100
AcDbLine
 10
7004.6206888389
 20
5231.7994420927
 30
0.0
 11
7147.0206888389
 21
5231.7994420927
 31
0.0
  0
LINE
  5
327
330
1F
100
AcDbEntity
  8
0
  6
Continuous
 62
     7
370
    25
100
AcDbLine
 10
7147.0206888389
 20
5231.7994420927
 30
0.0
 11
7147.0206888389
 21
5230.5994420927
 31
0.0
  0
LINE
  5
328
330
1F
100
AcDbEntity
  8
0
  6
Continuous
 62
     7
370
    25
100
AcDbLine
 10
7003.1206888389
 20
5230.5994420927
 30
0.0
 11
7147.0206888389
 21
5230.5994420927
 31
0.0
  0
LINE
  5
329
330
1F
100
AcDbEntity
  8
0
  6
Continuous
 62
     7
370
    25
100
AcDbLine
 10
7125.8206888389
 20
5245.7479007613
 30
0.0
 11
7025.8206888389
 21
5245.7479007613
 31
0.0
  0
LINE
  5
32A
330
1F
100
AcDbEntity
  8
0
  6
Continuous
 62
     7
370
    25
100
AcDbLine
 10
7025.8206888389
 20
5245.7479007613
 30
0.0
 11
7021.4574333888
 21
5245.7479007613
 31
0.0
  0
ARC
  5
32B
330
1F
100
AcDbEntity
  8
0
  6
Continuous
 62
     7
370
    25
100
AcDbCircle
 10
7023.102319506
 20
5246.106677123
 30
0.0
 40
1.683558973214791
100
AcDbArc
 50
89.3750030156
 51
192.3044287048
  0
LINE
  5
32C
330
1F
100
AcDbEntity
  8
0
  6
Continuous
 62
     7
370
    25
100
AcDbLine
 10
7130.183944289
 20
5245.7479007613
 30
0.0
 11
7125.8206888389
 21
5245.7479007613
 31
0.0
  0
ARC
  5
32D
330
1F
100
AcDbEntity
  8
0
  6
Continuous
 62
     7
370
    25
100
AcDbCircle
 10
7128.5206888389
 20
5246.0994420927
 30
0.0
 40
1.700000000001019
100
AcDbArc
 50
348.0657534268
 51
90.0
  0
LINE
  5
32E
330
1F
100
AcDbEntity
  8
0
  6
Continuous
 62
     7
370
    25
100
AcDbLine
 10
7025.8206888389
 20
5241.5408428581
 30
0.0
 11
7022.3466261682
 21
5241.5408428581
 31
0.0
  0
LINE
  5
32F
330
1F
100
AcDbEntity
  8
0
  6
Continuous
 62
     7
370
    25
100
AcDbLine
 10
7021.4574333888
 20
5245.7479007613
 30
0.0
 11
7022.3466261682
 21
5241.5408428581
 31
0.0
  0
LINE
  5
330
330
1F
100
AcDbEntity
  8
0
  6
Continuous
 62
     7
370
    25
100
AcDbLine
 10
7025.8206888389
 20
5245.7479007613
 30
0.0
 11
7025.8206888389
 21
5241.5408428581
 31
0.0
  0
LINE
  5
331
330
1F
100
AcDbEntity
  8
0
  6
Continuous
 62
     7
370
    25
100
AcDbLine
 10
7125.8206888389
 20
5241.5408428581
 30
0.0
 11
7025.8206888389
 21
5241.5408428581
 31
0.0
  0
LINE
  5
332
330
1F
100
AcDbEntity
  8
0
  6
Continuous
 62
     7
370
    25
100
AcDbLine
 10
7125.8206888389
 20
5245.7479007613
 30
0.0
 11
7125.8206888389
 21
5241.5408428581
 31
0.0
  0
LINE
  5
333
330
1F
100
AcDbEntity
  8
0
  6
Continuous
 62
     7
370
    25
100
AcDbLine
 10
7129.2947515096
 20
5241.5408428581
 30
0.0
 11
7125.8206888389
 21
5241.5408428581
 31
0.0
  0
LINE
  5
334
330
1F
100
AcDbEntity
  8
0
  6
Continuous
 62
     7
370
    25
100
AcDbLine
 10
7130.183944289
 20
5245.7479007613
 30
0.0
 11
7129.2947515096
 21
5241.5408428581
 31
0.0
  0
LINE
  5
335
330
1F
100
AcDbEntity
  8
0
  6
Continuous
 62
     7
370
    25
100
AcDbLine
 10
7023.6206888389
 20
5241.5408428581
 30
0.0
 11
7023.6206888389
 21
5231.7994420927
 31
0.0
  0
LINE
  5
336
330
1F
100
AcDbEntity
  8
0
  6
Continuous
 62
     7
370
    25
100
AcDbLine
 10
7128.0206888389
 20
5241.5408428581
 30
0.0
 11
7128.0206888389
 21
5231.7994420927
 31
0.0
  0
ARC
  5
337
330
1F
100
AcDbEntity
  8
0
  6
Continuous
 62
     7
370
    25
100
AcDbCircle
 10
7026.8205536682
 20
5206.7994420927
 30
0.0
 40
1.000000000000197
100
AcDbArc
 50
270.0
 51
359.9996276583
  0
LINE
  5
338
330
1F
100
AcDbEntity
  8
0
  6
Continuous
 62
     7
370
    25
100
AcDbLine
 10
7027.8205536682
 20
5206.7994355941
 30
0.0
 11
7027.820688839
 21
5227.5994615885
 31
0.0
  0
ARC
  5
339
330
1F
100
AcDbEntity
  8
0
  6
Continuous
 62
     7
370
    25
100
AcDbCircle
 10
7030.8206888389
 20
5227.5994420927
 30
0.0
 40
3.000000000000909
100
AcDbArc
 50
90.0
 51
179.9996276583
  0
ARC
  5
33A
330
1F
100
AcDbEntity
  8
0
  6
Continuous
 62
     7
370
    25
100
AcDbCircle
 10
7120.8206888389
 20
5227.5994420927
 30
0.0
 40
3.0
100
AcDbArc
 50
48.6002523617
 51
90.0
  0
LINE
  5
33B
330
1F
100
AcDbEntity
  8
0
  6
Continuous
 62
     7
370
    25
100
AcDbLine
 10
7122.8046145232
 20
5229.8497840399
 30
0.0
 11
7149.8011722902
 21
5206.0493281103
 31
0.0
  0
ARC
  5
33C
330
1F
100
AcDbEntity
  8
0
  6
Continuous
 62
     7
370
    25
100
AcDbCircle
 10
7150.4624808517
 20
5206.7994420927
 30
0.0
 40
1.000000000000033
100
AcDbArc
 50
228.6002523617
 51
270.0
  0
LINE
  5
33D
330
1F
100
AcDbEntity
  8
0
  6
Continuous
 62
     7
370
    25
100
AcDbLine
 10
7150.4624808517
 20
5205.7994420927
 30
0.0
 11
7171.4624808517
 21
5205.7994420927
 31
0.0
  0
LINE
  5
33E
330
1F
100
AcDbEntity
  8
0
  6
Continuous
 62
     7
370
    25
100
AcDbLine
 10
7171.4624808517
 20
5205.7994420927
 30
0.0
 11
7171.4624808517
 21
5203.7994420927
 31
0.0
  0
LINE
  5
33F
330
1F
100
AcDbEntity
  8
0
  6
Continuous
 62
     7
370
    25
100
AcDbLine
 10
7171.4624808517
 20
5203.7994420927
 30
0.0
 11
7150.4624808517
 21
5203.7994420927
 31
0.0
  0
ARC
  5
340
330
1F
100
AcDbEntity
  8
0
  6
Continuous
 62
     7
370
    25
100
AcDbCircle
 10
7150.4624808517
 20
5206.7994420927
 30
0.0
 40
3.0
100
AcDbArc
 50
228.6002523617
 51
270.0
  0
LINE
  5
341
330
1F
100
AcDbEntity
  8
0
  6
Continuous
 62
     7
370
    25
100
AcDbLine
 10
7148.4785551674
 20
5204.5491001455
 30
0.0
 11
7121.4819974003
 21
5228.3495560751
 31
0.0
  0
ARC
  5
342
330
1F
100
AcDbEntity
  8
0
  6
Continuous
 62
     7
370
    25
100
AcDbCircle
 10
7120.8206888389
 20
5227.5994420927
 30
0.0
 40
1.000000000000033
100
AcDbArc
 50
48.6002523617
 51
90.0
  0
LINE
  5
343
330
1F
100
AcDbEntity
  8
0
  6
Continuous
 62
     7
370
    25
100
AcDbLine
 10
7120.8206888389
 20
5228.5994420927
 30
0.0
 11
7030.8206888389
 21
5228.5994420927
 31
0.0
  0
ARC
  5
344
330
1F
100
AcDbEntity
  8
0
  6
Continuous
 62
     7
370
    25
100
AcDbCircle
 10
7030.8206888389
 20
5227.5994420927
 30
0.0
 40
1.000000000000197
100
AcDbArc
 50
90.0
 51
179.9996276583
  0
LINE
  5
345
330
1F
100
AcDbEntity
  8
0
  6
Continuous
 62
     7
370
    25
100
AcDbLine
 10
7029.8206888389
 20
5227.5994485913
 30
0.0
 11
7029.8205536681
 21
5206.799422597
 31
0.0
  0
ARC
  5
346
330
1F
100
AcDbEntity
  8
0
  6
Continuous
 62
     7
370
    25
100
AcDbCircle
 10
7026.8205536682
 20
5206.7994420927
 30
0.0
 40
3.000000000000592
100
AcDbArc
 50
270.0
 51
359.9996276583
  0
LINE
  5
347
330
1F
100
AcDbEntity
  8
0
  6
Continuous
 62
     7
370
    25
100
AcDbLine
 10
7005.8205536682
 20
5203.7994420927
 30
0.0
 11
7005.8205536682
 21
5205.7994420927
 31
0.0
  0
LINE
  5
348
330
1F
100
AcDbEntity
  8
0
  6
Continuous
 62
     7
370
    25
100
AcDbLine
 10
7005.8205536682
 20
5205.7994420927
 30
0.0
 11
7026.8205536682
 21
5205.7994420927
 31
0.0
  0
LINE
  5
349
330
1F
100
AcDbEntity
  8
0
  6
Continuous
 62
     7
370
    25
100
AcDbLine
 10
7026.8205536682
 20
5203.7994420927
 30
0.0
 11
7005.8205536682
 21
5203.7994420927
 31
0.0
  0
LINE
  5
34A
330
1F
100
AcDbEntity
  8
0
  6
Continuous
 62
     7
370
    25
100
AcDbLine
 10
7006.0057342627
 20
5212.7994420927
 30
0.0
 11
7006.0057342627
 21
5205.7994420927
 31
0.0
  0
LINE
  5
34B
330
1F
100
AcDbEntity
  8
0
  6
Continuous
 62
     7
370
    25
100
AcDbLine
 10
7010.9132115508
 20
5212.7994420927
 30
0.0
 11
7006.0057342627
 21
5212.7994420927
 31
0.0
  0
LINE
  5
34C
330
1F
100
AcDbEntity
  8
0
  6
Continuous
 62
     7
370
    25
100
AcDbLine
 10
7010.9132115508
 20
5212.7994420927
 30
0.0
 11
7010.9132115508
 21
5205.7994420927
 31
0.0
  0
LINE
  5
34D
330
1F
100
AcDbEntity
  8
0
  6
Continuous
 62
     7
370
    25
100
AcDbLine
 10
7020.728166127
 20
5212.7994420927
 30
0.0
 11
7020.728166127
 21
5205.7994420927
 31
0.0
  0
LINE
  5
34E
330
1F
100
AcDbEntity
  8
0
  6
Continuous
 62
     7
370
    25
100
AcDbLine
 10
7020.728166127
 20
5212.7994420927
 30
0.0
 11
7010.9132115508
 21
5212.7994420927
 31
0.0
  0
LINE
  5
34F
330
1F
100
AcDbEntity
  8
0
  6
Continuous
 62
     7
370
    25
100
AcDbLine
 10
7025.6356434151
 20
5212.7994420927
 30
0.0
 11
7025.6356434151
 21
5205.7994420927
 31
0.0
  0
LINE
  5
350
330
1F
100
AcDbEntity
  8
0
  6
Continuous
 62
     7
370
    25
100
AcDbLine
 10
7025.6356434151
 20
5212.7994420927
 30
0.0
 11
7020.728166127
 21
5212.7994420927
 31
0.0
  0
LINE
  5
351
330
1F
100
AcDbEntity
  8
0
  6
Continuous
 62
     7
370
    25
100
AcDbLine
 10
7153.0057342627
 20
5212.7994420927
 30
0.0
 11
7153.0057342627
 21
5205.7994420927
 31
0.0
  0
LINE
  5
352
330
1F
100
AcDbEntity
  8
0
  6
Continuous
 62
     7
370
    25
100
AcDbLine
 10
7157.9132115508
 20
5212.7994420927
 30
0.0
 11
7153.0057342627
 21
5212.7994420927
 31
0.0
  0
LINE
  5
353
330
1F
100
AcDbEntity
  8
0
  6
Continuous
 62
     7
370
    25
100
AcDbLine
 10
7157.9132115508
 20
5212.7994420927
 30
0.0
 11
7157.9132115508
 21
5205.7994420927
 31
0.0
  0
LINE
  5
354
330
1F
100
AcDbEntity
  8
0
  6
Continuous
 62
     7
370
    25
100
AcDbLine
 10
7167.728166127
 20
5212.7994420927
 30
0.0
 11
7167.728166127
 21
5205.7994420927
 31
0.0
  0
LINE
  5
355
330
1F
100
AcDbEntity
  8
0
  6
Continuous
 62
     7
370
    25
100
AcDbLine
 10
7167.728166127
 20
5212.7994420927
 30
0.0
 11
7157.9132115508
 21
5212.7994420927
 31
0.0
  0
LINE
  5
356
330
1F
100
AcDbEntity
  8
0
  6
Continuous
 62
     7
370
    25
100
AcDbLine
 10
7172.6356434151
 20
5212.7994420927
 30
0.0
 11
7172.6356434151
 21
5205.7994420927
 31
0.0
  0
LINE
  5
357
330
1F
100
AcDbEntity
  8
0
  6
Continuous
 62
     7
370
    25
100
AcDbLine
 10
7172.6356434151
 20
5205.7994420927
 30
0.0
 11
7171.4624808517
 21
5205.7994420927
 31
0.0
  0
LINE
  5
358
330
1F
100
AcDbEntity
  8
0
  6
Continuous
 62
     7
370
    25
100
AcDbLine
 10
7172.6356434151
 20
5212.7994420927
 30
0.0
 11
7167.728166127
 21
5212.7994420927
 31
0.0
  0
LINE
  5
359
330
1F
100
AcDbEntity
  8
0
  6
Continuous
 62
     7
370
    25
100
AcDbLine
 10
7072.933937493
 20
5223.5994420927
 30
0.0
 11
7072.933937493
 21
5228.5994420927
 31
0.0
  0
LINE
  5
35A
330
1F
100
AcDbEntity
  8
0
  6
Continuous
 62
     7
370
    25
100
AcDbLine
 10
7070.047186147
 20
5223.5994420927
 30
0.0
 11
7072.933937493
 21
5223.5994420927
 31
0.0
  0
LINE
  5
35B
330
1F
100
AcDbEntity
  8
0
  6
Continuous
 62
     7
370
    25
100
AcDbLine
 10
7070.047186147
 20
5223.5994420927
 30
0.0
 11
7070.047186147
 21
5228.5994420927
 31
0.0
  0
LINE
  5
35C
330
1F
100
AcDbEntity
  8
0
  6
Continuous
 62
     7
370
    25
100
AcDbLine
 10
7078.7074401849
 20
5223.5994420927
 30
0.0
 11
7078.7074401849
 21
5228.5994420927
 31
0.0
  0
LINE
  5
35D
330
1F
100
AcDbEntity
  8
0
  6
Continuous
 62
     7
370
    25
100
AcDbLine
 10
7072.933937493
 20
5223.5994420927
 30
0.0
 11
7078.7074401849
 21
5223.5994420927
 31
0.0
  0
LINE
  5
35E
330
1F
100
AcDbEntity
  8
0
  6
Continuous
 62
     7
370
    25
100
AcDbLine
 10
7081.5941915308
 20
5223.5994420927
 30
0.0
 11
7081.5941915308
 21
5228.5994420927
 31
0.0
  0
LINE
  5
35F
330
1F
100
AcDbEntity
  8
0
  6
Continuous
 62
     7
370
    25
100
AcDbLine
 10
7078.7074401849
 20
5223.5994420927
 30
0.0
 11
7081.5941915308
 21
5223.5994420927
 31
0.0
  0
LINE
  5
360
330
1F
100
AcDbEntity
  8
0
  6
Continuous
 62
     7
370
    25
100
AcDbLine
 10
7072.8206888389
 20
5208.5994420927
 30
0.0
 11
7078.8206888389
 21
5208.5994420927
 31
0.0
  0
LINE
  5
361
330
1F
100
AcDbEntity
  8
0
  6
Continuous
 62
     8
370
    25
100
AcDbLine
 10
7036.5184627063
 20
5226.523116019
 30
0.0
 11
7070.047186147
 21
5226.523116019
 31
0.0
  0
LINE
  5
362
330
1F
100
AcDbEntity
  8
0
  6
Continuous
 62
     8
370
    25
100
AcDbLine
 10
7081.5941915308
 20
5226.523116019
 30
0.0
 11
7115.1229149715
 21
5226.523116019
 31
0.0
  0
LINE
  5
363
330
1F
100
AcDbEntity
  8
0
  6
Continuous
 62
     8
370
    25
100
AcDbLine
 10
7036.7575740915
 20
5226.9372690868
 30
0.0
 11
7070.047186147
 21
5226.9372690868
 31
0.0
  0
LINE
  5
364
330
1F
100
AcDbEntity
  8
0
  6
Continuous
 62
     8
370
    25
100
AcDbLine
 10
7081.5941915308
 20
5226.9372690868
 30
0.0
 11
7114.8838035863
 21
5226.9372690868
 31
0.0
  0
ARC
  5
365
330
1F
100
AcDbEntity
  8
0
  6
Continuous
 62
     8
370
    25
100
AcDbCircle
 10
7075.8210220058
 20
5191.0059591657
 30
0.0
 40
17.49966683632498
100
AcDbArc
 50
269.9989091761
 51
359.9989091346
  0
ARC
  5
366
330
1F
100
AcDbEntity
  8
0
  6
Continuous
 62
     8
370
    25
100
AcDbCircle
 10
7075.8203547671
 20
5191.0059573462
 30
0.0
 40
17.49966501687359
100
AcDbArc
 50
180.0011153103
 51
270.0010937871
  0
LINE
  5
367
330
1F
100
AcDbEntity
  8
0
  6
Continuous
 62
     8
370
    25
100
AcDbLine
 10
7092.9539533156
 20
5220.9994420927
 30
0.0
 11
7078.8206888389
 21
5220.9994420927
 31
0.0
  0
LINE
  5
368
330
1F
100
AcDbEntity
  8
0
  6
Continuous
 62
     8
370
    25
100
AcDbLine
 10
7072.8206888389
 20
5220.9994420927
 30
0.0
 11
7058.6874243622
 21
5220.9994420927
 31
0.0
  0
LINE
  5
369
330
1F
100
AcDbEntity
  8
0
  6
Continuous
 62
     8
370
    25
100
AcDbLine
 10
7097.6486874061
 20
5206.741753837
 30
0.0
 11
7097.7455148388
 21
5217.9994420927
 31
0.0
  0
LINE
  5
36A
330
1F
100
AcDbEntity
  8
0
  6
Continuous
 62
     8
370
    25
100
AcDbLine
 10
7091.8320495407
 20
5212.5904952872
 30
0.0
 11
7091.8320495407
 21
5217.9994420927
 31
0.0
  0
LINE
  5
36B
330
1F
100
AcDbEntity
  8
0
  6
Continuous
 62
     8
370
    25
100
AcDbLine
 10
7053.9926902717
 20
5206.741753837
 30
0.0
 11
7053.895862839
 21
5217.9994420927
 31
0.0
  0
LINE
  5
36C
330
1F
100
AcDbEntity
  8
0
  6
Continuous
 62
     8
370
    25
100
AcDbLine
 10
7059.8093281371
 20
5212.5904952872
 30
0.0
 11
7059.8093281371
 21
5217.9994420927
 31
0.0
  0
ARC
  5
36D
330
1F
100
AcDbEntity
  8
0
  6
Continuous
 62
     8
370
    25
100
AcDbCircle
 10
7091.3810817442
 20
5175.8009903633
 30
0.0
 40
5.835886262679736
100
AcDbArc
 50
292.2807405458
 51
346.2292893367
  0
ARC
  5
36E
330
1F
100
AcDbEntity
  8
0
  6
Continuous
 62
     8
370
    25
100
AcDbCircle
 10
7060.2618954951
 20
5175.8025881093
 30
0.0
 40
5.837971247904989
100
AcDbArc
 50
193.7452696728
 51
247.7106782336
  0
ARC
  5
36F
330
1F
100
AcDbEntity
  8
0
  6
Continuous
 62
     8
370
    25
100
AcDbCircle
 10
7116.9676213397
 20
5131.8783834411
 30
0.0
 40
48.85774613772711
100
AcDbArc
 50
101.8649724379
 51
111.5369123433
  0
LWPOLYLINE
  5
370
330
1F
100
AcDbEntity
  8
0
  6
Continuous
 62
     8
370
    25
100
AcDbPolyline
 90
        8
 70
   128
 43
0.0
 10
7106.9221785644
 20
5179.6922772075
 10
7106.9579698759
 20
5178.2197669863
 10
7106.7789435754
 20
5176.8173371852
 10
7106.3932805911
 20
5175.5490743506
 10
7105.8186044851
 20
5174.4729340288
 10
7105.0811761134
 20
5173.6380923831
 10
7104.2146935888
 20
5173.0826990006
 10
7103.5374493185
 20
5172.8714806823
  0
ARC
  5
371
330
1F
100
AcDbEntity
  8
0
  6
Continuous
 62
     8
370
    25
100
AcDbCircle
 10
7034.7562646997
 20
5132.1529222063
 30
0.0
 40
48.57211479917972
100
AcDbArc
 50
68.5846849951
 51
78.1636904354
  0
LWPOLYLINE
  5
372
330
1F
100
AcDbEntity
  8
0
  6
Continuous
 62
     8
370
    25
100
AcDbPolyline
 90
        8
 70
   128
 43
0.0
 10
7044.7191991134
 20
5179.6922772075
 10
7044.6834078019
 20
5178.2197669863
 10
7044.8624341024
 20
5176.8173371852
 10
7045.2480970867
 20
5175.5490743506
 10
7045.8227731927
 20
5174.4729340288
 10
7046.5602015644
 20
5173.6380923831
 10
7047.426684089
 20
5173.0826990006
 10
7048.0956705696
 20
5172.8730503802
  0
LWPOLYLINE
  5
373
330
1F
100
AcDbEntity
  8
0
  6
Continuous
 62
     8
370
    25
100
AcDbPolyline
 90
        7
 70
   128
 43
0.0
 10
7106.9221785644
 20
5179.6922772075
 10
7112.2333380483
 20
5180.7353857179
 10
7116.6413083289
 20
5182.1173837913
 10
7119.7749125692
 20
5183.7611018164
 10
7121.7855379436
 20
5185.7614512324
 10
7122.5519829986
 20
5188.0404152525
 10
7122.5012693425
 20
5188.3168653623
  0
LWPOLYLINE
  5
374
330
1F
100
AcDbEntity
  8
0
  6
Continuous
 62
     8
370
    25
100
AcDbPolyline
 90
       11
 70
   128
 43
0.0
 10
7029.1064899387
 20
5188.3106382223
 10
7029.0871924961
 20
5188.0839392265
 10
7029.3595612356
 20
5186.7517191418
 10
7030.0611068368
 20
5185.4658346141
 10
7031.18907459
 20
5184.2811123339
 10
7032.570240932
 20
5183.3053116359
 10
7034.2896675752
 20
5182.4185565736
 10
7036.4132156691
 20
5181.5970707303
 10
7038.8735134569
 20
5180.8703467689
 10
7041.6356043716
 20
5180.2397661453
 10
7044.7191991134
 20
5179.6922772075
  0
LINE
  5
375
330
1F
100
AcDbEntity
  8
0
  6
Continuous
 62
     8
370
    25
100
AcDbLine
 10
7042.2764821844
 20
5220.9994420927
 30
0.0
 11
7029.8206459482
 21
5220.9994420927
 31
0.0
  0
LINE
  5
376
330
1F
100
AcDbEntity
  8
0
  6
Continuous
 62
     8
370
    25
100
AcDbLine
 10
7027.8206459482
 20
5220.9994420927
 30
0.0
 11
7026.8206888389
 21
5220.9994420927
 31
0.0
  0
LINE
  5
377
330
1F
100
AcDbEntity
  8
0
  6
Continuous
 62
     8
370
    25
100
AcDbLine
 10
7124.8206888389
 20
5220.9994420927
 30
0.0
 11
7109.3648954934
 21
5220.9994420927
 31
0.0
  0
LINE
  5
378
330
1F
100
AcDbEntity
  8
0
  6
Continuous
 62
     8
370
    25
100
AcDbLine
 10
7054.1201874085
 20
5150.8162034546
 30
0.0
 11
7053.7529252958
 21
5171.6536051867
 31
0.0
  0
LINE
  5
379
330
1F
100
AcDbEntity
  8
0
  6
Continuous
 62
     8
370
    25
100
AcDbLine
 10
7097.5211902693
 20
5150.8162034546
 30
0.0
 11
7108.0614338212
 21
5150.8162034546
 31
0.0
  0
LINE
  5
37A
330
1F
100
AcDbEntity
  8
0
  6
Continuous
 62
     8
370
    25
100
AcDbLine
 10
7043.5799438567
 20
5150.8162034546
 30
0.0
 11
7054.1201874085
 21
5150.8162034546
 31
0.0
  0
LINE
  5
37B
330
1F
100
AcDbEntity
  8
0
  6
Continuous
 62
     8
370
    25
100
AcDbLine
 10
7097.5211902693
 20
5150.8162034546
 30
0.0
 11
7097.8885355553
 21
5171.6583242034
 31
0.0
  0
LINE
  5
37C
330
1F
100
AcDbEntity
  8
0
  6
Continuous
 62
     8
370
    25
100
AcDbLine
 10
7065.9553873425
 20
5150.8162034546
 30
0.0
 11
7066.2293372604
 21
5165.6113172462
 31
0.0
  0
LINE
  5
37D
330
1F
100
AcDbEntity
  8
0
  6
Continuous
 62
     8
370
    25
100
AcDbLine
 10
7085.6859903354
 20
5150.8162034546
 30
0.0
 11
7085.4120404174
 21
5165.6113172462
 31
0.0
  0
LINE
  5
37E
330
1F
100
AcDbEntity
  8
0
  6
Continuous
 62
     8
370
    25
100
AcDbLine
 10
7066.140449573
 20
5176.9421932542
 30
0.0
 11
7066.7715273813
 21
5202.4994420927
 31
0.0
  0
LINE
  5
37F
330
1F
100
AcDbEntity
  8
0
  6
Continuous
 62
     8
370
    25
100
AcDbLine
 10
7085.5009281049
 20
5176.9421932542
 30
0.0
 11
7084.8698502965
 21
5202.4994420927
 31
0.0
  0
LINE
  5
380
330
1F
100
AcDbEntity
  8
0
  6
Continuous
 62
     8
370
    25
100
AcDbLine
 10
7070.2476722966
 20
5174.9322267491
 30
0.0
 11
7070.9283816308
 21
5202.4994420927
 31
0.0
  0
LINE
  5
381
330
1F
100
AcDbEntity
  8
0
  6
Continuous
 62
     8
370
    25
100
AcDbLine
 10
7081.3937053813
 20
5174.9322267491
 30
0.0
 11
7080.712996047
 21
5202.4994420927
 31
0.0
  0
LINE
  5
382
330
1F
100
AcDbEntity
  8
0
  6
Continuous
 62
     8
370
    25
100
AcDbLine
 10
7069.6980280296
 20
5150.8162034546
 30
0.0
 11
7069.9513258524
 21
5164.4959670383
 31
0.0
  0
LINE
  5
383
330
1F
100
AcDbEntity
  8
0
  6
Continuous
 62
     8
370
    25
100
AcDbLine
 10
7081.9433496482
 20
5150.8162034546
 30
0.0
 11
7081.6900518255
 21
5164.4959670383
 31
0.0
  0
LINE
  5
384
330
1F
100
AcDbEntity
  8
0
  6
Continuous
 62
     8
370
    25
100
AcDbLine
 10
7072.4775430884
 20
5174.343445678
 30
0.0
 11
7072.4775430884
 21
5202.4994420927
 31
0.0
  0
LINE
  5
385
330
1F
100
AcDbEntity
  8
0
  6
Continuous
 62
     8
370
    25
100
AcDbLine
 10
7079.1638345894
 20
5174.343445678
 30
0.0
 11
7079.1638345894
 21
5202.4994420927
 31
0.0
  0
LINE
  5
386
330
1F
100
AcDbEntity
  8
0
  6
Continuous
 62
     8
370
    25
100
AcDbLine
 10
7073.063329526
 20
5150.8162034546
 30
0.0
 11
7073.063329526
 21
5163.9914604336
 31
0.0
  0
LINE
  5
387
330
1F
100
AcDbEntity
  8
0
  6
Continuous
 62
     8
370
    25
100
AcDbLine
 10
7078.5780481518
 20
5150.8162034546
 30
0.0
 11
7078.5780481518
 21
5163.9914604336
 31
0.0
  0
LINE
  5
388
330
1F
100
AcDbEntity
  8
0
  6
Continuous
 62
     8
370
    25
100
AcDbLine
 10
7025.8206888389
 20
5247.7994420927
 30
0.0
 11
7025.8206888389
 21
5245.7479007613
 31
0.0
  0
LINE
  5
389
330
1F
100
AcDbEntity
  8
0
  6
Continuous
 62
     8
370
    25
100
AcDbLine
 10
7125.8206888389
 20
5247.7994420927
 30
0.0
 11
7125.8206888389
 21
5245.7479007613
 31
0.0
  0
LINE
  5
38A
330
1F
100
AcDbEntity
  8
0
  6
Continuous
 62
     8
370
    25
100
AcDbLine
 10
7025.8206888389
 20
5241.5408428581
 30
0.0
 11
7025.8206888389
 21
5231.7994420927
 31
0.0
  0
LINE
  5
38B
330
1F
100
AcDbEntity
  8
0
  6
Continuous
 62
     8
370
    25
100
AcDbLine
 10
7125.8206888389
 20
5241.5408428581
 30
0.0
 11
7125.8206888389
 21
5231.7994420927
 31
0.0
  0
ARC
  5
38C
330
1F
100
AcDbEntity
  8
0
  6
Continuous
 62
     7
370
    25
100
AcDbCircle
 10
6274.0187553361
 20
4840.0611536475
 30
0.0
 40
18.15000000000023
100
AcDbArc
 50
151.4590411899
 51
176.8328746966
  0
ARC
  5
38D
330
1F
100
AcDbEntity
  8
0
  6
Continuous
 62
     7
370
    25
100
AcDbCircle
 10
6274.0187553361
 20
4840.0611536475
 30
0.0
 40
18.15000000000013
100
AcDbArc
 50
113.6781704681
 51
129.2666590911
  0
LINE
  5
38E
330
1F
100
AcDbEntity
  8
0
  6
Continuous
 62
     7
370
    25
100
AcDbLine
 10
6294.0381315401
 20
4841.1688884541
 30
0.0
 11
6293.8848889592
 21
4842.770255873
 31
0.0
  0
ARC
  5
38F
330
1F
100
AcDbEntity
  8
0
  6
Continuous
 62
     7
370
    25
100
AcDbCircle
 10
6274.0187553361
 20
4840.0611536475
 30
0.0
 40
20.05000000000015
100
AcDbArc
 50
142.6768624425
 51
176.8328746966
  0
ARC
  5
390
330
1F
100
AcDbEntity
  8
0
  6
Continuous
 62
     7
370
    25
100
AcDbCircle
 10
6255.9464007579
 20
4841.0611536475
 30
0.0
 40
0.0500000000001819
100
AcDbArc
 50
176.8328746962
 51
270.0
  0
ARC
  5
391
330
1F
100
AcDbEntity
  8
0
  6
Continuous
 62
     7
370
    25
100
AcDbCircle
 10
6255.9464007579
 20
4841.0611536475
 30
0.0
 40
1.949999999999818
100
AcDbArc
 50
176.8328746966
 51
270.0
  0
ARC
  5
392
330
1F
100
AcDbEntity
  8
0
  6
Continuous
 62
     7
370
    25
100
AcDbCircle
 10
6292.0911099143
 20
4841.0611536475
 30
0.0
 40
1.950000000000195
100
AcDbArc
 50
336.9095223621
 51
3.1671253034
  0
LINE
  5
393
330
1F
100
AcDbEntity
  8
0
  6
Continuous
 62
     7
370
    25
100
AcDbLine
 10
6287.5911099143
 20
4839.1111536475
 30
0.0
 11
6287.7180741075
 21
4839.1111536475
 31
0.0
  0
LINE
  5
394
330
1F
100
AcDbEntity
  8
0
  6
Continuous
 62
     7
370
    25
100
AcDbLine
 10
6287.7180741075
 20
4841.0111536475
 30
0.0
 11
6287.5911099143
 21
4841.0111536475
 31
0.0
  0
LINE
  5
395
330
1F
100
AcDbEntity
  8
0
  6
Continuous
 62
     7
370
    25
100
AcDbLine
 10
6255.9464007579
 20
4839.1111536475
 30
0.0
 11
6256.1187553361
 21
4839.1111536475
 31
0.0
  0
LINE
  5
396
330
1F
100
AcDbEntity
  8
0
  6
Continuous
 62
     7
370
    25
100
AcDbLine
 10
6256.1187553361
 20
4841.0111536475
 30
0.0
 11
6255.9464007579
 21
4841.0111536475
 31
0.0
  0
LINE
  5
397
330
1F
100
AcDbEntity
  8
0
  6
Continuous
 62
     7
370
    25
100
AcDbLine
 10
6256.352086928
 20
4849.6475412548
 30
0.0
 11
6256.4089946153
 21
4849.6475412548
 31
0.0
  0
LINE
  5
398
330
1F
100
AcDbEntity
  8
0
  6
Continuous
 62
     7
370
    25
100
AcDbLine
 10
6744.6187553361
 20
4894.4611536475
 30
0.0
 11
5803.4187053361
 21
4894.4611536475
 31
0.0
  0
ARC
  5
399
330
1F
100
AcDbEntity
  8
0
  6
Continuous
 62
     7
370
    25
100
AcDbCircle
 10
5803.4187553361
 20
4890.0611536475
 30
0.0
 40
4.400000000000546
100
AcDbArc
 50
90.0
 51
180.0
  0
ARC
  5
39A
330
1F
100
AcDbEntity
  8
0
  6
Continuous
 62
     7
370
    25
100
AcDbCircle
 10
6744.6187553361
 20
4890.0611536475
 30
0.0
 40
4.400000000000546
100
AcDbArc
 50
0.0
 51
90.0
  0
LINE
  5
39B
330
1F
100
AcDbEntity
  8
0
  6
Continuous
 62
     7
370
    25
100
AcDbLine
 10
6749.0187553361
 20
4790.0611536475
 30
0.0
 11
6749.0187553361
 21
4890.0611536475
 31
0.0
  0
LINE
  5
39C
330
1F
100
AcDbEntity
  8
0
  6
Continuous
 62
     7
370
    25
100
AcDbLine
 10
5799.0187553361
 20
4890.0611536475
 30
0.0
 11
5799.0187553361
 21
4790.0611536475
 31
0.0
  0
ARC
  5
39D
330
1F
100
AcDbEntity
  8
0
  6
Continuous
 62
     7
370
    25
100
AcDbCircle
 10
5803.4187553361
 20
4790.0611536475
 30
0.0
 40
4.400000000000546
100
AcDbArc
 50
180.0
 51
270.0
  0
ARC
  5
39E
330
1F
100
AcDbEntity
  8
0
  6
Continuous
 62
     7
370
    25
100
AcDbCircle
 10
6744.6187553361
 20
4790.0611536475
 30
0.0
 40
4.400000000000546
100
AcDbArc
 50
270.0
 51
0.0
  0
LINE
  5
39F
330
1F
100
AcDbEntity
  8
0
  6
Continuous
 62
     7
370
    25
100
AcDbLine
 10
5803.4187553361
 20
4785.6611536475
 30
0.0
 11
6744.6187553361
 21
4785.6611536475
 31
0.0
  0
LINE
  5
3A0
330
1F
100
AcDbEntity
  8
0
  6
Continuous
 62
     7
370
    25
100
AcDbLine
 10
5806.8955320313
 20
4889.0611536476
 30
0.0
 11
5807.7187553361
 21
4886.8611536476
 31
0.0
  0
LINE
  5
3A1
330
1F
100
AcDbEntity
  8
0
  6
Continuous
 62
     7
370
    25
100
AcDbLine
 10
5806.8955320313
 20
4887.8611536476
 30
0.0
 11
5807.7187553361
 21
4886.8611536476
 31
0.0
  0
LINE
  5
3A2
330
1F
100
AcDbEntity
  8
0
  6
Continuous
 62
     7
370
    25
100
AcDbLine
 10
5806.8955320313
 20
4889.0611536476
 30
0.0
 11
5806.8955320313
 21
4887.8611536476
 31
0.0
  0
LINE
  5
3A3
330
1F
100
AcDbEntity
  8
0
  6
Continuous
 62
     7
370
    25
100
AcDbLine
 10
6741.141978641
 20
4889.0611536476
 30
0.0
 11
6741.141978641
 21
4887.8611536476
 31
0.0
  0
LINE
  5
3A4
330
1F
100
AcDbEntity
  8
0
  6
Continuous
 62
     7
370
    25
100
AcDbLine
 10
6740.3187553361
 20
4886.8611536476
 30
0.0
 11
6741.141978641
 21
4887.8611536476
 31
0.0
  0
LINE
  5
3A5
330
1F
100
AcDbEntity
  8
0
  6
Continuous
 62
     7
370
    25
100
AcDbLine
 10
6740.3187553361
 20
4886.8611536476
 30
0.0
 11
6741.141978641
 21
4889.0611536476
 31
0.0
  0
LINE
  5
3A6
330
1F
100
AcDbEntity
  8
0
  6
Continuous
 62
     7
370
    25
100
AcDbLine
 10
5806.8955320313
 20
4889.0611536476
 30
0.0
 11
6741.141978641
 21
4889.0611536476
 31
0.0
  0
LINE
  5
3A7
330
1F
100
AcDbEntity
  8
0
  6
Continuous
 62
     7
370
    25
100
AcDbLine
 10
5807.7187553361
 20
4886.8611536476
 30
0.0
 11
6740.3187553363
 21
4886.8611536476
 31
0.0
  0
LINE
  5
3A8
330
1F
100
AcDbEntity
  8
0
  6
Continuous
 62
     7
370
    25
100
AcDbLine
 10
6742.5187553363
 20
4887.6843769525
 30
0.0
 11
6740.3187553363
 21
4886.8611536476
 31
0.0
  0
LINE
  5
3A9
330
1F
100
AcDbEntity
  8
0
  6
Continuous
 62
     7
370
    25
100
AcDbLine
 10
6741.3187553363
 20
4887.6843769525
 30
0.0
 11
6740.3187553362
 21
4886.8611536475
 31
0.0
  0
LINE
  5
3AA
330
1F
100
AcDbEntity
  8
0
  6
Continuous
 62
     7
370
    25
100
AcDbLine
 10
6742.5187553363
 20
4887.6843769525
 30
0.0
 11
6741.3187553363
 21
4887.6843769525
 31
0.0
  0
LINE
  5
3AB
330
1F
100
AcDbEntity
  8
0
  6
Continuous
 62
     7
370
    25
100
AcDbLine
 10
5805.518755336
 20
4792.4379303427
 30
0.0
 11
5807.718755336
 21
4793.2611536475
 31
0.0
  0
LINE
  5
3AC
330
1F
100
AcDbEntity
  8
0
  6
Continuous
 62
     7
370
    25
100
AcDbLine
 10
5805.518755336
 20
4792.4379303427
 30
0.0
 11
5805.518755336
 21
4887.6843769522
 31
0.0
  0
LINE
  5
3AD
330
1F
100
AcDbEntity
  8
0
  6
Continuous
 62
     7
370
    25
100
AcDbLine
 10
5807.718755336
 20
4886.8611536475
 30
0.0
 11
5805.518755336
 21
4887.6843769523
 31
0.0
  0
LINE
  5
3AE
330
1F
100
AcDbEntity
  8
0
  6
Continuous
 62
     7
370
    25
100
AcDbLine
 10
5807.718755336
 20
4793.2611536475
 30
0.0
 11
5807.7187553361
 21
4886.8611536476
 31
0.0
  0
LINE
  5
3AF
330
1F
100
AcDbEntity
  8
0
  6
Continuous
 62
     7
370
    25
100
AcDbLine
 10
6742.5187553363
 20
4887.6843769525
 30
0.0
 11
6742.5187553363
 21
4792.4379303426
 31
0.0
  0
LINE
  5
3B0
330
1F
100
AcDbEntity
  8
0
  6
Continuous
 62
     7
370
    25
100
AcDbLine
 10
6740.3187553363
 20
4793.2611536474
 30
0.0
 11
6742.5187553363
 21
4792.4379303426
 31
0.0
  0
LINE
  5
3B1
330
1F
100
AcDbEntity
  8
0
  6
Continuous
 62
     7
370
    25
100
AcDbLine
 10
6740.3187553363
 20
4886.8611536476
 30
0.0
 11
6740.3187553363
 21
4793.2611536474
 31
0.0
  0
LINE
  5
3B2
330
1F
100
AcDbEntity
  8
0
  6
Continuous
 62
     7
370
    25
100
AcDbLine
 10
5805.518755336
 20
4887.6843769522
 30
0.0
 11
5806.718755336
 21
4887.6843769523
 31
0.0
  0
LINE
  5
3B3
330
1F
100
AcDbEntity
  8
0
  6
Continuous
 62
     7
370
    25
100
AcDbLine
 10
5807.718755336
 20
4886.8611536475
 30
0.0
 11
5806.718755336
 21
4887.6843769523
 31
0.0
  0
LINE
  5
3B4
330
1F
100
AcDbEntity
  8
0
  6
Continuous
 62
     7
370
    25
100
AcDbLine
 10
6740.3187553363
 20
4793.2611536474
 30
0.0
 11
5807.718755336
 21
4793.2611536475
 31
0.0
  0
ARC
  5
3B5
330
1F
100
AcDbEntity
  8
0
  6
Continuous
 62
     7
370
    25
100
AcDbCircle
 10
5819.518755336
 20
4828.0611536475
 30
0.0
 40
3.0
100
AcDbArc
 50
180.0
 51
0.0
  0
LINE
  5
3B6
330
1F
100
AcDbEntity
  8
0
  6
Continuous
 62
     7
370
    25
100
AcDbLine
 10
5822.518755336
 20
4828.0611536475
 30
0.0
 11
5822.518755336
 21
4852.0611536475
 31
0.0
  0
ARC
  5
3B7
330
1F
100
AcDbEntity
  8
0
  6
Continuous
 62
     7
370
    25
100
AcDbCircle
 10
5819.518755336
 20
4852.0611536475
 30
0.0
 40
3.0
100
AcDbArc
 50
0.0
 51
180.0
  0
LINE
  5
3B8
330
1F
100
AcDbEntity
  8
0
  6
Continuous
 62
     7
370
    25
100
AcDbLine
 10
5816.518755336
 20
4852.0611536475
 30
0.0
 11
5816.518755336
 21
4828.0611536475
 31
0.0
  0
ARC
  5
3B9
330
1F
100
AcDbEntity
  8
0
  6
Continuous
 62
     7
370
    25
100
AcDbCircle
 10
6722.5187553363
 20
4828.0611536475
 30
0.0
 40
3.0
100
AcDbArc
 50
180.0
 51
0.0
  0
LINE
  5
3BA
330
1F
100
AcDbEntity
  8
0
  6
Continuous
 62
     7
370
    25
100
AcDbLine
 10
6725.5187553363
 20
4828.0611536475
 30
0.0
 11
6725.5187553363
 21
4852.0611536475
 31
0.0
  0
ARC
  5
3BB
330
1F
100
AcDbEntity
  8
0
  6
Continuous
 62
     7
370
    25
100
AcDbCircle
 10
6722.5187553363
 20
4852.0611536475
 30
0.0
 40
3.0
100
AcDbArc
 50
0.0
 51
180.0
  0
LINE
  5
3BC
330
1F
100
AcDbEntity
  8
0
  6
Continuous
 62
     7
370
    25
100
AcDbLine
 10
6719.5187553363
 20
4852.0611536475
 30
0.0
 11
6719.5187553363
 21
4828.0611536475
 31
0.0
  0
ARC
  5
3BD
330
1F
100
AcDbEntity
  8
0
  6
Continuous
 62
     7
370
    25
100
AcDbCircle
 10
6712.9808717971
 20
4833.4272611346
 30
0.0
 40
3.0
100
AcDbArc
 50
180.0
 51
0.0
  0
LINE
  5
3BE
330
1F
100
AcDbEntity
  8
0
  6
Continuous
 62
     7
370
    25
100
AcDbLine
 10
6715.9808717971
 20
4833.4272611346
 30
0.0
 11
6715.9808717971
 21
4857.4272611346
 31
0.0
  0
ARC
  5
3BF
330
1F
100
AcDbEntity
  8
0
  6
Continuous
 62
     7
370
    25
100
AcDbCircle
 10
6712.9808717971
 20
4857.4272611346
 30
0.0
 40
3.0
100
AcDbArc
 50
0.0
 51
180.0
  0
LINE
  5
3C0
330
1F
100
AcDbEntity
  8
0
  6
Continuous
 62
     7
370
    25
100
AcDbLine
 10
6709.9808717971
 20
4857.4272611346
 30
0.0
 11
6709.9808717971
 21
4833.4272611346
 31
0.0
  0
ARC
  5
3C1
330
1F
100
AcDbEntity
  8
0
  6
Continuous
 62
     7
370
    25
100
AcDbCircle
 10
6703.1295302704
 20
4838.1916891666
 30
0.0
 40
3.0
100
AcDbArc
 50
180.0
 51
0.0
  0
LINE
  5
3C2
330
1F
100
AcDbEntity
  8
0
  6
Continuous
 62
     7
370
    25
100
AcDbLine
 10
6706.1295302704
 20
4838.1916891666
 30
0.0
 11
6706.1295302704
 21
4862.1916891666
 31
0.0
  0
ARC
  5
3C3
330
1F
100
AcDbEntity
  8
0
  6
Continuous
 62
     7
370
    25
100
AcDbCircle
 10
6703.1295302704
 20
4862.1916891666
 30
0.0
 40
3.0
100
AcDbArc
 50
0.0
 51
180.0
  0
LINE
  5
3C4
330
1F
100
AcDbEntity
  8
0
  6
Continuous
 62
     7
370
    25
100
AcDbLine
 10
6700.1295302704
 20
4862.1916891666
 30
0.0
 11
6700.1295302704
 21
4838.1916891666
 31
0.0
  0
ARC
  5
3C5
330
1F
100
AcDbEntity
  8
0
  6
Continuous
 62
     7
370
    25
100
AcDbCircle
 10
6692.9906706295
 20
4842.3096782322
 30
0.0
 40
3.000000000000909
100
AcDbArc
 50
180.0
 51
0.0
  0
LINE
  5
3C6
330
1F
100
AcDbEntity
  8
0
  6
Continuous
 62
     7
370
    25
100
AcDbLine
 10
6695.9906706295
 20
4842.3096782322
 30
0.0
 11
6695.9906706295
 21
4866.3096782322
 31
0.0
  0
ARC
  5
3C7
330
1F
100
AcDbEntity
  8
0
  6
Continuous
 62
     7
370
    25
100
AcDbCircle
 10
6692.9906706295
 20
4866.3096782322
 30
0.0
 40
3.000000000000909
100
AcDbArc
 50
0.0
 51
180.0
  0
LINE
  5
3C8
330
1F
100
AcDbEntity
  8
0
  6
Continuous
 62
     7
370
    25
100
AcDbLine
 10
6689.9906706295
 20
4866.3096782322
 30
0.0
 11
6689.9906706295
 21
4842.3096782322
 31
0.0
  0
ARC
  5
3C9
330
1F
100
AcDbEntity
  8
0
  6
Continuous
 62
     7
370
    25
100
AcDbCircle
 10
6682.600579241
 20
4845.7464598185
 30
0.0
 40
3.0
100
AcDbArc
 50
180.0
 51
0.0
  0
LINE
  5
3CA
330
1F
100
AcDbEntity
  8
0
  6
Continuous
 62
     7
370
    25
100
AcDbLine
 10
6685.600579241
 20
4845.7464598185
 30
0.0
 11
6685.600579241
 21
4869.7464598185
 31
0.0
  0
ARC
  5
3CB
330
1F
100
AcDbEntity
  8
0
  6
Continuous
 62
     7
370
    25
100
AcDbCircle
 10
6682.600579241
 20
4869.7464598185
 30
0.0
 40
3.0
100
AcDbArc
 50
0.0
 51
180.0
  0
LINE
  5
3CC
330
1F
100
AcDbEntity
  8
0
  6
Continuous
 62
     7
370
    25
100
AcDbLine
 10
6679.600579241
 20
4869.7464598185
 30
0.0
 11
6679.600579241
 21
4845.7464598185
 31
0.0
  0
ARC
  5
3CD
330
1F
100
AcDbEntity
  8
0
  6
Continuous
 62
     7
370
    25
100
AcDbCircle
 10
6672.0041598178
 20
4848.4812636003
 30
0.0
 40
3.0
100
AcDbArc
 50
180.0
 51
0.0
  0
LINE
  5
3CE
330
1F
100
AcDbEntity
  8
0
  6
Continuous
 62
     7
370
    25
100
AcDbLine
 10
6675.0041598178
 20
4848.4812636003
 30
0.0
 11
6675.0041598178
 21
4872.4812636003
 31
0.0
  0
ARC
  5
3CF
330
1F
100
AcDbEntity
  8
0
  6
Continuous
 62
     7
370
    25
100
AcDbCircle
 10
6672.0041598178
 20
4872.4812636003
 30
0.0
 40
3.0
100
AcDbArc
 50
0.0
 51
180.0
  0
LINE
  5
3D0
330
1F
100
AcDbEntity
  8
0
  6
Continuous
 62
     7
370
    25
100
AcDbLine
 10
6669.0041598178
 20
4872.4812636003
 30
0.0
 11
6669.0041598178
 21
4848.4812636003
 31
0.0
  0
ARC
  5
3D1
330
1F
100
AcDbEntity
  8
0
  6
Continuous
 62
     7
370
    25
100
AcDbCircle
 10
6661.2497547541
 20
4850.5104173568
 30
0.0
 40
3.000000000000909
100
AcDbArc
 50
180.0
 51
0.0
  0
LINE
  5
3D2
330
1F
100
AcDbEntity
  8
0
  6
Continuous
 62
     7
370
    25
100
AcDbLine
 10
6664.2497547541
 20
4850.5104173568
 30
0.0
 11
6664.2497547541
 21
4874.5104173568
 31
0.0
  0
ARC
  5
3D3
330
1F
100
AcDbEntity
  8
0
  6
Continuous
 62
     7
370
    25
100
AcDbCircle
 10
6661.2497547541
 20
4874.5104173568
 30
0.0
 40
3.000000000000909
100
AcDbArc
 50
0.0
 51
180.0
  0
LINE
  5
3D4
330
1F
100
AcDbEntity
  8
0
  6
Continuous
 62
     7
370
    25
100
AcDbLine
 10
6658.2497547541
 20
4874.5104173568
 30
0.0
 11
6658.2497547541
 21
4850.5104173568
 31
0.0
  0
ARC
  5
3D5
330
1F
100
AcDbEntity
  8
0
  6
Continuous
 62
     7
370
    25
100
AcDbCircle
 10
6650.3874185126
 20
4851.8473555391
 30
0.0
 40
3.0
100
AcDbArc
 50
180.0
 51
0.0
  0
LINE
  5
3D6
330
1F
100
AcDbEntity
  8
0
  6
Continuous
 62
     7
370
    25
100
AcDbLine
 10
6653.3874185126
 20
4851.8473555391
 30
0.0
 11
6653.3874185126
 21
4875.8473555391
 31
0.0
  0
ARC
  5
3D7
330
1F
100
AcDbEntity
  8
0
  6
Continuous
 62
     7
370
    25
100
AcDbCircle
 10
6650.3874185126
 20
4875.8473555391
 30
0.0
 40
3.0
100
AcDbArc
 50
0.0
 51
180.0
  0
LINE
  5
3D8
330
1F
100
AcDbEntity
  8
0
  6
Continuous
 62
     7
370
    25
100
AcDbLine
 10
6647.3874185126
 20
4875.8473555391
 30
0.0
 11
6647.3874185126
 21
4851.8473555391
 31
0.0
  0
ARC
  5
3D9
330
1F
100
AcDbEntity
  8
0
  6
Continuous
 62
     7
370
    25
100
AcDbCircle
 10
6639.4654670338
 20
4852.5215267704
 30
0.0
 40
3.0
100
AcDbArc
 50
180.0
 51
0.0
  0
LINE
  5
3DA
330
1F
100
AcDbEntity
  8
0
  6
Continuous
 62
     7
370
    25
100
AcDbLine
 10
6642.4654670338
 20
4852.5215267704
 30
0.0
 11
6642.4654670338
 21
4876.5215267704
 31
0.0
  0
ARC
  5
3DB
330
1F
100
AcDbEntity
  8
0
  6
Continuous
 62
     7
370
    25
100
AcDbCircle
 10
6639.4654670338
 20
4876.5215267704
 30
0.0
 40
3.0
100
AcDbArc
 50
0.0
 51
180.0
  0
LINE
  5
3DC
330
1F
100
AcDbEntity
  8
0
  6
Continuous
 62
     7
370
    25
100
AcDbLine
 10
6636.4654670338
 20
4876.5215267704
 30
0.0
 11
6636.4654670338
 21
4852.5215267704
 31
0.0
  0
ARC
  5
3DD
330
1F
100
AcDbEntity
  8
0
  6
Continuous
 62
     7
370
    25
100
AcDbCircle
 10
6628.5218546366
 20
4852.5756597596
 30
0.0
 40
3.000000000000909
100
AcDbArc
 50
180.0
 51
0.0
  0
LINE
  5
3DE
330
1F
100
AcDbEntity
  8
0
  6
Continuous
 62
     7
370
    25
100
AcDbLine
 10
6631.5218546366
 20
4852.5756597596
 30
0.0
 11
6631.5218546366
 21
4876.5756597596
 31
0.0
  0
ARC
  5
3DF
330
1F
100
AcDbEntity
  8
0
  6
Continuous
 62
     7
370
    25
100
AcDbCircle
 10
6628.5218546366
 20
4876.5756597596
 30
0.0
 40
3.000000000000909
100
AcDbArc
 50
0.0
 51
180.0
  0
LINE
  5
3E0
330
1F
100
AcDbEntity
  8
0
  6
Continuous
 62
     7
370
    25
100
AcDbLine
 10
6625.5218546366
 20
4876.5756597596
 30
0.0
 11
6625.5218546366
 21
4852.5756597596
 31
0.0
  0
ARC
  5
3E1
330
1F
100
AcDbEntity
  8
0
  6
Continuous
 62
     7
370
    25
100
AcDbCircle
 10
6617.5893513162
 20
4852.0613639008
 30
0.0
 40
3.000000000000909
100
AcDbArc
 50
180.0
 51
0.0
  0
LINE
  5
3E2
330
1F
100
AcDbEntity
  8
0
  6
Continuous
 62
     7
370
    25
100
AcDbLine
 10
6620.5893513162
 20
4852.0613639008
 30
0.0
 11
6620.5893513162
 21
4876.0613639008
 31
0.0
  0
ARC
  5
3E3
330
1F
100
AcDbEntity
  8
0
  6
Continuous
 62
     7
370
    25
100
AcDbCircle
 10
6617.5893513162
 20
4876.0613639008
 30
0.0
 40
3.000000000000909
100
AcDbArc
 50
0.0
 51
180.0
  0
LINE
  5
3E4
330
1F
100
AcDbEntity
  8
0
  6
Continuous
 62
     7
370
    25
100
AcDbLine
 10
6614.5893513162
 20
4876.0613639008
 30
0.0
 11
6614.5893513162
 21
4852.0613639008
 31
0.0
  0
ARC
  5
3E5
330
1F
100
AcDbEntity
  8
0
  6
Continuous
 62
     7
370
    25
100
AcDbCircle
 10
6606.692095655
 20
4851.0357571912
 30
0.0
 40
3.0
100
AcDbArc
 50
180.0
 51
0.0
  0
LINE
  5
3E6
330
1F
100
AcDbEntity
  8
0
  6
Continuous
 62
     7
370
    25
100
AcDbLine
 10
6609.692095655
 20
4851.0357571912
 30
0.0
 11
6609.692095655
 21
4875.0357571912
 31
0.0
  0
ARC
  5
3E7
330
1F
100
AcDbEntity
  8
0
  6
Continuous
 62
     7
370
    25
100
AcDbCircle
 10
6606.692095655
 20
4875.0357571912
 30
0.0
 40
3.0
100
AcDbArc
 50
0.0
 51
180.0
  0
LINE
  5
3E8
330
1F
100
AcDbEntity
  8
0
  6
Continuous
 62
     7
370
    25
100
AcDbLine
 10
6603.692095655
 20
4875.0357571912
 30
0.0
 11
6603.692095655
 21
4851.0357571912
 31
0.0
  0
ARC
  5
3E9
330
1F
100
AcDbEntity
  8
0
  6
Continuous
 62
     7
370
    25
100
AcDbCircle
 10
6595.8473222277
 20
4849.5584184527
 30
0.0
 40
3.0
100
AcDbArc
 50
180.0
 51
0.0
  0
LINE
  5
3EA
330
1F
100
AcDbEntity
  8
0
  6
Continuous
 62
     7
370
    25
100
AcDbLine
 10
6598.8473222277
 20
4849.5584184527
 30
0.0
 11
6598.8473222277
 21
4873.5584184527
 31
0.0
  0
ARC
  5
3EB
330
1F
100
AcDbEntity
  8
0
  6
Continuous
 62
     7
370
    25
100
AcDbCircle
 10
6595.8473222277
 20
4873.5584184527
 30
0.0
 40
3.0
100
AcDbArc
 50
0.0
 51
180.0
  0
LINE
  5
3EC
330
1F
100
AcDbEntity
  8
0
  6
Continuous
 62
     7
370
    25
100
AcDbLine
 10
6592.8473222277
 20
4873.5584184527
 30
0.0
 11
6592.8473222277
 21
4849.5584184527
 31
0.0
  0
ARC
  5
3ED
330
1F
100
AcDbEntity
  8
0
  6
Continuous
 62
     7
370
    25
100
AcDbCircle
 10
6585.0636398268
 20
4847.6886779562
 30
0.0
 40
3.000000000000909
100
AcDbArc
 50
180.0
 51
0.0
  0
LINE
  5
3EE
330
1F
100
AcDbEntity
  8
0
  6
Continuous
 62
     7
370
    25
100
AcDbLine
 10
6588.0636398268
 20
4847.6886779562
 30
0.0
 11
6588.0636398268
 21
4871.6886779562
 31
0.0
  0
ARC
  5
3EF
330
1F
100
AcDbEntity
  8
0
  6
Continuous
 62
     7
370
    25
100
AcDbCircle
 10
6585.0636398268
 20
4871.6886779562
 30
0.0
 40
3.000000000000909
100
AcDbArc
 50
0.0
 51
180.0
  0
LINE
  5
3F0
330
1F
100
AcDbEntity
  8
0
  6
Continuous
 62
     7
370
    25
100
AcDbLine
 10
6582.0636398268
 20
4871.6886779562
 30
0.0
 11
6582.0636398268
 21
4847.6886779562
 31
0.0
  0
ARC
  5
3F1
330
1F
100
AcDbEntity
  8
0
  6
Continuous
 62
     7
370
    25
100
AcDbCircle
 10
6574.3427585716
 20
4845.4838809936
 30
0.0
 40
3.000000000000909
100
AcDbArc
 50
180.0
 51
0.0
  0
LINE
  5
3F2
330
1F
100
AcDbEntity
  8
0
  6
Continuous
 62
     7
370
    25
100
AcDbLine
 10
6577.3427585716
 20
4845.4838809936
 30
0.0
 11
6577.3427585716
 21
4869.4838809936
 31
0.0
  0
ARC
  5
3F3
330
1F
100
AcDbEntity
  8
0
  6
Continuous
 62
     7
370
    25
100
AcDbCircle
 10
6574.3427585716
 20
4869.4838809936
 30
0.0
 40
3.000000000000909
100
AcDbArc
 50
0.0
 51
180.0
  0
LINE
  5
3F4
330
1F
100
AcDbEntity
  8
0
  6
Continuous
 62
     7
370
    25
100
AcDbLine
 10
6571.3427585716
 20
4869.4838809936
 30
0.0
 11
6571.3427585716
 21
4845.4838809936
 31
0.0
  0
ARC
  5
3F5
330
1F
100
AcDbEntity
  8
0
  6
Continuous
 62
     7
370
    25
100
AcDbCircle
 10
6563.6829402539
 20
4842.9989748572
 30
0.0
 40
3.0
100
AcDbArc
 50
180.0
 51
0.0
  0
LINE
  5
3F6
330
1F
100
AcDbEntity
  8
0
  6
Continuous
 62
     7
370
    25
100
AcDbLine
 10
6566.6829402539
 20
4842.9989748572
 30
0.0
 11
6566.6829402539
 21
4866.9989748572
 31
0.0
  0
ARC
  5
3F7
330
1F
100
AcDbEntity
  8
0
  6
Continuous
 62
     7
370
    25
100
AcDbCircle
 10
6563.6829402539
 20
4866.9989748572
 30
0.0
 40
3.0
100
AcDbArc
 50
0.0
 51
180.0
  0
LINE
  5
3F8
330
1F
100
AcDbEntity
  8
0
  6
Continuous
 62
     7
370
    25
100
AcDbLine
 10
6560.6829402539
 20
4866.9989748572
 30
0.0
 11
6560.6829402539
 21
4842.9989748572
 31
0.0
  0
ARC
  5
3F9
330
1F
100
AcDbEntity
  8
0
  6
Continuous
 62
     7
370
    25
100
AcDbCircle
 10
6553.0789994923
 20
4840.2861004788
 30
0.0
 40
3.0
100
AcDbArc
 50
180.0
 51
0.0
  0
LINE
  5
3FA
330
1F
100
AcDbEntity
  8
0
  6
Continuous
 62
     7
370
    25
100
AcDbLine
 10
6556.0789994923
 20
4840.2861004788
 30
0.0
 11
6556.0789994923
 21
4864.2861004788
 31
0.0
  0
ARC
  5
3FB
330
1F
100
AcDbEntity
  8
0
  6
Continuous
 62
     7
370
    25
100
AcDbCircle
 10
6553.0789994923
 20
4864.2861004788
 30
0.0
 40
3.0
100
AcDbArc
 50
0.0
 51
180.0
  0
LINE
  5
3FC
330
1F
100
AcDbEntity
  8
0
  6
Continuous
 62
     7
370
    25
100
AcDbLine
 10
6550.0789994923
 20
4864.2861004788
 30
0.0
 11
6550.0789994923
 21
4840.2861004788
 31
0.0
  0
ARC
  5
3FD
330
1F
100
AcDbEntity
  8
0
  6
Continuous
 62
     7
370
    25
100
AcDbCircle
 10
6542.5240286272
 20
4837.3949104523
 30
0.0
 40
3.000000000000909
100
AcDbArc
 50
180.0
 51
0.0
  0
LINE
  5
3FE
330
1F
100
AcDbEntity
  8
0
  6
Continuous
 62
     7
370
    25
100
AcDbLine
 10
6545.5240286272
 20
4837.3949104523
 30
0.0
 11
6545.5240286272
 21
4861.3949104523
 31
0.0
  0
ARC
  5
3FF
330
1F
100
AcDbEntity
  8
0
  6
Continuous
 62
     7
370
    25
100
AcDbCircle
 10
6542.5240286272
 20
4861.3949104523
 30
0.0
 40
3.000000000000909
100
AcDbArc
 50
0.0
 51
180.0
  0
LINE
  5
400
330
1F
100
AcDbEntity
  8
0
  6
Continuous
 62
     7
370
    25
100
AcDbLine
 10
6539.5240286272
 20
4861.3949104523
 30
0.0
 11
6539.5240286272
 21
4837.3949104523
 31
0.0
  0
ARC
  5
401
330
1F
100
AcDbEntity
  8
0
  6
Continuous
 62
     7
370
    25
100
AcDbCircle
 10
6532.0042273012
 20
4834.3712172641
 30
0.0
 40
3.000000000000909
100
AcDbArc
 50
180.0
 51
0.0
  0
LINE
  5
402
330
1F
100
AcDbEntity
  8
0
  6
Continuous
 62
     7
370
    25
100
AcDbLine
 10
6535.0042273012
 20
4834.3712172641
 30
0.0
 11
6535.0042273012
 21
4858.3712172641
 31
0.0
  0
ARC
  5
403
330
1F
100
AcDbEntity
  8
0
  6
Continuous
 62
     7
370
    25
100
AcDbCircle
 10
6532.0042273012
 20
4858.3712172641
 30
0.0
 40
3.000000000000909
100
AcDbArc
 50
0.0
 51
180.0
  0
LINE
  5
404
330
1F
100
AcDbEntity
  8
0
  6
Continuous
 62
     7
370
    25
100
AcDbLine
 10
6529.0042273012
 20
4858.3712172641
 30
0.0
 11
6529.0042273012
 21
4834.3712172641
 31
0.0
  0
ARC
  5
405
330
1F
100
AcDbEntity
  8
0
  6
Continuous
 62
     7
370
    25
100
AcDbCircle
 10
6521.5092459262
 20
4831.260186024
 30
0.0
 40
3.0
100
AcDbArc
 50
180.0
 51
0.0
  0
LINE
  5
406
330
1F
100
AcDbEntity
  8
0
  6
Continuous
 62
     7
370
    25
100
AcDbLine
 10
6524.5092459262
 20
4831.260186024
 30
0.0
 11
6524.5092459262
 21
4855.260186024
 31
0.0
  0
ARC
  5
407
330
1F
100
AcDbEntity
  8
0
  6
Continuous
 62
     7
370
    25
100
AcDbCircle
 10
6521.5092459262
 20
4855.260186024
 30
0.0
 40
3.0
100
AcDbArc
 50
0.0
 51
180.0
  0
LINE
  5
408
330
1F
100
AcDbEntity
  8
0
  6
Continuous
 62
     7
370
    25
100
AcDbLine
 10
6518.5092459262
 20
4855.260186024
 30
0.0
 11
6518.5092459262
 21
4831.260186024
 31
0.0
  0
ARC
  5
409
330
1F
100
AcDbEntity
  8
0
  6
Continuous
 62
     7
370
    25
100
AcDbCircle
 10
6511.0287376585
 20
4828.1059611822
 30
0.0
 40
3.0
100
AcDbArc
 50
180.0
 51
0.0
  0
LINE
  5
40A
330
1F
100
AcDbEntity
  8
0
  6
Continuous
 62
     7
370
    25
100
AcDbLine
 10
6514.0287376585
 20
4828.1059611822
 30
0.0
 11
6514.0287376585
 21
4852.1059611822
 31
0.0
  0
ARC
  5
40B
330
1F
100
AcDbEntity
  8
0
  6
Continuous
 62
     7
370
    25
100
AcDbCircle
 10
6511.0287376585
 20
4852.1059611822
 30
0.0
 40
3.0
100
AcDbArc
 50
0.0
 51
180.0
  0
LINE
  5
40C
330
1F
100
AcDbEntity
  8
0
  6
Continuous
 62
     7
370
    25
100
AcDbLine
 10
6508.0287376585
 20
4852.1059611822
 30
0.0
 11
6508.0287376585
 21
4828.1059611822
 31
0.0
  0
ARC
  5
40D
330
1F
100
AcDbEntity
  8
0
  6
Continuous
 62
     7
370
    25
100
AcDbCircle
 10
6500.5471884237
 20
4824.9505827162
 30
0.0
 40
3.0
100
AcDbArc
 50
180.0
 51
0.0
  0
LINE
  5
40E
330
1F
100
AcDbEntity
  8
0
  6
Continuous
 62
     7
370
    25
100
AcDbLine
 10
6503.5471884237
 20
4824.9505827162
 30
0.0
 11
6503.5471884237
 21
4848.9505827162
 31
0.0
  0
ARC
  5
40F
330
1F
100
AcDbEntity
  8
0
  6
Continuous
 62
     7
370
    25
100
AcDbCircle
 10
6500.5471884237
 20
4848.9505827162
 30
0.0
 40
3.0
100
AcDbArc
 50
0.0
 51
180.0
  0
LINE
  5
410
330
1F
100
AcDbEntity
  8
0
  6
Continuous
 62
     7
370
    25
100
AcDbLine
 10
6497.5471884237
 20
4848.9505827162
 30
0.0
 11
6497.5471884237
 21
4824.9505827162
 31
0.0
  0
ARC
  5
411
330
1F
100
AcDbEntity
  8
0
  6
Continuous
 62
     7
370
    25
100
AcDbCircle
 10
6490.0542577991
 20
4821.8376475698
 30
0.0
 40
3.0
100
AcDbArc
 50
180.0
 51
0.0
  0
LINE
  5
412
330
1F
100
AcDbEntity
  8
0
  6
Continuous
 62
     7
370
    25
100
AcDbLine
 10
6493.0542577991
 20
4821.8376475698
 30
0.0
 11
6493.0542577991
 21
4845.8376475698
 31
0.0
  0
ARC
  5
413
330
1F
100
AcDbEntity
  8
0
  6
Continuous
 62
     7
370
    25
100
AcDbCircle
 10
6490.0542577991
 20
4845.8376475698
 30
0.0
 40
3.0
100
AcDbArc
 50
0.0
 51
180.0
  0
LINE
  5
414
330
1F
100
AcDbEntity
  8
0
  6
Continuous
 62
     7
370
    25
100
AcDbLine
 10
6487.0542577991
 20
4845.8376475698
 30
0.0
 11
6487.0542577991
 21
4821.8376475698
 31
0.0
  0
ARC
  5
415
330
1F
100
AcDbEntity
  8
0
  6
Continuous
 62
     7
370
    25
100
AcDbCircle
 10
6479.5361618597
 20
4818.8102856514
 30
0.0
 40
3.0
100
AcDbArc
 50
180.0
 51
0.0
  0
LINE
  5
416
330
1F
100
AcDbEntity
  8
0
  6
Continuous
 62
     7
370
    25
100
AcDbLine
 10
6482.5361618597
 20
4818.8102856514
 30
0.0
 11
6482.5361618597
 21
4842.8102856514
 31
0.0
  0
ARC
  5
417
330
1F
100
AcDbEntity
  8
0
  6
Continuous
 62
     7
370
    25
100
AcDbCircle
 10
6479.5361618597
 20
4842.8102856514
 30
0.0
 40
3.0
100
AcDbArc
 50
0.0
 51
180.0
  0
LINE
  5
418
330
1F
100
AcDbEntity
  8
0
  6
Continuous
 62
     7
370
    25
100
AcDbLine
 10
6476.5361618597
 20
4842.8102856514
 30
0.0
 11
6476.5361618597
 21
4818.8102856514
 31
0.0
  0
ARC
  5
419
330
1F
100
AcDbEntity
  8
0
  6
Continuous
 62
     7
370
    25
100
AcDbCircle
 10
6468.9808432349
 20
4815.9132704078
 30
0.0
 40
3.0
100
AcDbArc
 50
180.0
 51
0.0
  0
LINE
  5
41A
330
1F
100
AcDbEntity
  8
0
  6
Continuous
 62
     7
370
    25
100
AcDbLine
 10
6471.9808432349
 20
4815.9132704078
 30
0.0
 11
6471.9808432349
 21
4839.9132704078
 31
0.0
  0
ARC
  5
41B
330
1F
100
AcDbEntity
  8
0
  6
Continuous
 62
     7
370
    25
100
AcDbCircle
 10
6468.9808432349
 20
4839.9132704078
 30
0.0
 40
3.0
100
AcDbArc
 50
0.0
 51
180.0
  0
LINE
  5
41C
330
1F
100
AcDbEntity
  8
0
  6
Continuous
 62
     7
370
    25
100
AcDbLine
 10
6465.9808432349
 20
4839.9132704078
 30
0.0
 11
6465.9808432349
 21
4815.9132704078
 31
0.0
  0
ARC
  5
41D
330
1F
100
AcDbEntity
  8
0
  6
Continuous
 62
     7
370
    25
100
AcDbCircle
 10
6458.3779705536
 20
4813.1934744439
 30
0.0
 40
3.0
100
AcDbArc
 50
180.0
 51
0.0
  0
LINE
  5
41E
330
1F
100
AcDbEntity
  8
0
  6
Continuous
 62
     7
370
    25
100
AcDbLine
 10
6461.3779705536
 20
4813.1934744439
 30
0.0
 11
6461.3779705536
 21
4837.1934744439
 31
0.0
  0
ARC
  5
41F
330
1F
100
AcDbEntity
  8
0
  6
Continuous
 62
     7
370
    25
100
AcDbCircle
 10
6458.3779705536
 20
4837.1934744439
 30
0.0
 40
3.0
100
AcDbArc
 50
0.0
 51
180.0
  0
LINE
  5
420
330
1F
100
AcDbEntity
  8
0
  6
Continuous
 62
     7
370
    25
100
AcDbLine
 10
6455.3779705536
 20
4837.1934744439
 30
0.0
 11
6455.3779705536
 21
4813.1934744439
 31
0.0
  0
ARC
  5
421
330
1F
100
AcDbEntity
  8
0
  6
Continuous
 62
     7
370
    25
100
AcDbCircle
 10
6447.7206606492
 20
4810.7006005292
 30
0.0
 40
3.000000000000909
100
AcDbArc
 50
180.0
 51
0.0
  0
LINE
  5
422
330
1F
100
AcDbEntity
  8
0
  6
Continuous
 62
     7
370
    25
100
AcDbLine
 10
6450.7206606492
 20
4810.7006005292
 30
0.0
 11
6450.7206606492
 21
4834.7006005292
 31
0.0
  0
ARC
  5
423
330
1F
100
AcDbEntity
  8
0
  6
Continuous
 62
     7
370
    25
100
AcDbCircle
 10
6447.7206606492
 20
4834.7006005292
 30
0.0
 40
3.000000000000909
100
AcDbArc
 50
0.0
 51
180.0
  0
LINE
  5
424
330
1F
100
AcDbEntity
  8
0
  6
Continuous
 62
     7
370
    25
100
AcDbLine
 10
6444.7206606492
 20
4834.7006005292
 30
0.0
 11
6444.7206606492
 21
4810.7006005292
 31
0.0
  0
ARC
  5
425
330
1F
100
AcDbEntity
  8
0
  6
Continuous
 62
     7
370
    25
100
AcDbCircle
 10
6437.0020321628
 20
4808.4865100148
 30
0.0
 40
3.0
100
AcDbArc
 50
180.0
 51
0.0
  0
LINE
  5
426
330
1F
100
AcDbEntity
  8
0
  6
Continuous
 62
     7
370
    25
100
AcDbLine
 10
6440.0020321628
 20
4808.4865100148
 30
0.0
 11
6440.0020321628
 21
4832.4865100148
 31
0.0
  0
ARC
  5
427
330
1F
100
AcDbEntity
  8
0
  6
Continuous
 62
     7
370
    25
100
AcDbCircle
 10
6437.0020321628
 20
4832.4865100148
 30
0.0
 40
3.0
100
AcDbArc
 50
0.0
 51
180.0
  0
LINE
  5
428
330
1F
100
AcDbEntity
  8
0
  6
Continuous
 62
     7
370
    25
100
AcDbLine
 10
6434.0020321628
 20
4832.4865100148
 30
0.0
 11
6434.0020321628
 21
4808.4865100148
 31
0.0
  0
ARC
  5
429
330
1F
100
AcDbEntity
  8
0
  6
Continuous
 62
     7
370
    25
100
AcDbCircle
 10
6426.2203731411
 20
4806.6063815571
 30
0.0
 40
3.0
100
AcDbArc
 50
180.0
 51
0.0
  0
LINE
  5
42A
330
1F
100
AcDbEntity
  8
0
  6
Continuous
 62
     7
370
    25
100
AcDbLine
 10
6429.2203731411
 20
4806.6063815571
 30
0.0
 11
6429.2203731411
 21
4830.6063815571
 31
0.0
  0
ARC
  5
42B
330
1F
100
AcDbEntity
  8
0
  6
Continuous
 62
     7
370
    25
100
AcDbCircle
 10
6426.2203731411
 20
4830.6063815571
 30
0.0
 40
3.0
100
AcDbArc
 50
0.0
 51
180.0
  0
LINE
  5
42C
330
1F
100
AcDbEntity
  8
0
  6
Continuous
 62
     7
370
    25
100
AcDbLine
 10
6423.2203731411
 20
4830.6063815571
 30
0.0
 11
6423.2203731411
 21
4806.6063815571
 31
0.0
  0
ARC
  5
42D
330
1F
100
AcDbEntity
  8
0
  6
Continuous
 62
     7
370
    25
100
AcDbCircle
 10
6415.3774169281
 20
4805.1178471828
 30
0.0
 40
3.0
100
AcDbArc
 50
180.0
 51
0.0
  0
LINE
  5
42E
330
1F
100
AcDbEntity
  8
0
  6
Continuous
 62
     7
370
    25
100
AcDbLine
 10
6418.3774169281
 20
4805.1178471828
 30
0.0
 11
6418.3774169281
 21
4829.1178471828
 31
0.0
  0
ARC
  5
42F
330
1F
100
AcDbEntity
  8
0
  6
Continuous
 62
     7
370
    25
100
AcDbCircle
 10
6415.3774169281
 20
4829.1178471828
 30
0.0
 40
3.0
100
AcDbArc
 50
0.0
 51
180.0
  0
LINE
  5
430
330
1F
100
AcDbEntity
  8
0
  6
Continuous
 62
     7
370
    25
100
AcDbLine
 10
6412.3774169281
 20
4829.1178471828
 30
0.0
 11
6412.3774169281
 21
4805.1178471828
 31
0.0
  0
ARC
  5
431
330
1F
100
AcDbEntity
  8
0
  6
Continuous
 62
     7
370
    25
100
AcDbCircle
 10
6404.4817856258
 20
4804.0805853022
 30
0.0
 40
3.0
100
AcDbArc
 50
180.0
 51
0.0
  0
LINE
  5
432
330
1F
100
AcDbEntity
  8
0
  6
Continuous
 62
     7
370
    25
100
AcDbLine
 10
6407.4817856258
 20
4804.0805853022
 30
0.0
 11
6407.4817856258
 21
4828.0805853022
 31
0.0
  0
ARC
  5
433
330
1F
100
AcDbEntity
  8
0
  6
Continuous
 62
     7
370
    25
100
AcDbCircle
 10
6404.4817856258
 20
4828.0805853022
 30
0.0
 40
3.0
100
AcDbArc
 50
0.0
 51
180.0
  0
LINE
  5
434
330
1F
100
AcDbEntity
  8
0
  6
Continuous
 62
     7
370
    25
100
AcDbLine
 10
6401.4817856258
 20
4828.0805853022
 30
0.0
 11
6401.4817856258
 21
4804.0805853022
 31
0.0
  0
ARC
  5
435
330
1F
100
AcDbEntity
  8
0
  6
Continuous
 62
     7
370
    25
100
AcDbCircle
 10
6393.5489877996
 20
4803.5545489652
 30
0.0
 40
3.0
100
AcDbArc
 50
180.0
 51
0.0
  0
LINE
  5
436
330
1F
100
AcDbEntity
  8
0
  6
Continuous
 62
     7
370
    25
100
AcDbLine
 10
6396.5489877996
 20
4803.5545489652
 30
0.0
 11
6396.5489877996
 21
4827.5545489652
 31
0.0
  0
ARC
  5
437
330
1F
100
AcDbEntity
  8
0
  6
Continuous
 62
     7
370
    25
100
AcDbCircle
 10
6393.5489877996
 20
4827.5545489652
 30
0.0
 40
3.0
100
AcDbArc
 50
0.0
 51
180.0
  0
LINE
  5
438
330
1F
100
AcDbEntity
  8
0
  6
Continuous
 62
     7
370
    25
100
AcDbLine
 10
6390.5489877996
 20
4827.5545489652
 30
0.0
 11
6390.5489877996
 21
4803.5545489652
 31
0.0
  0
ARC
  5
439
330
1F
100
AcDbEntity
  8
0
  6
Continuous
 62
     7
370
    25
100
AcDbCircle
 10
6382.6065823825
 20
4803.5974760119
 30
0.0
 40
3.0
100
AcDbArc
 50
180.0
 51
0.0
  0
LINE
  5
43A
330
1F
100
AcDbEntity
  8
0
  6
Continuous
 62
     7
370
    25
100
AcDbLine
 10
6385.6065823825
 20
4803.5974760119
 30
0.0
 11
6385.6065823825
 21
4827.5974760119
 31
0.0
  0
ARC
  5
43B
330
1F
100
AcDbEntity
  8
0
  6
Continuous
 62
     7
370
    25
100
AcDbCircle
 10
6382.6065823825
 20
4827.5974760119
 30
0.0
 40
3.0
100
AcDbArc
 50
0.0
 51
180.0
  0
LINE
  5
43C
330
1F
100
AcDbEntity
  8
0
  6
Continuous
 62
     7
370
    25
100
AcDbLine
 10
6379.6065823825
 20
4827.5974760119
 30
0.0
 11
6379.6065823825
 21
4803.5974760119
 31
0.0
  0
ARC
  5
43D
330
1F
100
AcDbEntity
  8
0
  6
Continuous
 62
     7
370
    25
100
AcDbCircle
 10
6371.6803892063
 20
4804.235717247
 30
0.0
 40
3.0
100
AcDbArc
 50
180.0
 51
0.0
  0
LINE
  5
43E
330
1F
100
AcDbEntity
  8
0
  6
Continuous
 62
     7
370
    25
100
AcDbLine
 10
6374.6803892063
 20
4804.235717247
 30
0.0
 11
6374.6803892063
 21
4828.235717247
 31
0.0
  0
ARC
  5
43F
330
1F
100
AcDbEntity
  8
0
  6
Continuous
 62
     7
370
    25
100
AcDbCircle
 10
6371.6803892063
 20
4828.235717247
 30
0.0
 40
3.0
100
AcDbArc
 50
0.0
 51
180.0
  0
LINE
  5
440
330
1F
100
AcDbEntity
  8
0
  6
Continuous
 62
     7
370
    25
100
AcDbLine
 10
6368.6803892063
 20
4828.235717247
 30
0.0
 11
6368.6803892063
 21
4804.235717247
 31
0.0
  0
ARC
  5
441
330
1F
100
AcDbEntity
  8
0
  6
Continuous
 62
     7
370
    25
100
AcDbCircle
 10
6360.7996376415
 20
4805.4161393873
 30
0.0
 40
3.0
100
AcDbArc
 50
180.0
 51
0.0
  0
LINE
  5
442
330
1F
100
AcDbEntity
  8
0
  6
Continuous
 62
     7
370
    25
100
AcDbLine
 10
6363.7996376415
 20
4805.4161393873
 30
0.0
 11
6363.7996376415
 21
4829.4161393873
 31
0.0
  0
ARC
  5
443
330
1F
100
AcDbEntity
  8
0
  6
Continuous
 62
     7
370
    25
100
AcDbCircle
 10
6360.7996376415
 20
4829.4161393873
 30
0.0
 40
3.0
100
AcDbArc
 50
0.0
 51
180.0
  0
LINE
  5
444
330
1F
100
AcDbEntity
  8
0
  6
Continuous
 62
     7
370
    25
100
AcDbLine
 10
6357.7996376415
 20
4829.4161393873
 30
0.0
 11
6357.7996376415
 21
4805.4161393873
 31
0.0
  0
ARC
  5
445
330
1F
100
AcDbEntity
  8
0
  6
Continuous
 62
     7
370
    25
100
AcDbCircle
 10
6349.979771976
 20
4807.0706643895
 30
0.0
 40
3.0
100
AcDbArc
 50
180.0
 51
0.0
  0
LINE
  5
446
330
1F
100
AcDbEntity
  8
0
  6
Continuous
 62
     7
370
    25
100
AcDbLine
 10
6352.979771976
 20
4807.0706643895
 30
0.0
 11
6352.979771976
 21
4831.0706643895
 31
0.0
  0
ARC
  5
447
330
1F
100
AcDbEntity
  8
0
  6
Continuous
 62
     7
370
    25
100
AcDbCircle
 10
6349.979771976
 20
4831.0706643895
 30
0.0
 40
3.0
100
AcDbArc
 50
0.0
 51
180.0
  0
LINE
  5
448
330
1F
100
AcDbEntity
  8
0
  6
Continuous
 62
     7
370
    25
100
AcDbLine
 10
6346.979771976
 20
4831.0706643895
 30
0.0
 11
6346.979771976
 21
4807.0706643895
 31
0.0
  0
ARC
  5
449
330
1F
100
AcDbEntity
  8
0
  6
Continuous
 62
     7
370
    25
100
AcDbCircle
 10
6339.2310694164
 20
4809.1315356501
 30
0.0
 40
3.0
100
AcDbArc
 50
180.0
 51
0.0
  0
LINE
  5
44A
330
1F
100
AcDbEntity
  8
0
  6
Continuous
 62
     7
370
    25
100
AcDbLine
 10
6342.2310694164
 20
4809.1315356501
 30
0.0
 11
6342.2310694164
 21
4833.1315356501
 31
0.0
  0
ARC
  5
44B
330
1F
100
AcDbEntity
  8
0
  6
Continuous
 62
     7
370
    25
100
AcDbCircle
 10
6339.2310694164
 20
4833.1315356501
 30
0.0
 40
3.0
100
AcDbArc
 50
0.0
 51
180.0
  0
LINE
  5
44C
330
1F
100
AcDbEntity
  8
0
  6
Continuous
 62
     7
370
    25
100
AcDbLine
 10
6336.2310694164
 20
4833.1315356501
 30
0.0
 11
6336.2310694164
 21
4809.1315356501
 31
0.0
  0
ARC
  5
44D
330
1F
100
AcDbEntity
  8
0
  6
Continuous
 62
     7
370
    25
100
AcDbCircle
 10
6328.5534771389
 20
4811.5341806917
 30
0.0
 40
3.0
100
AcDbArc
 50
180.0
 51
0.0
  0
LINE
  5
44E
330
1F
100
AcDbEntity
  8
0
  6
Continuous
 62
     7
370
    25
100
AcDbLine
 10
6331.5534771389
 20
4811.5341806917
 30
0.0
 11
6331.5534771389
 21
4835.5341806917
 31
0.0
  0
ARC
  5
44F
330
1F
100
AcDbEntity
  8
0
  6
Continuous
 62
     7
370
    25
100
AcDbCircle
 10
6328.5534771389
 20
4835.5341806917
 30
0.0
 40
3.0
100
AcDbArc
 50
0.0
 51
180.0
  0
LINE
  5
450
330
1F
100
AcDbEntity
  8
0
  6
Continuous
 62
     7
370
    25
100
AcDbLine
 10
6325.5534771389
 20
4835.5341806917
 30
0.0
 11
6325.5534771389
 21
4811.5341806917
 31
0.0
  0
ARC
  5
451
330
1F
100
AcDbEntity
  8
0
  6
Continuous
 62
     7
370
    25
100
AcDbCircle
 10
6317.9417794612
 20
4814.2176712763
 30
0.0
 40
3.0
100
AcDbArc
 50
180.0
 51
0.0
  0
LINE
  5
452
330
1F
100
AcDbEntity
  8
0
  6
Continuous
 62
     7
370
    25
100
AcDbLine
 10
6320.9417794612
 20
4814.2176712763
 30
0.0
 11
6320.9417794612
 21
4838.2176712763
 31
0.0
  0
ARC
  5
453
330
1F
100
AcDbEntity
  8
0
  6
Continuous
 62
     7
370
    25
100
AcDbCircle
 10
6317.9417794612
 20
4838.2176712763
 30
0.0
 40
3.0
100
AcDbArc
 50
0.0
 51
180.0
  0
LINE
  5
454
330
1F
100
AcDbEntity
  8
0
  6
Continuous
 62
     7
370
    25
100
AcDbLine
 10
6314.9417794612
 20
4838.2176712763
 30
0.0
 11
6314.9417794612
 21
4814.2176712763
 31
0.0
  0
ARC
  5
455
330
1F
100
AcDbEntity
  8
0
  6
Continuous
 62
     7
370
    25
100
AcDbCircle
 10
6307.3890417244
 20
4817.1242196535
 30
0.0
 40
3.000000000000909
100
AcDbArc
 50
180.0
 51
0.0
  0
LINE
  5
456
330
1F
100
AcDbEntity
  8
0
  6
Continuous
 62
     7
370
    25
100
AcDbLine
 10
6310.3890417244
 20
4817.1242196535
 30
0.0
 11
6310.3890417244
 21
4841.1242196535
 31
0.0
  0
ARC
  5
457
330
1F
100
AcDbEntity
  8
0
  6
Continuous
 62
     7
370
    25
100
AcDbCircle
 10
6307.3890417244
 20
4841.1242196535
 30
0.0
 40
3.000000000000909
100
AcDbArc
 50
0.0
 51
180.0
  0
LINE
  5
458
330
1F
100
AcDbEntity
  8
0
  6
Continuous
 62
     7
370
    25
100
AcDbLine
 10
6304.3890417244
 20
4841.1242196535
 30
0.0
 11
6304.3890417244
 21
4817.1242196535
 31
0.0
  0
ARC
  5
459
330
1F
100
AcDbEntity
  8
0
  6
Continuous
 62
     7
370
    25
100
AcDbCircle
 10
6296.8848889592
 20
4820.1995179617
 30
0.0
 40
3.000000000000909
100
AcDbArc
 50
180.0
 51
0.0
  0
LINE
  5
45A
330
1F
100
AcDbEntity
  8
0
  6
Continuous
 62
     7
370
    25
100
AcDbLine
 10
6299.8848889592
 20
4820.1995179617
 30
0.0
 11
6299.8848889592
 21
4844.1995179617
 31
0.0
  0
ARC
  5
45B
330
1F
100
AcDbEntity
  8
0
  6
Continuous
 62
     7
370
    25
100
AcDbCircle
 10
6296.8848889592
 20
4844.1995179617
 30
0.0
 40
3.000000000000909
100
AcDbArc
 50
0.0
 51
180.0
  0
LINE
  5
45C
330
1F
100
AcDbEntity
  8
0
  6
Continuous
 62
     7
370
    25
100
AcDbLine
 10
6293.8848889592
 20
4844.1995179617
 30
0.0
 11
6293.8848889592
 21
4820.1995179617
 31
0.0
  0
ARC
  5
45D
330
1F
100
AcDbEntity
  8
0
  6
Continuous
 62
     7
370
    25
100
AcDbCircle
 10
6286.4155061245
 20
4823.3925232788
 30
0.0
 40
3.0
100
AcDbArc
 50
180.0
 51
0.0
  0
LINE
  5
45E
330
1F
100
AcDbEntity
  8
0
  6
Continuous
 62
     7
370
    25
100
AcDbLine
 10
6289.4155061245
 20
4823.3925232788
 30
0.0
 11
6289.4155061245
 21
4847.3925232788
 31
0.0
  0
ARC
  5
45F
330
1F
100
AcDbEntity
  8
0
  6
Continuous
 62
     7
370
    25
100
AcDbCircle
 10
6286.4155061245
 20
4847.3925232788
 30
0.0
 40
3.0
100
AcDbArc
 50
0.0
 51
180.0
  0
LINE
  5
460
330
1F
100
AcDbEntity
  8
0
  6
Continuous
 62
     7
370
    25
100
AcDbLine
 10
6283.4155061245
 20
4847.3925232788
 30
0.0
 11
6283.4155061245
 21
4823.3925232788
 31
0.0
  0
ARC
  5
461
330
1F
100
AcDbEntity
  8
0
  6
Continuous
 62
     7
370
    25
100
AcDbCircle
 10
6275.9670807577
 20
4826.6539130856
 30
0.0
 40
3.000000000000909
100
AcDbArc
 50
180.0
 51
0.0
  0
LINE
  5
462
330
1F
100
AcDbEntity
  8
0
  6
Continuous
 62
     7
370
    25
100
AcDbLine
 10
6278.9670807577
 20
4826.6539130856
 30
0.0
 11
6278.9670807577
 21
4850.6539130856
 31
0.0
  0
ARC
  5
463
330
1F
100
AcDbEntity
  8
0
  6
Continuous
 62
     7
370
    25
100
AcDbCircle
 10
6275.9670807577
 20
4850.6539130856
 30
0.0
 40
3.000000000000909
100
AcDbArc
 50
0.0
 51
180.0
  0
LINE
  5
464
330
1F
100
AcDbEntity
  8
0
  6
Continuous
 62
     7
370
    25
100
AcDbLine
 10
6272.9670807577
 20
4850.6539130856
 30
0.0
 11
6272.9670807577
 21
4826.6539130856
 31
0.0
  0
ARC
  5
465
330
1F
100
AcDbEntity
  8
0
  6
Continuous
 62
     7
370
    25
100
AcDbCircle
 10
6265.5258024474
 20
4829.9353825291
 30
0.0
 40
3.0
100
AcDbArc
 50
180.0
 51
0.0
  0
LINE
  5
466
330
1F
100
AcDbEntity
  8
0
  6
Continuous
 62
     7
370
    25
100
AcDbLine
 10
6268.5258024474
 20
4829.9353825291
 30
0.0
 11
6268.5258024474
 21
4853.9353825291
 31
0.0
  0
ARC
  5
467
330
1F
100
AcDbEntity
  8
0
  6
Continuous
 62
     7
370
    25
100
AcDbCircle
 10
6265.5258024474
 20
4853.9353825291
 30
0.0
 40
3.0
100
AcDbArc
 50
0.0
 51
180.0
  0
LINE
  5
468
330
1F
100
AcDbEntity
  8
0
  6
Continuous
 62
     7
370
    25
100
AcDbLine
 10
6262.5258024474
 20
4853.9353825291
 30
0.0
 11
6262.5258024474
 21
4829.9353825291
 31
0.0
  0
ARC
  5
469
330
1F
100
AcDbEntity
  8
0
  6
Continuous
 62
     7
370
    25
100
AcDbCircle
 10
6255.0744198652
 20
4833.1900124982
 30
0.0
 40
3.000000000000909
100
AcDbArc
 50
180.0
 51
0.0
  0
LINE
  5
46A
330
1F
100
AcDbEntity
  8
0
  6
Continuous
 62
     7
370
    25
100
AcDbLine
 10
6258.0744198652
 20
4833.1900124982
 30
0.0
 11
6258.0744198652
 21
4857.1900124982
 31
0.0
  0
ARC
  5
46B
330
1F
100
AcDbEntity
  8
0
  6
Continuous
 62
     7
370
    25
100
AcDbCircle
 10
6255.0744198652
 20
4857.1900124982
 30
0.0
 40
3.000000000000909
100
AcDbArc
 50
0.0
 51
180.0
  0
LINE
  5
46C
330
1F
100
AcDbEntity
  8
0
  6
Continuous
 62
     7
370
    25
100
AcDbLine
 10
6252.0744198652
 20
4857.1900124982
 30
0.0
 11
6252.0744198652
 21
4833.1900124982
 31
0.0
  0
ARC
  5
46D
330
1F
100
AcDbEntity
  8
0
  6
Continuous
 62
     7
370
    25
100
AcDbCircle
 10
6244.6008465217
 20
4836.3688365445
 30
0.0
 40
3.0
100
AcDbArc
 50
180.0
 51
0.0
  0
LINE
  5
46E
330
1F
100
AcDbEntity
  8
0
  6
Continuous
 62
     7
370
    25
100
AcDbLine
 10
6247.6008465217
 20
4836.3688365445
 30
0.0
 11
6247.6008465217
 21
4860.3688365445
 31
0.0
  0
ARC
  5
46F
330
1F
100
AcDbEntity
  8
0
  6
Continuous
 62
     7
370
    25
100
AcDbCircle
 10
6244.6008465217
 20
4860.3688365445
 30
0.0
 40
3.0
100
AcDbArc
 50
0.0
 51
180.0
  0
LINE
  5
470
330
1F
100
AcDbEntity
  8
0
  6
Continuous
 62
     7
370
    25
100
AcDbLine
 10
6241.6008465217
 20
4860.3688365445
 30
0.0
 11
6241.6008465217
 21
4836.3688365445
 31
0.0
  0
ARC
  5
471
330
1F
100
AcDbEntity
  8
0
  6
Continuous
 62
     7
370
    25
100
AcDbCircle
 10
6234.0912751068
 20
4839.4223168075
 30
0.0
 40
3.000000000000909
100
AcDbArc
 50
180.0
 51
0.0
  0
LINE
  5
472
330
1F
100
AcDbEntity
  8
0
  6
Continuous
 62
     7
370
    25
100
AcDbLine
 10
6237.0912751068
 20
4839.4223168075
 30
0.0
 11
6237.0912751068
 21
4863.4223168075
 31
0.0
  0
ARC
  5
473
330
1F
100
AcDbEntity
  8
0
  6
Continuous
 62
     7
370
    25
100
AcDbCircle
 10
6234.0912751068
 20
4863.4223168075
 30
0.0
 40
3.000000000000909
100
AcDbArc
 50
0.0
 51
180.0
  0
LINE
  5
474
330
1F
100
AcDbEntity
  8
0
  6
Continuous
 62
     7
370
    25
100
AcDbLine
 10
6231.0912751068
 20
4863.4223168075
 30
0.0
 11
6231.0912751068
 21
4839.4223168075
 31
0.0
  0
ARC
  5
475
330
1F
100
AcDbEntity
  8
0
  6
Continuous
 62
     7
370
    25
100
AcDbCircle
 10
6223.5301771147
 20
4842.2995491718
 30
0.0
 40
3.0
100
AcDbArc
 50
180.0
 51
0.0
  0
LINE
  5
476
330
1F
100
AcDbEntity
  8
0
  6
Continuous
 62
     7
370
    25
100
AcDbLine
 10
6226.5301771147
 20
4842.2995491718
 30
0.0
 11
6226.5301771147
 21
4866.2995491718
 31
0.0
  0
ARC
  5
477
330
1F
100
AcDbEntity
  8
0
  6
Continuous
 62
     7
370
    25
100
AcDbCircle
 10
6223.5301771147
 20
4866.2995491718
 30
0.0
 40
3.0
100
AcDbArc
 50
0.0
 51
180.0
  0
LINE
  5
478
330
1F
100
AcDbEntity
  8
0
  6
Continuous
 62
     7
370
    25
100
AcDbLine
 10
6220.5301771147
 20
4866.2995491718
 30
0.0
 11
6220.5301771147
 21
4842.2995491718
 31
0.0
  0
ARC
  5
479
330
1F
100
AcDbEntity
  8
0
  6
Continuous
 62
     7
370
    25
100
AcDbCircle
 10
6212.9089081393
 20
4844.9452900502
 30
0.0
 40
3.0
100
AcDbArc
 50
180.0
 51
0.0
  0
LINE
  5
47A
330
1F
100
AcDbEntity
  8
0
  6
Continuous
 62
     7
370
    25
100
AcDbLine
 10
6215.9089081393
 20
4844.9452900502
 30
0.0
 11
6215.9089081393
 21
4868.9452900502
 31
0.0
  0
ARC
  5
47B
330
1F
100
AcDbEntity
  8
0
  6
Continuous
 62
     7
370
    25
100
AcDbCircle
 10
6212.9089081393
 20
4868.9452900502
 30
0.0
 40
3.0
100
AcDbArc
 50
0.0
 51
180.0
  0
LINE
  5
47C
330
1F
100
AcDbEntity
  8
0
  6
Continuous
 62
     7
370
    25
100
AcDbLine
 10
6209.9089081393
 20
4868.9452900502
 30
0.0
 11
6209.9089081393
 21
4844.9452900502
 31
0.0
  0
ARC
  5
47D
330
1F
100
AcDbEntity
  8
0
  6
Continuous
 62
     7
370
    25
100
AcDbCircle
 10
6202.2205437858
 20
4847.3012541122
 30
0.0
 40
3.0
100
AcDbArc
 50
180.0
 51
0.0
  0
LINE
  5
47E
330
1F
100
AcDbEntity
  8
0
  6
Continuous
 62
     7
370
    25
100
AcDbLine
 10
6205.2205437858
 20
4847.3012541122
 30
0.0
 11
6205.2205437858
 21
4871.3012541122
 31
0.0
  0
ARC
  5
47F
330
1F
100
AcDbEntity
  8
0
  6
Continuous
 62
     7
370
    25
100
AcDbCircle
 10
6202.2205437858
 20
4871.3012541122
 30
0.0
 40
3.0
100
AcDbArc
 50
0.0
 51
180.0
  0
LINE
  5
480
330
1F
100
AcDbEntity
  8
0
  6
Continuous
 62
     7
370
    25
100
AcDbLine
 10
6199.2205437858
 20
4871.3012541122
 30
0.0
 11
6199.2205437858
 21
4847.3012541122
 31
0.0
  0
ARC
  5
481
330
1F
100
AcDbEntity
  8
0
  6
Continuous
 62
     7
370
    25
100
AcDbCircle
 10
6191.4616005055
 20
4849.3056535207
 30
0.0
 40
3.0
100
AcDbArc
 50
180.0
 51
0.0
  0
LINE
  5
482
330
1F
100
AcDbEntity
  8
0
  6
Continuous
 62
     7
370
    25
100
AcDbLine
 10
6194.4616005055
 20
4849.3056535207
 30
0.0
 11
6194.4616005055
 21
4873.3056535207
 31
0.0
  0
ARC
  5
483
330
1F
100
AcDbEntity
  8
0
  6
Continuous
 62
     7
370
    25
100
AcDbCircle
 10
6191.4616005055
 20
4873.3056535207
 30
0.0
 40
3.0
100
AcDbArc
 50
0.0
 51
180.0
  0
LINE
  5
484
330
1F
100
AcDbEntity
  8
0
  6
Continuous
 62
     7
370
    25
100
AcDbLine
 10
6188.4616005055
 20
4873.3056535207
 30
0.0
 11
6188.4616005055
 21
4849.3056535207
 31
0.0
  0
ARC
  5
485
330
1F
100
AcDbEntity
  8
0
  6
Continuous
 62
     7
370
    25
100
AcDbCircle
 10
6180.6320354234
 20
4850.8935174594
 30
0.0
 40
3.000000000000909
100
AcDbArc
 50
180.0
 51
0.0
  0
LINE
  5
486
330
1F
100
AcDbEntity
  8
0
  6
Continuous
 62
     7
370
    25
100
AcDbLine
 10
6183.6320354234
 20
4850.8935174594
 30
0.0
 11
6183.6320354234
 21
4874.8935174594
 31
0.0
  0
ARC
  5
487
330
1F
100
AcDbEntity
  8
0
  6
Continuous
 62
     7
370
    25
100
AcDbCircle
 10
6180.6320354234
 20
4874.8935174594
 30
0.0
 40
3.000000000000909
100
AcDbArc
 50
0.0
 51
180.0
  0
LINE
  5
488
330
1F
100
AcDbEntity
  8
0
  6
Continuous
 62
     7
370
    25
100
AcDbLine
 10
6177.6320354234
 20
4874.8935174594
 30
0.0
 11
6177.6320354234
 21
4850.8935174594
 31
0.0
  0
ARC
  5
489
330
1F
100
AcDbEntity
  8
0
  6
Continuous
 62
     7
370
    25
100
AcDbCircle
 10
6169.7438523139
 20
4851.9966311192
 30
0.0
 40
3.000000000000909
100
AcDbArc
 50
180.0
 51
0.0
  0
LINE
  5
48A
330
1F
100
AcDbEntity
  8
0
  6
Continuous
 62
     7
370
    25
100
AcDbLine
 10
6172.7438523139
 20
4851.9966311192
 30
0.0
 11
6172.7438523139
 21
4875.9966311192
 31
0.0
  0
ARC
  5
48B
330
1F
100
AcDbEntity
  8
0
  6
Continuous
 62
     7
370
    25
100
AcDbCircle
 10
6169.7438523139
 20
4875.9966311192
 30
0.0
 40
3.000000000000909
100
AcDbArc
 50
0.0
 51
180.0
  0
LINE
  5
48C
330
1F
100
AcDbEntity
  8
0
  6
Continuous
 62
     7
370
    25
100
AcDbLine
 10
6166.7438523139
 20
4875.9966311192
 30
0.0
 11
6166.7438523139
 21
4851.9966311192
 31
0.0
  0
ARC
  5
48D
330
1F
100
AcDbEntity
  8
0
  6
Continuous
 62
     7
370
    25
100
AcDbCircle
 10
6158.8142176241
 20
4852.5469032902
 30
0.0
 40
3.0
100
AcDbArc
 50
180.0
 51
0.0
  0
LINE
  5
48E
330
1F
100
AcDbEntity
  8
0
  6
Continuous
 62
     7
370
    25
100
AcDbLine
 10
6161.8142176241
 20
4852.5469032902
 30
0.0
 11
6161.8142176241
 21
4876.5469032902
 31
0.0
  0
ARC
  5
48F
330
1F
100
AcDbEntity
  8
0
  6
Continuous
 62
     7
370
    25
100
AcDbCircle
 10
6158.8142176241
 20
4876.5469032902
 30
0.0
 40
3.0
100
AcDbArc
 50
0.0
 51
180.0
  0
LINE
  5
490
330
1F
100
AcDbEntity
  8
0
  6
Continuous
 62
     7
370
    25
100
AcDbLine
 10
6155.8142176241
 20
4876.5469032902
 30
0.0
 11
6155.8142176241
 21
4852.5469032902
 31
0.0
  0
ARC
  5
491
330
1F
100
AcDbEntity
  8
0
  6
Continuous
 62
     7
370
    25
100
AcDbCircle
 10
6147.8689116056
 20
4852.4944505124
 30
0.0
 40
3.000000000000909
100
AcDbArc
 50
180.0
 51
0.0
  0
LINE
  5
492
330
1F
100
AcDbEntity
  8
0
  6
Continuous
 62
     7
370
    25
100
AcDbLine
 10
6150.8689116056
 20
4852.4944505124
 30
0.0
 11
6150.8689116056
 21
4876.4944505124
 31
0.0
  0
ARC
  5
493
330
1F
100
AcDbEntity
  8
0
  6
Continuous
 62
     7
370
    25
100
AcDbCircle
 10
6147.8689116056
 20
4876.4944505124
 30
0.0
 40
3.000000000000909
100
AcDbArc
 50
0.0
 51
180.0
  0
LINE
  5
494
330
1F
100
AcDbEntity
  8
0
  6
Continuous
 62
     7
370
    25
100
AcDbLine
 10
6144.8689116056
 20
4876.4944505124
 30
0.0
 11
6144.8689116056
 21
4852.4944505124
 31
0.0
  0
ARC
  5
495
330
1F
100
AcDbEntity
  8
0
  6
Continuous
 62
     7
370
    25
100
AcDbCircle
 10
6136.942359017
 20
4851.8710140743
 30
0.0
 40
3.0
100
AcDbArc
 50
180.0
 51
0.0
  0
LINE
  5
496
330
1F
100
AcDbEntity
  8
0
  6
Continuous
 62
     7
370
    25
100
AcDbLine
 10
6139.942359017
 20
4851.8710140743
 30
0.0
 11
6139.942359017
 21
4875.8710140743
 31
0.0
  0
ARC
  5
497
330
1F
100
AcDbEntity
  8
0
  6
Continuous
 62
     7
370
    25
100
AcDbCircle
 10
6136.942359017
 20
4875.8710140743
 30
0.0
 40
3.0
100
AcDbArc
 50
0.0
 51
180.0
  0
LINE
  5
498
330
1F
100
AcDbEntity
  8
0
  6
Continuous
 62
     7
370
    25
100
AcDbLine
 10
6133.942359017
 20
4875.8710140743
 30
0.0
 11
6133.942359017
 21
4851.8710140743
 31
0.0
  0
ARC
  5
499
330
1F
100
AcDbEntity
  8
0
  6
Continuous
 62
     7
370
    25
100
AcDbCircle
 10
6126.0569486975
 20
4850.7361076929
 30
0.0
 40
3.0
100
AcDbArc
 50
180.0
 51
0.0
  0
LINE
  5
49A
330
1F
100
AcDbEntity
  8
0
  6
Continuous
 62
     7
370
    25
100
AcDbLine
 10
6129.0569486975
 20
4850.7361076929
 30
0.0
 11
6129.0569486975
 21
4874.7361076929
 31
0.0
  0
ARC
  5
49B
330
1F
100
AcDbEntity
  8
0
  6
Continuous
 62
     7
370
    25
100
AcDbCircle
 10
6126.0569486975
 20
4874.7361076929
 30
0.0
 40
3.0
100
AcDbArc
 50
0.0
 51
180.0
  0
LINE
  5
49C
330
1F
100
AcDbEntity
  8
0
  6
Continuous
 62
     7
370
    25
100
AcDbLine
 10
6123.0569486975
 20
4874.7361076929
 30
0.0
 11
6123.0569486975
 21
4850.7361076929
 31
0.0
  0
ARC
  5
49D
330
1F
100
AcDbEntity
  8
0
  6
Continuous
 62
     7
370
    25
100
AcDbCircle
 10
6115.2281853242
 20
4849.1510944223
 30
0.0
 40
3.0
100
AcDbArc
 50
180.0
 51
0.0
  0
LINE
  5
49E
330
1F
100
AcDbEntity
  8
0
  6
Continuous
 62
     7
370
    25
100
AcDbLine
 10
6118.2281853242
 20
4849.1510944223
 30
0.0
 11
6118.2281853242
 21
4873.1510944223
 31
0.0
  0
ARC
  5
49F
330
1F
100
AcDbEntity
  8
0
  6
Continuous
 62
     7
370
    25
100
AcDbCircle
 10
6115.2281853242
 20
4873.1510944223
 30
0.0
 40
3.0
100
AcDbArc
 50
0.0
 51
180.0
  0
LINE
  5
4A0
330
1F
100
AcDbEntity
  8
0
  6
Continuous
 62
     7
370
    25
100
AcDbLine
 10
6112.2281853242
 20
4873.1510944223
 30
0.0
 11
6112.2281853242
 21
4849.1510944223
 31
0.0
  0
ARC
  5
4A1
330
1F
100
AcDbEntity
  8
0
  6
Continuous
 62
     7
370
    25
100
AcDbCircle
 10
6104.4629673901
 20
4847.1765285221
 30
0.0
 40
3.0
100
AcDbArc
 50
180.0
 51
0.0
  0
LINE
  5
4A2
330
1F
100
AcDbEntity
  8
0
  6
Continuous
 62
     7
370
    25
100
AcDbLine
 10
6107.4629673901
 20
4847.1765285221
 30
0.0
 11
6107.4629673901
 21
4871.1765285221
 31
0.0
  0
ARC
  5
4A3
330
1F
100
AcDbEntity
  8
0
  6
Continuous
 62
     7
370
    25
100
AcDbCircle
 10
6104.4629673901
 20
4871.1765285221
 30
0.0
 40
3.0
100
AcDbArc
 50
0.0
 51
180.0
  0
LINE
  5
4A4
330
1F
100
AcDbEntity
  8
0
  6
Continuous
 62
     7
370
    25
100
AcDbLine
 10
6101.4629673901
 20
4871.1765285221
 30
0.0
 11
6101.4629673901
 21
4847.1765285221
 31
0.0
  0
ARC
  5
4A5
330
1F
100
AcDbEntity
  8
0
  6
Continuous
 62
     7
370
    25
100
AcDbCircle
 10
6093.7630292699
 20
4844.8709177181
 30
0.0
 40
3.0
100
AcDbArc
 50
180.0
 51
0.0
  0
LINE
  5
4A6
330
1F
100
AcDbEntity
  8
0
  6
Continuous
 62
     7
370
    25
100
AcDbLine
 10
6096.7630292699
 20
4844.8709177181
 30
0.0
 11
6096.7630292699
 21
4868.8709177181
 31
0.0
  0
ARC
  5
4A7
330
1F
100
AcDbEntity
  8
0
  6
Continuous
 62
     7
370
    25
100
AcDbCircle
 10
6093.7630292699
 20
4868.8709177181
 30
0.0
 40
3.0
100
AcDbArc
 50
0.0
 51
180.0
  0
LINE
  5
4A8
330
1F
100
AcDbEntity
  8
0
  6
Continuous
 62
     7
370
    25
100
AcDbLine
 10
6090.7630292699
 20
4868.8709177181
 30
0.0
 11
6090.7630292699
 21
4844.8709177181
 31
0.0
  0
ARC
  5
4A9
330
1F
100
AcDbEntity
  8
0
  6
Continuous
 62
     7
370
    25
100
AcDbCircle
 10
6083.1266622591
 20
4842.2902094402
 30
0.0
 40
3.0
100
AcDbArc
 50
180.0
 51
0.0
  0
LINE
  5
4AA
330
1F
100
AcDbEntity
  8
0
  6
Continuous
 62
     7
370
    25
100
AcDbLine
 10
6086.1266622591
 20
4842.2902094402
 30
0.0
 11
6086.1266622591
 21
4866.2902094402
 31
0.0
  0
ARC
  5
4AB
330
1F
100
AcDbEntity
  8
0
  6
Continuous
 62
     7
370
    25
100
AcDbCircle
 10
6083.1266622591
 20
4866.2902094402
 30
0.0
 40
3.0
100
AcDbArc
 50
0.0
 51
180.0
  0
LINE
  5
4AC
330
1F
100
AcDbEntity
  8
0
  6
Continuous
 62
     7
370
    25
100
AcDbLine
 10
6080.1266622591
 20
4866.2902094402
 30
0.0
 11
6080.1266622591
 21
4842.2902094402
 31
0.0
  0
ARC
  5
4AD
330
1F
100
AcDbEntity
  8
0
  6
Continuous
 62
     7
370
    25
100
AcDbCircle
 10
6072.5452715984
 20
4839.4864467431
 30
0.0
 40
3.000000000000909
100
AcDbArc
 50
180.0
 51
0.0
  0
LINE
  5
4AE
330
1F
100
AcDbEntity
  8
0
  6
Continuous
 62
     7
370
    25
100
AcDbLine
 10
6075.5452715984
 20
4839.4864467431
 30
0.0
 11
6075.5452715984
 21
4863.4864467431
 31
0.0
  0
ARC
  5
4AF
330
1F
100
AcDbEntity
  8
0
  6
Continuous
 62
     7
370
    25
100
AcDbCircle
 10
6072.5452715984
 20
4863.4864467431
 30
0.0
 40
3.000000000000909
100
AcDbArc
 50
0.0
 51
180.0
  0
LINE
  5
4B0
330
1F
100
AcDbEntity
  8
0
  6
Continuous
 62
     7
370
    25
100
AcDbLine
 10
6069.5452715984
 20
4863.4864467431
 30
0.0
 11
6069.5452715984
 21
4839.4864467431
 31
0.0
  0
ARC
  5
4B1
330
1F
100
AcDbEntity
  8
0
  6
Continuous
 62
     7
370
    25
100
AcDbCircle
 10
6062.0137046822
 20
4836.5103449613
 30
0.0
 40
3.0
100
AcDbArc
 50
180.0
 51
0.0
  0
LINE
  5
4B2
330
1F
100
AcDbEntity
  8
0
  6
Continuous
 62
     7
370
    25
100
AcDbLine
 10
6065.0137046822
 20
4836.5103449613
 30
0.0
 11
6065.0137046822
 21
4860.5103449613
 31
0.0
  0
ARC
  5
4B3
330
1F
100
AcDbEntity
  8
0
  6
Continuous
 62
     7
370
    25
100
AcDbCircle
 10
6062.0137046822
 20
4860.5103449613
 30
0.0
 40
3.0
100
AcDbArc
 50
0.0
 51
180.0
  0
LINE
  5
4B4
330
1F
100
AcDbEntity
  8
0
  6
Continuous
 62
     7
370
    25
100
AcDbLine
 10
6059.0137046822
 20
4860.5103449613
 30
0.0
 11
6059.0137046822
 21
4836.5103449613
 31
0.0
  0
ARC
  5
4B5
330
1F
100
AcDbEntity
  8
0
  6
Continuous
 62
     7
370
    25
100
AcDbCircle
 10
6051.5164798615
 20
4833.4077603109
 30
0.0
 40
3.0
100
AcDbArc
 50
180.0
 51
0.0
  0
LINE
  5
4B6
330
1F
100
AcDbEntity
  8
0
  6
Continuous
 62
     7
370
    25
100
AcDbLine
 10
6054.5164798615
 20
4833.4077603109
 30
0.0
 11
6054.5164798615
 21
4857.4077603109
 31
0.0
  0
ARC
  5
4B7
330
1F
100
AcDbEntity
  8
0
  6
Continuous
 62
     7
370
    25
100
AcDbCircle
 10
6051.5164798615
 20
4857.4077603109
 30
0.0
 40
3.0
100
AcDbArc
 50
0.0
 51
180.0
  0
LINE
  5
4B8
330
1F
100
AcDbEntity
  8
0
  6
Continuous
 62
     7
370
    25
100
AcDbLine
 10
6048.5164798615
 20
4857.4077603109
 30
0.0
 11
6048.5164798615
 21
4833.4077603109
 31
0.0
  0
ARC
  5
4B9
330
1F
100
AcDbEntity
  8
0
  6
Continuous
 62
     7
370
    25
100
AcDbCircle
 10
6041.0432790996
 20
4830.2243794625
 30
0.0
 40
3.0
100
AcDbArc
 50
180.0
 51
0.0
  0
LINE
  5
4BA
330
1F
100
AcDbEntity
  8
0
  6
Continuous
 62
     7
370
    25
100
AcDbLine
 10
6044.0432790996
 20
4830.2243794625
 30
0.0
 11
6044.0432790996
 21
4854.2243794625
 31
0.0
  0
ARC
  5
4BB
330
1F
100
AcDbEntity
  8
0
  6
Continuous
 62
     7
370
    25
100
AcDbCircle
 10
6041.0432790996
 20
4854.2243794625
 30
0.0
 40
3.0
100
AcDbArc
 50
0.0
 51
180.0
  0
LINE
  5
4BC
330
1F
100
AcDbEntity
  8
0
  6
Continuous
 62
     7
370
    25
100
AcDbLine
 10
6038.0432790996
 20
4854.2243794625
 30
0.0
 11
6038.0432790996
 21
4830.2243794625
 31
0.0
  0
ARC
  5
4BD
330
1F
100
AcDbEntity
  8
0
  6
Continuous
 62
     7
370
    25
100
AcDbCircle
 10
6030.5837839248
 20
4827.0048838122
 30
0.0
 40
3.0
100
AcDbArc
 50
180.0
 51
0.0
  0
LINE
  5
4BE
330
1F
100
AcDbEntity
  8
0
  6
Continuous
 62
     7
370
    25
100
AcDbLine
 10
6033.5837839248
 20
4827.0048838122
 30
0.0
 11
6033.5837839248
 21
4851.0048838122
 31
0.0
  0
ARC
  5
4BF
330
1F
100
AcDbEntity
  8
0
  6
Continuous
 62
     7
370
    25
100
AcDbCircle
 10
6030.5837839248
 20
4851.0048838122
 30
0.0
 40
3.0
100
AcDbArc
 50
0.0
 51
180.0
  0
LINE
  5
4C0
330
1F
100
AcDbEntity
  8
0
  6
Continuous
 62
     7
370
    25
100
AcDbLine
 10
6027.5837839248
 20
4851.0048838122
 30
0.0
 11
6027.5837839248
 21
4827.0048838122
 31
0.0
  0
ARC
  5
4C1
330
1F
100
AcDbEntity
  8
0
  6
Continuous
 62
     7
370
    25
100
AcDbCircle
 10
6020.1207896976
 20
4823.7913190396
 30
0.0
 40
3.000000000000909
100
AcDbArc
 50
180.0
 51
0.0
  0
LINE
  5
4C2
330
1F
100
AcDbEntity
  8
0
  6
Continuous
 62
     7
370
    25
100
AcDbLine
 10
6023.1207896976
 20
4823.7913190396
 30
0.0
 11
6023.1207896976
 21
4847.7913190396
 31
0.0
  0
ARC
  5
4C3
330
1F
100
AcDbEntity
  8
0
  6
Continuous
 62
     7
370
    25
100
AcDbCircle
 10
6020.1207896976
 20
4847.7913190396
 30
0.0
 40
3.000000000000909
100
AcDbArc
 50
0.0
 51
180.0
  0
LINE
  5
4C4
330
1F
100
AcDbEntity
  8
0
  6
Continuous
 62
     7
370
    25
100
AcDbLine
 10
6017.1207896976
 20
4847.7913190396
 30
0.0
 11
6017.1207896976
 21
4823.7913190396
 31
0.0
  0
ARC
  5
4C5
330
1F
100
AcDbEntity
  8
0
  6
Continuous
 62
     7
370
    25
100
AcDbCircle
 10
6009.6422558212
 20
4820.6274084589
 30
0.0
 40
3.000000000000909
100
AcDbArc
 50
180.0
 51
0.0
  0
LINE
  5
4C6
330
1F
100
AcDbEntity
  8
0
  6
Continuous
 62
     7
370
    25
100
AcDbLine
 10
6012.6422558212
 20
4820.6274084589
 30
0.0
 11
6012.6422558212
 21
4844.6274084589
 31
0.0
  0
ARC
  5
4C7
330
1F
100
AcDbEntity
  8
0
  6
Continuous
 62
     7
370
    25
100
AcDbCircle
 10
6009.6422558212
 20
4844.6274084589
 30
0.0
 40
3.000000000000909
100
AcDbArc
 50
0.0
 51
180.0
  0
LINE
  5
4C8
330
1F
100
AcDbEntity
  8
0
  6
Continuous
 62
     7
370
    25
100
AcDbLine
 10
6006.6422558212
 20
4844.6274084589
 30
0.0
 11
6006.6422558212
 21
4820.6274084589
 31
0.0
  0
ARC
  5
4C9
330
1F
100
AcDbEntity
  8
0
  6
Continuous
 62
     7
370
    25
100
AcDbCircle
 10
5999.1361415706
 20
4817.557547349
 30
0.0
 40
3.0
100
AcDbArc
 50
180.0
 51
0.0
  0
LINE
  5
4CA
330
1F
100
AcDbEntity
  8
0
  6
Continuous
 62
     7
370
    25
100
AcDbLine
 10
6002.1361415706
 20
4817.557547349
 30
0.0
 11
6002.1361415706
 21
4841.557547349
 31
0.0
  0
ARC
  5
4CB
330
1F
100
AcDbEntity
  8
0
  6
Continuous
 62
     7
370
    25
100
AcDbCircle
 10
5999.1361415706
 20
4841.557547349
 30
0.0
 40
3.0
100
AcDbArc
 50
0.0
 51
180.0
  0
LINE
  5
4CC
330
1F
100
AcDbEntity
  8
0
  6
Continuous
 62
     7
370
    25
100
AcDbLine
 10
5996.1361415706
 20
4841.557547349
 30
0.0
 11
5996.1361415706
 21
4817.557547349
 31
0.0
  0
ARC
  5
4CD
330
1F
100
AcDbEntity
  8
0
  6
Continuous
 62
     7
370
    25
100
AcDbCircle
 10
5988.5904062048
 20
4814.627354831
 30
0.0
 40
3.0
100
AcDbArc
 50
180.0
 51
0.0
  0
LINE
  5
4CE
330
1F
100
AcDbEntity
  8
0
  6
Continuous
 62
     7
370
    25
100
AcDbLine
 10
5991.5904062048
 20
4814.627354831
 30
0.0
 11
5991.5904062048
 21
4838.627354831
 31
0.0
  0
ARC
  5
4CF
330
1F
100
AcDbEntity
  8
0
  6
Continuous
 62
     7
370
    25
100
AcDbCircle
 10
5988.5904062048
 20
4838.627354831
 30
0.0
 40
3.0
100
AcDbArc
 50
0.0
 51
180.0
  0
LINE
  5
4D0
330
1F
100
AcDbEntity
  8
0
  6
Continuous
 62
     7
370
    25
100
AcDbLine
 10
5985.5904062048
 20
4838.627354831
 30
0.0
 11
5985.5904062048
 21
4814.627354831
 31
0.0
  0
ARC
  5
4D1
330
1F
100
AcDbEntity
  8
0
  6
Continuous
 62
     7
370
    25
100
AcDbCircle
 10
5977.9930090795
 20
4811.8842357428
 30
0.0
 40
3.0
100
AcDbArc
 50
180.0
 51
0.0
  0
LINE
  5
4D2
330
1F
100
AcDbEntity
  8
0
  6
Continuous
 62
     7
370
    25
100
AcDbLine
 10
5980.9930090795
 20
4811.8842357428
 30
0.0
 11
5980.9930090795
 21
4835.8842357428
 31
0.0
  0
ARC
  5
4D3
330
1F
100
AcDbEntity
  8
0
  6
Continuous
 62
     7
370
    25
100
AcDbCircle
 10
5977.9930090795
 20
4835.8842357428
 30
0.0
 40
3.0
100
AcDbArc
 50
0.0
 51
180.0
  0
LINE
  5
4D4
330
1F
100
AcDbEntity
  8
0
  6
Continuous
 62
     7
370
    25
100
AcDbLine
 10
5974.9930090795
 20
4835.8842357428
 30
0.0
 11
5974.9930090795
 21
4811.8842357428
 31
0.0
  0
ARC
  5
4D5
330
1F
100
AcDbEntity
  8
0
  6
Continuous
 62
     7
370
    25
100
AcDbCircle
 10
5967.3387956663
 20
4809.3794830341
 30
0.0
 40
3.000000000000909
100
AcDbArc
 50
180.0
 51
0.0
  0
LINE
  5
4D6
330
1F
100
AcDbEntity
  8
0
  6
Continuous
 62
     7
370
    25
100
AcDbLine
 10
5970.3387956663
 20
4809.3794830341
 30
0.0
 11
5970.3387956663
 21
4833.3794830341
 31
0.0
  0
ARC
  5
4D7
330
1F
100
AcDbEntity
  8
0
  6
Continuous
 62
     7
370
    25
100
AcDbCircle
 10
5967.3387956663
 20
4833.3794830341
 30
0.0
 40
3.000000000000909
100
AcDbArc
 50
0.0
 51
180.0
  0
LINE
  5
4D8
330
1F
100
AcDbEntity
  8
0
  6
Continuous
 62
     7
370
    25
100
AcDbLine
 10
5964.3387956663
 20
4833.3794830341
 30
0.0
 11
5964.3387956663
 21
4809.3794830341
 31
0.0
  0
ARC
  5
4D9
330
1F
100
AcDbEntity
  8
0
  6
Continuous
 62
     7
370
    25
100
AcDbCircle
 10
5956.6191687984
 20
4807.1658352603
 30
0.0
 40
3.0
100
AcDbArc
 50
180.0
 51
0.0
  0
LINE
  5
4DA
330
1F
100
AcDbEntity
  8
0
  6
Continuous
 62
     7
370
    25
100
AcDbLine
 10
5959.6191687984
 20
4807.1658352603
 30
0.0
 11
5959.6191687984
 21
4831.1658352603
 31
0.0
  0
ARC
  5
4DB
330
1F
100
AcDbEntity
  8
0
  6
Continuous
 62
     7
370
    25
100
AcDbCircle
 10
5956.6191687984
 20
4831.1658352603
 30
0.0
 40
3.0
100
AcDbArc
 50
0.0
 51
180.0
  0
LINE
  5
4DC
330
1F
100
AcDbEntity
  8
0
  6
Continuous
 62
     7
370
    25
100
AcDbLine
 10
5953.6191687984
 20
4831.1658352603
 30
0.0
 11
5953.6191687984
 21
4807.1658352603
 31
0.0
  0
ARC
  5
4DD
330
1F
100
AcDbEntity
  8
0
  6
Continuous
 62
     7
370
    25
100
AcDbCircle
 10
5945.8358605274
 20
4805.3004983381
 30
0.0
 40
3.0
100
AcDbArc
 50
180.0
 51
0.0
  0
LINE
  5
4DE
330
1F
100
AcDbEntity
  8
0
  6
Continuous
 62
     7
370
    25
100
AcDbLine
 10
5948.8358605274
 20
4805.3004983381
 30
0.0
 11
5948.8358605274
 21
4829.3004983381
 31
0.0
  0
ARC
  5
4DF
330
1F
100
AcDbEntity
  8
0
  6
Continuous
 62
     7
370
    25
100
AcDbCircle
 10
5945.8358605274
 20
4829.3004983381
 30
0.0
 40
3.0
100
AcDbArc
 50
0.0
 51
180.0
  0
LINE
  5
4E0
330
1F
100
AcDbEntity
  8
0
  6
Continuous
 62
     7
370
    25
100
AcDbLine
 10
5942.8358605274
 20
4829.3004983381
 30
0.0
 11
5942.8358605274
 21
4805.3004983381
 31
0.0
  0
ARC
  5
4E1
330
1F
100
AcDbEntity
  8
0
  6
Continuous
 62
     7
370
    25
100
AcDbCircle
 10
5934.9888818053
 20
4803.8421130809
 30
0.0
 40
3.0
100
AcDbArc
 50
180.0
 51
0.0
  0
LINE
  5
4E2
330
1F
100
AcDbEntity
  8
0
  6
Continuous
 62
     7
370
    25
100
AcDbLine
 10
5937.9888818053
 20
4803.8421130809
 30
0.0
 11
5937.9888818053
 21
4827.8421130809
 31
0.0
  0
ARC
  5
4E3
330
1F
100
AcDbEntity
  8
0
  6
Continuous
 62
     7
370
    25
100
AcDbCircle
 10
5934.9888818053
 20
4827.8421130809
 30
0.0
 40
3.0
100
AcDbArc
 50
0.0
 51
180.0
  0
LINE
  5
4E4
330
1F
100
AcDbEntity
  8
0
  6
Continuous
 62
     7
370
    25
100
AcDbLine
 10
5931.9888818053
 20
4827.8421130809
 30
0.0
 11
5931.9888818053
 21
4803.8421130809
 31
0.0
  0
ARC
  5
4E5
330
1F
100
AcDbEntity
  8
0
  6
Continuous
 62
     7
370
    25
100
AcDbCircle
 10
5924.088572728
 20
4802.8519042769
 30
0.0
 40
3.000000000000909
100
AcDbArc
 50
180.0
 51
0.0
  0
LINE
  5
4E6
330
1F
100
AcDbEntity
  8
0
  6
Continuous
 62
     7
370
    25
100
AcDbLine
 10
5927.088572728
 20
4802.8519042769
 30
0.0
 11
5927.088572728
 21
4826.8519042769
 31
0.0
  0
ARC
  5
4E7
330
1F
100
AcDbEntity
  8
0
  6
Continuous
 62
     7
370
    25
100
AcDbCircle
 10
5924.088572728
 20
4826.8519042769
 30
0.0
 40
3.000000000000909
100
AcDbArc
 50
0.0
 51
180.0
  0
LINE
  5
4E8
330
1F
100
AcDbEntity
  8
0
  6
Continuous
 62
     7
370
    25
100
AcDbLine
 10
5921.088572728
 20
4826.8519042769
 30
0.0
 11
5921.088572728
 21
4802.8519042769
 31
0.0
  0
ARC
  5
4E9
330
1F
100
AcDbEntity
  8
0
  6
Continuous
 62
     7
370
    25
100
AcDbCircle
 10
5913.1538808425
 20
4802.3910293384
 30
0.0
 40
3.000000000000909
100
AcDbArc
 50
180.0
 51
0.0
  0
LINE
  5
4EA
330
1F
100
AcDbEntity
  8
0
  6
Continuous
 62
     7
370
    25
100
AcDbLine
 10
5916.1538808425
 20
4802.3910293384
 30
0.0
 11
5916.1538808425
 21
4826.3910293384
 31
0.0
  0
ARC
  5
4EB
330
1F
100
AcDbEntity
  8
0
  6
Continuous
 62
     7
370
    25
100
AcDbCircle
 10
5913.1538808425
 20
4826.3910293384
 30
0.0
 40
3.000000000000909
100
AcDbArc
 50
0.0
 51
180.0
  0
LINE
  5
4EC
330
1F
100
AcDbEntity
  8
0
  6
Continuous
 62
     7
370
    25
100
AcDbLine
 10
5910.1538808425
 20
4826.3910293384
 30
0.0
 11
5910.1538808425
 21
4802.3910293384
 31
0.0
  0
ARC
  5
4ED
330
1F
100
AcDbEntity
  8
0
  6
Continuous
 62
     7
370
    25
100
AcDbCircle
 10
5902.2106393531
 20
4802.5177129866
 30
0.0
 40
3.0
100
AcDbArc
 50
180.0
 51
0.0
  0
LINE
  5
4EE
330
1F
100
AcDbEntity
  8
0
  6
Continuous
 62
     7
370
    25
100
AcDbLine
 10
5905.2106393531
 20
4802.5177129866
 30
0.0
 11
5905.2106393531
 21
4826.5177129866
 31
0.0
  0
ARC
  5
4EF
330
1F
100
AcDbEntity
  8
0
  6
Continuous
 62
     7
370
    25
100
AcDbCircle
 10
5902.2106393531
 20
4826.5177129866
 30
0.0
 40
3.0
100
AcDbArc
 50
0.0
 51
180.0
  0
LINE
  5
4F0
330
1F
100
AcDbEntity
  8
0
  6
Continuous
 62
     7
370
    25
100
AcDbLine
 10
5899.2106393531
 20
4826.5177129866
 30
0.0
 11
5899.2106393531
 21
4802.5177129866
 31
0.0
  0
ARC
  5
4F1
330
1F
100
AcDbEntity
  8
0
  6
Continuous
 62
     7
370
    25
100
AcDbCircle
 10
5891.2932881255
 20
4803.2840192303
 30
0.0
 40
3.0
100
AcDbArc
 50
180.0
 51
0.0
  0
LINE
  5
4F2
330
1F
100
AcDbEntity
  8
0
  6
Continuous
 62
     7
370
    25
100
AcDbLine
 10
5894.2932881255
 20
4803.2840192303
 30
0.0
 11
5894.2932881255
 21
4827.2840192303
 31
0.0
  0
ARC
  5
4F3
330
1F
100
AcDbEntity
  8
0
  6
Continuous
 62
     7
370
    25
100
AcDbCircle
 10
5891.2932881255
 20
4827.2840192303
 30
0.0
 40
3.0
100
AcDbArc
 50
0.0
 51
180.0
  0
LINE
  5
4F4
330
1F
100
AcDbEntity
  8
0
  6
Continuous
 62
     7
370
    25
100
AcDbLine
 10
5888.2932881255
 20
4827.2840192303
 30
0.0
 11
5888.2932881255
 21
4803.2840192303
 31
0.0
  0
ARC
  5
4F5
330
1F
100
AcDbEntity
  8
0
  6
Continuous
 62
     7
370
    25
100
AcDbCircle
 10
5880.4465945105
 20
4804.7314745598
 30
0.0
 40
3.0
100
AcDbArc
 50
180.0
 51
0.0
  0
LINE
  5
4F6
330
1F
100
AcDbEntity
  8
0
  6
Continuous
 62
     7
370
    25
100
AcDbLine
 10
5883.4465945105
 20
4804.7314745598
 30
0.0
 11
5883.4465945105
 21
4828.7314745598
 31
0.0
  0
ARC
  5
4F7
330
1F
100
AcDbEntity
  8
0
  6
Continuous
 62
     7
370
    25
100
AcDbCircle
 10
5880.4465945105
 20
4828.7314745598
 30
0.0
 40
3.0
100
AcDbArc
 50
0.0
 51
180.0
  0
LINE
  5
4F8
330
1F
100
AcDbEntity
  8
0
  6
Continuous
 62
     7
370
    25
100
AcDbLine
 10
5877.4465945105
 20
4828.7314745598
 30
0.0
 11
5877.4465945105
 21
4804.7314745598
 31
0.0
  0
ARC
  5
4F9
330
1F
100
AcDbEntity
  8
0
  6
Continuous
 62
     7
370
    25
100
AcDbCircle
 10
5869.7170455504
 20
4806.8879124265
 30
0.0
 40
3.000000000000909
100
AcDbArc
 50
180.0
 51
0.0
  0
LINE
  5
4FA
330
1F
100
AcDbEntity
  8
0
  6
Continuous
 62
     7
370
    25
100
AcDbLine
 10
5872.7170455504
 20
4806.8879124265
 30
0.0
 11
5872.7170455504
 21
4830.8879124265
 31
0.0
  0
ARC
  5
4FB
330
1F
100
AcDbEntity
  8
0
  6
Continuous
 62
     7
370
    25
100
AcDbCircle
 10
5869.7170455504
 20
4830.8879124265
 30
0.0
 40
3.000000000000909
100
AcDbArc
 50
0.0
 51
180.0
  0
LINE
  5
4FC
330
1F
100
AcDbEntity
  8
0
  6
Continuous
 62
     7
370
    25
100
AcDbLine
 10
5866.7170455504
 20
4830.8879124265
 30
0.0
 11
5866.7170455504
 21
4806.8879124265
 31
0.0
  0
ARC
  5
4FD
330
1F
100
AcDbEntity
  8
0
  6
Continuous
 62
     7
370
    25
100
AcDbCircle
 10
5859.1580116547
 20
4809.7633939112
 30
0.0
 40
3.0
100
AcDbArc
 50
180.0
 51
0.0
  0
LINE
  5
4FE
330
1F
100
AcDbEntity
  8
0
  6
Continuous
 62
     7
370
    25
100
AcDbLine
 10
5862.1580116547
 20
4809.7633939112
 30
0.0
 11
5862.1580116547
 21
4833.7633939112
 31
0.0
  0
ARC
  5
4FF
330
1F
100
AcDbEntity
  8
0
  6
Continuous
 62
     7
370
    25
100
AcDbCircle
 10
5859.1580116547
 20
4833.7633939112
 30
0.0
 40
3.0
100
AcDbArc
 50
0.0
 51
180.0
  0
LINE
  5
500
330
1F
100
AcDbEntity
  8
0
  6
Continuous
 62
     7
370
    25
100
AcDbLine
 10
5856.1580116547
 20
4833.7633939112
 30
0.0
 11
5856.1580116547
 21
4809.7633939112
 31
0.0
  0
ARC
  5
501
330
1F
100
AcDbEntity
  8
0
  6
Continuous
 62
     7
370
    25
100
AcDbCircle
 10
5848.8194176655
 20
4813.3499251875
 30
0.0
 40
3.0
100
AcDbArc
 50
180.0
 51
0.0
  0
LINE
  5
502
330
1F
100
AcDbEntity
  8
0
  6
Continuous
 62
     7
370
    25
100
AcDbLine
 10
5851.8194176655
 20
4813.3499251875
 30
0.0
 11
5851.8194176655
 21
4837.3499251875
 31
0.0
  0
ARC
  5
503
330
1F
100
AcDbEntity
  8
0
  6
Continuous
 62
     7
370
    25
100
AcDbCircle
 10
5848.8194176655
 20
4837.3499251875
 30
0.0
 40
3.0
100
AcDbArc
 50
0.0
 51
180.0
  0
LINE
  5
504
330
1F
100
AcDbEntity
  8
0
  6
Continuous
 62
     7
370
    25
100
AcDbLine
 10
5845.8194176655
 20
4837.3499251875
 30
0.0
 11
5845.8194176655
 21
4813.3499251875
 31
0.0
  0
ARC
  5
505
330
1F
100
AcDbEntity
  8
0
  6
Continuous
 62
     7
370
    25
100
AcDbCircle
 10
5838.7442999878
 20
4817.6229419933
 30
0.0
 40
3.0
100
AcDbArc
 50
180.0
 51
0.0
  0
LINE
  5
506
330
1F
100
AcDbEntity
  8
0
  6
Continuous
 62
     7
370
    25
100
AcDbLine
 10
5841.7442999878
 20
4817.6229419933
 30
0.0
 11
5841.7442999878
 21
4841.6229419933
 31
0.0
  0
ARC
  5
507
330
1F
100
AcDbEntity
  8
0
  6
Continuous
 62
     7
370
    25
100
AcDbCircle
 10
5838.7442999878
 20
4841.6229419933
 30
0.0
 40
3.0
100
AcDbArc
 50
0.0
 51
180.0
  0
LINE
  5
508
330
1F
100
AcDbEntity
  8
0
  6
Continuous
 62
     7
370
    25
100
AcDbLine
 10
5835.7442999878
 20
4841.6229419933
 30
0.0
 11
5835.7442999878
 21
4817.6229419933
 31
0.0
  0
ARC
  5
509
330
1F
100
AcDbEntity
  8
0
  6
Continuous
 62
     7
370
    25
100
AcDbCircle
 10
5828.9688067272
 20
4822.5431554322
 30
0.0
 40
3.0
100
AcDbArc
 50
180.0
 51
0.0
  0
LINE
  5
50A
330
1F
100
AcDbEntity
  8
0
  6
Continuous
 62
     7
370
    25
100
AcDbLine
 10
5831.9688067272
 20
4822.5431554322
 30
0.0
 11
5831.9688067272
 21
4846.5431554322
 31
0.0
  0
ARC
  5
50B
330
1F
100
AcDbEntity
  8
0
  6
Continuous
 62
     7
370
    25
100
AcDbCircle
 10
5828.9688067272
 20
4846.5431554322
 30
0.0
 40
3.0
100
AcDbArc
 50
0.0
 51
180.0
  0
LINE
  5
50C
330
1F
100
AcDbEntity
  8
0
  6
Continuous
 62
     7
370
    25
100
AcDbLine
 10
5825.9688067272
 20
4846.5431554322
 30
0.0
 11
5825.9688067272
 21
4822.5431554322
 31
0.0
  0
LINE
  5
50D
330
1F
100
AcDbEntity
  8
0
  6
Continuous
 62
     7
370
    25
100
AcDbLine
 10
5806.718755336
 20
4792.4379303427
 30
0.0
 11
5807.7187553361
 21
4793.2611536475
 31
0.0
  0
LINE
  5
50E
330
1F
100
AcDbEntity
  8
0
  6
Continuous
 62
     7
370
    25
100
AcDbLine
 10
5805.518755336
 20
4792.4379303427
 30
0.0
 11
5806.718755336
 21
4792.4379303427
 31
0.0
  0
LINE
  5
50F
330
1F
100
AcDbEntity
  8
0
  6
Continuous
 62
     7
370
    25
100
AcDbLine
 10
6741.1419786408
 20
4791.0611536475
 30
0.0
 11
6740.3187553361
 21
4793.2611536473
 31
0.0
  0
LINE
  5
510
330
1F
100
AcDbEntity
  8
0
  6
Continuous
 62
     7
370
    25
100
AcDbLine
 10
6741.1419786408
 20
4792.2611536475
 30
0.0
 11
6740.3187553362
 21
4793.2611536473
 31
0.0
  0
LINE
  5
511
330
1F
100
AcDbEntity
  8
0
  6
Continuous
 62
     7
370
    25
100
AcDbLine
 10
6741.1419786408
 20
4791.0611536475
 30
0.0
 11
6741.1419786408
 21
4792.2611536475
 31
0.0
  0
LINE
  5
512
330
1F
100
AcDbEntity
  8
0
  6
Continuous
 62
     7
370
    25
100
AcDbLine
 10
5806.8955320314
 20
4791.0611536475
 30
0.0
 11
5806.8955320313
 21
4792.2611536475
 31
0.0
  0
LINE
  5
513
330
1F
100
AcDbEntity
  8
0
  6
Continuous
 62
     7
370
    25
100
AcDbLine
 10
5807.7187553361
 20
4793.2611536475
 30
0.0
 11
5806.8955320313
 21
4792.2611536475
 31
0.0
  0
LINE
  5
514
330
1F
100
AcDbEntity
  8
0
  6
Continuous
 62
     7
370
    25
100
AcDbLine
 10
5807.7187553361
 20
4793.2611536475
 30
0.0
 11
5806.8955320313
 21
4791.0611536475
 31
0.0
  0
LINE
  5
515
330
1F
100
AcDbEntity
  8
0
  6
Continuous
 62
     7
370
    25
100
AcDbLine
 10
6742.5187553363
 20
4792.4379303426
 30
0.0
 11
6741.3187553363
 21
4792.4379303426
 31
0.0
  0
LINE
  5
516
330
1F
100
AcDbEntity
  8
0
  6
Continuous
 62
     7
370
    25
100
AcDbLine
 10
6740.3187553363
 20
4793.2611536474
 30
0.0
 11
6741.3187553363
 21
4792.4379303426
 31
0.0
  0
LINE
  5
517
330
1F
100
AcDbEntity
  8
0
  6
Continuous
 62
     7
370
    25
100
AcDbLine
 10
6741.1419786408
 20
4791.0611536475
 30
0.0
 11
5806.8955320314
 21
4791.0611536475
 31
0.0
  0
LINE
  5
518
330
1F
100
AcDbEntity
  8
0
  6
Continuous
 62
     7
370
    25
100
AcDbLine
 10
6288.4180741075
 20
4843.5611536475
 30
0.0
 11
6288.4180741075
 21
4840.0611536475
 31
0.0
  0
LINE
  5
519
330
1F
100
AcDbEntity
  8
0
  6
Continuous
 62
     7
370
    25
100
AcDbLine
 10
6288.4180741075
 20
4843.5611536475
 30
0.0
 11
6289.4155061245
 21
4843.5611536475
 31
0.0
  0
LINE
  5
51A
330
1F
100
AcDbEntity
  8
0
  6
Continuous
 62
     7
370
    25
100
AcDbLine
 10
6256.8187553361
 20
4843.5611536475
 30
0.0
 11
6256.8187553361
 21
4840.0611536475
 31
0.0
  0
LINE
  5
51B
330
1F
100
AcDbEntity
  8
0
  6
Continuous
 62
     7
370
    25
100
AcDbLine
 10
6256.8187553361
 20
4843.5611536475
 30
0.0
 11
6258.0744198652
 21
4843.5611536475
 31
0.0
  0
LINE
  5
51C
330
1F
100
AcDbEntity
  8
0
  6
Continuous
 62
     7
370
    25
100
AcDbLine
 10
6256.8187553361
 20
4840.0611536475
 30
0.0
 11
6256.1187553361
 21
4840.0611536475
 31
0.0
  0
LINE
  5
51D
330
1F
100
AcDbEntity
  8
0
  6
Continuous
 62
     7
370
    25
100
AcDbLine
 10
6256.1187553361
 20
4840.0611536475
 30
0.0
 11
6256.1187553361
 21
4842.8611536475
 31
0.0
  0
ARC
  5
51E
330
1F
100
AcDbEntity
  8
0
  6
Continuous
 62
     7
370
    25
100
AcDbCircle
 10
6256.8187553361
 20
4842.8611536475
 30
0.0
 40
0.6999999999998181
100
AcDbArc
 50
90.0
 51
180.0
  0
LINE
  5
51F
330
1F
100
AcDbEntity
  8
0
  6
Continuous
 62
     7
370
    25
100
AcDbLine
 10
6287.7180741075
 20
4840.0611536475
 30
0.0
 11
6287.7180741075
 21
4842.8611536475
 31
0.0
  0
ARC
  5
520
330
1F
100
AcDbEntity
  8
0
  6
Continuous
 62
     7
370
    25
100
AcDbCircle
 10
6288.4180741075
 20
4842.8611536475
 30
0.0
 40
0.7000000000007276
100
AcDbArc
 50
90.0
 51
180.0
  0
LINE
  5
521
330
1F
100
AcDbEntity
  8
0
  6
Continuous
 62
     7
370
    25
100
AcDbLine
 10
6288.4180741075
 20
4840.0611536475
 30
0.0
 11
6287.7180741075
 21
4840.0611536475
 31
0.0
  0
LINE
  5
522
330
1F
100
AcDbEntity
  8
0
  6
Continuous
 62
     7
370
    25
100
AcDbLine
 10
6256.8187553361
 20
4840.0611536475
 30
0.0
 11
6256.8187553361
 21
4836.5611536475
 31
0.0
  0
LINE
  5
523
330
1F
100
AcDbEntity
  8
0
  6
Continuous
 62
     7
370
    25
100
AcDbLine
 10
6258.0744198652
 20
4836.5611536475
 30
0.0
 11
6256.8187553361
 21
4836.5611536475
 31
0.0
  0
ARC
  5
524
330
1F
100
AcDbEntity
  8
0
  6
Continuous
 62
     7
370
    25
100
AcDbCircle
 10
6256.8187553361
 20
4837.2611536475
 30
0.0
 40
0.6999999999998181
100
AcDbArc
 50
180.0
 51
270.0
  0
LINE
  5
525
330
1F
100
AcDbEntity
  8
0
  6
Continuous
 62
     7
370
    25
100
AcDbLine
 10
6256.1187553361
 20
4837.2611536475
 30
0.0
 11
6256.1187553361
 21
4840.0611536475
 31
0.0
  0
LINE
  5
526
330
1F
100
AcDbEntity
  8
0
  6
Continuous
 62
     7
370
    25
100
AcDbLine
 10
6289.4155061245
 20
4836.5611536475
 30
0.0
 11
6288.4180741075
 21
4836.5611536475
 31
0.0
  0
LINE
  5
527
330
1F
100
AcDbEntity
  8
0
  6
Continuous
 62
     7
370
    25
100
AcDbLine
 10
6288.4180741075
 20
4840.0611536475
 30
0.0
 11
6288.4180741075
 21
4836.5611536475
 31
0.0
  0
ARC
  5
528
330
1F
100
AcDbEntity
  8
0
  6
Continuous
 62
     7
370
    25
100
AcDbCircle
 10
6288.4180741075
 20
4837.2611536475
 30
0.0
 40
0.7000000000007276
100
AcDbArc
 50
180.0
 51
270.0
  0
LINE
  5
529
330
1F
100
AcDbEntity
  8
0
  6
Continuous
 62
     7
370
    25
100
AcDbLine
 10
6287.7180741075
 20
4837.2611536475
 30
0.0
 11
6287.7180741075
 21
4840.0611536475
 31
0.0
  0
LINE
  5
52A
330
1F
100
AcDbEntity
  8
0
  6
Continuous
 62
     7
370
    25
100
AcDbLine
 10
6287.5911099143
 20
4841.0111536475
 30
0.0
 11
6287.5911099143
 21
4839.1111536475
 31
0.0
  0
LINE
  5
52B
330
1F
100
AcDbEntity
  8
0
  6
Continuous
 62
     7
370
    25
100
AcDbLine
 10
6256.1187553361
 20
4837.2611536475
 30
0.0
 11
6255.4187553361
 21
4837.2611536475
 31
0.0
  0
LINE
  5
52C
330
1F
100
AcDbEntity
  8
0
  6
Continuous
 62
     7
370
    25
100
AcDbLine
 10
6256.8187553361
 20
4843.5611536475
 30
0.0
 11
6256.8187553361
 21
4844.2611536475
 31
0.0
  0
LINE
  5
52D
330
1F
100
AcDbEntity
  8
0
  6
Continuous
 62
     7
370
    25
100
AcDbLine
 10
6256.8187553361
 20
4844.2611536475
 30
0.0
 11
6257.8688085829
 21
4844.2611536475
 31
0.0
  0
ARC
  5
52E
330
1F
100
AcDbEntity
  8
0
  6
Continuous
 62
     7
370
    25
100
AcDbCircle
 10
6272.5442175253
 20
4841.2723692315
 30
0.0
 40
14.97666384453711
100
AcDbArc
 50
168.4886082306
 51
171.2094187145
  0
LINE
  5
52F
330
1F
100
AcDbEntity
  8
0
  6
Continuous
 62
     7
370
    25
100
AcDbLine
 10
6256.8187553361
 20
4836.5611536475
 30
0.0
 11
6256.8187553361
 21
4835.8611536475
 31
0.0
  0
ARC
  5
530
330
1F
100
AcDbEntity
  8
0
  6
Continuous
 62
     7
370
    25
100
AcDbCircle
 10
6271.8811917635
 20
4839.8575332704
 30
0.0
 40
14.31782001527935
100
AcDbArc
 50
193.3105635103
 51
195.3543131062
  0
ARC
  5
531
330
1F
100
AcDbEntity
  8
0
  6
Continuous
 62
     7
370
    25
100
AcDbCircle
 10
6256.8187553361
 20
4837.2611536475
 30
0.0
 40
1.400000000000546
100
AcDbArc
 50
180.0
 51
270.0
  0
ARC
  5
532
330
1F
100
AcDbEntity
  8
0
  6
Continuous
 62
     7
370
    25
100
AcDbCircle
 10
6274.0187553361
 20
4840.0611536475
 30
0.0
 40
19.95000000000011
100
AcDbArc
 50
298.5125702281
 51
320.5128262592
  0
LINE
  5
533
330
1F
100
AcDbEntity
  8
0
  6
Continuous
 62
     7
370
    25
100
AcDbLine
 10
6293.8848889592
 20
4838.2337963018
 30
0.0
 11
6293.9635540774
 21
4840.5166788033
 31
0.0
  0
ARC
  5
534
330
1F
100
AcDbEntity
  8
0
  6
Continuous
 62
     7
370
    25
100
AcDbCircle
 10
6274.0187553361
 20
4840.0611536475
 30
0.0
 40
19.95000000000031
100
AcDbArc
 50
178.6916322146
 51
208.7194141015
  0
ARC
  5
535
330
1F
100
AcDbEntity
  8
0
  6
Continuous
 62
     7
370
    25
100
AcDbCircle
 10
6268.27011641
 20
4853.0052218739
 30
0.0
 40
2.114962488156814
100
AcDbArc
 50
113.9466658893
 51
122.6187463668
  0
LINE
  5
536
330
1F
100
AcDbEntity
  8
0
  6
Continuous
 62
     7
370
    25
100
AcDbLine
 10
6257.8688085829
 20
4844.2611536475
 30
0.0
 11
6258.0744198652
 21
4845.0050073937
 31
0.0
  0
ARC
  5
537
330
1F
100
AcDbEntity
  8
0
  6
Continuous
 62
     7
370
    25
100
AcDbCircle
 10
6273.3457864289
 20
4840.4725959077
 30
0.0
 40
15.60532500247271
100
AcDbArc
 50
113.4724744668
 51
133.8960414229
  0
ARC
  5
538
330
1F
100
AcDbEntity
  8
0
  6
Continuous
 62
     7
370
    25
100
AcDbCircle
 10
6274.0187553361
 20
4840.0611536475
 30
0.0
 40
16.27814545502468
100
AcDbArc
 50
18.9408615718
 51
39.3693632475
  0
LINE
  5
539
330
1F
100
AcDbEntity
  8
0
  6
Continuous
 62
     7
370
    25
100
AcDbLine
 10
6268.2131688921
 20
4855.2688222885
 30
0.0
 11
6267.4116825597
 21
4854.9381361635
 31
0.0
  0
LWPOLYLINE
  5
53A
330
1F
100
AcDbEntity
  8
0
  6
Continuous
 62
     7
370
    25
100
AcDbPolyline
 90
        3
 70
   128
 43
0.0
 10
6275.0036273401
 20
4823.8128292234
 10
6277.4174237644
 20
4824.1417606826
 10
6277.6993337254
 20
4824.2045663042
  0
ARC
  5
53B
330
1F
100
AcDbEntity
  8
0
  6
Continuous
 62
     7
370
    25
100
AcDbCircle
 10
6274.0187553361
 20
4840.0611536475
 30
0.0
 40
16.2781454550242
100
AcDbArc
 50
305.2581785317
 51
341.0591384282
  0
ELLIPSE
  5
53C
330
1F
100
AcDbEntity
  8
0
  6
Continuous
 62
     7
370
    25
100
AcDbEllipse
 10
6271.7669387685
 20
4853.0052218739
 30
0.0
 11
7.431956459166031
 21
0.0
 31
0.0
210
0.0
220
0.0
230
1.0
 40
0.9998720779
 41
3.118775151141916
 42
4.187842385738719
  0
ARC
  5
53D
330
1F
100
AcDbEntity
  8
0
  6
Continuous
 62
     7
370
    25
100
AcDbCircle
 10
6264.8399617196
 20
4848.1674105378
 30
0.0
 40
3.579462495003224
100
AcDbArc
 50
333.554439929
 51
50.6354567782
  0
ARC
  5
53E
330
1F
100
AcDbEntity
  8
0
  6
Continuous
 62
     7
370
    25
100
AcDbCircle
 10
6268.3906595839
 20
4853.0052797032
 30
0.0
 40
2.434420996736169
100
AcDbArc
 50
143.877510115
 51
238.2668902283
  0
ARC
  5
53F
330
1F
100
AcDbEntity
  8
0
  6
Continuous
 62
     7
370
    25
100
AcDbCircle
 10
6264.8399617196
 20
4831.9548967572
 30
0.0
 40
3.579462495003162
100
AcDbArc
 50
309.3645432218
 51
26.445560071
  0
ARC
  5
540
330
1F
100
AcDbEntity
  8
0
  6
Continuous
 62
     7
370
    25
100
AcDbCircle
 10
6268.3348663451
 20
4827.150226334
 30
0.0
 40
2.377029240851028
100
AcDbArc
 50
121.0101834253
 51
183.2047531704
  0
LINE
  5
541
330
1F
100
AcDbEntity
  8
0
  6
Continuous
 62
     7
370
    25
100
AcDbLine
 10
6267.1102436645
 20
4850.9347868482
 30
0.0
 11
6268.5258024474
 21
4849.9531212498
 31
0.0
  0
ARC
  5
542
330
1F
100
AcDbEntity
  8
0
  6
Continuous
 62
     7
370
    25
100
AcDbCircle
 10
6262.6698411272
 20
4840.1694039517
 30
0.0
 40
10.75764643428827
100
AcDbArc
 50
343.1767043605
 51
17.5000490011
  0
LINE
  5
543
330
1F
100
AcDbEntity
  8
0
  6
Continuous
 62
     7
370
    25
100
AcDbLine
 10
6268.5258024474
 20
4830.1526660138
 30
0.0
 11
6267.1102436645
 21
4829.1875204468
 31
0.0
  0
ARC
  5
544
330
1F
100
AcDbEntity
  8
0
  6
Continuous
 62
     7
370
    25
100
AcDbCircle
 10
6274.0187553361
 20
4840.0611536475
 30
0.0
 40
20.10000000000036
100
AcDbArc
 50
180.0
 51
208.4853935165
  0
ARC
  5
545
330
1F
100
AcDbEntity
  8
0
  6
Continuous
 62
     7
370
    25
100
AcDbCircle
 10
6274.0187553361
 20
4840.0611536475
 30
0.0
 40
20.10000000000026
100
AcDbArc
 50
298.4343788144
 51
319.9967073059
  0
ARC
  5
546
330
1F
100
AcDbEntity
  8
0
  6
Continuous
 62
     7
370
    25
100
AcDbCircle
 10
6274.0187553361
 20
4840.0611536475
 30
0.0
 40
20.09999999999926
100
AcDbArc
 50
351.2512604801
 51
8.7487395199
  0
ARC
  5
547
330
1F
100
AcDbEntity
  8
0
  6
Continuous
 62
     7
370
    25
100
AcDbCircle
 10
6274.0187553361
 20
4840.0611536475
 30
0.0
 40
20.10000000000036
100
AcDbArc
 50
142.4903238503
 51
180.0
  0
ARC
  5
548
330
1F
100
AcDbEntity
  8
0
  6
Continuous
 62
     7
370
    25
100
AcDbCircle
 10
6301.0187553361
 20
4840.0611536475
 30
0.0
 40
2.45000000000049
100
AcDbArc
 50
128.2893063631
 51
231.7106936369
  0
ARC
  5
549
330
1F
100
AcDbEntity
  8
0
  6
Continuous
 62
     7
370
    25
100
AcDbCircle
 10
6274.0187553361
 20
4840.0611536475
 30
0.0
 40
34.89999999999993
100
AcDbArc
 50
330.4829100369
 51
6.1740749092
  0
ARC
  5
54A
330
1F
100
AcDbEntity
  8
0
  6
Continuous
 62
     7
370
    25
100
AcDbCircle
 10
6274.0187553361
 20
4840.0611536475
 30
0.0
 40
34.90000000000043
100
AcDbArc
 50
140.7120252495
 51
158.260881047
  0
LINE
  5
54B
330
1F
100
AcDbEntity
  8
0
  6
Continuous
 62
     7
370
    25
100
AcDbLine
 10
6299.5006555862
 20
4838.1381681693
 30
0.0
 11
6299.9261164472
 21
4837.8682924438
 31
0.0
  0
LINE
  5
54C
330
1F
100
AcDbEntity
  8
0
  6
Continuous
 62
     7
370
    25
100
AcDbLine
 10
6299.9261164472
 20
4842.2540148511
 30
0.0
 11
6299.5006555862
 21
4841.9841391257
 31
0.0
  0
ARC
  5
54D
330
1F
100
AcDbEntity
  8
0
  6
Continuous
 62
     7
370
    25
100
AcDbCircle
 10
6247.0187553361
 20
4840.0611536475
 30
0.0
 40
2.450000000000148
100
AcDbArc
 50
76.255760126
 51
283.744239874
  0
LINE
  5
54E
330
1F
100
AcDbEntity
  8
0
  6
Continuous
 62
     7
370
    25
100
AcDbLine
 10
6266.1242290867
 20
4851.8234816476
 30
0.0
 11
6267.5375811484
 21
4853.2368337093
 31
0.0
  0
LINE
  5
54F
330
1F
100
AcDbEntity
  8
0
  6
Continuous
 62
     7
370
    25
100
AcDbLine
 10
6274.0453790552
 20
4843.404299398
 30
0.0
 11
6274.0453790552
 21
4836.718007897
 31
0.0
  0
CIRCLE
  5
550
330
1F
100
AcDbEntity
  8
0
  6
Continuous
 62
     7
370
    25
100
AcDbCircle
 10
6726.3187553361
 20
4753.0611536475
 30
0.0
 40
4.0
  0
CIRCLE
  5
551
330
1F
100
AcDbEntity
  8
0
  6
Continuous
 62
     7
370
    25
100
AcDbCircle
 10
6726.3187553361
 20
4753.0611536475
 30
0.0
 40
5.0
  0
ARC
  5
552
330
1F
100
AcDbEntity
  8
0
  6
Continuous
 62
     7
370
    25
100
AcDbCircle
 10
5821.7187553361
 20
4900.0611536475
 30
0.0
 40
4.000000000000112
100
AcDbArc
 50
270.0
 51
25.514208372
  0
ARC
  5
553
330
1F
100
AcDbEntity
  8
0
  6
Continuous
 62
     7
370
    25
100
AcDbCircle
 10
5821.7187553361
 20
4900.0611536475
 30
0.0
 40
4.000000000000089
100
AcDbArc
 50
154.4857916398
 51
270.0
  0
CIRCLE
  5
554
330
1F
100
AcDbEntity
  8
0
  6
Continuous
 62
     7
370
    25
100
AcDbCircle
 10
5821.7187553361
 20
4753.0611536475
 30
0.0
 40
4.0
  0
CIRCLE
  5
555
330
1F
100
AcDbEntity
  8
0
  6
Continuous
 62
     7
370
    25
100
AcDbCircle
 10
5821.7187553361
 20
4753.0611536475
 30
0.0
 40
5.000000000000909
  0
LINE
  5
556
330
1F
100
AcDbEntity
  8
0
  6
Continuous
 62
     7
370
    25
100
AcDbLine
 10
5807.7187553361
 20
4738.0611536475
 30
0.0
 11
5857.7187553361
 21
4738.0611536475
 31
0.0
  0
LINE
  5
557
330
1F
100
AcDbEntity
  8
0
  6
Continuous
 62
     7
370
    25
100
AcDbLine
 10
5857.7187553361
 20
4768.0611536475
 30
0.0
 11
5831.7187553361
 21
4768.0611536475
 31
0.0
  0
LINE
  5
558
330
1F
100
AcDbEntity
  8
0
  6
Continuous
 62
     7
370
    25
100
AcDbLine
 10
5811.7187553361
 20
4768.0611536475
 30
0.0
 11
5807.7187553361
 21
4768.0611536475
 31
0.0
  0
CIRCLE
  5
559
330
1F
100
AcDbEntity
  8
0
  6
Continuous
 62
     7
370
    25
100
AcDbCircle
 10
5843.7187553361
 20
4753.0611536475
 30
0.0
 40
2.75
  0
LINE
  5
55A
330
1F
100
AcDbEntity
  8
0
  6
Continuous
 62
     7
370
    25
100
AcDbLine
 10
5857.7187553361
 20
4738.0611536475
 30
0.0
 11
5857.7187553361
 21
4768.0611536475
 31
0.0
  0
LINE
  5
55B
330
1F
100
AcDbEntity
  8
0
  6
Continuous
 62
     7
370
    25
100
AcDbLine
 10
5807.7187553361
 20
4768.0611536475
 30
0.0
 11
5807.7187553361
 21
4738.0611536475
 31
0.0
  0
ARC
  5
55C
330
1F
100
AcDbEntity
  8
0
  6
Continuous
 62
     7
370
    25
100
AcDbCircle
 10
6726.3187553361
 20
4900.0611536475
 30
0.0
 40
4.000000000000089
100
AcDbArc
 50
270.0
 51
25.5142083602
  0
ARC
  5
55D
330
1F
100
AcDbEntity
  8
0
  6
Continuous
 62
     7
370
    25
100
AcDbCircle
 10
6726.3187553361
 20
4900.0611536475
 30
0.0
 40
4.000000000000112
100
AcDbArc
 50
154.485791628
 51
270.0
  0
LINE
  5
55E
330
1F
100
AcDbEntity
  8
0
  6
Continuous
 62
     7
370
    25
100
AcDbLine
 10
6740.3187553361
 20
4912.7611536475
 30
0.0
 11
6740.3187553361
 21
4915.0611536475
 31
0.0
  0
LINE
  5
55F
330
1F
100
AcDbEntity
  8
0
  6
Continuous
 62
     7
370
    25
100
AcDbLine
 10
6690.3187553361
 20
4915.0611536475
 30
0.0
 11
6690.3187553361
 21
4912.7611536475
 31
0.0
  0
LINE
  5
560
330
1F
100
AcDbEntity
  8
0
  6
Continuous
 62
     7
370
    25
100
AcDbLine
 10
6740.3187553361
 20
4915.0611536475
 30
0.0
 11
6690.3187553361
 21
4915.0611536475
 31
0.0
  0
LINE
  5
561
330
1F
100
AcDbEntity
  8
0
  6
Continuous
 62
     7
370
    25
100
AcDbLine
 10
5771.7187553361
 20
4912.7611536475
 30
0.0
 11
6776.3187553361
 21
4912.7611536475
 31
0.0
  0
LINE
  5
562
330
1F
100
AcDbEntity
  8
0
  6
Continuous
 62
     7
370
    25
100
AcDbLine
 10
6776.3187553361
 20
4912.7611536475
 30
0.0
 11
6776.3187553361
 21
4911.2611536475
 31
0.0
  0
LINE
  5
563
330
1F
100
AcDbEntity
  8
0
  6
Continuous
 62
     7
370
    25
100
AcDbLine
 10
5771.7187553361
 20
4911.2611536475
 30
0.0
 11
6776.3187553361
 21
4911.2611536475
 31
0.0
  0
LINE
  5
564
330
1F
100
AcDbEntity
  8
0
  6
Continuous
 62
     7
370
    25
100
AcDbLine
 10
5771.7187553361
 20
4912.7611536475
 30
0.0
 11
5771.7187553361
 21
4911.2611536475
 31
0.0
  0
LINE
  5
565
330
1F
100
AcDbEntity
  8
0
  6
Continuous
 62
     7
370
    25
100
AcDbLine
 10
6744.6187553361
 20
4891.0611536475
 30
0.0
 11
5803.4187553361
 21
4891.0611536475
 31
0.0
  0
ARC
  5
566
330
1F
100
AcDbEntity
  8
0
  6
Continuous
 62
     7
370
    25
100
AcDbCircle
 10
5803.4187553361
 20
4890.0611536475
 30
0.0
 40
1.000000000000909
100
AcDbArc
 50
90.0
 51
180.0
  0
ARC
  5
567
330
1F
100
AcDbEntity
  8
0
  6
Continuous
 62
     7
370
    25
100
AcDbCircle
 10
6744.6187553361
 20
4890.0611536475
 30
0.0
 40
1.000000000000909
100
AcDbArc
 50
0.0
 51
90.0
  0
LINE
  5
568
330
1F
100
AcDbEntity
  8
0
  6
Continuous
 62
     7
370
    25
100
AcDbLine
 10
6745.6187553361
 20
4890.0611536475
 30
0.0
 11
6745.6187553361
 21
4790.0611536475
 31
0.0
  0
LINE
  5
569
330
1F
100
AcDbEntity
  8
0
  6
Continuous
 62
     7
370
    25
100
AcDbLine
 10
5802.4187553361
 20
4790.0611536475
 30
0.0
 11
5802.4187553361
 21
4890.0611536475
 31
0.0
  0
ARC
  5
56A
330
1F
100
AcDbEntity
  8
0
  6
Continuous
 62
     7
370
    25
100
AcDbCircle
 10
5803.4187553361
 20
4790.0611536475
 30
0.0
 40
1.000000000000909
100
AcDbArc
 50
180.0
 51
270.0
  0
ARC
  5
56B
330
1F
100
AcDbEntity
  8
0
  6
Continuous
 62
     7
370
    25
100
AcDbCircle
 10
6744.6187553361
 20
4790.0611536475
 30
0.0
 40
1.000000000000909
100
AcDbArc
 50
270.0
 51
0.0
  0
LINE
  5
56C
330
1F
100
AcDbEntity
  8
0
  6
Continuous
 62
     7
370
    25
100
AcDbLine
 10
6744.6187553361
 20
4789.0611536475
 30
0.0
 11
5803.4187553361
 21
4789.0611536475
 31
0.0
  0
LINE
  5
56D
330
1F
100
AcDbEntity
  8
0
  6
Continuous
 62
     7
370
    25
100
AcDbLine
 10
5771.7187553361
 20
4768.8611536475
 30
0.0
 11
6776.3187553361
 21
4768.8611536475
 31
0.0
  0
CIRCLE
  5
56E
330
1F
100
AcDbEntity
  8
0
  6
Continuous
 62
     7
370
    25
100
AcDbCircle
 10
6726.3187553361
 20
4899.541099533
 30
0.0
 40
4.25
  0
CIRCLE
  5
56F
330
1F
100
AcDbEntity
  8
0
  6
Continuous
 62
     7
370
    25
100
AcDbCircle
 10
5821.7187553361
 20
4899.541099533
 30
0.0
 40
4.25
  0
LINE
  5
570
330
1F
100
AcDbEntity
  8
0
  6
Continuous
 62
     7
370
    25
100
AcDbLine
 10
6776.3187553361
 20
4768.8611536475
 30
0.0
 11
6776.3187553361
 21
4911.2611536475
 31
0.0
  0
LINE
  5
571
330
1F
100
AcDbEntity
  8
0
  6
Continuous
 62
     7
370
    25
100
AcDbLine
 10
5771.7187553361
 20
4911.2611536475
 30
0.0
 11
5771.7187553361
 21
4768.8611536475
 31
0.0
  0
LINE
  5
572
330
1F
100
AcDbEntity
  8
0
  6
Continuous
 62
     7
370
    25
100
AcDbLine
 10
6716.3187553361
 20
4766.0806701962
 30
0.0
 11
6736.3187553361
 21
4766.0806701962
 31
0.0
  0
LINE
  5
573
330
1F
100
AcDbEntity
  8
0
  6
Continuous
 62
     7
370
    25
100
AcDbLine
 10
6716.3187553361
 20
4768.8611536475
 30
0.0
 11
6716.3187553361
 21
4766.0806701962
 31
0.0
  0
LINE
  5
574
330
1F
100
AcDbEntity
  8
0
  6
Continuous
 62
     7
370
    25
100
AcDbLine
 10
6736.3187553361
 20
4768.8611536475
 30
0.0
 11
6736.3187553361
 21
4766.0806701962
 31
0.0
  0
LINE
  5
575
330
1F
100
AcDbEntity
  8
0
  6
Continuous
 62
     7
370
    25
100
AcDbLine
 10
5831.7187553361
 20
4766.0806701962
 30
0.0
 11
5811.7187553361
 21
4766.0806701962
 31
0.0
  0
LINE
  5
576
330
1F
100
AcDbEntity
  8
0
  6
Continuous
 62
     7
370
    25
100
AcDbLine
 10
5831.7187553361
 20
4768.8611536475
 30
0.0
 11
5831.7187553361
 21
4766.0806701962
 31
0.0
  0
LINE
  5
577
330
1F
100
AcDbEntity
  8
0
  6
Continuous
 62
     7
370
    25
100
AcDbLine
 10
5811.7187553361
 20
4768.8611536475
 30
0.0
 11
5811.7187553361
 21
4766.0806701962
 31
0.0
  0
LINE
  5
578
330
1F
100
AcDbEntity
  8
0
  6
Continuous
 62
     7
370
    25
100
AcDbLine
 10
6734.8187553361
 20
4748.1536763594
 30
0.0
 11
6734.8187553361
 21
4757.9686309356
 31
0.0
  0
LINE
  5
579
330
1F
100
AcDbEntity
  8
0
  6
Continuous
 62
     7
370
    25
100
AcDbLine
 10
6726.3187553361
 20
4743.2461990712
 30
0.0
 11
6734.8187553361
 21
4748.1536763594
 31
0.0
  0
LINE
  5
57A
330
1F
100
AcDbEntity
  8
0
  6
Continuous
 62
     7
370
    25
100
AcDbLine
 10
6717.8187553361
 20
4748.1536763594
 30
0.0
 11
6726.3187553361
 21
4743.2461990712
 31
0.0
  0
LINE
  5
57B
330
1F
100
AcDbEntity
  8
0
  6
Continuous
 62
     7
370
    25
100
AcDbLine
 10
6717.8187553361
 20
4757.9686309356
 30
0.0
 11
6717.8187553361
 21
4748.1536763594
 31
0.0
  0
LINE
  5
57C
330
1F
100
AcDbEntity
  8
0
  6
Continuous
 62
     7
370
    25
100
AcDbLine
 10
6734.8187553361
 20
4757.9686309356
 30
0.0
 11
6726.3187553361
 21
4762.8761082237
 31
0.0
  0
LINE
  5
57D
330
1F
100
AcDbEntity
  8
0
  6
Continuous
 62
     7
370
    25
100
AcDbLine
 10
6726.3187553361
 20
4762.8761082237
 30
0.0
 11
6717.8187553361
 21
4757.9686309356
 31
0.0
  0
LINE
  5
57E
330
1F
100
AcDbEntity
  8
0
  6
Continuous
 62
     7
370
    25
100
AcDbLine
 10
5830.2187553361
 20
4748.1536763594
 30
0.0
 11
5821.7187553361
 21
4743.2461990712
 31
0.0
  0
LINE
  5
57F
330
1F
100
AcDbEntity
  8
0
  6
Continuous
 62
     7
370
    25
100
AcDbLine
 10
5821.7187553361
 20
4743.2461990712
 30
0.0
 11
5813.2187553361
 21
4748.1536763594
 31
0.0
  0
LINE
  5
580
330
1F
100
AcDbEntity
  8
0
  6
Continuous
 62
     7
370
    25
100
AcDbLine
 10
5813.2187553361
 20
4748.1536763594
 30
0.0
 11
5813.2187553361
 21
4757.9686309356
 31
0.0
  0
LINE
  5
581
330
1F
100
AcDbEntity
  8
0
  6
Continuous
 62
     7
370
    25
100
AcDbLine
 10
5830.2187553361
 20
4757.9686309356
 30
0.0
 11
5830.2187553361
 21
4748.1536763594
 31
0.0
  0
LINE
  5
582
330
1F
100
AcDbEntity
  8
0
  6
Continuous
 62
     7
370
    25
100
AcDbLine
 10
5821.7187553361
 20
4762.8761082237
 30
0.0
 11
5830.2187553361
 21
4757.9686309356
 31
0.0
  0
LINE
  5
583
330
1F
100
AcDbEntity
  8
0
  6
Continuous
 62
     7
370
    25
100
AcDbLine
 10
5813.2187553361
 20
4757.9686309356
 30
0.0
 11
5821.7187553361
 21
4762.8761082237
 31
0.0
  0
LINE
  5
584
330
1F
100
AcDbEntity
  8
0
  6
Continuous
 62
     7
370
    25
100
AcDbLine
 10
5831.7187553361
 20
4765.4193616347
 30
0.0
 11
5811.7187553361
 21
4765.4193616347
 31
0.0
  0
LINE
  5
585
330
1F
100
AcDbEntity
  8
0
  6
Continuous
 62
     7
370
    25
100
AcDbLine
 10
5831.7187553361
 20
4766.0806701962
 30
0.0
 11
5831.7187553361
 21
4765.4193616347
 31
0.0
  0
LINE
  5
586
330
1F
100
AcDbEntity
  8
0
  6
Continuous
 62
     7
370
    25
100
AcDbLine
 10
5811.7187553361
 20
4766.0806701962
 30
0.0
 11
5811.7187553361
 21
4765.4193616347
 31
0.0
  0
LINE
  5
587
330
1F
100
AcDbEntity
  8
0
  6
Continuous
 62
     7
370
    25
100
AcDbLine
 10
6716.3187553361
 20
4765.4193616347
 30
0.0
 11
6736.3187553361
 21
4765.4193616347
 31
0.0
  0
LINE
  5
588
330
1F
100
AcDbEntity
  8
0
  6
Continuous
 62
     7
370
    25
100
AcDbLine
 10
6716.3187553361
 20
4766.0806701962
 30
0.0
 11
6716.3187553361
 21
4765.4193616347
 31
0.0
  0
LINE
  5
589
330
1F
100
AcDbEntity
  8
0
  6
Continuous
 62
     7
370
    25
100
AcDbLine
 10
6736.3187553361
 20
4766.0806701962
 30
0.0
 11
6736.3187553361
 21
4765.4193616347
 31
0.0
  0
LINE
  5
58A
330
1F
100
AcDbEntity
  8
0
  6
Continuous
 62
     7
370
    25
100
AcDbLine
 10
5831.7187553361
 20
4744.4193616347
 30
0.0
 11
5823.7507325016
 21
4744.4193616347
 31
0.0
  0
LINE
  5
58B
330
1F
100
AcDbEntity
  8
0
  6
Continuous
 62
     7
370
    25
100
AcDbLine
 10
5819.6867781706
 20
4744.4193616347
 30
0.0
 11
5811.7187553361
 21
4744.4193616347
 31
0.0
  0
LINE
  5
58C
330
1F
100
AcDbEntity
  8
0
  6
Continuous
 62
     7
370
    25
100
AcDbLine
 10
5831.7187553361
 20
4765.4193616347
 30
0.0
 11
5831.7187553361
 21
4744.4193616347
 31
0.0
  0
LINE
  5
58D
330
1F
100
AcDbEntity
  8
0
  6
Continuous
 62
     7
370
    25
100
AcDbLine
 10
5811.7187553361
 20
4765.4193616347
 30
0.0
 11
5811.7187553361
 21
4744.4193616347
 31
0.0
  0
LINE
  5
58E
330
1F
100
AcDbEntity
  8
0
  6
Continuous
 62
     7
370
    25
100
AcDbLine
 10
6728.3507325016
 20
4744.4193616347
 30
0.0
 11
6736.3187553361
 21
4744.4193616347
 31
0.0
  0
LINE
  5
58F
330
1F
100
AcDbEntity
  8
0
  6
Continuous
 62
     7
370
    25
100
AcDbLine
 10
6716.3187553361
 20
4744.4193616347
 30
0.0
 11
6724.2867781706
 21
4744.4193616347
 31
0.0
  0
LINE
  5
590
330
1F
100
AcDbEntity
  8
0
  6
Continuous
 62
     7
370
    25
100
AcDbLine
 10
6716.3187553361
 20
4765.4193616347
 30
0.0
 11
6716.3187553361
 21
4744.4193616347
 31
0.0
  0
LINE
  5
591
330
1F
100
AcDbEntity
  8
0
  6
Continuous
 62
     7
370
    25
100
AcDbLine
 10
6736.3187553361
 20
4765.4193616347
 30
0.0
 11
6736.3187553361
 21
4744.4193616347
 31
0.0
  0
LINE
  5
592
330
1F
100
AcDbEntity
  8
0
  6
Continuous
 62
     8
370
    25
100
AcDbLine
 10
6288.4180741075
 20
4840.0611536475
 30
0.0
 11
6289.4155061245
 21
4840.0611536475
 31
0.0
  0
LINE
  5
593
330
1F
100
AcDbEntity
  8
0
  6
Continuous
 62
     8
370
    25
100
AcDbLine
 10
6256.8187553361
 20
4840.0611536475
 30
0.0
 11
6258.0744198652
 21
4840.0611536475
 31
0.0
  0
LINE
  5
594
330
1F
100
AcDbEntity
  8
0
  6
Continuous
 62
     8
370
    25
100
AcDbLine
 10
6255.8964771265
 20
4841.0639160784
 30
0.0
 11
6253.9993791321
 21
4841.1688884541
 31
0.0
  0
LINE
  5
595
330
1F
100
AcDbEntity
  8
0
  6
Continuous
 62
     8
370
    25
100
AcDbLine
 10
6293.8848889592
 20
4841.160409062
 30
0.0
 11
6294.0381315401
 21
4841.1688884541
 31
0.0
  0
LINE
  5
596
330
1F
100
AcDbEntity
  8
0
  6
Continuous
 62
     8
370
    25
100
AcDbLine
 10
6255.9464007579
 20
4841.0111536475
 30
0.0
 11
6255.9464007579
 21
4839.1111536475
 31
0.0
  0
LINE
  5
597
330
1F
100
AcDbEntity
  8
0
  6
Continuous
 62
     8
370
    25
100
AcDbLine
 10
6255.4187553361
 20
4837.2611536475
 30
0.0
 11
6255.4187553361
 21
4839.1838975891
 31
0.0
  0
LINE
  5
598
330
1F
100
AcDbEntity
  8
0
  6
Continuous
 62
     8
370
    25
100
AcDbLine
 10
6256.1187553361
 20
4842.8611536475
 30
0.0
 11
6256.0860338472
 21
4842.8611536475
 31
0.0
  0
LINE
  5
599
330
1F
100
AcDbEntity
  8
0
  6
Continuous
 62
     8
370
    25
100
AcDbLine
 10
6258.0744198652
 20
4835.8611536475
 30
0.0
 11
6256.8187553361
 21
4835.8611536475
 31
0.0
  0
LWPOLYLINE
  5
59A
330
1F
100
AcDbEntity
  8
0
  6
Continuous
 62
     8
370
    25
100
AcDbPolyline
 90
        3
 70
   128
 43
0.0
 10
6256.8187553361
 20
4844.2611536475
 10
6256.5456288853
 20
4844.23425304
 10
6256.3416690966
 20
4844.1773560331
  0
ELLIPSE
  5
59B
330
1F
100
AcDbEntity
  8
0
  6
Continuous
 62
     8
370
    25
100
AcDbEllipse
 10
6264.2763521413
 20
4840.0611536475
 30
0.0
 11
7.524669661681401
 21
0.0
 31
0.0
210
0.0
220
0.0
230
1.0
 40
0.9998720779
 41
5.236935575030721
 42
5.312502056278858
  0
ELLIPSE
  5
59C
330
1F
100
AcDbEntity
  8
0
  6
Continuous
 62
     8
370
    25
100
AcDbEllipse
 10
6264.2763521413
 20
4840.0611536475
 30
0.0
 11
7.524669661681401
 21
0.0
 31
0.0
210
0.0
220
0.0
230
1.0
 40
0.9998720779
 41
0.970683250900742
 42
1.04624973214888
  0
ELLIPSE
  5
59D
330
1F
100
AcDbEntity
  8
0
  6
Continuous
 62
     8
370
    25
100
AcDbEllipse
 10
6271.7669387685
 20
4827.117085421
 30
0.0
 11
7.431956459166031
 21
0.0
 31
0.0
210
0.0
220
0.0
230
1.0
 40
0.9998720779
 41
2.095342921440943
 42
3.132893601006204
  0
LWPOLYLINE
  5
59E
330
1F
100
AcDbEntity
  8
0
  6
Continuous
 62
     8
370
    25
100
AcDbPolyline
 90
        3
 70
   128
 43
0.0
 10
6299.5006555862
 20
4841.9841391257
 10
6299.0953699545
 20
4844.9793355049
 10
6298.7320197884
 20
4846.5634358324
  0
ARC
  5
59F
330
1F
100
AcDbEntity
  8
0
  6
Continuous
 62
     8
370
    25
100
AcDbCircle
 10
6274.0187553361
 20
4840.0611536475
 30
0.0
 40
25.55435605731762
100
AcDbArc
 50
321.0237661521
 51
355.6843677726
  0
ARC
  5
5A0
330
1F
100
AcDbEntity
  8
0
  6
Continuous
 62
     8
370
    25
100
AcDbCircle
 10
6274.0187553361
 20
4840.0611536475
 30
0.0
 40
25.55435605731863
100
AcDbArc
 50
131.1490861509
 51
149.1744744598
  0
LINE
  5
5A1
330
1F
100
AcDbEntity
  8
0
  6
Continuous
 62
     8
370
    25
100
AcDbLine
 10
6257.3130379268
 20
4851.1481507991
 30
0.0
 11
6257.2530613701
 21
4851.1481507991
 31
0.0
  0
LINE
  5
5A2
330
1F
100
AcDbEntity
  8
0
  6
Continuous
 62
     8
370
    25
100
AcDbLine
 10
6256.6327038857
 20
4850.1475412548
 30
0.0
 11
6256.6905331239
 21
4850.1475412548
 31
0.0
  0
LINE
  5
5A3
330
1F
100
AcDbEntity
  8
0
  6
Continuous
 62
     8
370
    25
100
AcDbLine
 10
6257.5944271793
 20
4851.6478462126
 30
0.0
 11
6257.6556549147
 21
4851.6478462126
 31
0.0
  0
LINE
  5
5A4
330
1F
100
AcDbEntity
  8
0
  6
Continuous
 62
     8
370
    25
100
AcDbLine
 10
6267.2148824851
 20
4850.7328282492
 30
0.0
 11
6266.1242290867
 21
4851.8234816476
 31
0.0
  0
LINE
  5
5A5
330
1F
100
AcDbEntity
  8
0
  6
Continuous
 62
     8
370
    25
100
AcDbLine
 10
6266.1242290867
 20
4828.2988256473
 30
0.0
 11
6267.2062416031
 21
4829.3808381637
 31
0.0
  0
LWPOLYLINE
  5
5A6
330
1F
100
AcDbEntity
  8
0
  6
Continuous
 62
     8
370
    25
100
AcDbPolyline
 90
        3
 70
   128
 43
0.0
 10
6266.3284016182
 20
4854.2302661319
 10
6266.9539372685
 20
4853.7658176876
 10
6267.5375811484
 20
4853.2368337093
  0
ARC
  5
5A7
330
1F
100
AcDbEntity
  8
0
  6
Continuous
 62
     8
370
    25
100
AcDbCircle
 10
6266.0187553361
 20
4843.404299398
 30
0.0
 40
8.026623719119016
100
AcDbArc
 50
0.0
 51
30.0418694965
  0
LINE
  5
5A8
330
1F
100
AcDbEntity
  8
0
  6
Continuous
 62
     8
370
    25
100
AcDbLine
 10
6274.0453790552
 20
4843.404299398
 30
0.0
 11
6272.9670807577
 21
4843.404299398
 31
0.0
  0
LINE
  5
5A9
330
1F
100
AcDbEntity
  8
0
  6
Continuous
 62
     8
370
    25
100
AcDbLine
 10
6267.5375811484
 20
4853.2368337093
 30
0.0
 11
6268.5258024474
 21
4852.2486124103
 31
0.0
  0
LINE
  5
5AA
330
1F
100
AcDbEntity
  8
0
  6
Continuous
 62
     8
370
    25
100
AcDbLine
 10
6274.0453790552
 20
4836.718007897
 30
0.0
 11
6272.9670807577
 21
4836.718007897
 31
0.0
  0
ARC
  5
5AB
330
1F
100
AcDbEntity
  8
0
  6
Continuous
 62
     8
370
    25
100
AcDbCircle
 10
6266.0187553361
 20
4836.718007897
 30
0.0
 40
8.026623719119016
100
AcDbArc
 50
329.9581305035
 51
0.0
  0
LINE
  5
5AC
330
1F
100
AcDbEntity
  8
0
  6
Continuous
 62
     8
370
    25
100
AcDbLine
 10
6267.0635726137
 20
4827.3594821204
 30
0.0
 11
6266.1242290867
 21
4828.2988256473
 31
0.0
  0
LINE
  5
5AD
330
1F
100
AcDbEntity
  8
0
  6
Continuous
 62
     8
370
    25
100
AcDbLine
 10
6744.6187553361
 20
4891.0611536475
 30
0.0
 11
6744.6187553361
 21
4894.4611536475
 31
0.0
  0
LINE
  5
5AE
330
1F
100
AcDbEntity
  8
0
  6
Continuous
 62
     8
370
    25
100
AcDbLine
 10
5803.4187553361
 20
4891.0611536475
 30
0.0
 11
5803.4187553361
 21
4894.4611526636
 31
0.0
  0
LINE
  5
5AF
330
1F
100
AcDbEntity
  8
0
  6
Continuous
 62
     8
370
    25
100
AcDbLine
 10
5802.4187553361
 20
4890.0611536475
 30
0.0
 11
5799.0187553361
 21
4890.0611536475
 31
0.0
  0
LINE
  5
5B0
330
1F
100
AcDbEntity
  8
0
  6
Continuous
 62
     8
370
    25
100
AcDbLine
 10
6745.6187553361
 20
4890.0611536475
 30
0.0
 11
6749.0187553361
 21
4890.0611536475
 31
0.0
  0
LINE
  5
5B1
330
1F
100
AcDbEntity
  8
0
  6
Continuous
 62
     8
370
    25
100
AcDbLine
 10
6745.6187553361
 20
4790.0611536475
 30
0.0
 11
6749.0187553361
 21
4790.0611536475
 31
0.0
  0
LINE
  5
5B2
330
1F
100
AcDbEntity
  8
0
  6
Continuous
 62
     8
370
    25
100
AcDbLine
 10
5802.4187553361
 20
4790.0611536475
 30
0.0
 11
5799.0187553361
 21
4790.0611536475
 31
0.0
  0
LINE
  5
5B3
330
1F
100
AcDbEntity
  8
0
  6
Continuous
 62
     8
370
    25
100
AcDbLine
 10
5803.4187553361
 20
4789.0611536475
 30
0.0
 11
5803.4187553361
 21
4785.6611536475
 31
0.0
  0
LINE
  5
5B4
330
1F
100
AcDbEntity
  8
0
  6
Continuous
 62
     8
370
    25
100
AcDbLine
 10
6744.6187553361
 20
4789.0611536475
 30
0.0
 11
6744.6187553361
 21
4785.6611536475
 31
0.0
  0
ARC
  5
5B5
330
1F
100
AcDbEntity
  8
0
  6
Continuous
 62
     8
370
    25
100
AcDbCircle
 10
6274.0187553361
 20
4840.0611536475
 30
0.0
 40
40.00000000000027
100
AcDbArc
 50
321.2836231782
 51
335.4028975167
  0
ARC
  5
5B6
330
1F
100
AcDbEntity
  8
0
  6
Continuous
 62
     8
370
    25
100
AcDbCircle
 10
6274.0187553361
 20
4840.0611536475
 30
0.0
 40
40.00000000000023
100
AcDbArc
 50
157.3965395943
 51
185.2173828256
  0
ARC
  5
5B7
330
1F
100
AcDbEntity
  8
0
  6
Continuous
 62
     8
370
    25
100
AcDbCircle
 10
6274.0187553361
 20
4840.0611536475
 30
0.0
 40
35.20108727315814
100
AcDbArc
 50
329.6285344764
 51
5.8190712299
  0
ARC
  5
5B8
330
1F
100
AcDbEntity
  8
0
  6
Continuous
 62
     8
370
    25
100
AcDbCircle
 10
6274.0187553361
 20
4840.0611536475
 30
0.0
 40
35.20108727315796
100
AcDbArc
 50
140.6157993163
 51
157.0631388037
  0
ENDSEC
  0
SECTION
  2
OBJECTS
  0
DICTIONARY
  5
C
330
0
100
AcDbDictionary
281
     1
  3
ACAD_GROUP
350
D
  3
ACAD_LAYOUT
350
1A
  3
ACAD_MLINESTYLE
350
17
  3
ACAD_PLOTSETTINGS
350
19
  3
ACAD_PLOTSTYLENAME
350
E
  3
ACAD_SCALELIST
350
47
  3
DWGPROPS
350
5B9
  0
DICTIONARY
  5
D
102
{ACAD_REACTORS
330
C
102
}
330
C
100
AcDbDictionary
281
     1
  0
DICTIONARY
  5
1A
102
{ACAD_REACTORS
330
C
102
}
330
C
100
AcDbDictionary
281
     1
  3
Layout1
350
1E
  3
Layout2
350
26
  3
Model
350
22
  0
DICTIONARY
  5
17
102
{ACAD_REACTORS
330
C
102
}
330
C
100
AcDbDictionary
281
     1
  3
Standard
350
18
  0
DICTIONARY
  5
19
102
{ACAD_REACTORS
330
C
102
}
330
C
100
AcDbDictionary
281
     1
  0
ACDBDICTIONARYWDFLT
  5
E
102
{ACAD_REACTORS
330
C
102
}
330
C
100
AcDbDictionary
281
     1
  3
Normal
350
F
100
AcDbDictionaryWithDefault
340
F
  0
DICTIONARY
  5
47
102
{ACAD_REACTORS
330
C
102
}
330
C
100
AcDbDictionary
281
     1
  3
A0
350
48
  3
A1
350
49
  3
A2
350
4A
  3
A3
350
4B
  3
A4
350
4C
  3
A5
350
4D
  3
A6
350
4E
  3
A7
350
4F
  3
A8
350
50
  3
A9
350
51
  3
B0
350
52
  3
B1
350
53
  3
B2
350
54
  3
B3
350
55
  3
B4
350
56
  3
B5
350
57
  3
B6
350
58
  3
B7
350
59
  3
B8
350
5A
  3
B9
350
5B
  3
C0
350
5C
  3
C1
350
5D
  3
C2
350
5E
  3
C3
350
5F
  3
C4
350
60
  3
C5
350
61
  3
C6
350
62
  3
C7
350
63
  3
C8
350
64
  3
C9
350
65
  3
D0
350
66
  3
D1
350
67
  3
D2
350
68
  0
XRECORD
  5
5B9
102
{ACAD_REACTORS
330
C
102
}
330
C
100
AcDbXrecord
280
     1
  1
DWGPROPS COOKIE
  2

  3

  4

  6

  7

  8
radek.stransky
  9

300
=
301
=
302
=
303
=
304
=
305
=
306
=
307
=
308
=
309
=
 40
0.0
 41
2459107.450658137
 42
2459107.45065868
  1

 90
        0
  0
LAYOUT
  5
1E
102
{ACAD_REACTORS
330
1A
102
}
330
1A
100
AcDbPlotSettings
  1

  2
none_device
  4

  6

 40
0.0
 41
0.0
 42
0.0
 43
0.0
 44
0.0
 45
0.0
 46
0.0
 47
0.0
 48
0.0
 49
0.0
140
0.0
141
0.0
142
1.0
143
1.0
 70
   688
 72
     1
 73
     0
 74
     5
  7

 75
    16
147
1.0
148
0.0
149
0.0
100
AcDbLayout
  1
Layout1
 70
     1
 71
     1
 10
0.0
 20
0.0
 11
420.0
 21
297.0
 12
0.0
 22
0.0
 32
0.0
 14
1.0000000000E+20
 24
1.0000000000E+20
 34
1.0000000000E+20
 15
-1.0000000000E+20
 25
-1.0000000000E+20
 35
-1.0000000000E+20
146
0.0
 13
0.0
 23
0.0
 33
0.0
 16
1.0
 26
0.0
 36
0.0
 17
0.0
 27
1.0
 37
0.0
 76
     0
330
1B
  0
LAYOUT
  5
26
102
{ACAD_REACTORS
330
1A
102
}
330
1A
100
AcDbPlotSettings
  1

  2
none_device
  4

  6

 40
0.0
 41
0.0
 42
0.0
 43
0.0
 44
0.0
 45
0.0
 46
0.0
 47
0.0
 48
0.0
 49
0.0
140
0.0
141
0.0
142
1.0
143
1.0
 70
   688
 72
     1
 73
     0
 74
     5
  7

 75
    16
147
1.0
148
0.0
149
0.0
100
AcDbLayout
  1
Layout2
 70
     1
 71
     2
 10
0.0
 20
0.0
 11
0.0
 21
0.0
 12
0.0
 22
0.0
 32
0.0
 14
0.0
 24
0.0
 34
0.0
 15
0.0
 25
0.0
 35
0.0
146
0.0
 13
0.0
 23
0.0
 33
0.0
 16
1.0
 26
0.0
 36
0.0
 17
0.0
 27
1.0
 37
0.0
 76
     0
330
23
  0
LAYOUT
  5
22
102
{ACAD_REACTORS
330
1A
102
}
330
1A
100
AcDbPlotSettings
  1

  2
none_device
  4
Letter_(8.50_x_11.00_Inches)
  6

 40
6.35
 41
6.35
 42
6.35000508
 43
6.35000508
 44
215.9
 45
279.4
 46
0.0
 47
0.0
 48
0.0
 49
0.0
140
0.0
141
0.0
142
1.0
143
1.0
 70
  1712
 72
     1
 73
     0
 74
     0
  7

 75
     0
147
1.0
148
0.0
149
0.0
100
AcDbLayout
  1
Model
 70
     1
 71
     0
 10
0.0
 20
0.0
 11
20000.0
 21
10000.0
 12
0.0
 22
0.0
 32
0.0
 14
0.0
 24
0.0
 34
0.0
 15
20000.0
 25
10000.0
 35
0.0
146
0.0
 13
0.0
 23
0.0
 33
0.0
 16
1.0
 26
0.0
 36
0.0
 17
0.0
 27
1.0
 37
0.0
 76
     0
330
1F
331
29
  0
MLINESTYLE
  5
18
102
{ACAD_REACTORS
330
17
102
}
330
17
100
AcDbMlineStyle
  2
Standard
 70
     0
  3

 62
   256
 51
90.0
 52
90.0
 71
     2
 49
0.5
 62
   256
  6
BYLAYER
 49
-0.5
 62
   256
  6
BYLAYER
  0
ACDBPLACEHOLDER
  5
F
102
{ACAD_REACTORS
330
E
102
}
330
E
  0
SCALE
  5
48
102
{ACAD_REACTORS
330
47
102
}
330
47
100
AcDbScale
 70
     0
300
1:1
140
1.0
141
1.0
290
     1
  0
SCALE
  5
49
102
{ACAD_REACTORS
330
47
102
}
330
47
100
AcDbScale
 70
     0
300
1:2
140
1.0
141
2.0
290
     0
  0
SCALE
  5
4A
102
{ACAD_REACTORS
330
47
102
}
330
47
100
AcDbScale
 70
     0
300
1:4
140
1.0
141
4.0
290
     0
  0
SCALE
  5
4B
102
{ACAD_REACTORS
330
47
102
}
330
47
100
AcDbScale
 70
     0
300
1:5
140
1.0
141
5.0
290
     0
  0
SCALE
  5
4C
102
{ACAD_REACTORS
330
47
102
}
330
47
100
AcDbScale
 70
     0
300
1:8
140
1.0
141
8.0
290
     0
  0
SCALE
  5
4D
102
{ACAD_REACTORS
330
47
102
}
330
47
100
AcDbScale
 70
     0
300
1:10
140
1.0
141
10.0
290
     0
  0
SCALE
  5
4E
102
{ACAD_REACTORS
330
47
102
}
330
47
100
AcDbScale
 70
     0
300
1:16
140
1.0
141
16.0
290
     0
  0
SCALE
  5
4F
102
{ACAD_REACTORS
330
47
102
}
330
47
100
AcDbScale
 70
     0
300
1:20
140
1.0
141
20.0
290
     0
  0
SCALE
  5
50
102
{ACAD_REACTORS
330
47
102
}
330
47
100
AcDbScale
 70
     0
300
1:30
140
1.0
141
30.0
290
     0
  0
SCALE
  5
51
102
{ACAD_REACTORS
330
47
102
}
330
47
100
AcDbScale
 70
     0
300
1:40
140
1.0
141
40.0
290
     0
  0
SCALE
  5
52
102
{ACAD_REACTORS
330
47
102
}
330
47
100
AcDbScale
 70
     0
300
1:50
140
1.0
141
50.0
290
     0
  0
SCALE
  5
53
102
{ACAD_REACTORS
330
47
102
}
330
47
100
AcDbScale
 70
     0
300
1:100
140
1.0
141
100.0
290
     0
  0
SCALE
  5
54
102
{ACAD_REACTORS
330
47
102
}
330
47
100
AcDbScale
 70
     0
300
2:1
140
2.0
141
1.0
290
     0
  0
SCALE
  5
55
102
{ACAD_REACTORS
330
47
102
}
330
47
100
AcDbScale
 70
     0
300
4:1
140
4.0
141
1.0
290
     0
  0
SCALE
  5
56
102
{ACAD_REACTORS
330
47
102
}
330
47
100
AcDbScale
 70
     0
300
8:1
140
8.0
141
1.0
290
     0
  0
SCALE
  5
57
102
{ACAD_REACTORS
330
47
102
}
330
47
100
AcDbScale
 70
     0
300
10:1
140
10.0
141
1.0
290
     0
  0
SCALE
  5
58
102
{ACAD_REACTORS
330
47
102
}
330
47
100
AcDbScale
 70
     0
300
100:1
140
100.0
141
1.0
290
     0
  0
SCALE
  5
59
102
{ACAD_REACTORS
330
47
102
}
330
47
100
AcDbScale
 70
     0
300
1/128" = 1'-0"
140
0.0078125
141
12.0
290
     0
  0
SCALE
  5
5A
102
{ACAD_REACTORS
330
47
102
}
330
47
100
AcDbScale
 70
     0
300
1/64" = 1'-0"
140
0.015625
141
12.0
290
     0
  0
SCALE
  5
5B
102
{ACAD_REACTORS
330
47
102
}
330
47
100
AcDbScale
 70
     0
300
1/32" = 1'-0"
140
0.03125
141
12.0
290
     0
  0
SCALE
  5
5C
102
{ACAD_REACTORS
330
47
102
}
330
47
100
AcDbScale
 70
     0
300
1/16" = 1'-0"
140
0.0625
141
12.0
290
     0
  0
SCALE
  5
5D
102
{ACAD_REACTORS
330
47
102
}
330
47
100
AcDbScale
 70
     0
300
3/32" = 1'-0"
140
0.09375
141
12.0
290
     0
  0
SCALE
  5
5E
102
{ACAD_REACTORS
330
47
102
}
330
47
100
AcDbScale
 70
     0
300
1/8" = 1'-0"
140
0.125
141
12.0
290
     0
  0
SCALE
  5
5F
102
{ACAD_REACTORS
330
47
102
}
330
47
100
AcDbScale
 70
     0
300
3/16" = 1'-0"
140
0.1875
141
12.0
290
     0
  0
SCALE
  5
60
102
{ACAD_REACTORS
330
47
102
}
330
47
100
AcDbScale
 70
     0
300
1/4" = 1'-0"
140
0.25
141
12.0
290
     0
  0
SCALE
  5
61
102
{ACAD_REACTORS
330
47
102
}
330
47
100
AcDbScale
 70
     0
300
3/8" = 1'-0"
140
0.375
141
12.0
290
     0
  0
SCALE
  5
62
102
{ACAD_REACTORS
330
47
102
}
330
47
100
AcDbScale
 70
     0
300
1/2" = 1'-0"
140
0.5
141
12.0
290
     0
  0
SCALE
  5
63
102
{ACAD_REACTORS
330
47
102
}
330
47
100
AcDbScale
 70
     0
300
3/4" = 1'-0"
140
0.75
141
12.0
290
     0
  0
SCALE
  5
64
102
{ACAD_REACTORS
330
47
102
}
330
47
100
AcDbScale
 70
     0
300
1" = 1'-0"
140
1.0
141
12.0
290
     0
  0
SCALE
  5
65
102
{ACAD_REACTORS
330
47
102
}
330
47
100
AcDbScale
 70
     0
300
1-1/2" = 1'-0"
140
1.5
141
12.0
290
     0
  0
SCALE
  5
66
102
{ACAD_REACTORS
330
47
102
}
330
47
100
AcDbScale
 70
     0
300
3" = 1'-0"
140
3.0
141
12.0
290
     0
  0
SCALE
  5
67
102
{ACAD_REACTORS
330
47
102
}
330
47
100
AcDbScale
 70
     0
300
6" = 1'-0"
140
6.0
141
12.0
290
     0
  0
SCALE
  5
68
102
{ACAD_REACTORS
330
47
102
}
330
47
100
AcDbScale
 70
     0
300
1'-0" = 1'-0"
140
12.0
141
12.0
290
     0
  0
ENDSEC
  0
EOF
