  0
SECTION
  2
HEADER
  9
$ACADVER
  1
AC1015
  9
$ACADMAINTVER
 70
     6
  9
$DWGCODEPAGE
  3
ANSI_1250
  9
$INSBASE
 10
0.0
 20
0.0
 30
0.0
  9
$EXTMIN
 10
0.0
 20
0.0
 30
0.0
  9
$EXTMAX
 10
20000.0
 20
10000.0
 30
0.0
  9
$LIMMIN
 10
0.0
 20
0.0
  9
$LIMMAX
 10
20000.0
 20
10000.0
  9
$ORTHOMODE
 70
     0
  9
$REGENMODE
 70
     1
  9
$FILLMODE
 70
     1
  9
$QTEXTMODE
 70
     0
  9
$MIRRTEXT
 70
     1
  9
$LTSCALE
 40
1.0
  9
$ATTMODE
 70
     1
  9
$TEXTSIZE
 40
2.0
  9
$TRACEWID
 40
1.0
  9
$TEXTSTYLE
  7
Standard
  9
$CLAYER
  8
0
  9
$CELTYPE
  6
ByLayer
  9
$CECOLOR
 62
   256
  9
$CELTSCALE
 40
1.0
  9
$DISPSILH
 70
     0
  9
$DIMSCALE
 40
1.0
  9
$DIMASZ
 40
2.0
  9
$DIMEXO
 40
1.0
  9
$DIMDLI
 40
3.75
  9
$DIMRND
 40
0.0
  9
$DIMDLE
 40
0.0
  9
$DIMEXE
 40
1.0
  9
$DIMTP
 40
0.0
  9
$DIMTM
 40
0.0
  9
$DIMTXT
 40
2.0
  9
$DIMCEN
 40
2.5
  9
$DIMTSZ
 40
0.0
  9
$DIMTOL
 70
     0
  9
$DIMLIM
 70
     0
  9
$DIMTIH
 70
     1
  9
$DIMTOH
 70
     1
  9
$DIMSE1
 70
     0
  9
$DIMSE2
 70
     0
  9
$DIMTAD
 70
     1
  9
$DIMZIN
 70
     0
  9
$DIMBLK
  1

  9
$DIMASO
 70
     1
  9
$DIMSHO
 70
     1
  9
$DIMPOST
  1

  9
$DIMAPOST
  1

  9
$DIMALT
 70
     0
  9
$DIMALTD
 70
     3
  9
$DIMALTF
 40
0.0393700787
  9
$DIMLFAC
 40
1.0
  9
$DIMTOFL
 70
     1
  9
$DIMTVP
 40
0.0
  9
$DIMTIX
 70
     0
  9
$DIMSOXD
 70
     0
  9
$DIMSAH
 70
     0
  9
$DIMBLK1
  1

  9
$DIMBLK2
  1

  9
$DIMSTYLE
  2
ISO-25
  9
$DIMCLRD
 70
     0
  9
$DIMCLRE
 70
     0
  9
$DIMCLRT
 70
     0
  9
$DIMTFAC
 40
1.0
  9
$DIMGAP
 40
1.524
  9
$DIMJUST
 70
     0
  9
$DIMSD1
 70
     0
  9
$DIMSD2
 70
     0
  9
$DIMTOLJ
 70
     0
  9
$DIMTZIN
 70
     0
  9
$DIMALTZ
 70
     0
  9
$DIMALTTZ
 70
     0
  9
$DIMUPT
 70
     0
  9
$DIMDEC
 70
     2
  9
$DIMTDEC
 70
     0
  9
$DIMALTU
 70
     2
  9
$DIMALTTD
 70
     3
  9
$DIMTXSTY
  7
Standard
  9
$DIMAUNIT
 70
     0
  9
$DIMADEC
 70
     2
  9
$DIMALTRND
 40
0.0
  9
$DIMAZIN
 70
     0
  9
$DIMDSEP
 70
    44
  9
$DIMATFIT
 70
     3
  9
$DIMFRAC
 70
     0
  9
$DIMLDRBLK
  1

  9
$DIMLUNIT
 70
     2
  9
$DIMLWD
 70
    -2
  9
$DIMLWE
 70
    -2
  9
$DIMTMOVE
 70
     0
  9
$LUNITS
 70
     2
  9
$LUPREC
 70
     3
  9
$SKETCHINC
 40
1.0
  9
$FILLETRAD
 40
10.0
  9
$AUNITS
 70
     0
  9
$AUPREC
 70
     2
  9
$MENU
  1
.
  9
$ELEVATION
 40
0.0
  9
$PELEVATION
 40
0.0
  9
$THICKNESS
 40
0.0
  9
$LIMCHECK
 70
     0
  9
$CHAMFERA
 40
0.0
  9
$CHAMFERB
 40
0.0
  9
$CHAMFERC
 40
0.0
  9
$CHAMFERD
 40
0.0
  9
$SKPOLY
 70
     0
  9
$TDCREATE
 40
2460286.407630822
  9
$TDUCREATE
 40
2460286.365964155
  9
$TDUPDATE
 40
2460286.407633055
  9
$TDUUPDATE
 40
2460286.365966389
  9
$TDINDWG
 40
0.0000000116
  9
$TDUSRTIMER
 40
0.0000000116
  9
$USRTIMER
 70
     1
  9
$ANGBASE
 50
0.0
  9
$ANGDIR
 70
     0
  9
$PDMODE
 70
     0
  9
$PDSIZE
 40
-1.0
  9
$PLINEWID
 40
0.0
  9
$SPLFRAME
 70
     0
  9
$SPLINETYPE
 70
     6
  9
$SPLINESEGS
 70
     8
  9
$HANDSEED
  5
18B
  9
$SURFTAB1
 70
     6
  9
$SURFTAB2
 70
     6
  9
$SURFTYPE
 70
     6
  9
$SURFU
 70
     6
  9
$SURFV
 70
     6
  9
$UCSBASE
  2

  9
$UCSNAME
  2

  9
$UCSORG
 10
0.0
 20
0.0
 30
0.0
  9
$UCSXDIR
 10
1.0
 20
0.0
 30
0.0
  9
$UCSYDIR
 10
0.0
 20
1.0
 30
0.0
  9
$UCSORTHOREF
  2

  9
$UCSORTHOVIEW
 70
     0
  9
$UCSORGTOP
 10
0.0
 20
0.0
 30
0.0
  9
$UCSORGBOTTOM
 10
0.0
 20
0.0
 30
0.0
  9
$UCSORGLEFT
 10
0.0
 20
0.0
 30
0.0
  9
$UCSORGRIGHT
 10
0.0
 20
0.0
 30
0.0
  9
$UCSORGFRONT
 10
0.0
 20
0.0
 30
0.0
  9
$UCSORGBACK
 10
0.0
 20
0.0
 30
0.0
  9
$PUCSBASE
  2

  9
$PUCSNAME
  2

  9
$PUCSORG
 10
0.0
 20
0.0
 30
0.0
  9
$PUCSXDIR
 10
1.0
 20
0.0
 30
0.0
  9
$PUCSYDIR
 10
0.0
 20
1.0
 30
0.0
  9
$PUCSORTHOREF
  2

  9
$PUCSORTHOVIEW
 70
     0
  9
$PUCSORGTOP
 10
0.0
 20
0.0
 30
0.0
  9
$PUCSORGBOTTOM
 10
0.0
 20
0.0
 30
0.0
  9
$PUCSORGLEFT
 10
0.0
 20
0.0
 30
0.0
  9
$PUCSORGRIGHT
 10
0.0
 20
0.0
 30
0.0
  9
$PUCSORGFRONT
 10
0.0
 20
0.0
 30
0.0
  9
$PUCSORGBACK
 10
0.0
 20
0.0
 30
0.0
  9
$USERI1
 70
     0
  9
$USERI2
 70
     0
  9
$USERI3
 70
     0
  9
$USERI4
 70
     0
  9
$USERI5
 70
     0
  9
$USERR1
 40
0.0
  9
$USERR2
 40
0.0
  9
$USERR3
 40
0.0
  9
$USERR4
 40
0.0
  9
$USERR5
 40
0.0
  9
$WORLDVIEW
 70
     1
  9
$SHADEDGE
 70
     3
  9
$SHADEDIF
 70
    70
  9
$TILEMODE
 70
     1
  9
$MAXACTVP
 70
    64
  9
$PINSBASE
 10
0.0
 20
0.0
 30
0.0
  9
$PLIMCHECK
 70
     0
  9
$PEXTMIN
 10
1.0000000000E+20
 20
1.0000000000E+20
 30
1.0000000000E+20
  9
$PEXTMAX
 10
-1.0000000000E+20
 20
-1.0000000000E+20
 30
-1.0000000000E+20
  9
$PLIMMIN
 10
0.0
 20
0.0
  9
$PLIMMAX
 10
420.0
 20
297.0
  9
$UNITMODE
 70
     0
  9
$VISRETAIN
 70
     1
  9
$PLINEGEN
 70
     0
  9
$PSLTSCALE
 70
     1
  9
$TREEDEPTH
 70
  3020
  9
$CMLSTYLE
  2
Standard
  9
$CMLJUST
 70
     0
  9
$CMLSCALE
 40
20.0
  9
$PROXYGRAPHICS
 70
     1
  9
$MEASUREMENT
 70
     1
  9
$CELWEIGHT
370
    -1
  9
$ENDCAPS
280
     0
  9
$JOINSTYLE
280
     0
  9
$LWDISPLAY
290
     1
  9
$INSUNITS
 70
     4
  9
$HYPERLINKBASE
  1

  9
$STYLESHEET
  1

  9
$XEDIT
290
     1
  9
$CEPSNTYPE
380
     0
  9
$PSTYLEMODE
290
     1
  9
$FINGERPRINTGUID
  2
{50ff8d0f-e4b4-413f-91a4-2d8de0d44068}
  9
$VERSIONGUID
  2
{FAEB1C32-E019-11D5-929B-00C0DF256EC4}
  9
$EXTNAMES
290
     1
  9
$PSVPSCALE
 40
0.0
  9
$OLESTARTUP
290
     0
  0
ENDSEC
  0
SECTION
  2
CLASSES
  0
CLASS
  1
ACDBDICTIONARYWDFLT
  2
AcDbDictionaryWithDefault
  3
ObjectDBX Classes
 90
        0
280
     0
281
     0
  0
CLASS
  1
VISUALSTYLE
  2
AcDbVisualStyle
  3
ObjectDBX Classes
 90
     4095
280
     0
281
     0
  0
CLASS
  1
MATERIAL
  2
AcDbMaterial
  3
ObjectDBX Classes
 90
     1153
280
     0
281
     0
  0
CLASS
  1
SCALE
  2
AcDbScale
  3
ObjectDBX Classes
 90
     1153
280
     0
281
     0
  0
CLASS
  1
TABLESTYLE
  2
AcDbTableStyle
  3
ObjectDBX Classes
 90
     4095
280
     0
281
     0
  0
CLASS
  1
MLEADERSTYLE
  2
AcDbMLeaderStyle
  3
ACDB_MLEADERSTYLE_CLASS
 90
     4095
280
     0
281
     0
  0
CLASS
  1
SUN
  2
AcDbSun
  3
SCENEOE
 90
     1153
280
     0
281
     0
  0
CLASS
  1
ACDBPLACEHOLDER
  2
AcDbPlaceHolder
  3
ObjectDBX Classes
 90
        0
280
     0
281
     0
  0
CLASS
  1
LAYOUT
  2
AcDbLayout
  3
ObjectDBX Classes
 90
        0
280
     0
281
     0
  0
ENDSEC
  0
SECTION
  2
TABLES
  0
TABLE
  2
VPORT
  5
8
330
0
100
AcDbSymbolTable
 70
     1
  0
VPORT
  5
29
330
8
100
AcDbSymbolTableRecord
100
AcDbViewportTableRecord
  2
*Active
 70
     0
 10
0.0
 20
0.0
 11
1.0
 21
1.0
 12
10000.0
 22
5000.0
 13
0.0
 23
0.0
 14
10.0
 24
10.0
 15
10.0
 25
10.0
 16
0.0
 26
0.0
 36
1.0
 17
0.0
 27
0.0
 37
0.0
 40
10000.0
 41
2.0
 42
50.0
 43
0.0
 44
0.0
 50
0.0
 51
0.0
 71
     0
 72
  2000
 73
     1
 74
     3
 75
     0
 76
     0
 77
     0
 78
     0
281
     0
 65
     1
110
0.0
120
0.0
130
0.0
111
1.0
121
0.0
131
0.0
112
0.0
122
1.0
132
0.0
 79
     0
146
0.0
  0
ENDTAB
  0
TABLE
  2
LTYPE
  5
5
330
0
100
AcDbSymbolTable
 70
     6
  0
LTYPE
  5
14
330
5
100
AcDbSymbolTableRecord
100
AcDbLinetypeTableRecord
  2
ByBlock
 70
     0
  3

 72
    65
 73
     0
 40
0.0
  0
LTYPE
  5
15
330
5
100
AcDbSymbolTableRecord
100
AcDbLinetypeTableRecord
  2
ByLayer
 70
     0
  3

 72
    65
 73
     0
 40
0.0
  0
LTYPE
  5
16
330
5
100
AcDbSymbolTableRecord
100
AcDbLinetypeTableRecord
  2
Continuous
 70
     0
  3
Solid line
 72
    65
 73
     0
 40
0.0
  0
LTYPE
  5
6E
330
5
100
AcDbSymbolTableRecord
100
AcDbLinetypeTableRecord
  2
HIDDEN
 70
     0
  3
Hidden __ __ __ __ __ __ __ __ __ __ __ __ __ __
 72
    65
 73
     2
 40
1.905
 49
1.27
 74
     0
 49
-0.635
 74
     0
  0
LTYPE
  5
6F
330
5
100
AcDbSymbolTableRecord
100
AcDbLinetypeTableRecord
  2
PHANTOM
 70
     0
  3
Phantom ______  __  __  ______  __  __  ______
 72
    65
 73
     6
 40
12.7
 49
6.35
 74
     0
 49
-1.27
 74
     0
 49
1.27
 74
     0
 49
-1.27
 74
     0
 49
1.27
 74
     0
 49
-1.27
 74
     0
  0
LTYPE
  5
70
330
5
100
AcDbSymbolTableRecord
100
AcDbLinetypeTableRecord
  2
CENTER
 70
     0
  3
Center ____ _ ____ _ ____ _ ____ _ ____ _ ____
 72
    65
 73
     4
 40
10.16
 49
6.35
 74
     0
 49
-1.27
 74
     0
 49
1.27
 74
     0
 49
-1.27
 74
     0
  0
LTYPE
  5
71
330
5
100
AcDbSymbolTableRecord
100
AcDbLinetypeTableRecord
  2
CENTERX2
 70
     0
  3
Center (2x) ________  __  ________  __  _____
 72
    65
 73
     4
 40
20.32
 49
12.7
 74
     0
 49
-2.54
 74
     0
 49
2.54
 74
     0
 49
-2.54
 74
     0
  0
LTYPE
  5
72
330
5
100
AcDbSymbolTableRecord
100
AcDbLinetypeTableRecord
  2
DOT2
 70
     0
  3
Dot (.5x) ........................................
 72
    65
 73
     2
 40
0.635
 49
0.0
 74
     0
 49
-0.635
 74
     0
  0
ENDTAB
  0
TABLE
  2
LAYER
  5
2
330
0
100
AcDbSymbolTable
 70
    13
  0
LAYER
  5
10
330
2
100
AcDbSymbolTableRecord
100
AcDbLayerTableRecord
  2
0
 70
     0
 62
     7
  6
Continuous
370
    -3
390
F
  0
LAYER
  5
73
330
2
100
AcDbSymbolTableRecord
100
AcDbLayerTableRecord
  2
FORMAT
 70
     0
 62
     7
  6
Continuous
370
    -3
390
F
  0
LAYER
  5
74
330
2
100
AcDbSymbolTableRecord
100
AcDbLayerTableRecord
  2
OSA
 70
     0
 62
     7
  6
CENTER
370
    -3
390
F
  0
LAYER
  5
75
330
2
100
AcDbSymbolTableRecord
100
AcDbLayerTableRecord
  2
0_35
 70
     0
 62
     7
  6
Continuous
370
    35
390
F
  0
LAYER
  5
76
330
2
100
AcDbSymbolTableRecord
100
AcDbLayerTableRecord
  2
0_5
 70
     0
 62
     7
  6
Continuous
370
    50
390
F
  0
LAYER
  5
77
330
2
100
AcDbSymbolTableRecord
100
AcDbLayerTableRecord
  2
0_25
 70
     0
 62
     7
  6
Continuous
370
    25
390
F
  0
LAYER
  5
78
330
2
100
AcDbSymbolTableRecord
100
AcDbLayerTableRecord
  2
0_18
 70
     0
 62
     7
  6
Continuous
370
    -3
390
F
  0
LAYER
  5
79
330
2
100
AcDbSymbolTableRecord
100
AcDbLayerTableRecord
  2
SLD-0
 70
     0
 62
   179
  6
Continuous
370
    -3
390
F
  0
LAYER
  5
7A
330
2
100
AcDbSymbolTableRecord
100
AcDbLayerTableRecord
  2
KOTY
 70
     0
 62
     7
  6
Continuous
370
    -3
390
F
  0
LAYER
  5
7B
330
2
100
AcDbSymbolTableRecord
100
AcDbLayerTableRecord
  2
SILNA
 70
     0
 62
   179
  6
Continuous
370
    -3
390
F
  0
LAYER
  5
7C
330
2
100
AcDbSymbolTableRecord
100
AcDbLayerTableRecord
  2
0_18_1
 70
     0
 62
   179
  6
Continuous
370
    -3
390
F
  0
LAYER
  5
7D
330
2
100
AcDbSymbolTableRecord
100
AcDbLayerTableRecord
  2
0_35_1
 70
     0
 62
   179
  6
Continuous
370
    35
390
F
  0
LAYER
  5
7E
330
2
100
AcDbSymbolTableRecord
100
AcDbLayerTableRecord
  2
0_5_1
 70
     0
 62
   179
  6
Continuous
370
    50
390
F
  0
ENDTAB
  0
TABLE
  2
STYLE
  5
3
330
0
100
AcDbSymbolTable
 70
     1
  0
STYLE
  5
11
330
3
100
AcDbSymbolTableRecord
100
AcDbTextStyleTableRecord
  2
Standard
 70
     0
 40
0.0
 41
1.0
 50
0.0
 71
     0
 42
2.0
  3
txt
  4

  0
ENDTAB
  0
TABLE
  2
VIEW
  5
6
330
0
100
AcDbSymbolTable
 70
     0
  0
ENDTAB
  0
TABLE
  2
UCS
  5
7
330
0
100
AcDbSymbolTable
 70
     0
  0
ENDTAB
  0
TABLE
  2
APPID
  5
9
330
0
100
AcDbSymbolTable
 70
     1
  0
APPID
  5
12
330
9
100
AcDbSymbolTableRecord
100
AcDbRegAppTableRecord
  2
ACAD
 70
     0
  0
ENDTAB
  0
TABLE
  2
DIMSTYLE
  5
A
330
0
100
AcDbSymbolTable
 70
     1
100
AcDbDimStyleTable
  0
DIMSTYLE
105
27
330
A
100
AcDbSymbolTableRecord
100
AcDbDimStyleTableRecord
  2
ISO-25
 70
     0
 41
2.5
 42
0.625
 43
3.75
 44
1.25
 73
     0
 74
     0
 77
     1
 78
     8
140
2.5
141
2.5
143
0.0393700787
147
0.625
171
     3
172
     1
178
     0
271
     2
272
     2
274
     3
278
    44
283
     0
284
     8
340
11
  0
ENDTAB
  0
TABLE
  2
BLOCK_RECORD
  5
1
330
0
100
AcDbSymbolTable
 70
     1
  0
BLOCK_RECORD
  5
1F
330
1
100
AcDbSymbolTableRecord
100
AcDbBlockTableRecord
  2
*Model_Space
340
22
  0
BLOCK_RECORD
  5
1B
330
1
100
AcDbSymbolTableRecord
100
AcDbBlockTableRecord
  2
*Paper_Space
340
1E
  0
BLOCK_RECORD
  5
23
330
1
100
AcDbSymbolTableRecord
100
AcDbBlockTableRecord
  2
*Paper_Space0
340
26
  0
ENDTAB
  0
ENDSEC
  0
SECTION
  2
BLOCKS
  0
BLOCK
  5
20
330
1F
100
AcDbEntity
  8
0
100
AcDbBlockBegin
  2
*Model_Space
 70
     0
 10
0.0
 20
0.0
 30
0.0
  3
*Model_Space
  1

  0
ENDBLK
  5
21
330
1F
100
AcDbEntity
  8
0
100
AcDbBlockEnd
  0
BLOCK
  5
1C
330
1B
100
AcDbEntity
 67
     1
  8
0
100
AcDbBlockBegin
  2
*Paper_Space
 70
     0
 10
0.0
 20
0.0
 30
0.0
  3
*Paper_Space
  1

  0
ENDBLK
  5
1D
330
1B
100
AcDbEntity
 67
     1
  8
0
100
AcDbBlockEnd
  0
BLOCK
  5
24
330
23
100
AcDbEntity
  8
0
100
AcDbBlockBegin
  2
*Paper_Space0
 70
     0
 10
0.0
 20
0.0
 30
0.0
  3
*Paper_Space0
  1

  0
ENDBLK
  5
25
330
23
100
AcDbEntity
  8
0
100
AcDbBlockEnd
  0
ENDSEC
  0
SECTION
  2
ENTITIES
  0
LINE
  5
7F
330
1F
100
AcDbEntity
  8
0
  6
Continuous
 62
     7
370
    25
100
AcDbLine
 10
6391.8800963089
 20
5715.9209182916
 30
0.0
 11
6031.8800963089
 21
5715.9209182916
 31
0.0
  0
ARC
  5
80
330
1F
100
AcDbEntity
  8
0
  6
Continuous
 62
     7
370
    25
100
AcDbCircle
 10
6033.8800963089
 20
5715.9209182916
 30
0.0
 40
2.0
100
AcDbArc
 50
90.0
 51
180.0
  0
LINE
  5
81
330
1F
100
AcDbEntity
  8
0
  6
Continuous
 62
     7
370
    25
100
AcDbLine
 10
6033.8800963089
 20
5717.9209182916
 30
0.0
 11
6389.8800963089
 21
5717.9209182916
 31
0.0
  0
ARC
  5
82
330
1F
100
AcDbEntity
  8
0
  6
Continuous
 62
     7
370
    25
100
AcDbCircle
 10
6389.8800963089
 20
5715.9209182916
 30
0.0
 40
2.000000000000909
100
AcDbArc
 50
0.0
 51
90.0
  0
LINE
  5
83
330
1F
100
AcDbEntity
  8
0
  6
Continuous
 62
     7
370
    25
100
AcDbLine
 10
6031.8800963089
 20
4867.9209182916
 30
0.0
 11
6031.8800963089
 21
5715.9209182916
 31
0.0
  0
LINE
  5
84
330
1F
100
AcDbEntity
  8
0
  6
Continuous
 62
     7
370
    25
100
AcDbLine
 10
6391.8800963089
 20
4867.9209182916
 30
0.0
 11
6391.8800963089
 21
5715.9209182916
 31
0.0
  0
LINE
  5
85
330
1F
100
AcDbEntity
  8
0
  6
Continuous
 62
     7
370
    25
100
AcDbLine
 10
6031.8800963089
 20
4867.9209182916
 30
0.0
 11
6121.8800963089
 21
4867.9209182916
 31
0.0
  0
LINE
  5
86
330
1F
100
AcDbEntity
  8
0
  6
Continuous
 62
     7
370
    25
100
AcDbLine
 10
6301.8800963089
 20
4867.9209182916
 30
0.0
 11
6391.8800963089
 21
4867.9209182916
 31
0.0
  0
CIRCLE
  5
87
330
1F
100
AcDbEntity
  8
0
  6
Continuous
 62
     7
370
    25
100
AcDbCircle
 10
6111.8800963089
 20
5777.9209182916
 30
0.0
 40
22.5
  0
CIRCLE
  5
88
330
1F
100
AcDbEntity
  8
0
  6
Continuous
 62
     7
370
    25
100
AcDbCircle
 10
6111.8800963089
 20
5777.9209182916
 30
0.0
 40
14.99999999999909
  0
CIRCLE
  5
89
330
1F
100
AcDbEntity
  8
0
  6
Continuous
 62
     7
370
    25
100
AcDbCircle
 10
6311.8800963089
 20
5777.9209182916
 30
0.0
 40
14.99999999999909
  0
CIRCLE
  5
8A
330
1F
100
AcDbEntity
  8
0
  6
Continuous
 62
     7
370
    25
100
AcDbCircle
 10
6311.8800963089
 20
5777.9209182916
 30
0.0
 40
22.5
  0
LINE
  5
8B
330
1F
100
AcDbEntity
  8
0
  6
Continuous
 62
     7
370
    25
100
AcDbLine
 10
6033.8800963089
 20
5873.9209182916
 30
0.0
 11
6033.8800963089
 21
5742.9209182916
 31
0.0
  0
LINE
  5
8C
330
1F
100
AcDbEntity
  8
0
  6
Continuous
 62
     7
370
    25
100
AcDbLine
 10
6033.8800963089
 20
5742.9209182916
 30
0.0
 11
6031.8800963089
 21
5740.9209182916
 31
0.0
  0
LINE
  5
8D
330
1F
100
AcDbEntity
  8
0
  6
Continuous
 62
     7
370
    25
100
AcDbLine
 10
6033.8800963089
 20
5873.9209182916
 30
0.0
 11
6031.8800963089
 21
5873.9209182916
 31
0.0
  0
LINE
  5
8E
330
1F
100
AcDbEntity
  8
0
  6
Continuous
 62
     7
370
    25
100
AcDbLine
 10
6031.8800963089
 20
5740.9209182916
 30
0.0
 11
6031.8800963089
 21
5873.9209182916
 31
0.0
  0
LINE
  5
8F
330
1F
100
AcDbEntity
  8
0
  6
Continuous
 62
     7
370
    25
100
AcDbLine
 10
6033.8800963089
 20
5742.9209182916
 30
0.0
 11
6389.8800963089
 21
5742.9209182916
 31
0.0
  0
LINE
  5
90
330
1F
100
AcDbEntity
  8
0
  6
Continuous
 62
     7
370
    25
100
AcDbLine
 10
6391.8800963089
 20
5740.9209182916
 30
0.0
 11
6389.8800963089
 21
5742.9209182916
 31
0.0
  0
LINE
  5
91
330
1F
100
AcDbEntity
  8
0
  6
Continuous
 62
     7
370
    25
100
AcDbLine
 10
6391.8800963089
 20
5740.9209182916
 30
0.0
 11
6031.8800963089
 21
5740.9209182916
 31
0.0
  0
LINE
  5
92
330
1F
100
AcDbEntity
  8
0
  6
Continuous
 62
     7
370
    25
100
AcDbLine
 10
6389.8800963089
 20
5873.9209182916
 30
0.0
 11
6033.8800963089
 21
5873.9209182916
 31
0.0
  0
LINE
  5
93
330
1F
100
AcDbEntity
  8
0
  6
Continuous
 62
     7
370
    25
100
AcDbLine
 10
6033.8800963089
 20
5873.9209182916
 30
0.0
 11
6033.8800963089
 21
5875.9209182916
 31
0.0
  0
LINE
  5
94
330
1F
100
AcDbEntity
  8
0
  6
Continuous
 62
     7
370
    25
100
AcDbLine
 10
6033.8800963089
 20
5875.9209182916
 30
0.0
 11
6389.8800963089
 21
5875.9209182916
 31
0.0
  0
LINE
  5
95
330
1F
100
AcDbEntity
  8
0
  6
Continuous
 62
     7
370
    25
100
AcDbLine
 10
6389.8800963089
 20
5875.9209182916
 30
0.0
 11
6389.8800963089
 21
5873.9209182916
 31
0.0
  0
ARC
  5
96
330
1F
100
AcDbEntity
  8
0
  6
Continuous
 62
     7
370
    25
100
AcDbCircle
 10
6033.8800963089
 20
5873.9209182916
 30
0.0
 40
2.000000000000909
100
AcDbArc
 50
90.0
 51
180.0
  0
LINE
  5
97
330
1F
100
AcDbEntity
  8
0
  6
Continuous
 62
     7
370
    25
100
AcDbLine
 10
6391.8800963089
 20
5873.9209182916
 30
0.0
 11
6389.8800963089
 21
5873.9209182916
 31
0.0
  0
ARC
  5
98
330
1F
100
AcDbEntity
  8
0
  6
Continuous
 62
     7
370
    25
100
AcDbCircle
 10
6389.8800963089
 20
5873.9209182916
 30
0.0
 40
2.000000000000909
100
AcDbArc
 50
0.0
 51
90.0
  0
LINE
  5
99
330
1F
100
AcDbEntity
  8
0
  6
Continuous
 62
     7
370
    25
100
AcDbLine
 10
6389.8800963089
 20
5742.9209182916
 30
0.0
 11
6389.8800963089
 21
5873.9209182916
 31
0.0
  0
LINE
  5
9A
330
1F
100
AcDbEntity
  8
0
  6
Continuous
 62
     7
370
    25
100
AcDbLine
 10
6391.8800963089
 20
5873.9209182916
 30
0.0
 11
6391.8800963089
 21
5740.9209182916
 31
0.0
  0
LINE
  5
9B
330
1F
100
AcDbEntity
  8
0
  6
Continuous
 62
     7
370
    25
100
AcDbLine
 10
6033.8800963089
 20
5740.9209182916
 30
0.0
 11
6033.8800963089
 21
5717.9209182916
 31
0.0
  0
LINE
  5
9C
330
1F
100
AcDbEntity
  8
0
  6
Continuous
 62
     7
370
    25
100
AcDbLine
 10
6031.8800963089
 20
5715.9209182916
 30
0.0
 11
6031.8800963089
 21
5740.9209182916
 31
0.0
  0
LINE
  5
9D
330
1F
100
AcDbEntity
  8
0
  6
Continuous
 62
     7
370
    25
100
AcDbLine
 10
6389.8800963089
 20
5717.9209182916
 30
0.0
 11
6389.8800963089
 21
5740.9209182916
 31
0.0
  0
LINE
  5
9E
330
1F
100
AcDbEntity
  8
0
  6
Continuous
 62
     7
370
    25
100
AcDbLine
 10
6391.8800963089
 20
5740.9209182916
 30
0.0
 11
6391.8800963089
 21
5715.9209182916
 31
0.0
  0
SPLINE
  5
9F
330
1F
100
AcDbEntity
  8
0
  6
Continuous
 62
     7
370
    25
100
AcDbSpline
210
0.0
220
0.0
230
1.0
 70
     8
 71
     3
 72
    66
 73
    62
 74
     0
 42
0.00000001
 43
0.00000001
 40
0.0
 40
0.0
 40
0.0
 40
0.0
 40
0.0312499999999999
 40
0.0312499999999999
 40
0.0468749999999996
 40
0.0468749999999996
 40
0.0624999999999992
 40
0.0624999999999992
 40
0.1249999999999985
 40
0.1249999999999985
 40
0.1874999999999978
 40
0.1874999999999978
 40
0.2031249999999979
 40
0.2031249999999979
 40
0.218749999999998
 40
0.218749999999998
 40
0.2499999999999983
 40
0.2499999999999983
 40
0.3124999999999993
 40
0.3124999999999993
 40
0.3437499999999998
 40
0.3437499999999998
 40
0.3593750000000001
 40
0.3593750000000001
 40
0.3750000000000003
 40
0.3750000000000003
 40
0.4375000000000006
 40
0.4375000000000006
 40
0.5000000000000008
 40
0.5000000000000008
 40
0.5156250000000009
 40
0.5156250000000009
 40
0.5312500000000009
 40
0.5312500000000009
 40
0.5625000000000011
 40
0.5625000000000011
 40
0.6250000000000012
 40
0.6250000000000012
 40
0.6562500000000013
 40
0.6562500000000013
 40
0.6718750000000013
 40
0.6718750000000013
 40
0.6875000000000012
 40
0.6875000000000012
 40
0.750000000000001
 40
0.750000000000001
 40
0.8125000000000008
 40
0.8125000000000008
 40
0.8281250000000006
 40
0.8281250000000006
 40
0.8437500000000004
 40
0.8437500000000004
 40
0.8750000000000002
 40
0.8750000000000002
 40
0.8906250000000006
 40
0.8906250000000006
 40
0.9062500000000009
 40
0.9062500000000009
 40
0.9375000000000006
 40
0.9375000000000006
 40
1.0
 40
1.0
 40
1.0
 40
1.0
 10
6354.077313387759
 20
5264.411794912297
 30
0.0
 10
6352.288585239829
 20
5264.407065692547
 30
0.0
 10
6350.397776195709
 20
5264.402452621162
 30
0.0
 10
6347.40906245465
 20
5264.39569149336
 30
0.0
 10
6346.386255033977
 20
5264.393462025508
 30
0.0
 10
6344.29838630756
 20
5264.389072636333
 30
0.0
 10
6343.232716132192
 20
5264.386910668767
 30
0.0
 10
6337.796968443605
 20
5264.376266512626
 30
0.0
 10
6333.106746118786
 20
5264.368312179667
 30
0.0
 10
6323.057658556743
 20
5264.353375849252
 30
0.0
 10
6317.69893941576
 20
5264.346438736809
 30
0.0
 10
6310.569897817414
 20
5264.338383564338
 30
0.0
 10
6309.120164599836
 20
5264.336804024423
 30
0.0
 10
6306.187728560373
 20
5264.333722580421
 30
0.0
 10
6304.707928790991
 20
5264.332223524316
 30
0.0
 10
6300.228395830984
 20
5264.327846524488
 30
0.0
 10
6297.188588330727
 20
5264.325087866298
 30
0.0
 10
6287.911435648526
 20
5264.317271264506
 30
0.0
 10
6281.517341181641
 20
5264.312697824651
 30
0.0
 10
6271.611880414604
 20
5264.306736526149
 30
0.0
 10
6268.257449445844
 20
5264.304907684185
 30
0.0
 10
6263.145496372273
 20
5264.302396533586
 30
0.0
 10
6261.428112531859
 20
5264.301598267461
 30
0.0
 10
6257.966123580028
 20
5264.300079663557
 30
0.0
 10
6256.229107017626
 20
5264.299362668939
 30
0.0
 10
6247.530302179284
 20
5264.295993158608
 30
0.0
 10
6240.511023979546
 20
5264.29398835597
 30
0.0
 10
6226.355352014295
 20
5264.291291199604
 30
0.0
 10
6219.218953467072
 20
5264.290608775912
 30
0.0
 10
6210.223534554348
 20
5264.29059750321
 30
0.0
 10
6208.420683162774
 20
5264.290637913143
 30
0.0
 10
6204.807351482003
 20
5264.29080459021
 30
0.0
 10
6202.997364569088
 20
5264.290931040108
 30
0.0
 10
6197.596524834709
 20
5264.29143617036
 30
0.0
 10
6194.021187599091
 20
5264.291940643089
 30
0.0
 10
6183.369356445684
 20
5264.293956261328
 30
0.0
 10
6176.366621036269
 20
5264.295953503231
 30
0.0
 10
6166.00937538899
 20
5264.299945726819
 30
0.0
 10
6162.581551170228
 20
5264.301440221506
 30
0.0
 10
6157.477224589038
 20
5264.303933384177
 30
0.0
 10
6155.78202425205
 20
5264.304806510668
 30
0.0
 10
6152.404281648093
 20
5264.306639409402
 30
0.0
 10
6150.718935149757
 20
5264.307600967675
 30
0.0
 10
6142.380035799296
 20
5264.312599624503
 30
0.0
 10
6135.960387720787
 20
5264.317187899754
 30
0.0
 10
6123.606589383128
 20
5264.327575596872
 30
0.0
 10
6117.672578059967
 20
5264.333343453154
 30
0.0
 10
6110.563775144564
 20
5264.34134576164
 30
0.0
 10
6109.157543297856
 20
5264.342984822194
 30
0.0
 10
6106.3764704885
 20
5264.346338953473
 30
0.0
 10
6105.000293253644
 20
5264.348056249382
 30
0.0
 10
6100.92918209954
 20
5264.353315254033
 30
0.0
 10
6098.298232845247
 20
5264.356954584212
 30
0.0
 10
6094.476566325548
 20
5264.362627276731
 30
0.0
 10
6093.22237046397
 20
5264.364553591692
 30
0.0
 10
6090.762143290737
 20
5264.368461798689
 30
0.0
 10
6089.556282103156
 20
5264.370443736203
 30
0.0
 10
6086.010727741076
 20
5264.376475188553
 30
0.0
 10
6083.742956139216
 20
5264.380610026675
 30
0.0
 10
6077.225584527338
 20
5264.393384813335
 30
0.0
 10
6073.260327182831
 20
5264.402336494855
 30
0.0
 10
6069.682879232618
 20
5264.411794912292
 30
0.0
  0
ARC
  5
A0
330
1F
100
AcDbEntity
  8
0
  6
Continuous
 62
     7
370
    25
100
AcDbCircle
 10
6071.553024337
 20
5264.9764627852
 30
0.0
 40
1.95353334193376
100
AcDbArc
 50
95.5256922381
 51
196.801060675
  0
ARC
  5
A1
330
1F
100
AcDbEntity
  8
0
  6
Continuous
 62
     7
370
    25
100
AcDbCircle
 10
6352.2071682834
 20
5264.9764627852
 30
0.0
 40
1.953533341936211
100
AcDbArc
 50
343.1989393253
 51
84.4743077626
  0
SPLINE
  5
A2
330
1F
100
AcDbEntity
  8
0
  6
Continuous
 62
     7
370
    25
100
AcDbSpline
210
0.0
220
0.0
230
1.0
 70
    24
 71
     3
 72
    62
 73
    58
 74
     0
 42
0.00000001
 43
0.00000001
 40
0.0
 40
0.0
 40
0.0
 40
0.0
 40
0.0624999999999989
 40
0.0624999999999989
 40
0.1249999999999978
 40
0.1249999999999978
 40
0.1562499999999972
 40
0.1562499999999972
 40
0.1718749999999972
 40
0.1718749999999972
 40
0.1874999999999973
 40
0.1874999999999973
 40
0.2499999999999973
 40
0.2499999999999973
 40
0.3124999999999973
 40
0.3124999999999973
 40
0.3281249999999973
 40
0.3281249999999973
 40
0.3437499999999973
 40
0.3437499999999973
 40
0.3749999999999973
 40
0.3749999999999973
 40
0.4374999999999973
 40
0.4374999999999973
 40
0.4687499999999973
 40
0.4687499999999973
 40
0.4843749999999973
 40
0.4843749999999973
 40
0.4999999999999972
 40
0.4999999999999972
 40
0.5624999999999972
 40
0.5624999999999972
 40
0.6249999999999972
 40
0.6249999999999972
 40
0.640624999999997
 40
0.640624999999997
 40
0.6562499999999969
 40
0.6562499999999969
 40
0.6874999999999968
 40
0.6874999999999968
 40
0.7499999999999969
 40
0.7499999999999969
 40
0.7812499999999968
 40
0.7812499999999968
 40
0.7968749999999966
 40
0.7968749999999966
 40
0.8124999999999964
 40
0.8124999999999964
 40
0.8749999999999972
 40
0.8749999999999972
 40
0.937499999999998
 40
0.937499999999998
 40
0.9531249999999982
 40
0.9531249999999982
 40
0.9687499999999986
 40
0.9687499999999986
 40
1.0
 40
1.0
 40
1.0
 40
1.0
 10
6071.364914523492
 20
5266.920918291567
 30
0.0
 10
6074.90171559096
 20
5266.920918291567
 30
0.0
 10
6078.811166396586
 20
5266.920918291567
 30
0.0
 10
6087.345850715107
 20
5266.920918291567
 30
0.0
 10
6091.97107076183
 20
5266.920918291566
 30
0.0
 10
6099.451931227438
 20
5266.920918291566
 30
0.0
 10
6102.036434410766
 20
5266.920918291567
 30
0.0
 10
6106.052698722976
 20
5266.920918291567
 30
0.0
 10
6107.41319903928
 20
5266.920918291567
 30
0.0
 10
6110.160684891331
 20
5266.920918291567
 30
0.0
 10
6111.549988455966
 20
5266.920918291567
 30
0.0
 10
6118.573476252795
 20
5266.920918291567
 30
0.0
 10
6124.43712470726
 20
5266.920918291566
 30
0.0
 10
6136.645649081361
 20
5266.920918291566
 30
0.0
 10
6142.990442702873
 20
5266.920918291567
 30
0.0
 10
6151.232688416604
 20
5266.920918291567
 30
0.0
 10
6152.898996973424
 20
5266.920918291566
 30
0.0
 10
6156.239188276178
 20
5266.920918291566
 30
0.0
 10
6157.915559886282
 20
5266.920918291567
 30
0.0
 10
6162.963239297879
 20
5266.920918291567
 30
0.0
 10
6166.353083967649
 20
5266.920918291567
 30
0.0
 10
6176.595732895068
 20
5266.920918291567
 30
0.0
 10
6183.521211871473
 20
5266.920918291567
 30
0.0
 10
6194.055773843507
 20
5266.920918291567
 30
0.0
 10
6197.591794509752
 20
5266.920918291567
 30
0.0
 10
6202.933301366532
 20
5266.920918291567
 30
0.0
 10
6204.723347383103
 20
5266.920918291567
 30
0.0
 10
6208.298250545443
 20
5266.920918291567
 30
0.0
 10
6210.081920258264
 20
5266.920918291566
 30
0.0
 10
6218.981594112025
 20
5266.920918291567
 30
0.0
 10
6226.041910383165
 20
5266.920918291567
 30
0.0
 10
6240.046485030705
 20
5266.920918291567
 30
0.0
 10
6246.99074039939
 20
5266.920918291567
 30
0.0
 10
6255.596472761024
 20
5266.920918291567
 30
0.0
 10
6257.314532096305
 20
5266.920918291567
 30
0.0
 10
6260.740313130118
 20
5266.920918291567
 30
0.0
 10
6262.439710992409
 20
5266.920918291567
 30
0.0
 10
6267.498060026787
 20
5266.920918291567
 30
0.0
 10
6270.817226682438
 20
5266.920918291567
 30
0.0
 10
6280.618313797682
 20
5266.920918291567
 30
0.0
 10
6286.944699465063
 20
5266.920918291567
 30
0.0
 10
6296.123195901024
 20
5266.920918291567
 30
0.0
 10
6299.130600707743
 20
5266.920918291566
 30
0.0
 10
6303.562276149993
 20
5266.920918291566
 30
0.0
 10
6305.02624793737
 20
5266.920918291567
 30
0.0
 10
6307.927281721798
 20
5266.920918291567
 30
0.0
 10
6309.361762319275
 20
5266.920918291567
 30
0.0
 10
6316.415190498547
 20
5266.920918291567
 30
0.0
 10
6321.716542350312
 20
5266.920918291567
 30
0.0
 10
6331.657109149975
 20
5266.920918291567
 30
0.0
 10
6336.29617433308
 20
5266.920918291567
 30
0.0
 10
6341.671973595267
 20
5266.920918291567
 30
0.0
 10
6342.725854591989
 20
5266.920918291566
 30
0.0
 10
6344.790552068247
 20
5266.920918291566
 30
0.0
 10
6345.801984315211
 20
5266.920918291567
 30
0.0
 10
6348.757342421751
 20
5266.920918291567
 30
0.0
 10
6350.626871451342
 20
5266.920918291567
 30
0.0
 10
6352.395278096854
 20
5266.920918291567
 30
0.0
  0
SPLINE
  5
A3
330
1F
100
AcDbEntity
  8
0
  6
Continuous
 62
     7
370
    25
100
AcDbSpline
210
0.0
220
0.0
230
1.0
 70
     8
 71
     3
 72
    20
 73
    16
 74
     0
 42
0.00000001
 43
0.00000001
 40
0.0
 40
0.0
 40
0.0
 40
0.0
 40
0.0624999999999996
 40
0.0624999999999996
 40
0.1249999999999992
 40
0.1249999999999992
 40
0.2499999999999984
 40
0.2499999999999984
 40
0.3749999999999976
 40
0.3749999999999976
 40
0.4999999999999968
 40
0.4999999999999968
 40
0.7499999999999983
 40
0.7499999999999983
 40
1.0
 40
1.0
 40
1.0
 40
1.0
 10
6069.682879232618
 20
5264.411794912291
 30
0.0
 10
6068.672166411174
 20
5264.41446713671
 30
0.0
 10
6067.682794473652
 20
5264.415646494189
 30
0.0
 10
6065.740177554065
 20
5264.41932094505
 30
0.0
 10
6064.787820451103
 20
5264.421124308252
 30
0.0
 10
6061.989509399196
 20
5264.426426325284
 30
0.0
 10
6060.203618960828
 20
5264.429814542597
 30
0.0
 10
6056.790280785627
 20
5264.436281527092
 30
0.0
 10
6055.162823469357
 20
5264.439363796573
 30
0.0
 10
6052.066715015571
 20
5264.445216123605
 30
0.0
 10
6050.596660320106
 20
5264.447988632855
 30
0.0
 10
6046.439682104505
 20
5264.455787819259
 30
0.0
 10
6044.003729624927
 20
5264.460312790487
 30
0.0
 10
6039.796589098986
 20
5264.467964519682
 30
0.0
 10
6038.025383081594
 20
5264.471099312389
 30
0.0
 10
6036.590843796321
 20
5264.473522971891
 30
0.0
  0
SPLINE
  5
A4
330
1F
100
AcDbEntity
  8
0
  6
Continuous
 62
     7
370
    25
100
AcDbSpline
210
0.0
220
0.0
230
1.0
 70
     8
 71
     3
 72
    24
 73
    20
 74
     0
 42
0.00000001
 43
0.00000001
 40
0.0
 40
0.0
 40
0.0
 40
0.0
 40
0.1249999999999974
 40
0.1249999999999974
 40
0.2499999999999949
 40
0.2499999999999949
 40
0.3749999999999923
 40
0.3749999999999923
 40
0.4374999999999927
 40
0.4374999999999927
 40
0.499999999999993
 40
0.499999999999993
 40
0.7499999999999949
 40
0.7499999999999949
 40
0.8749999999999972
 40
0.8749999999999972
 40
0.9374999999999986
 40
0.9374999999999986
 40
1.0
 40
1.0
 40
1.0
 40
1.0
 10
6387.169348821529
 20
5264.473522971891
 30
0.0
 10
6386.452100282572
 20
5264.472311177794
 30
0.0
 10
6385.649291594553
 20
5264.470918645713
 30
0.0
 10
6383.873666143158
 20
5264.467778966825
 30
0.0
 10
6382.901926951998
 20
5264.466033802345
 30
0.0
 10
6380.79150785115
 20
5264.462195068848
 30
0.0
 10
6379.652822170867
 20
5264.460099557165
 30
0.0
 10
6377.819312743115
 20
5264.456698977707
 30
0.0
 10
6377.187225066687
 20
5264.455522524562
 30
0.0
 10
6375.881116615492
 20
5264.453084416704
 30
0.0
 10
6375.206991794507
 20
5264.45182262666
 30
0.0
 10
6371.73885121853
 20
5264.445315188625
 30
0.0
 10
6368.647205497782
 20
5264.439459444708
 30
0.0
 10
6363.538496332468
 20
5264.429780252176
 30
0.0
 10
6361.756977306963
 20
5264.42640034312
 30
0.0
 10
6358.96621874383
 20
5264.421112655929
 30
0.0
 10
6358.016215413386
 20
5264.419313754902
 30
0.0
 10
6356.07656951542
 20
5264.415644929974
 30
0.0
 10
6355.088043807765
 20
5264.414467183246
 30
0.0
 10
6354.077313387759
 20
5264.411794912297
 30
0.0
  0
SPLINE
  5
A5
330
1F
100
AcDbEntity
  8
0
  6
Continuous
 62
     7
370
    25
100
AcDbSpline
210
0.0
220
0.0
230
1.0
 70
     8
 71
     3
 72
    12
 73
     8
 74
     0
 42
0.00000001
 43
0.00000001
 40
0.0
 40
0.0
 40
0.0
 40
0.0
 40
0.25
 40
0.25
 40
0.5
 40
0.5
 40
1.0
 40
1.0
 40
1.0
 40
1.0
 10
6391.329704242831
 20
5264.480846798589
 30
0.0
 10
6391.32970424282
 20
5264.480846798589
 30
0.0
 10
6391.242317605375
 20
5264.480436674674
 30
0.0
 10
6390.894341442786
 20
5264.479646519078
 30
0.0
 10
6390.633309229913
 20
5264.479179483489
 30
0.0
 10
6389.592071839802
 20
5264.477474872005
 30
0.0
 10
6388.55323509815
 20
5264.475861052942
 30
0.0
 10
6387.169348821529
 20
5264.473522971891
 30
0.0
  0
LINE
  5
A6
330
1F
100
AcDbEntity
  8
0
  6
Continuous
 62
     7
370
    25
100
AcDbLine
 10
6391.3297042428
 20
5264.4808467986
 30
0.0
 11
6301.8800963089
 21
4867.9209182916
 31
0.0
  0
LINE
  5
A7
330
1F
100
AcDbEntity
  8
0
  6
Continuous
 62
     7
370
    25
100
AcDbLine
 10
6121.8800963089
 20
4867.9209182916
 30
0.0
 11
6301.8800963089
 21
4867.9209182916
 31
0.0
  0
LINE
  5
A8
330
1F
100
AcDbEntity
  8
0
  6
Continuous
 62
     7
370
    25
100
AcDbLine
 10
6121.8800963089
 20
4867.9209182916
 30
0.0
 11
6032.430488375
 21
5264.4808467986
 31
0.0
  0
SPLINE
  5
A9
330
1F
100
AcDbEntity
  8
0
  6
Continuous
 62
     7
370
    25
100
AcDbSpline
210
0.0
220
0.0
230
1.0
 70
     8
 71
     3
 72
    12
 73
     8
 74
     0
 42
0.00000001
 43
0.00000001
 40
0.0
 40
0.0
 40
0.0
 40
0.0
 40
0.2500000000000001
 40
0.2500000000000001
 40
0.5000000000000001
 40
0.5000000000000001
 40
1.0
 40
1.0
 40
1.0
 40
1.0
 10
6036.590843796321
 20
5264.473522971891
 30
0.0
 10
6035.898900260445
 20
5264.474692013088
 30
0.0
 10
6035.292916177646
 20
5264.475709622976
 30
0.0
 10
6034.252928360714
 20
5264.477369793087
 30
0.0
 10
6033.819354436733
 20
5264.478045768329
 30
0.0
 10
6032.778837669803
 20
5264.479749417356
 30
0.0
 10
6032.430488375001
 20
5264.480846798589
 30
0.0
 10
6032.430488375001
 20
5264.480846798589
 30
0.0
  0
ARC
  5
AA
330
1F
100
AcDbEntity
  8
0
  6
Continuous
 62
     7
370
    25
100
AcDbCircle
 10
6038.5302988532
 20
5264.9288375534
 30
0.0
 40
1.992184049223445
100
AcDbArc
 50
90.5835098107
 51
193.2117463021
  0
SPLINE
  5
AB
330
1F
100
AcDbEntity
  8
0
  6
Continuous
 62
     7
370
    25
100
AcDbSpline
210
0.0
220
0.0
230
1.0
 70
    24
 71
     3
 72
    18
 73
    14
 74
     0
 42
0.00000001
 43
0.00000001
 40
0.0
 40
0.0
 40
0.0
 40
0.0
 40
0.2499999999999999
 40
0.2499999999999999
 40
0.4999999999999998
 40
0.4999999999999998
 40
0.7499999999999997
 40
0.7499999999999997
 40
0.8749999999999998
 40
0.8749999999999998
 40
0.9374999999999999
 40
0.9374999999999999
 40
1.0
 40
1.0
 40
1.0
 40
1.0
 10
6038.510010468086
 20
5266.920918291567
 30
0.0
 10
6039.941125633189
 20
5266.920918291567
 30
0.0
 10
6041.706073487727
 20
5266.920918291567
 30
0.0
 10
6045.885375005583
 20
5266.920918291567
 30
0.0
 10
6048.299783757609
 20
5266.920918291567
 30
0.0
 10
6053.774379612209
 20
5266.920918291567
 30
0.0
 10
6056.834586497207
 20
5266.920918291567
 30
0.0
 10
6061.916787756131
 20
5266.920918291567
 30
0.0
 10
6063.692908379241
 20
5266.920918291567
 30
0.0
 10
6066.482317039479
 20
5266.920918291567
 30
0.0
 10
6067.43231483608
 20
5266.920918291567
 30
0.0
 10
6069.369823327241
 20
5266.920918291567
 30
0.0
 10
6070.35684040514
 20
5266.920918291567
 30
0.0
 10
6071.364914523492
 20
5266.920918291567
 30
0.0
  0
ARC
  5
AC
330
1F
100
AcDbEntity
  8
0
  6
Continuous
 62
     7
370
    25
100
AcDbCircle
 10
6385.2298937646
 20
5264.9288375534
 30
0.0
 40
1.992184049221626
100
AcDbArc
 50
346.7882536978
 51
89.4164901893
  0
SPLINE
  5
AD
330
1F
100
AcDbEntity
  8
0
  6
Continuous
 62
     7
370
    25
100
AcDbSpline
210
0.0
220
0.0
230
1.0
 70
    24
 71
     3
 72
    18
 73
    14
 74
     0
 42
0.00000001
 43
0.00000001
 40
0.0
 40
0.0
 40
0.0
 40
0.0
 40
0.1249999999999997
 40
0.1249999999999997
 40
0.2499999999999994
 40
0.2499999999999994
 40
0.4999999999999984
 40
0.4999999999999984
 40
0.7499999999999976
 40
0.7499999999999976
 40
0.8749999999999988
 40
0.8749999999999988
 40
1.0
 40
1.0
 40
1.0
 40
1.0
 10
6352.395278096854
 20
5266.920918291567
 30
0.0
 10
6354.411571614842
 20
5266.920918291567
 30
0.0
 10
6356.341423230184
 20
5266.920918291567
 30
0.0
 10
6360.042983381976
 20
5266.920918291567
 30
0.0
 10
6361.812668743373
 20
5266.920918291567
 30
0.0
 10
6366.881391240272
 20
5266.920918291566
 30
0.0
 10
6369.940381961585
 20
5266.920918291567
 30
0.0
 10
6375.421559892709
 20
5266.920918291567
 30
0.0
 10
6377.843800053948
 20
5266.920918291567
 30
0.0
 10
6380.992084979507
 20
5266.920918291567
 30
0.0
 10
6381.960608526468
 20
5266.920918291567
 30
0.0
 10
6383.733032832492
 20
5266.920918291567
 30
0.0
 10
6384.534623402821
 20
5266.920918291567
 30
0.0
 10
6385.250182149764
 20
5266.920918291567
 30
0.0
  0
ARC
  5
AE
330
1F
100
AcDbEntity
  8
0
  6
Continuous
 62
     7
370
    25
100
AcDbCircle
 10
6034.3814719939
 20
5264.9209182916
 30
0.0
 40
2.000000000000909
100
AcDbArc
 50
90.0
 51
192.7111325655
  0
SPLINE
  5
AF
330
1F
100
AcDbEntity
  8
0
  6
Continuous
 62
     7
370
    25
100
AcDbSpline
210
0.0
220
0.0
230
1.0
 70
    24
 71
     3
 72
    12
 73
     8
 74
     0
 42
0.00000001
 43
0.00000001
 40
0.0
 40
0.0
 40
0.0
 40
0.0
 40
0.25
 40
0.25
 40
0.5
 40
0.5
 40
1.0
 40
1.0
 40
1.0
 40
1.0
 10
6034.381471993863
 20
5266.920918291567
 30
0.0
 10
6034.381471993863
 20
5266.920918291567
 30
0.0
 10
6034.468134912227
 20
5266.920918291567
 30
0.0
 10
6034.813405633433
 20
5266.920918291567
 30
0.0
 10
6035.072430658523
 20
5266.920918291567
 30
0.0
 10
6036.105742688681
 20
5266.920918291567
 30
0.0
 10
6037.136696610635
 20
5266.920918291567
 30
0.0
 10
6038.510010468086
 20
5266.920918291567
 30
0.0
  0
ARC
  5
B0
330
1F
100
AcDbEntity
  8
0
  6
Continuous
 62
     7
370
    25
100
AcDbCircle
 10
6389.378720624
 20
5264.9209182916
 30
0.0
 40
2.000000000000909
100
AcDbArc
 50
347.2888674345
 51
90.0
  0
SPLINE
  5
B1
330
1F
100
AcDbEntity
  8
0
  6
Continuous
 62
     7
370
    25
100
AcDbSpline
210
0.0
220
0.0
230
1.0
 70
    24
 71
     3
 72
    10
 73
     6
 74
     0
 42
0.00000001
 43
0.00000001
 40
0.0
 40
0.0
 40
0.0
 40
0.0
 40
0.5
 40
0.5
 40
1.0
 40
1.0
 40
1.0
 40
1.0
 10
6385.250182149764
 20
5266.920918291567
 30
0.0
 10
6386.626237879485
 20
5266.920918291567
 30
0.0
 10
6387.656286447831
 20
5266.920918291567
 30
0.0
 10
6389.031769260082
 20
5266.920918291567
 30
0.0
 10
6389.378720623947
 20
5266.920918291567
 30
0.0
 10
6389.378720623969
 20
5266.920918291567
 30
0.0
  0
SPLINE
  5
B2
330
1F
100
AcDbEntity
  8
0
  6
Continuous
 62
     7
370
    25
100
AcDbSpline
210
0.0
220
0.0
230
1.0
 70
     8
 71
     3
 72
    66
 73
    62
 74
     0
 42
0.00000001
 43
0.00000001
 40
0.0
 40
0.0
 40
0.0
 40
0.0
 40
0.0312499999999999
 40
0.0312499999999999
 40
0.0468749999999996
 40
0.0468749999999996
 40
0.0624999999999992
 40
0.0624999999999992
 40
0.1249999999999985
 40
0.1249999999999985
 40
0.1874999999999978
 40
0.1874999999999978
 40
0.2031249999999979
 40
0.2031249999999979
 40
0.218749999999998
 40
0.218749999999998
 40
0.2499999999999983
 40
0.2499999999999983
 40
0.3124999999999993
 40
0.3124999999999993
 40
0.3437499999999998
 40
0.3437499999999998
 40
0.3593750000000001
 40
0.3593750000000001
 40
0.3750000000000003
 40
0.3750000000000003
 40
0.4375000000000006
 40
0.4375000000000006
 40
0.5000000000000008
 40
0.5000000000000008
 40
0.5156250000000009
 40
0.5156250000000009
 40
0.5312500000000009
 40
0.5312500000000009
 40
0.5625000000000011
 40
0.5625000000000011
 40
0.6250000000000012
 40
0.6250000000000012
 40
0.6562500000000013
 40
0.6562500000000013
 40
0.6718750000000013
 40
0.6718750000000013
 40
0.6875000000000012
 40
0.6875000000000012
 40
0.750000000000001
 40
0.750000000000001
 40
0.8125000000000008
 40
0.8125000000000008
 40
0.8281250000000006
 40
0.8281250000000006
 40
0.8437500000000004
 40
0.8437500000000004
 40
0.8750000000000002
 40
0.8750000000000002
 40
0.8906250000000006
 40
0.8906250000000006
 40
0.9062500000000009
 40
0.9062500000000009
 40
0.9375000000000006
 40
0.9375000000000006
 40
1.0
 40
1.0
 40
1.0
 40
1.0
 10
6354.077313387759
 20
5264.411794912297
 30
0.0
 10
6352.288585239829
 20
5264.407065692547
 30
0.0
 10
6350.397776195709
 20
5264.402452621162
 30
0.0
 10
6347.40906245465
 20
5264.39569149336
 30
0.0
 10
6346.386255033977
 20
5264.393462025508
 30
0.0
 10
6344.29838630756
 20
5264.389072636333
 30
0.0
 10
6343.232716132192
 20
5264.386910668767
 30
0.0
 10
6337.796968443605
 20
5264.376266512626
 30
0.0
 10
6333.106746118786
 20
5264.368312179667
 30
0.0
 10
6323.057658556743
 20
5264.353375849252
 30
0.0
 10
6317.69893941576
 20
5264.346438736809
 30
0.0
 10
6310.569897817414
 20
5264.338383564338
 30
0.0
 10
6309.120164599836
 20
5264.336804024423
 30
0.0
 10
6306.187728560373
 20
5264.333722580421
 30
0.0
 10
6304.707928790991
 20
5264.332223524316
 30
0.0
 10
6300.228395830984
 20
5264.327846524488
 30
0.0
 10
6297.188588330727
 20
5264.325087866298
 30
0.0
 10
6287.911435648526
 20
5264.317271264506
 30
0.0
 10
6281.517341181641
 20
5264.312697824651
 30
0.0
 10
6271.611880414604
 20
5264.306736526149
 30
0.0
 10
6268.257449445844
 20
5264.304907684185
 30
0.0
 10
6263.145496372273
 20
5264.302396533586
 30
0.0
 10
6261.428112531859
 20
5264.301598267461
 30
0.0
 10
6257.966123580028
 20
5264.300079663557
 30
0.0
 10
6256.229107017626
 20
5264.299362668939
 30
0.0
 10
6247.530302179284
 20
5264.295993158608
 30
0.0
 10
6240.511023979546
 20
5264.29398835597
 30
0.0
 10
6226.355352014295
 20
5264.291291199604
 30
0.0
 10
6219.218953467072
 20
5264.290608775912
 30
0.0
 10
6210.223534554348
 20
5264.29059750321
 30
0.0
 10
6208.420683162774
 20
5264.290637913143
 30
0.0
 10
6204.807351482003
 20
5264.29080459021
 30
0.0
 10
6202.997364569088
 20
5264.290931040108
 30
0.0
 10
6197.596524834709
 20
5264.29143617036
 30
0.0
 10
6194.021187599091
 20
5264.291940643089
 30
0.0
 10
6183.369356445684
 20
5264.293956261328
 30
0.0
 10
6176.366621036269
 20
5264.295953503231
 30
0.0
 10
6166.00937538899
 20
5264.299945726819
 30
0.0
 10
6162.581551170228
 20
5264.301440221506
 30
0.0
 10
6157.477224589038
 20
5264.303933384177
 30
0.0
 10
6155.78202425205
 20
5264.304806510668
 30
0.0
 10
6152.404281648093
 20
5264.306639409402
 30
0.0
 10
6150.718935149757
 20
5264.307600967675
 30
0.0
 10
6142.380035799296
 20
5264.312599624503
 30
0.0
 10
6135.960387720787
 20
5264.317187899754
 30
0.0
 10
6123.606589383128
 20
5264.327575596872
 30
0.0
 10
6117.672578059967
 20
5264.333343453154
 30
0.0
 10
6110.563775144564
 20
5264.34134576164
 30
0.0
 10
6109.157543297856
 20
5264.342984822194
 30
0.0
 10
6106.3764704885
 20
5264.346338953473
 30
0.0
 10
6105.000293253644
 20
5264.348056249382
 30
0.0
 10
6100.92918209954
 20
5264.353315254033
 30
0.0
 10
6098.298232845247
 20
5264.356954584212
 30
0.0
 10
6094.476566325548
 20
5264.362627276731
 30
0.0
 10
6093.22237046397
 20
5264.364553591692
 30
0.0
 10
6090.762143290737
 20
5264.368461798689
 30
0.0
 10
6089.556282103156
 20
5264.370443736203
 30
0.0
 10
6086.010727741076
 20
5264.376475188553
 30
0.0
 10
6083.742956139216
 20
5264.380610026675
 30
0.0
 10
6077.225584527338
 20
5264.393384813335
 30
0.0
 10
6073.260327182831
 20
5264.402336494855
 30
0.0
 10
6069.682879232618
 20
5264.411794912292
 30
0.0
  0
SPLINE
  5
B3
330
1F
100
AcDbEntity
  8
0
  6
Continuous
 62
     7
370
    25
100
AcDbSpline
210
0.0
220
0.0
230
1.0
 70
    24
 71
     3
 72
    62
 73
    58
 74
     0
 42
0.00000001
 43
0.00000001
 40
0.0
 40
0.0
 40
0.0
 40
0.0
 40
0.0624999999999989
 40
0.0624999999999989
 40
0.1249999999999978
 40
0.1249999999999978
 40
0.1562499999999972
 40
0.1562499999999972
 40
0.1718749999999972
 40
0.1718749999999972
 40
0.1874999999999973
 40
0.1874999999999973
 40
0.2499999999999973
 40
0.2499999999999973
 40
0.3124999999999973
 40
0.3124999999999973
 40
0.3281249999999973
 40
0.3281249999999973
 40
0.3437499999999973
 40
0.3437499999999973
 40
0.3749999999999973
 40
0.3749999999999973
 40
0.4374999999999973
 40
0.4374999999999973
 40
0.4687499999999973
 40
0.4687499999999973
 40
0.4843749999999973
 40
0.4843749999999973
 40
0.4999999999999972
 40
0.4999999999999972
 40
0.5624999999999972
 40
0.5624999999999972
 40
0.6249999999999972
 40
0.6249999999999972
 40
0.640624999999997
 40
0.640624999999997
 40
0.6562499999999969
 40
0.6562499999999969
 40
0.6874999999999968
 40
0.6874999999999968
 40
0.7499999999999969
 40
0.7499999999999969
 40
0.7812499999999968
 40
0.7812499999999968
 40
0.7968749999999966
 40
0.7968749999999966
 40
0.8124999999999964
 40
0.8124999999999964
 40
0.8749999999999972
 40
0.8749999999999972
 40
0.937499999999998
 40
0.937499999999998
 40
0.9531249999999982
 40
0.9531249999999982
 40
0.9687499999999986
 40
0.9687499999999986
 40
1.0
 40
1.0
 40
1.0
 40
1.0
 10
6071.364914523492
 20
5266.920918291567
 30
0.0
 10
6074.90171559096
 20
5266.920918291567
 30
0.0
 10
6078.811166396586
 20
5266.920918291567
 30
0.0
 10
6087.345850715107
 20
5266.920918291567
 30
0.0
 10
6091.97107076183
 20
5266.920918291566
 30
0.0
 10
6099.451931227438
 20
5266.920918291566
 30
0.0
 10
6102.036434410766
 20
5266.920918291567
 30
0.0
 10
6106.052698722976
 20
5266.920918291567
 30
0.0
 10
6107.41319903928
 20
5266.920918291567
 30
0.0
 10
6110.160684891331
 20
5266.920918291567
 30
0.0
 10
6111.549988455966
 20
5266.920918291567
 30
0.0
 10
6118.573476252795
 20
5266.920918291567
 30
0.0
 10
6124.43712470726
 20
5266.920918291566
 30
0.0
 10
6136.645649081361
 20
5266.920918291566
 30
0.0
 10
6142.990442702873
 20
5266.920918291567
 30
0.0
 10
6151.232688416604
 20
5266.920918291567
 30
0.0
 10
6152.898996973424
 20
5266.920918291566
 30
0.0
 10
6156.239188276178
 20
5266.920918291566
 30
0.0
 10
6157.915559886282
 20
5266.920918291567
 30
0.0
 10
6162.963239297879
 20
5266.920918291567
 30
0.0
 10
6166.353083967649
 20
5266.920918291567
 30
0.0
 10
6176.595732895068
 20
5266.920918291567
 30
0.0
 10
6183.521211871473
 20
5266.920918291567
 30
0.0
 10
6194.055773843507
 20
5266.920918291567
 30
0.0
 10
6197.591794509752
 20
5266.920918291567
 30
0.0
 10
6202.933301366532
 20
5266.920918291567
 30
0.0
 10
6204.723347383103
 20
5266.920918291567
 30
0.0
 10
6208.298250545443
 20
5266.920918291567
 30
0.0
 10
6210.081920258264
 20
5266.920918291566
 30
0.0
 10
6218.981594112025
 20
5266.920918291567
 30
0.0
 10
6226.041910383165
 20
5266.920918291567
 30
0.0
 10
6240.046485030705
 20
5266.920918291567
 30
0.0
 10
6246.99074039939
 20
5266.920918291567
 30
0.0
 10
6255.596472761024
 20
5266.920918291567
 30
0.0
 10
6257.314532096305
 20
5266.920918291567
 30
0.0
 10
6260.740313130118
 20
5266.920918291567
 30
0.0
 10
6262.439710992409
 20
5266.920918291567
 30
0.0
 10
6267.498060026787
 20
5266.920918291567
 30
0.0
 10
6270.817226682438
 20
5266.920918291567
 30
0.0
 10
6280.618313797682
 20
5266.920918291567
 30
0.0
 10
6286.944699465063
 20
5266.920918291567
 30
0.0
 10
6296.123195901024
 20
5266.920918291567
 30
0.0
 10
6299.130600707743
 20
5266.920918291566
 30
0.0
 10
6303.562276149993
 20
5266.920918291566
 30
0.0
 10
6305.02624793737
 20
5266.920918291567
 30
0.0
 10
6307.927281721798
 20
5266.920918291567
 30
0.0
 10
6309.361762319275
 20
5266.920918291567
 30
0.0
 10
6316.415190498547
 20
5266.920918291567
 30
0.0
 10
6321.716542350312
 20
5266.920918291567
 30
0.0
 10
6331.657109149975
 20
5266.920918291567
 30
0.0
 10
6336.29617433308
 20
5266.920918291567
 30
0.0
 10
6341.671973595267
 20
5266.920918291567
 30
0.0
 10
6342.725854591989
 20
5266.920918291566
 30
0.0
 10
6344.790552068247
 20
5266.920918291566
 30
0.0
 10
6345.801984315211
 20
5266.920918291567
 30
0.0
 10
6348.757342421751
 20
5266.920918291567
 30
0.0
 10
6350.626871451342
 20
5266.920918291567
 30
0.0
 10
6352.395278096854
 20
5266.920918291567
 30
0.0
  0
SPLINE
  5
B4
330
1F
100
AcDbEntity
  8
0
  6
Continuous
 62
     7
370
    25
100
AcDbSpline
210
0.0
220
0.0
230
1.0
 70
     8
 71
     3
 72
    20
 73
    16
 74
     0
 42
0.00000001
 43
0.00000001
 40
0.0
 40
0.0
 40
0.0
 40
0.0
 40
0.0624999999999996
 40
0.0624999999999996
 40
0.1249999999999992
 40
0.1249999999999992
 40
0.2499999999999984
 40
0.2499999999999984
 40
0.3749999999999976
 40
0.3749999999999976
 40
0.4999999999999968
 40
0.4999999999999968
 40
0.7499999999999983
 40
0.7499999999999983
 40
1.0
 40
1.0
 40
1.0
 40
1.0
 10
6069.682879232618
 20
5264.411794912291
 30
0.0
 10
6068.672166411174
 20
5264.41446713671
 30
0.0
 10
6067.682794473652
 20
5264.415646494189
 30
0.0
 10
6065.740177554065
 20
5264.41932094505
 30
0.0
 10
6064.787820451103
 20
5264.421124308252
 30
0.0
 10
6061.989509399196
 20
5264.426426325284
 30
0.0
 10
6060.203618960828
 20
5264.429814542597
 30
0.0
 10
6056.790280785627
 20
5264.436281527092
 30
0.0
 10
6055.162823469357
 20
5264.439363796573
 30
0.0
 10
6052.066715015571
 20
5264.445216123605
 30
0.0
 10
6050.596660320106
 20
5264.447988632855
 30
0.0
 10
6046.439682104505
 20
5264.455787819259
 30
0.0
 10
6044.003729624927
 20
5264.460312790487
 30
0.0
 10
6039.796589098986
 20
5264.467964519682
 30
0.0
 10
6038.025383081594
 20
5264.471099312389
 30
0.0
 10
6036.590843796321
 20
5264.473522971891
 30
0.0
  0
SPLINE
  5
B5
330
1F
100
AcDbEntity
  8
0
  6
Continuous
 62
     7
370
    25
100
AcDbSpline
210
0.0
220
0.0
230
1.0
 70
     8
 71
     3
 72
    24
 73
    20
 74
     0
 42
0.00000001
 43
0.00000001
 40
0.0
 40
0.0
 40
0.0
 40
0.0
 40
0.1249999999999974
 40
0.1249999999999974
 40
0.2499999999999949
 40
0.2499999999999949
 40
0.3749999999999923
 40
0.3749999999999923
 40
0.4374999999999927
 40
0.4374999999999927
 40
0.499999999999993
 40
0.499999999999993
 40
0.7499999999999949
 40
0.7499999999999949
 40
0.8749999999999972
 40
0.8749999999999972
 40
0.9374999999999986
 40
0.9374999999999986
 40
1.0
 40
1.0
 40
1.0
 40
1.0
 10
6387.169348821529
 20
5264.473522971891
 30
0.0
 10
6386.452100282572
 20
5264.472311177794
 30
0.0
 10
6385.649291594553
 20
5264.470918645713
 30
0.0
 10
6383.873666143158
 20
5264.467778966825
 30
0.0
 10
6382.901926951998
 20
5264.466033802345
 30
0.0
 10
6380.79150785115
 20
5264.462195068848
 30
0.0
 10
6379.652822170867
 20
5264.460099557165
 30
0.0
 10
6377.819312743115
 20
5264.456698977707
 30
0.0
 10
6377.187225066687
 20
5264.455522524562
 30
0.0
 10
6375.881116615492
 20
5264.453084416704
 30
0.0
 10
6375.206991794507
 20
5264.45182262666
 30
0.0
 10
6371.73885121853
 20
5264.445315188625
 30
0.0
 10
6368.647205497782
 20
5264.439459444708
 30
0.0
 10
6363.538496332468
 20
5264.429780252176
 30
0.0
 10
6361.756977306963
 20
5264.42640034312
 30
0.0
 10
6358.96621874383
 20
5264.421112655929
 30
0.0
 10
6358.016215413386
 20
5264.419313754902
 30
0.0
 10
6356.07656951542
 20
5264.415644929974
 30
0.0
 10
6355.088043807765
 20
5264.414467183246
 30
0.0
 10
6354.077313387759
 20
5264.411794912297
 30
0.0
  0
SPLINE
  5
B6
330
1F
100
AcDbEntity
  8
0
  6
Continuous
 62
     7
370
    25
100
AcDbSpline
210
0.0
220
0.0
230
1.0
 70
     8
 71
     3
 72
    12
 73
     8
 74
     0
 42
0.00000001
 43
0.00000001
 40
0.0
 40
0.0
 40
0.0
 40
0.0
 40
0.25
 40
0.25
 40
0.5
 40
0.5
 40
1.0
 40
1.0
 40
1.0
 40
1.0
 10
6391.329704242831
 20
5264.480846798589
 30
0.0
 10
6391.32970424282
 20
5264.480846798589
 30
0.0
 10
6391.242317605375
 20
5264.480436674674
 30
0.0
 10
6390.894341442786
 20
5264.479646519078
 30
0.0
 10
6390.633309229913
 20
5264.479179483489
 30
0.0
 10
6389.592071839802
 20
5264.477474872005
 30
0.0
 10
6388.55323509815
 20
5264.475861052942
 30
0.0
 10
6387.169348821529
 20
5264.473522971891
 30
0.0
  0
SPLINE
  5
B7
330
1F
100
AcDbEntity
  8
0
  6
Continuous
 62
     7
370
    25
100
AcDbSpline
210
0.0
220
0.0
230
1.0
 70
     8
 71
     3
 72
    12
 73
     8
 74
     0
 42
0.00000001
 43
0.00000001
 40
0.0
 40
0.0
 40
0.0
 40
0.0
 40
0.2500000000000001
 40
0.2500000000000001
 40
0.5000000000000001
 40
0.5000000000000001
 40
1.0
 40
1.0
 40
1.0
 40
1.0
 10
6036.590843796321
 20
5264.473522971891
 30
0.0
 10
6035.898900260445
 20
5264.474692013088
 30
0.0
 10
6035.292916177646
 20
5264.475709622976
 30
0.0
 10
6034.252928360714
 20
5264.477369793087
 30
0.0
 10
6033.819354436733
 20
5264.478045768329
 30
0.0
 10
6032.778837669803
 20
5264.479749417356
 30
0.0
 10
6032.430488375001
 20
5264.480846798589
 30
0.0
 10
6032.430488375001
 20
5264.480846798589
 30
0.0
  0
SPLINE
  5
B8
330
1F
100
AcDbEntity
  8
0
  6
Continuous
 62
     7
370
    25
100
AcDbSpline
210
0.0
220
0.0
230
1.0
 70
    24
 71
     3
 72
    18
 73
    14
 74
     0
 42
0.00000001
 43
0.00000001
 40
0.0
 40
0.0
 40
0.0
 40
0.0
 40
0.2499999999999999
 40
0.2499999999999999
 40
0.4999999999999998
 40
0.4999999999999998
 40
0.7499999999999997
 40
0.7499999999999997
 40
0.8749999999999998
 40
0.8749999999999998
 40
0.9374999999999999
 40
0.9374999999999999
 40
1.0
 40
1.0
 40
1.0
 40
1.0
 10
6038.510010468086
 20
5266.920918291567
 30
0.0
 10
6039.941125633189
 20
5266.920918291567
 30
0.0
 10
6041.706073487727
 20
5266.920918291567
 30
0.0
 10
6045.885375005583
 20
5266.920918291567
 30
0.0
 10
6048.299783757609
 20
5266.920918291567
 30
0.0
 10
6053.774379612209
 20
5266.920918291567
 30
0.0
 10
6056.834586497207
 20
5266.920918291567
 30
0.0
 10
6061.916787756131
 20
5266.920918291567
 30
0.0
 10
6063.692908379241
 20
5266.920918291567
 30
0.0
 10
6066.482317039479
 20
5266.920918291567
 30
0.0
 10
6067.43231483608
 20
5266.920918291567
 30
0.0
 10
6069.369823327241
 20
5266.920918291567
 30
0.0
 10
6070.35684040514
 20
5266.920918291567
 30
0.0
 10
6071.364914523492
 20
5266.920918291567
 30
0.0
  0
SPLINE
  5
B9
330
1F
100
AcDbEntity
  8
0
  6
Continuous
 62
     7
370
    25
100
AcDbSpline
210
0.0
220
0.0
230
1.0
 70
    24
 71
     3
 72
    18
 73
    14
 74
     0
 42
0.00000001
 43
0.00000001
 40
0.0
 40
0.0
 40
0.0
 40
0.0
 40
0.1249999999999997
 40
0.1249999999999997
 40
0.2499999999999994
 40
0.2499999999999994
 40
0.4999999999999984
 40
0.4999999999999984
 40
0.7499999999999976
 40
0.7499999999999976
 40
0.8749999999999988
 40
0.8749999999999988
 40
1.0
 40
1.0
 40
1.0
 40
1.0
 10
6352.395278096854
 20
5266.920918291567
 30
0.0
 10
6354.411571614842
 20
5266.920918291567
 30
0.0
 10
6356.341423230184
 20
5266.920918291567
 30
0.0
 10
6360.042983381976
 20
5266.920918291567
 30
0.0
 10
6361.812668743373
 20
5266.920918291567
 30
0.0
 10
6366.881391240272
 20
5266.920918291566
 30
0.0
 10
6369.940381961585
 20
5266.920918291567
 30
0.0
 10
6375.421559892709
 20
5266.920918291567
 30
0.0
 10
6377.843800053948
 20
5266.920918291567
 30
0.0
 10
6380.992084979507
 20
5266.920918291567
 30
0.0
 10
6381.960608526468
 20
5266.920918291567
 30
0.0
 10
6383.733032832492
 20
5266.920918291567
 30
0.0
 10
6384.534623402821
 20
5266.920918291567
 30
0.0
 10
6385.250182149764
 20
5266.920918291567
 30
0.0
  0
SPLINE
  5
BA
330
1F
100
AcDbEntity
  8
0
  6
Continuous
 62
     7
370
    25
100
AcDbSpline
210
0.0
220
0.0
230
1.0
 70
    24
 71
     3
 72
    12
 73
     8
 74
     0
 42
0.00000001
 43
0.00000001
 40
0.0
 40
0.0
 40
0.0
 40
0.0
 40
0.25
 40
0.25
 40
0.5
 40
0.5
 40
1.0
 40
1.0
 40
1.0
 40
1.0
 10
6034.381471993863
 20
5266.920918291567
 30
0.0
 10
6034.381471993863
 20
5266.920918291567
 30
0.0
 10
6034.468134912227
 20
5266.920918291567
 30
0.0
 10
6034.813405633433
 20
5266.920918291567
 30
0.0
 10
6035.072430658523
 20
5266.920918291567
 30
0.0
 10
6036.105742688681
 20
5266.920918291567
 30
0.0
 10
6037.136696610635
 20
5266.920918291567
 30
0.0
 10
6038.510010468086
 20
5266.920918291567
 30
0.0
  0
SPLINE
  5
BB
330
1F
100
AcDbEntity
  8
0
  6
Continuous
 62
     7
370
    25
100
AcDbSpline
210
0.0
220
0.0
230
1.0
 70
    24
 71
     3
 72
    10
 73
     6
 74
     0
 42
0.00000001
 43
0.00000001
 40
0.0
 40
0.0
 40
0.0
 40
0.0
 40
0.5
 40
0.5
 40
1.0
 40
1.0
 40
1.0
 40
1.0
 10
6385.250182149764
 20
5266.920918291567
 30
0.0
 10
6386.626237879485
 20
5266.920918291567
 30
0.0
 10
6387.656286447831
 20
5266.920918291567
 30
0.0
 10
6389.031769260082
 20
5266.920918291567
 30
0.0
 10
6389.378720623947
 20
5266.920918291567
 30
0.0
 10
6389.378720623969
 20
5266.920918291567
 30
0.0
  0
CIRCLE
  5
BC
330
1F
100
AcDbEntity
  8
0
  6
Continuous
 62
     7
370
    25
100
AcDbCircle
 10
6211.8800963089
 20
5822.9209182916
 30
0.0
 40
22.5
  0
LWPOLYLINE
  5
BD
330
1F
100
AcDbEntity
  8
0
  6
Continuous
 62
     7
370
    25
100
AcDbPolyline
 90
       20
 70
   128
 43
0.0
 10
6211.8800963089
 20
5809.5844037249
 10
6212.9787067883
 20
5809.4547729041
 10
6213.9582657756
 20
5809.0799279526
 10
6214.7126228551
 20
5808.5004891372
 10
6215.160031732
 20
5807.7792476445
 10
6215.2520087125
 20
5806.9943611813
 10
6214.9785866634
 20
5806.2308843749
 10
6214.3693951064
 20
5805.5715517837
 10
6213.4904493992
 20
5805.0878123245
 10
6212.4369969475
 20
5804.8320866738
 10
6211.3231956704
 20
5804.8320866738
 10
6210.2697432186
 20
5805.0878123245
 10
6209.3907975115
 20
5805.5715517837
 10
6208.7816059544
 20
5806.2308843749
 10
6208.5081839053
 20
5806.9943611813
 10
6208.6001608858
 20
5807.7792476445
 10
6209.0475697628
 20
5808.5004891372
 10
6209.8019268422
 20
5809.0799279526
 10
6210.7814858295
 20
5809.4547729041
 10
6211.8800963089
 20
5809.5844037249
  0
LWPOLYLINE
  5
BE
330
1F
100
AcDbEntity
  8
0
  6
Continuous
 62
     7
370
    25
100
AcDbPolyline
 90
       17
 70
   128
 43
0.0
 10
6211.8800963089
 20
5809.5844037249
 10
6210.923387728
 20
5809.449840478
 10
6210.1123293559
 20
5809.0666367719
 10
6209.5703974776
 20
5808.4931318971
 10
6209.3800963089
 20
5807.8166367719
 10
6209.5703974776
 20
5807.1401416467
 10
6210.1123293559
 20
5806.5666367719
 10
6210.923387728
 20
5806.1834330658
 10
6211.8800963089
 20
5806.0488698189
 10
6212.8368048898
 20
5806.1834330658
 10
6213.6478632619
 20
5806.5666367719
 10
6214.1897951402
 20
5807.1401416467
 10
6214.3800963089
 20
5807.8166367719
 10
6214.1897951402
 20
5808.4931318971
 10
6213.6478632619
 20
5809.0666367719
 10
6212.8368048898
 20
5809.449840478
 10
6211.8800963089
 20
5809.5844037249
  0
LWPOLYLINE
  5
BF
330
1F
100
AcDbEntity
  8
0
  6
Continuous
 62
     7
370
    25
100
AcDbPolyline
 90
       20
 70
   128
 43
0.0
 10
6211.8800963089
 20
5809.5844037249
 10
6212.9787067883
 20
5809.4547729041
 10
6213.9582657756
 20
5809.0799279526
 10
6214.7126228551
 20
5808.5004891372
 10
6215.160031732
 20
5807.7792476445
 10
6215.2520087125
 20
5806.9943611813
 10
6214.9785866634
 20
5806.2308843749
 10
6214.3693951064
 20
5805.5715517837
 10
6213.4904493992
 20
5805.0878123245
 10
6212.4369969475
 20
5804.8320866738
 10
6211.3231956704
 20
5804.8320866738
 10
6210.2697432186
 20
5805.0878123245
 10
6209.3907975115
 20
5805.5715517837
 10
6208.7816059544
 20
5806.2308843749
 10
6208.5081839053
 20
5806.9943611813
 10
6208.6001608858
 20
5807.7792476445
 10
6209.0475697628
 20
5808.5004891372
 10
6209.8019268422
 20
5809.0799279526
 10
6210.7814858295
 20
5809.4547729041
 10
6211.8800963089
 20
5809.5844037249
  0
LWPOLYLINE
  5
C0
330
1F
100
AcDbEntity
  8
0
  6
Continuous
 62
     7
370
    25
100
AcDbPolyline
 90
       17
 70
   128
 43
0.0
 10
6211.8800963089
 20
5809.5844037249
 10
6210.923387728
 20
5809.449840478
 10
6210.1123293559
 20
5809.0666367719
 10
6209.5703974776
 20
5808.4931318971
 10
6209.3800963089
 20
5807.8166367719
 10
6209.5703974776
 20
5807.1401416467
 10
6210.1123293559
 20
5806.5666367719
 10
6210.923387728
 20
5806.1834330658
 10
6211.8800963089
 20
5806.0488698189
 10
6212.8368048898
 20
5806.1834330658
 10
6213.6478632619
 20
5806.5666367719
 10
6214.1897951402
 20
5807.1401416467
 10
6214.3800963089
 20
5807.8166367719
 10
6214.1897951402
 20
5808.4931318971
 10
6213.6478632619
 20
5809.0666367719
 10
6212.8368048898
 20
5809.449840478
 10
6211.8800963089
 20
5809.5844037249
  0
ARC
  5
C1
330
1F
100
AcDbEntity
  8
0
  6
Continuous
 62
     7
370
    25
100
AcDbCircle
 10
7209.8318688971
 20
5715.9209182916
 30
0.0
 40
2.0
100
AcDbArc
 50
0.0
 51
90.0
  0
LINE
  5
C2
330
1F
100
AcDbEntity
  8
0
  6
Continuous
 62
     7
370
    25
100
AcDbLine
 10
7211.8318688971
 20
5266.9209182916
 30
0.0
 11
7211.8318688971
 21
5715.9209182916
 31
0.0
  0
LINE
  5
C3
330
1F
100
AcDbEntity
  8
0
  6
Continuous
 62
     7
370
    25
100
AcDbLine
 10
6856.8318688971
 20
5755.4209182916
 30
0.0
 11
6858.8318688971
 21
5755.4209182916
 31
0.0
  0
LINE
  5
C4
330
1F
100
AcDbEntity
  8
0
  6
Continuous
 62
     7
370
    25
100
AcDbLine
 10
6858.8318688971
 20
5800.4209182916
 30
0.0
 11
6856.8318688971
 21
5800.4209182916
 31
0.0
  0
LINE
  5
C5
330
1F
100
AcDbEntity
  8
0
  6
Continuous
 62
     7
370
    25
100
AcDbLine
 10
7539.3308923346
 20
4867.9209182916
 30
0.0
 11
7670.9435436441
 21
5264.2459057356
 31
0.0
  0
ARC
  5
C6
330
1F
100
AcDbEntity
  8
0
  6
Continuous
 62
     7
370
    25
100
AcDbCircle
 10
7669.060308161
 20
5264.9209182916
 30
0.0
 40
2.000000000000522
100
AcDbArc
 50
340.6121073983
 51
90.0000002838
  0
LINE
  5
C7
330
1F
100
AcDbEntity
  8
0
  6
Continuous
 62
     7
370
    25
100
AcDbLine
 10
7539.3308923346
 20
4867.9209182916
 30
0.0
 11
7670.9435436441
 21
5264.2459057356
 31
0.0
  0
LINE
  5
C8
330
1F
100
AcDbEntity
  8
0
  6
Continuous
 62
     7
370
    25
100
AcDbLine
 10
6859.3318688971
 20
5845.4209182916
 30
0.0
 11
6856.8318688971
 21
5845.4209182916
 31
0.0
  0
LINE
  5
C9
330
1F
100
AcDbEntity
  8
0
  6
Continuous
 62
     7
370
    25
100
AcDbLine
 10
6858.8318688971
 20
5800.4209182916
 30
0.0
 11
6859.3318688971
 21
5800.4209182916
 31
0.0
  0
ARC
  5
CA
330
1F
100
AcDbEntity
  8
0
  6
Continuous
 62
     7
370
    25
100
AcDbCircle
 10
6859.3318688971
 20
5822.9209182916
 30
0.0
 40
22.50000000000061
100
AcDbArc
 50
323.6487392478
 51
0.0
  0
ARC
  5
CB
330
1F
100
AcDbEntity
  8
0
  6
Continuous
 62
     7
370
    25
100
AcDbCircle
 10
6859.3318688971
 20
5822.9209182916
 30
0.0
 40
22.50000000000061
100
AcDbArc
 50
270.0
 51
306.3512607522
  0
ARC
  5
CC
330
1F
100
AcDbEntity
  8
0
  6
Continuous
 62
     7
370
    25
100
AcDbCircle
 10
6859.3318688971
 20
5822.9209182916
 30
0.0
 40
22.5
100
AcDbArc
 50
0.0
 51
90.0
  0
LINE
  5
CD
330
1F
100
AcDbEntity
  8
0
  6
Continuous
 62
     7
370
    25
100
AcDbLine
 10
6859.3318688971
 20
5845.4209182916
 30
0.0
 11
6856.8318688971
 21
5845.4209182916
 31
0.0
  0
LINE
  5
CE
330
1F
100
AcDbEntity
  8
0
  6
Continuous
 62
     7
370
    25
100
AcDbLine
 10
6858.8318688971
 20
5800.4209182916
 30
0.0
 11
6859.3318688971
 21
5800.4209182916
 31
0.0
  0
LINE
  5
CF
330
1F
100
AcDbEntity
  8
0
  6
Continuous
 62
     7
370
    25
100
AcDbLine
 10
6771.8318688971
 20
4867.9209182916
 30
0.0
 11
7031.8318688971
 21
4867.9209182916
 31
0.0
  0
LINE
  5
D0
330
1F
100
AcDbEntity
  8
0
  6
Continuous
 62
     7
370
    25
100
AcDbLine
 10
6771.8318688971
 20
4867.9209182916
 30
0.0
 11
6771.8318688971
 21
5873.9209182916
 31
0.0
  0
LINE
  5
D1
330
1F
100
AcDbEntity
  8
0
  6
Continuous
 62
     7
370
    25
100
AcDbLine
 10
6854.8318688971
 20
5873.9209182916
 30
0.0
 11
6771.8318688971
 21
5873.9209182916
 31
0.0
  0
LINE
  5
D2
330
1F
100
AcDbEntity
  8
0
  6
Continuous
 62
     7
370
    25
100
AcDbLine
 10
6854.8318688971
 20
5740.9209182916
 30
0.0
 11
6854.8318688971
 21
5873.9209182916
 31
0.0
  0
LINE
  5
D3
330
1F
100
AcDbEntity
  8
0
  6
Continuous
 62
     7
370
    25
100
AcDbLine
 10
6849.8318688971
 20
5740.9209182916
 30
0.0
 11
6854.8318688971
 21
5740.9209182916
 31
0.0
  0
LINE
  5
D4
330
1F
100
AcDbEntity
  8
0
  6
Continuous
 62
     7
370
    25
100
AcDbLine
 10
6849.8318688971
 20
5715.9209182916
 30
0.0
 11
6849.8318688971
 21
5740.9209182916
 31
0.0
  0
LINE
  5
D5
330
1F
100
AcDbEntity
  8
0
  6
Continuous
 62
     7
370
    25
100
AcDbLine
 10
7031.8318688971
 20
5715.9209182916
 30
0.0
 11
6849.8318688971
 21
5715.9209182916
 31
0.0
  0
LINE
  5
D6
330
1F
100
AcDbEntity
  8
0
  6
Continuous
 62
     7
370
    25
100
AcDbLine
 10
7031.8318688971
 20
4867.9209182916
 30
0.0
 11
7031.8318688971
 21
5715.9209182916
 31
0.0
  0
LINE
  5
D7
330
1F
100
AcDbEntity
  8
0
  6
Continuous
 62
     7
370
    25
100
AcDbLine
 10
6771.8318688971
 20
5875.9209182916
 30
0.0
 11
6854.8318688971
 21
5875.9209182916
 31
0.0
  0
LINE
  5
D8
330
1F
100
AcDbEntity
  8
0
  6
Continuous
 62
     7
370
    25
100
AcDbLine
 10
6854.8318688971
 20
5875.9209182916
 30
0.0
 11
6854.8318688971
 21
5873.9209182916
 31
0.0
  0
LINE
  5
D9
330
1F
100
AcDbEntity
  8
0
  6
Continuous
 62
     7
370
    25
100
AcDbLine
 10
6771.8318688971
 20
5873.9209182916
 30
0.0
 11
6771.8318688971
 21
5875.9209182916
 31
0.0
  0
LINE
  5
DA
330
1F
100
AcDbEntity
  8
0
  6
Continuous
 62
     7
370
    25
100
AcDbLine
 10
6851.8318688971
 20
5717.9209182916
 30
0.0
 11
7031.8318688971
 21
5717.9209182916
 31
0.0
  0
LINE
  5
DB
330
1F
100
AcDbEntity
  8
0
  6
Continuous
 62
     7
370
    25
100
AcDbLine
 10
7031.8318688971
 20
5715.9209182916
 30
0.0
 11
7031.8318688971
 21
5717.9209182916
 31
0.0
  0
LINE
  5
DC
330
1F
100
AcDbEntity
  8
0
  6
Continuous
 62
     7
370
    25
100
AcDbLine
 10
6851.8318688971
 20
5717.9209182916
 30
0.0
 11
6849.8318688971
 21
5715.9209182916
 31
0.0
  0
LINE
  5
DD
330
1F
100
AcDbEntity
  8
0
  6
Continuous
 62
     7
370
    25
100
AcDbLine
 10
6856.8318688971
 20
5873.9209182916
 30
0.0
 11
6854.8318688971
 21
5873.9209182916
 31
0.0
  0
ARC
  5
DE
330
1F
100
AcDbEntity
  8
0
  6
Continuous
 62
     7
370
    25
100
AcDbCircle
 10
6854.8318688971
 20
5873.9209182916
 30
0.0
 40
2.000000000000909
100
AcDbArc
 50
0.0
 51
90.0
  0
LINE
  5
DF
330
1F
100
AcDbEntity
  8
0
  6
Continuous
 62
     7
370
    25
100
AcDbLine
 10
6851.8318688971
 20
5740.9209182916
 30
0.0
 11
6851.8318688971
 21
5717.9209182916
 31
0.0
  0
LINE
  5
E0
330
1F
100
AcDbEntity
  8
0
  6
Continuous
 62
     7
370
    25
100
AcDbLine
 10
6856.8318688971
 20
5873.9209182916
 30
0.0
 11
6856.8318688971
 21
5742.9209182916
 31
0.0
  0
ARC
  5
E1
330
1F
100
AcDbEntity
  8
0
  6
Continuous
 62
     7
370
    25
100
AcDbCircle
 10
6854.8318688971
 20
5742.9209182916
 30
0.0
 40
2.000000000000909
100
AcDbArc
 50
270.0
 51
0.0
  0
LINE
  5
E2
330
1F
100
AcDbEntity
  8
0
  6
Continuous
 62
     7
370
    25
100
AcDbLine
 10
7031.8318688971
 20
5717.9209182916
 30
0.0
 11
7209.8318688971
 21
5717.9209182916
 31
0.0
  0
LINE
  5
E3
330
1F
100
AcDbEntity
  8
0
  6
Continuous
 62
     7
370
    25
100
AcDbLine
 10
7031.8318688971
 20
4867.9209182916
 30
0.0
 11
7211.8318688971
 21
4867.9209182916
 31
0.0
  0
LINE
  5
E4
330
1F
100
AcDbEntity
  8
0
  6
Continuous
 62
     7
370
    25
100
AcDbLine
 10
6858.8318688971
 20
5800.4209182916
 30
0.0
 11
6858.8318688971
 21
5755.4209182916
 31
0.0
  0
SPLINE
  5
E5
330
1F
100
AcDbEntity
  8
0
  6
Continuous
 62
     7
370
    25
100
AcDbSpline
210
0.0
220
0.0
230
1.0
 70
     8
 71
     3
 72
    20
 73
    16
 74
     0
 42
0.00000001
 43
0.00000001
 40
0.0
 40
0.0
 40
0.0
 40
0.0
 40
0.0624999999999996
 40
0.0624999999999996
 40
0.1249999999999992
 40
0.1249999999999992
 40
0.2499999999999984
 40
0.2499999999999984
 40
0.3749999999999976
 40
0.3749999999999976
 40
0.4999999999999968
 40
0.4999999999999968
 40
0.7499999999999983
 40
0.7499999999999983
 40
1.0
 40
1.0
 40
1.0
 40
1.0
 10
7588.204912884481
 20
5264.411794912291
 30
0.0
 10
7586.425712830061
 20
5264.41446713671
 30
0.0
 10
7584.634952088917
 20
5264.415646494189
 30
0.0
 10
7581.033864041412
 20
5264.41932094505
 30
0.0
 10
7579.222590892933
 20
5264.421124308252
 30
0.0
 10
7573.760165480299
 20
5264.426426325284
 30
0.0
 10
7570.083072948305
 20
5264.429814542597
 30
0.0
 10
7562.658318756643
 20
5264.436281527092
 30
0.0
 10
7558.910661366519
 20
5264.439363796573
 30
0.0
 10
7551.344615566986
 20
5264.445216123605
 30
0.0
 10
7547.522119924178
 20
5264.447988632855
 30
0.0
 10
7535.987004145815
 20
5264.455787819259
 30
0.0
 10
7528.204581233684
 20
5264.460312790487
 30
0.0
 10
7512.456687323648
 20
5264.467964519682
 30
0.0
 10
7504.491221278223
 20
5264.471099312389
 30
0.0
 10
7496.433051413541
 20
5264.473522971891
 30
0.0
  0
LINE
  5
E6
330
1F
100
AcDbEntity
  8
0
  6
Continuous
 62
     7
370
    25
100
AcDbLine
 10
7449.3308923346
 20
4867.9209182916
 30
0.0
 11
7539.3308923346
 21
4867.9209182916
 31
0.0
  0
LINE
  5
E7
330
1F
100
AcDbEntity
  8
0
  6
Continuous
 62
     7
370
    25
100
AcDbLine
 10
7187.947346651
 20
4867.9209182916
 30
0.0
 11
7449.3308923346
 21
4867.9209182916
 31
0.0
  0
LINE
  5
E8
330
1F
100
AcDbEntity
  8
0
  6
Continuous
 62
     7
370
    25
100
AcDbLine
 10
7187.947346651
 20
4867.9209182916
 30
0.0
 11
7211.6858253034
 21
5264.4808467986
 31
0.0
  0
LINE
  5
E9
330
1F
100
AcDbEntity
  8
0
  6
Continuous
 62
     7
370
    25
100
AcDbLine
 10
7449.3308923352
 20
5264.4808467986
 30
0.0
 11
7211.6858253034
 21
5264.4808467986
 31
0.0
  0
SPLINE
  5
EA
330
1F
100
AcDbEntity
  8
0
  6
Continuous
 62
     7
370
    25
100
AcDbSpline
210
0.0
220
0.0
230
1.0
 70
     8
 71
     3
 72
    12
 73
     8
 74
     0
 42
0.00000001
 43
0.00000001
 40
0.0
 40
0.0
 40
0.0
 40
0.0
 40
0.2500000000000001
 40
0.2500000000000001
 40
0.5000000000000001
 40
0.5000000000000001
 40
1.0
 40
1.0
 40
1.0
 40
1.0
 10
7496.433051413541
 20
5264.473522971891
 30
0.0
 10
7492.546229626154
 20
5264.474692013088
 30
0.0
 10
7488.644745185687
 20
5264.475709622976
 30
0.0
 10
7480.821204811334
 20
5264.477369793087
 30
0.0
 10
7476.895660663871
 20
5264.478045768329
 30
0.0
 10
7465.104865566337
 20
5264.479749417356
 30
0.0
 10
7457.226749115815
 20
5264.480846798589
 30
0.0
 10
7449.33089233524
 20
5264.480846798589
 30
0.0
  0
LINE
  5
EB
330
1F
100
AcDbEntity
  8
0
  6
Continuous
 62
     7
370
    25
100
AcDbLine
 10
7449.3308923352
 20
5264.4808467986
 30
0.0
 11
7449.3308923352
 21
5266.9209182916
 31
0.0
  0
SPLINE
  5
EC
330
1F
100
AcDbEntity
  8
0
  6
Continuous
 62
     7
370
    25
100
AcDbSpline
210
0.0
220
0.0
230
1.0
 70
    24
 71
     3
 72
    12
 73
     8
 74
     0
 42
0.00000001
 43
0.00000001
 40
0.0
 40
0.0
 40
0.0
 40
0.0
 40
0.25
 40
0.25
 40
0.5
 40
0.5
 40
1.0
 40
1.0
 40
1.0
 40
1.0
 10
7449.33089233524
 20
5266.920918291567
 30
0.0
 10
7453.250146905323
 20
5266.920918291567
 30
0.0
 10
7457.16879365302
 20
5266.920918291567
 30
0.0
 10
7464.996174635737
 20
5266.920918291567
 30
0.0
 10
7468.90824952334
 20
5266.920918291567
 30
0.0
 10
7480.613744781371
 20
5266.920918291567
 30
0.0
 10
7488.374239576082
 20
5266.920918291567
 30
0.0
 10
7496.091530237154
 20
5266.920918291567
 30
0.0
  0
ARC
  5
ED
330
1F
100
AcDbEntity
  8
0
  6
Continuous
 62
     7
370
    25
100
AcDbCircle
 10
7492.4912803364
 20
5265.1709959029
 30
0.0
 40
4.0030023374822
100
AcDbArc
 50
349.9657143597
 51
25.9223386437
  0
LINE
  5
EE
330
1F
100
AcDbEntity
  8
0
  6
Continuous
 62
     7
370
    25
100
AcDbLine
 10
7160.8322826032
 20
5266.9209182916
 30
0.0
 11
7212.5096967825
 21
5266.9209182916
 31
0.0
  0
SPLINE
  5
EF
330
1F
100
AcDbEntity
  8
0
  6
Continuous
 62
     7
370
    25
100
AcDbSpline
210
0.0
220
0.0
230
1.0
 70
     8
 71
     3
 72
    22
 73
    18
 74
     0
 42
0.00000001
 43
0.00000001
 40
0.0
 40
0.0
 40
0.0
 40
0.0
 40
0.125
 40
0.125
 40
0.25
 40
0.25
 40
0.375
 40
0.375
 40
0.5
 40
0.5
 40
0.625
 40
0.625
 40
0.75
 40
0.75
 40
0.875
 40
0.875
 40
1.0
 40
1.0
 40
1.0
 40
1.0
 10
7211.686898462041
 20
5264.688171196723
 30
0.0
 10
7211.679799503343
 20
5264.83444118324
 30
0.0
 10
7211.679440155211
 20
5264.979933803462
 30
0.0
 10
7211.691720287028
 20
5265.269419721244
 30
0.0
 10
7211.704655659463
 20
5265.41433378795
 30
0.0
 10
7211.742321322189
 20
5265.68815618964
 30
0.0
 10
7211.76727482837
 20
5265.819829153238
 30
0.0
 10
7211.828072986058
 20
5266.066633047447
 30
0.0
 10
7211.863233353883
 20
5266.179472997296
 30
0.0
 10
7211.942482202069
 20
5266.385347608875
 30
0.0
 10
7211.986702141159
 20
5266.478085775311
 30
0.0
 10
7212.080087731451
 20
5266.636512759661
 30
0.0
 10
7212.129956208955
 20
5266.703708023659
 30
0.0
 10
7212.234331363153
 20
5266.81217935978
 30
0.0
 10
7212.287802583166
 20
5266.852549304524
 30
0.0
 10
7212.397181895108
 20
5266.906966459492
 30
0.0
 10
7212.454089034145
 20
5266.920918291567
 30
0.0
 10
7212.509696782458
 20
5266.920918291567
 30
0.0
  0
LINE
  5
F0
330
1F
100
AcDbEntity
  8
0
  6
Continuous
 62
     7
370
    25
100
AcDbLine
 10
7211.686898462
 20
5264.6881711967
 30
0.0
 11
7159.4130953336
 21
5264.6881711967
 31
0.0
  0
SPLINE
  5
F1
330
1F
100
AcDbEntity
  8
0
  6
Continuous
 62
     7
370
    25
100
AcDbSpline
210
0.0
220
0.0
230
1.0
 70
     8
 71
     3
 72
    22
 73
    18
 74
     0
 42
0.00000001
 43
0.00000001
 40
0.0
 40
0.0
 40
0.0
 40
0.0
 40
0.125
 40
0.125
 40
0.25
 40
0.25
 40
0.375
 40
0.375
 40
0.5
 40
0.5
 40
0.625
 40
0.625
 40
0.75
 40
0.75
 40
0.875
 40
0.875
 40
1.0
 40
1.0
 40
1.0
 40
1.0
 10
7159.413095333623
 20
5264.688171196723
 30
0.0
 10
7159.40295533284
 20
5264.829167370416
 30
0.0
 10
7159.40350231052
 20
5264.969375058806
 30
0.0
 10
7159.425123561083
 20
5265.248275731607
 30
0.0
 10
7159.446678408577
 20
5265.388518143383
 30
0.0
 10
7159.509229569138
 20
5265.65639792776
 30
0.0
 10
7159.55002217536
 20
5265.784764936732
 30
0.0
 10
7159.650843043476
 20
5266.030202460099
 30
0.0
 10
7159.710493486709
 20
5266.145692810454
 30
0.0
 10
7159.843780447733
 20
5266.354826006565
 30
0.0
 10
7159.918757336764
 20
5266.450569203746
 30
0.0
 10
7160.080532598167
 20
5266.617380566023
 30
0.0
 10
7160.166275699822
 20
5266.687774521723
 30
0.0
 10
7160.347285305469
 20
5266.802879258892
 30
0.0
 10
7160.443067779688
 20
5266.847370251166
 30
0.0
 10
7160.635443485041
 20
5266.905972675547
 30
0.0
 10
7160.733077917149
 20
5266.920918205819
 30
0.0
 10
7160.832213183695
 20
5266.920918291567
 30
0.0
  0
LINE
  5
F2
330
1F
100
AcDbEntity
  8
0
  6
Continuous
 62
     7
370
    25
100
AcDbLine
 10
7212.5096967825
 20
5266.9209182916
 30
0.0
 11
7449.3308923352
 21
5266.9209182916
 31
0.0
  0
SPLINE
  5
F3
330
1F
100
AcDbEntity
  8
0
  6
Continuous
 62
     7
370
    25
100
AcDbSpline
210
0.0
220
0.0
230
1.0
 70
     8
 71
     3
 72
     8
 73
     4
 74
     0
 42
0.00000001
 43
0.00000001
 40
0.0
 40
0.0
 40
0.0
 40
0.0
 40
1.0
 40
1.0
 40
1.0
 40
1.0
 10
7211.685825303353
 20
5264.480846798589
 30
0.0
 10
7211.689923847682
 20
5264.549314473777
 30
0.0
 10
7211.690283605159
 20
5264.618422257581
 30
0.0
 10
7211.686898462041
 20
5264.688171196723
 30
0.0
  0
LINE
  5
F4
330
1F
100
AcDbEntity
  8
0
  6
Continuous
 62
     7
370
    25
100
AcDbLine
 10
7159.4130953336
 20
5264.6881711967
 30
0.0
 11
7160.2144095219
 21
5253.54593986
 31
0.0
  0
LINE
  5
F5
330
1F
100
AcDbEntity
  8
0
  6
Continuous
 62
     7
370
    25
100
AcDbLine
 10
7186.9854603231
 20
4881.2958967232
 30
0.0
 11
7187.947346651
 21
4867.9209182916
 31
0.0
  0
LWPOLYLINE
  5
F6
330
1F
100
AcDbEntity
  8
0
  6
Continuous
 62
     7
370
    25
100
AcDbPolyline
 90
        9
 70
   128
 43
0.0
 10
7588.2049128845
 20
5264.4117949123
 10
7588.2370257477
 20
5264.863185134
 10
7588.2178253369
 20
5265.3175772646
 10
7588.148310002
 20
5265.7513446075
 10
7588.032094281
 20
5266.1419328782
 10
7587.8752209583
 20
5266.4690329427
 10
7587.6858468617
 20
5266.7156368173
 10
7587.4738187382
 20
5266.8689220199
 10
7587.2501612597
 20
5266.9209182916
  0
SPLINE
  5
F7
330
1F
100
AcDbEntity
  8
0
  6
Continuous
 62
     7
370
    25
100
AcDbSpline
210
0.0
220
0.0
230
1.0
 70
    24
 71
     3
 72
    18
 73
    14
 74
     0
 42
0.00000001
 43
0.00000001
 40
0.0
 40
0.0
 40
0.0
 40
0.0
 40
0.2499999999999999
 40
0.2499999999999999
 40
0.4999999999999998
 40
0.4999999999999998
 40
0.7499999999999997
 40
0.7499999999999997
 40
0.8749999999999998
 40
0.8749999999999998
 40
0.9374999999999999
 40
0.9374999999999999
 40
1.0
 40
1.0
 40
1.0
 40
1.0
 10
7496.091530237153
 20
5266.920918291567
 30
0.0
 10
7504.133633386884
 20
5266.920918291567
 30
0.0
 10
7512.062751271592
 20
5266.920918291567
 30
0.0
 10
7527.701196440107
 20
5266.920918291567
 30
0.0
 10
7535.41050507921
 20
5266.920918291567
 30
0.0
 10
7550.610559465307
 20
5266.920918291567
 30
0.0
 10
7558.101298516968
 20
5266.920918291567
 30
0.0
 10
7569.170927210948
 20
5266.920918291567
 30
0.0
 10
7572.833032523205
 20
5266.920918291567
 30
0.0
 10
7578.283807321187
 20
5266.920918291567
 30
0.0
 10
7580.092286709048
 20
5266.920918291567
 30
0.0
 10
7583.686809766826
 20
5266.920918291567
 30
0.0
 10
7585.474184975488
 20
5266.920918291567
 30
0.0
 10
7587.250161259749
 20
5266.920918291567
 30
0.0
  0
SPLINE
  5
F8
330
1F
100
AcDbEntity
  8
0
  6
Continuous
 62
     7
370
    25
100
AcDbSpline
210
0.0
220
0.0
230
1.0
 70
    24
 71
     3
 72
    20
 73
    16
 74
     0
 42
0.00000001
 43
0.00000001
 40
0.0
 40
0.0
 40
0.0
 40
0.0
 40
0.0798276873656996
 40
0.1599406254738236
 40
0.2400536335417275
 40
0.3198814166480042
 40
0.3997139410151758
 40
0.4798317519256337
 40
0.559949522691921
 40
0.6397819921214117
 40
0.7196133382299231
 40
0.7997298219270145
 40
0.879846314786976
 40
0.959677673434939
 40
0.9999999999999999
 40
0.9999999999999999
 40
0.9999999999999999
 40
0.9999999999999999
 10
7587.250161259749
 20
5266.920918291567
 30
0.0
 10
7591.136849201138
 20
5266.920918291567
 30
0.0
 10
7598.92411350606
 20
5266.920918291567
 30
0.0
 10
7609.807686201943
 20
5266.920918291567
 30
0.0
 10
7620.01563117836
 20
5266.920918291567
 30
0.0
 10
7629.406708443779
 20
5266.920918291567
 30
0.0
 10
7637.913572206607
 20
5266.920918291567
 30
0.0
 10
7645.506059489403
 20
5266.920918291567
 30
0.0
 10
7652.130573833593
 20
5266.920918291567
 30
0.0
 10
7657.726813796316
 20
5266.920918291567
 30
0.0
 10
7662.225133936433
 20
5266.920918291567
 30
0.0
 10
7665.649893798991
 20
5266.920918291567
 30
0.0
 10
7667.905323455536
 20
5266.920918291567
 30
0.0
 10
7669.028354726318
 20
5266.920918291567
 30
0.0
 10
7668.941635299536
 20
5266.920918291567
 30
0.0
 10
7668.912533162219
 20
5266.920918291567
 30
0.0
  0
SPLINE
  5
F9
330
1F
100
AcDbEntity
  8
0
  6
Continuous
 62
     7
370
    25
100
AcDbSpline
210
0.0
220
0.0
230
1.0
 70
     8
 71
     3
 72
    20
 73
    16
 74
     0
 42
0.00000001
 43
0.00000001
 40
0.0
 40
0.0
 40
0.0
 40
0.0
 40
0.0624999999999996
 40
0.0624999999999996
 40
0.1249999999999992
 40
0.1249999999999992
 40
0.2499999999999984
 40
0.2499999999999984
 40
0.3749999999999976
 40
0.3749999999999976
 40
0.4999999999999968
 40
0.4999999999999968
 40
0.7499999999999983
 40
0.7499999999999983
 40
1.0
 40
1.0
 40
1.0
 40
1.0
 10
7588.204912884481
 20
5264.411794912291
 30
0.0
 10
7586.425712830061
 20
5264.41446713671
 30
0.0
 10
7584.634952088917
 20
5264.415646494189
 30
0.0
 10
7581.033864041412
 20
5264.41932094505
 30
0.0
 10
7579.222590892933
 20
5264.421124308252
 30
0.0
 10
7573.760165480299
 20
5264.426426325284
 30
0.0
 10
7570.083072948305
 20
5264.429814542597
 30
0.0
 10
7562.658318756643
 20
5264.436281527092
 30
0.0
 10
7558.910661366519
 20
5264.439363796573
 30
0.0
 10
7551.344615566986
 20
5264.445216123605
 30
0.0
 10
7547.522119924178
 20
5264.447988632855
 30
0.0
 10
7535.987004145815
 20
5264.455787819259
 30
0.0
 10
7528.204581233684
 20
5264.460312790487
 30
0.0
 10
7512.456687323648
 20
5264.467964519682
 30
0.0
 10
7504.491221278223
 20
5264.471099312389
 30
0.0
 10
7496.433051413541
 20
5264.473522971891
 30
0.0
  0
LINE
  5
FA
330
1F
100
AcDbEntity
  8
0
  6
Continuous
 62
     7
370
    25
100
AcDbLine
 10
7449.3308923352
 20
5264.4808467986
 30
0.0
 11
7211.6858253034
 21
5264.4808467986
 31
0.0
  0
SPLINE
  5
FB
330
1F
100
AcDbEntity
  8
0
  6
Continuous
 62
     7
370
    25
100
AcDbSpline
210
0.0
220
0.0
230
1.0
 70
     8
 71
     3
 72
    12
 73
     8
 74
     0
 42
0.00000001
 43
0.00000001
 40
0.0
 40
0.0
 40
0.0
 40
0.0
 40
0.2500000000000001
 40
0.2500000000000001
 40
0.5000000000000001
 40
0.5000000000000001
 40
1.0
 40
1.0
 40
1.0
 40
1.0
 10
7496.433051413541
 20
5264.473522971891
 30
0.0
 10
7492.546229626154
 20
5264.474692013088
 30
0.0
 10
7488.644745185687
 20
5264.475709622976
 30
0.0
 10
7480.821204811334
 20
5264.477369793087
 30
0.0
 10
7476.895660663871
 20
5264.478045768329
 30
0.0
 10
7465.104865566337
 20
5264.479749417356
 30
0.0
 10
7457.226749115815
 20
5264.480846798589
 30
0.0
 10
7449.33089233524
 20
5264.480846798589
 30
0.0
  0
SPLINE
  5
FC
330
1F
100
AcDbEntity
  8
0
  6
Continuous
 62
     7
370
    25
100
AcDbSpline
210
0.0
220
0.0
230
1.0
 70
    24
 71
     3
 72
    12
 73
     8
 74
     0
 42
0.00000001
 43
0.00000001
 40
0.0
 40
0.0
 40
0.0
 40
0.0
 40
0.25
 40
0.25
 40
0.5
 40
0.5
 40
1.0
 40
1.0
 40
1.0
 40
1.0
 10
7449.33089233524
 20
5266.920918291567
 30
0.0
 10
7453.250146905323
 20
5266.920918291567
 30
0.0
 10
7457.16879365302
 20
5266.920918291567
 30
0.0
 10
7464.996174635737
 20
5266.920918291567
 30
0.0
 10
7468.90824952334
 20
5266.920918291567
 30
0.0
 10
7480.613744781371
 20
5266.920918291567
 30
0.0
 10
7488.374239576082
 20
5266.920918291567
 30
0.0
 10
7496.091530237154
 20
5266.920918291567
 30
0.0
  0
SPLINE
  5
FD
330
1F
100
AcDbEntity
  8
0
  6
Continuous
 62
     7
370
    25
100
AcDbSpline
210
0.0
220
0.0
230
1.0
 70
     8
 71
     3
 72
    22
 73
    18
 74
     0
 42
0.00000001
 43
0.00000001
 40
0.0
 40
0.0
 40
0.0
 40
0.0
 40
0.125
 40
0.125
 40
0.25
 40
0.25
 40
0.375
 40
0.375
 40
0.5
 40
0.5
 40
0.625
 40
0.625
 40
0.75
 40
0.75
 40
0.875
 40
0.875
 40
1.0
 40
1.0
 40
1.0
 40
1.0
 10
7211.686898462041
 20
5264.688171196723
 30
0.0
 10
7211.679799503343
 20
5264.83444118324
 30
0.0
 10
7211.679440155211
 20
5264.979933803462
 30
0.0
 10
7211.691720287028
 20
5265.269419721244
 30
0.0
 10
7211.704655659463
 20
5265.41433378795
 30
0.0
 10
7211.742321322189
 20
5265.68815618964
 30
0.0
 10
7211.76727482837
 20
5265.819829153238
 30
0.0
 10
7211.828072986058
 20
5266.066633047447
 30
0.0
 10
7211.863233353883
 20
5266.179472997296
 30
0.0
 10
7211.942482202069
 20
5266.385347608875
 30
0.0
 10
7211.986702141159
 20
5266.478085775311
 30
0.0
 10
7212.080087731451
 20
5266.636512759661
 30
0.0
 10
7212.129956208955
 20
5266.703708023659
 30
0.0
 10
7212.234331363153
 20
5266.81217935978
 30
0.0
 10
7212.287802583166
 20
5266.852549304524
 30
0.0
 10
7212.397181895108
 20
5266.906966459492
 30
0.0
 10
7212.454089034145
 20
5266.920918291567
 30
0.0
 10
7212.509696782458
 20
5266.920918291567
 30
0.0
  0
SPLINE
  5
FE
330
1F
100
AcDbEntity
  8
0
  6
Continuous
 62
     7
370
    25
100
AcDbSpline
210
0.0
220
0.0
230
1.0
 70
     8
 71
     3
 72
    22
 73
    18
 74
     0
 42
0.00000001
 43
0.00000001
 40
0.0
 40
0.0
 40
0.0
 40
0.0
 40
0.125
 40
0.125
 40
0.25
 40
0.25
 40
0.375
 40
0.375
 40
0.5
 40
0.5
 40
0.625
 40
0.625
 40
0.75
 40
0.75
 40
0.875
 40
0.875
 40
1.0
 40
1.0
 40
1.0
 40
1.0
 10
7159.413095333623
 20
5264.688171196723
 30
0.0
 10
7159.40295533284
 20
5264.829167370416
 30
0.0
 10
7159.40350231052
 20
5264.969375058806
 30
0.0
 10
7159.425123561083
 20
5265.248275731607
 30
0.0
 10
7159.446678408577
 20
5265.388518143383
 30
0.0
 10
7159.509229569138
 20
5265.65639792776
 30
0.0
 10
7159.55002217536
 20
5265.784764936732
 30
0.0
 10
7159.650843043476
 20
5266.030202460099
 30
0.0
 10
7159.710493486709
 20
5266.145692810454
 30
0.0
 10
7159.843780447733
 20
5266.354826006565
 30
0.0
 10
7159.918757336764
 20
5266.450569203746
 30
0.0
 10
7160.080532598167
 20
5266.617380566023
 30
0.0
 10
7160.166275699822
 20
5266.687774521723
 30
0.0
 10
7160.347285305469
 20
5266.802879258892
 30
0.0
 10
7160.443067779688
 20
5266.847370251166
 30
0.0
 10
7160.635443485041
 20
5266.905972675547
 30
0.0
 10
7160.733077917149
 20
5266.920918205819
 30
0.0
 10
7160.832213183695
 20
5266.920918291567
 30
0.0
  0
LINE
  5
FF
330
1F
100
AcDbEntity
  8
0
  6
Continuous
 62
     7
370
    25
100
AcDbLine
 10
7212.5096967825
 20
5266.9209182916
 30
0.0
 11
7449.3308923352
 21
5266.9209182916
 31
0.0
  0
SPLINE
  5
100
330
1F
100
AcDbEntity
  8
0
  6
Continuous
 62
     7
370
    25
100
AcDbSpline
210
0.0
220
0.0
230
1.0
 70
     8
 71
     3
 72
     8
 73
     4
 74
     0
 42
0.00000001
 43
0.00000001
 40
0.0
 40
0.0
 40
0.0
 40
0.0
 40
1.0
 40
1.0
 40
1.0
 40
1.0
 10
7211.685825303353
 20
5264.480846798589
 30
0.0
 10
7211.689923847682
 20
5264.549314473777
 30
0.0
 10
7211.690283605159
 20
5264.618422257581
 30
0.0
 10
7211.686898462041
 20
5264.688171196723
 30
0.0
  0
LWPOLYLINE
  5
101
330
1F
100
AcDbEntity
  8
0
  6
Continuous
 62
     7
370
    25
100
AcDbPolyline
 90
        9
 70
   128
 43
0.0
 10
7588.2049128845
 20
5264.4117949123
 10
7588.2370257477
 20
5264.863185134
 10
7588.2178253369
 20
5265.3175772646
 10
7588.148310002
 20
5265.7513446075
 10
7588.032094281
 20
5266.1419328782
 10
7587.8752209583
 20
5266.4690329427
 10
7587.6858468617
 20
5266.7156368173
 10
7587.4738187382
 20
5266.8689220199
 10
7587.2501612597
 20
5266.9209182916
  0
SPLINE
  5
102
330
1F
100
AcDbEntity
  8
0
  6
Continuous
 62
     7
370
    25
100
AcDbSpline
210
0.0
220
0.0
230
1.0
 70
    24
 71
     3
 72
    18
 73
    14
 74
     0
 42
0.00000001
 43
0.00000001
 40
0.0
 40
0.0
 40
0.0
 40
0.0
 40
0.2499999999999999
 40
0.2499999999999999
 40
0.4999999999999998
 40
0.4999999999999998
 40
0.7499999999999997
 40
0.7499999999999997
 40
0.8749999999999998
 40
0.8749999999999998
 40
0.9374999999999999
 40
0.9374999999999999
 40
1.0
 40
1.0
 40
1.0
 40
1.0
 10
7496.091530237153
 20
5266.920918291567
 30
0.0
 10
7504.133633386884
 20
5266.920918291567
 30
0.0
 10
7512.062751271592
 20
5266.920918291567
 30
0.0
 10
7527.701196440107
 20
5266.920918291567
 30
0.0
 10
7535.41050507921
 20
5266.920918291567
 30
0.0
 10
7550.610559465307
 20
5266.920918291567
 30
0.0
 10
7558.101298516968
 20
5266.920918291567
 30
0.0
 10
7569.170927210948
 20
5266.920918291567
 30
0.0
 10
7572.833032523205
 20
5266.920918291567
 30
0.0
 10
7578.283807321187
 20
5266.920918291567
 30
0.0
 10
7580.092286709048
 20
5266.920918291567
 30
0.0
 10
7583.686809766826
 20
5266.920918291567
 30
0.0
 10
7585.474184975488
 20
5266.920918291567
 30
0.0
 10
7587.250161259749
 20
5266.920918291567
 30
0.0
  0
SPLINE
  5
103
330
1F
100
AcDbEntity
  8
0
  6
Continuous
 62
     7
370
    25
100
AcDbSpline
210
0.0
220
0.0
230
1.0
 70
    24
 71
     3
 72
    20
 73
    16
 74
     0
 42
0.00000001
 43
0.00000001
 40
0.0
 40
0.0
 40
0.0
 40
0.0
 40
0.0798276873656996
 40
0.1599406254738236
 40
0.2400536335417275
 40
0.3198814166480042
 40
0.3997139410151758
 40
0.4798317519256337
 40
0.559949522691921
 40
0.6397819921214117
 40
0.7196133382299231
 40
0.7997298219270145
 40
0.879846314786976
 40
0.959677673434939
 40
0.9999999999999999
 40
0.9999999999999999
 40
0.9999999999999999
 40
0.9999999999999999
 10
7587.250161259749
 20
5266.920918291567
 30
0.0
 10
7591.136849201138
 20
5266.920918291567
 30
0.0
 10
7598.92411350606
 20
5266.920918291567
 30
0.0
 10
7609.807686201943
 20
5266.920918291567
 30
0.0
 10
7620.01563117836
 20
5266.920918291567
 30
0.0
 10
7629.406708443779
 20
5266.920918291567
 30
0.0
 10
7637.913572206607
 20
5266.920918291567
 30
0.0
 10
7645.506059489403
 20
5266.920918291567
 30
0.0
 10
7652.130573833593
 20
5266.920918291567
 30
0.0
 10
7657.726813796316
 20
5266.920918291567
 30
0.0
 10
7662.225133936433
 20
5266.920918291567
 30
0.0
 10
7665.649893798991
 20
5266.920918291567
 30
0.0
 10
7667.905323455536
 20
5266.920918291567
 30
0.0
 10
7669.028354726318
 20
5266.920918291567
 30
0.0
 10
7668.941635299536
 20
5266.920918291567
 30
0.0
 10
7668.912533162219
 20
5266.920918291567
 30
0.0
  0
LINE
  5
104
330
1F
100
AcDbEntity
  8
0
  6
Continuous
 62
     7
370
    25
100
AcDbLine
 10
6872.6683834638
 20
5804.7994564517
 30
0.0
 11
6877.453330737
 21
5809.5844037249
 31
0.0
  0
LINE
  5
105
330
1F
100
AcDbEntity
  8
0
  6
Continuous
 62
     8
370
    25
100
AcDbLine
 10
7211.8318688971
 20
5715.9209182916
 30
0.0
 11
7031.8318688971
 21
5715.9209182916
 31
0.0
  0
SPLINE
  5
106
330
1F
100
AcDbEntity
  8
0
  6
Continuous
 62
     8
370
    25
100
AcDbSpline
210
0.0
220
0.0
230
1.0
 70
     8
 71
     3
 72
    22
 73
    18
 74
     0
 42
0.00000001
 43
0.00000001
 40
0.0
 40
0.0
 40
0.0
 40
0.0
 40
0.0403161166575342
 40
0.119137116386661
 40
0.1979580858083166
 40
0.2790658026316492
 40
0.3601735768643179
 40
0.4389997098489826
 40
0.5178258395919948
 40
0.5989403814698897
 40
0.6800548486199354
 40
0.7254861207303707
 40
0.7710219664886929
 40
0.827848159109338
 40
0.8846742889712709
 40
0.9423371494270291
 40
1.0
 40
1.0
 40
1.0
 40
1.0
 10
7670.808311648076
 20
5264.29081393497
 30
0.0
 10
7670.837867188312
 20
5264.290771886429
 30
0.0
 10
7670.925206002882
 20
5264.290647629869
 30
0.0
 10
7669.817345010971
 20
5264.292232401794
 30
0.0
 10
7667.584390860235
 20
5264.295429924166
 30
0.0
 10
7664.118885162089
 20
5264.300393726168
 30
0.0
 10
7659.542171082066
 20
5264.306967016742
 30
0.0
 10
7653.923953351913
 20
5264.315060227201
 30
0.0
 10
7647.290729312425
 20
5264.324651893342
 30
0.0
 10
7639.589944119509
 20
5264.335834481262
 30
0.0
 10
7632.134813649153
 20
5264.346711064565
 30
0.0
 10
7625.460135606847
 20
5264.356485688555
 30
0.0
 10
7619.433561618873
 20
5264.365357512734
 30
0.0
 10
7612.603267134717
 20
5264.375430989678
 30
0.0
 10
7604.868894280255
 20
5264.386903149657
 30
0.0
 10
7596.76121083272
 20
5264.398973677132
 30
0.0
 10
7591.057012037621
 20
5264.407521167482
 30
0.0
 10
7588.204912884481
 20
5264.411794912291
 30
0.0
  0
SPLINE
  5
107
330
1F
100
AcDbEntity
  8
0
  6
Continuous
 62
     8
370
    25
100
AcDbSpline
210
0.0
220
0.0
230
1.0
 70
     8
 71
     3
 72
    22
 73
    18
 74
     0
 42
0.00000001
 43
0.00000001
 40
0.0
 40
0.0
 40
0.0
 40
0.0
 40
0.0403161166575342
 40
0.119137116386661
 40
0.1979580858083166
 40
0.2790658026316492
 40
0.3601735768643179
 40
0.4389997098489826
 40
0.5178258395919948
 40
0.5989403814698897
 40
0.6800548486199354
 40
0.7254861207303707
 40
0.7710219664886929
 40
0.827848159109338
 40
0.8846742889712709
 40
0.9423371494270291
 40
1.0
 40
1.0
 40
1.0
 40
1.0
 10
7670.808311648076
 20
5264.29081393497
 30
0.0
 10
7670.837867188312
 20
5264.290771886429
 30
0.0
 10
7670.925206002882
 20
5264.290647629869
 30
0.0
 10
7669.817345010971
 20
5264.292232401794
 30
0.0
 10
7667.584390860235
 20
5264.295429924166
 30
0.0
 10
7664.118885162089
 20
5264.300393726168
 30
0.0
 10
7659.542171082066
 20
5264.306967016742
 30
0.0
 10
7653.923953351913
 20
5264.315060227201
 30
0.0
 10
7647.290729312425
 20
5264.324651893342
 30
0.0
 10
7639.589944119509
 20
5264.335834481262
 30
0.0
 10
7632.134813649153
 20
5264.346711064565
 30
0.0
 10
7625.460135606847
 20
5264.356485688555
 30
0.0
 10
7619.433561618873
 20
5264.365357512734
 30
0.0
 10
7612.603267134717
 20
5264.375430989678
 30
0.0
 10
7604.868894280255
 20
5264.386903149657
 30
0.0
 10
7596.76121083272
 20
5264.398973677132
 30
0.0
 10
7591.057012037621
 20
5264.407521167482
 30
0.0
 10
7588.204912884481
 20
5264.411794912291
 30
0.0
  0
LINE
  5
108
330
1F
100
AcDbEntity
  8
0
  6
Continuous
 62
     8
370
    25
100
AcDbLine
 10
6859.3318688971
 20
5845.4209182916
 30
0.0
 11
6859.3318688971
 21
5800.4209182916
 31
0.0
  0
LINE
  5
109
330
1F
100
AcDbEntity
  8
SLD-0
 62
     7
370
    18
100
AcDbLine
 10
7159.4130953336
 20
5264.6881711967
 30
0.0
 11
7187.947346651
 21
4867.9209182916
 31
0.0
  0
LINE
  5
10A
330
1F
100
AcDbEntity
  8
0
  6
Continuous
 62
     7
370
    25
100
AcDbLine
 10
6289.3800963089
 20
4430.5301186642
 30
0.0
 11
6289.3800963089
 21
4428.5301186642
 31
0.0
  0
LINE
  5
10B
330
1F
100
AcDbEntity
  8
0
  6
Continuous
 62
     7
370
    25
100
AcDbLine
 10
6334.3800963089
 20
4428.5301186642
 30
0.0
 11
6334.3800963089
 21
4430.5301186642
 31
0.0
  0
LINE
  5
10C
330
1F
100
AcDbEntity
  8
0
  6
Continuous
 62
     7
370
    25
100
AcDbLine
 10
6089.3800963089
 20
4430.5301186642
 30
0.0
 11
6089.3800963089
 21
4428.5301186642
 31
0.0
  0
LINE
  5
10D
330
1F
100
AcDbEntity
  8
0
  6
Continuous
 62
     7
370
    25
100
AcDbLine
 10
6134.3800963089
 20
4428.5301186642
 30
0.0
 11
6134.3800963089
 21
4430.5301186642
 31
0.0
  0
LINE
  5
10E
330
1F
100
AcDbEntity
  8
0
  6
Continuous
 62
     7
370
    25
100
AcDbLine
 10
6084.6567462599
 20
4127.9559983596
 30
0.0
 11
6084.6567128257
 21
4127.9559649253
 31
0.0
  0
LINE
  5
10F
330
1F
100
AcDbEntity
  8
0
  6
Continuous
 62
     7
370
    25
100
AcDbLine
 10
6084.6476118837
 20
4127.9468639823
 30
0.0
 11
6032.3954900748
 21
4075.6947359162
 31
0.0
  0
LINE
  5
110
330
1F
100
AcDbEntity
  8
0
  6
Continuous
 62
     7
370
    25
100
AcDbLine
 10
6391.364702543
 20
4075.6947359162
 30
0.0
 11
6339.112637423
 21
4127.9468072934
 31
0.0
  0
LINE
  5
111
330
1F
100
AcDbEntity
  8
0
  6
Continuous
 62
     7
370
    25
100
AcDbLine
 10
6339.1034797922
 20
4127.9559649253
 30
0.0
 11
6339.1034460532
 21
4127.9559986643
 31
0.0
  0
SPLINE
  5
112
330
1F
100
AcDbEntity
  8
0
  6
Continuous
 62
     7
370
    25
100
AcDbSpline
210
0.0
220
0.0
230
1.0
 70
     8
 71
     3
 72
    11
 73
     7
 74
     0
 42
0.00000001
 43
0.00000001
 40
0.0
 40
0.0
 40
0.0
 40
0.0
 40
0.1856244611366993
 40
0.7003201163385581
 40
0.9576637440748103
 40
1.0
 40
1.0
 40
1.0
 40
1.0
 10
6032.381471993865
 20
4075.671173506357
 30
0.0
 10
6032.380022414223
 20
4060.96722836353
 30
0.0
 10
6032.374553470221
 20
4005.492489150812
 30
0.0
 10
6032.451720122782
 20
3929.632858932816
 30
0.0
 10
6032.301400874513
 20
3865.123106821746
 30
0.0
 10
6032.407322692909
 20
3841.384667696064
 30
0.0
 10
6032.422286437412
 20
3838.031100476901
 30
0.0
  0
SPLINE
  5
113
330
1F
100
AcDbEntity
  8
0
  6
Continuous
 62
     7
370
    25
100
AcDbSpline
210
0.0
220
0.0
230
1.0
 70
     8
 71
     3
 72
    11
 73
     7
 74
     0
 42
0.00000001
 43
0.00000001
 40
0.0
 40
0.0
 40
0.0
 40
0.0
 40
0.0329390199655365
 40
0.0934407565857494
 40
0.6813275979296293
 40
1.0
 40
1.0
 40
1.0
 40
1.0
 10
6391.34304529021
 20
3838.031076765701
 30
0.0
 10
6391.357785946905
 20
3840.640253349481
 30
0.0
 10
6391.399601948579
 20
3848.041913578271
 30
0.0
 10
6391.301165374276
 20
3902.012398957161
 30
0.0
 10
6391.394398443311
 20
3978.616380894498
 30
0.0
 10
6391.382798292359
 20
4050.428041721402
 30
0.0
 10
6391.37872062397
 20
4075.671173506354
 30
0.0
  0
SPLINE
  5
114
330
1F
100
AcDbEntity
  8
0
  6
Continuous
 62
     7
370
    25
100
AcDbSpline
210
0.0
220
0.0
230
1.0
 70
     8
 71
     3
 72
    18
 73
    14
 74
     0
 42
0.00000001
 43
0.00000001
 40
0.0
 40
0.0
 40
0.0
 40
0.0
 40
0.0684752195245788
 40
0.1517602007849649
 40
0.2420847885556156
 40
0.3424195947271558
 40
0.4401507348726695
 40
0.5377674978949427
 40
0.6352783435159669
 40
0.7326539127842912
 40
0.8298680440273483
 40
0.9268983183682221
 40
1.0
 40
1.0
 40
1.0
 40
1.0
 10
6354.139277098394
 20
3699.122232351042
 30
0.0
 10
6355.243635911786
 20
3701.068887084622
 30
0.0
 10
6357.691203315331
 20
3705.383217367582
 30
0.0
 10
6361.290149368498
 20
3712.43163914497
 30
0.0
 10
6365.157087454527
 20
3720.507062727048
 30
0.0
 10
6368.976762790512
 20
3729.125562241914
 30
0.0
 10
6372.588144026855
 20
3738.090705643991
 30
0.0
 10
6375.871423824751
 20
3747.08293392674
 30
0.0
 10
6378.850219902447
 20
3756.168251660298
 30
0.0
 10
6381.525106136604
 20
3765.334261273316
 30
0.0
 10
6383.879300784828
 20
3774.570768853664
 30
0.0
 10
6385.78956775093
 20
3783.099571822185
 30
0.0
 10
6386.771307841492
 20
3788.572861386418
 30
0.0
 10
6387.193138362013
 20
3790.924604590191
 30
0.0
  0
SPLINE
  5
115
330
1F
100
AcDbEntity
  8
0
  6
Continuous
 62
     7
370
    25
100
AcDbSpline
210
0.0
220
0.0
230
1.0
 70
     8
 71
     3
 72
    18
 73
    14
 74
     0
 42
0.00000001
 43
0.00000001
 40
0.0
 40
0.0
 40
0.0
 40
0.0
 40
0.0661934313646307
 40
0.1627523631264515
 40
0.2593456535778991
 40
0.3560314138787964
 40
0.4528764771173611
 40
0.5499462258600072
 40
0.6473045383752017
 40
0.7450137304752467
 40
0.843232931742982
 40
0.9284771648475713
 40
1.0
 40
1.0
 40
1.0
 40
1.0
 10
6036.560453428489
 20
3790.923396383095
 30
0.0
 10
6036.942050205402
 20
3788.793845336936
 30
0.0
 10
6037.880297036295
 20
3783.557835388282
 30
0.0
 10
6039.708485864724
 20
3775.278760123059
 30
0.0
 10
6042.022600054633
 20
3766.092029952257
 30
0.0
 10
6044.6525966294
 20
3756.980183427331
 30
0.0
 10
6047.585370769134
 20
3747.945161883098
 30
0.0
 10
6050.823807600843
 20
3738.991676412891
 30
0.0
 10
6054.364802070249
 20
3730.123088534016
 30
0.0
 10
6058.214791023054
 20
3721.34305566893
 30
0.0
 10
6062.163366912947
 20
3713.04443362084
 30
0.0
 10
6065.943437108805
 20
3705.614865325058
 30
0.0
 10
6068.467281865849
 20
3701.15557311211
 30
0.0
 10
6069.618751587872
 20
3699.121081905575
 30
0.0
  0
SPLINE
  5
116
330
1F
100
AcDbEntity
  8
0
  6
Continuous
 62
     7
370
    25
100
AcDbSpline
210
0.0
220
0.0
230
1.0
 70
     8
 71
     3
 72
    13
 73
     9
 74
     0
 42
0.00000001
 43
0.00000001
 40
0.0
 40
0.0
 40
0.0
 40
0.0
 40
0.1350975687255991
 40
0.3303059927614633
 40
0.5077385257851754
 40
0.69729405803285
 40
0.8790777095425116
 40
1.0
 40
1.0
 40
1.0
 40
1.0
 10
6032.439016328148
 20
3838.031331642239
 30
0.0
 10
6032.457684809436
 20
3835.899081925531
 30
0.0
 10
6032.50332820112
 20
3830.685850731688
 30
0.0
 10
6032.831248950009
 20
3822.677374248756
 30
0.0
 10
6033.42582171338
 20
3813.822597826859
 30
0.0
 10
6034.351831953311
 20
3805.209339542068
 30
0.0
 10
6035.400472491378
 20
3797.508758076506
 30
0.0
 10
6036.241968846153
 20
3792.805496993108
 30
0.0
 10
6036.578122361904
 20
3790.926679883909
 30
0.0
  0
SPLINE
  5
117
330
1F
100
AcDbEntity
  8
0
  6
Continuous
 62
     7
370
    25
100
AcDbSpline
210
0.0
220
0.0
230
1.0
 70
     8
 71
     3
 72
    13
 73
     9
 74
     0
 42
0.00000001
 43
0.00000001
 40
0.0
 40
0.0
 40
0.0
 40
0.0
 40
0.1040353791612167
 40
0.3021761824234753
 40
0.4744168228522375
 40
0.6556608873601429
 40
0.8433733221325921
 40
1.0
 40
1.0
 40
1.0
 40
1.0
 10
6387.177532704073
 20
3790.9274760811
 30
0.0
 10
6387.471473490914
 20
3792.543052148781
 30
0.0
 10
6388.325239830234
 20
3797.235577061773
 30
0.0
 10
6389.33817778822
 20
3804.657366952531
 30
0.0
 10
6390.286161539538
 20
3813.312985713234
 30
0.0
 10
6390.884283311341
 20
3821.835569868244
 30
0.0
 10
6391.238971994687
 20
3830.12465406316
 30
0.0
 10
6391.301813056581
 20
3835.559249024447
 30
0.0
 10
6391.330397049501
 20
3838.031238185991
 30
0.0
  0
LINE
  5
118
330
1F
100
AcDbEntity
  8
0
  6
Continuous
 62
     7
370
    25
100
AcDbLine
 10
6084.6567462599
 20
4127.9559983596
 30
0.0
 11
6032.3882208519
 21
4075.6874666924
 31
0.0
  0
LINE
  5
119
330
1F
100
AcDbEntity
  8
0
  6
Continuous
 62
     7
370
    25
100
AcDbLine
 10
6391.3719717659
 20
4075.6874666923
 30
0.0
 11
6339.1034460532
 21
4127.9559986643
 31
0.0
  0
SPLINE
  5
11A
330
1F
100
AcDbEntity
  8
0
  6
Continuous
 62
     7
370
    25
100
AcDbSpline
210
0.0
220
0.0
230
1.0
 70
     8
 71
     3
 72
    11
 73
     7
 74
     0
 42
0.00000001
 43
0.00000001
 40
0.0
 40
0.0
 40
0.0
 40
0.0
 40
0.1856244611366993
 40
0.7003201163385581
 40
0.9576637440748103
 40
1.0
 40
1.0
 40
1.0
 40
1.0
 10
6032.381471993865
 20
4075.671173506357
 30
0.0
 10
6032.380022414223
 20
4060.96722836353
 30
0.0
 10
6032.374553470221
 20
4005.492489150812
 30
0.0
 10
6032.451720122782
 20
3929.632858932816
 30
0.0
 10
6032.301400874513
 20
3865.123106821746
 30
0.0
 10
6032.407322692909
 20
3841.384667696064
 30
0.0
 10
6032.422286437412
 20
3838.031100476901
 30
0.0
  0
SPLINE
  5
11B
330
1F
100
AcDbEntity
  8
0
  6
Continuous
 62
     7
370
    25
100
AcDbSpline
210
0.0
220
0.0
230
1.0
 70
     8
 71
     3
 72
    11
 73
     7
 74
     0
 42
0.00000001
 43
0.00000001
 40
0.0
 40
0.0
 40
0.0
 40
0.0
 40
0.0329390199655365
 40
0.0934407565857494
 40
0.6813275979296293
 40
1.0
 40
1.0
 40
1.0
 40
1.0
 10
6391.34304529021
 20
3838.031076765701
 30
0.0
 10
6391.357785946905
 20
3840.640253349481
 30
0.0
 10
6391.399601948579
 20
3848.041913578271
 30
0.0
 10
6391.301165374276
 20
3902.012398957161
 30
0.0
 10
6391.394398443311
 20
3978.616380894498
 30
0.0
 10
6391.382798292359
 20
4050.428041721402
 30
0.0
 10
6391.37872062397
 20
4075.671173506354
 30
0.0
  0
SPLINE
  5
11C
330
1F
100
AcDbEntity
  8
0
  6
Continuous
 62
     7
370
    25
100
AcDbSpline
210
0.0
220
0.0
230
1.0
 70
     8
 71
     3
 72
    18
 73
    14
 74
     0
 42
0.00000001
 43
0.00000001
 40
0.0
 40
0.0
 40
0.0
 40
0.0
 40
0.0661934313646307
 40
0.1627523631264515
 40
0.2593456535778991
 40
0.3560314138787964
 40
0.4528764771173611
 40
0.5499462258600072
 40
0.6473045383752017
 40
0.7450137304752467
 40
0.843232931742982
 40
0.9284771648475713
 40
1.0
 40
1.0
 40
1.0
 40
1.0
 10
6036.560453428489
 20
3790.923396383095
 30
0.0
 10
6036.942050205402
 20
3788.793845336936
 30
0.0
 10
6037.880297036295
 20
3783.557835388282
 30
0.0
 10
6039.708485864724
 20
3775.278760123059
 30
0.0
 10
6042.022600054633
 20
3766.092029952257
 30
0.0
 10
6044.6525966294
 20
3756.980183427331
 30
0.0
 10
6047.585370769134
 20
3747.945161883098
 30
0.0
 10
6050.823807600843
 20
3738.991676412891
 30
0.0
 10
6054.364802070249
 20
3730.123088534016
 30
0.0
 10
6058.214791023054
 20
3721.34305566893
 30
0.0
 10
6062.163366912947
 20
3713.04443362084
 30
0.0
 10
6065.943437108805
 20
3705.614865325058
 30
0.0
 10
6068.467281865849
 20
3701.15557311211
 30
0.0
 10
6069.618751587872
 20
3699.121081905575
 30
0.0
  0
SPLINE
  5
11D
330
1F
100
AcDbEntity
  8
0
  6
Continuous
 62
     7
370
    25
100
AcDbSpline
210
0.0
220
0.0
230
1.0
 70
     8
 71
     3
 72
    18
 73
    14
 74
     0
 42
0.00000001
 43
0.00000001
 40
0.0
 40
0.0
 40
0.0
 40
0.0
 40
0.0684752195245788
 40
0.1517602007849649
 40
0.2420847885556156
 40
0.3424195947271558
 40
0.4401507348726695
 40
0.5377674978949427
 40
0.6352783435159669
 40
0.7326539127842912
 40
0.8298680440273483
 40
0.9268983183682221
 40
1.0
 40
1.0
 40
1.0
 40
1.0
 10
6354.139277098394
 20
3699.122232351042
 30
0.0
 10
6355.243635911786
 20
3701.068887084622
 30
0.0
 10
6357.691203315331
 20
3705.383217367582
 30
0.0
 10
6361.290149368498
 20
3712.43163914497
 30
0.0
 10
6365.157087454527
 20
3720.507062727048
 30
0.0
 10
6368.976762790512
 20
3729.125562241914
 30
0.0
 10
6372.588144026855
 20
3738.090705643991
 30
0.0
 10
6375.871423824751
 20
3747.08293392674
 30
0.0
 10
6378.850219902447
 20
3756.168251660298
 30
0.0
 10
6381.525106136604
 20
3765.334261273316
 30
0.0
 10
6383.879300784828
 20
3774.570768853664
 30
0.0
 10
6385.78956775093
 20
3783.099571822185
 30
0.0
 10
6386.771307841492
 20
3788.572861386418
 30
0.0
 10
6387.193138362013
 20
3790.924604590191
 30
0.0
  0
SPLINE
  5
11E
330
1F
100
AcDbEntity
  8
0
  6
Continuous
 62
     7
370
    25
100
AcDbSpline
210
0.0
220
0.0
230
1.0
 70
     8
 71
     3
 72
    13
 73
     9
 74
     0
 42
0.00000001
 43
0.00000001
 40
0.0
 40
0.0
 40
0.0
 40
0.0
 40
0.1350975687255991
 40
0.3303059927614633
 40
0.5077385257851754
 40
0.69729405803285
 40
0.8790777095425116
 40
1.0
 40
1.0
 40
1.0
 40
1.0
 10
6032.439016328148
 20
3838.031331642239
 30
0.0
 10
6032.457684809436
 20
3835.899081925531
 30
0.0
 10
6032.50332820112
 20
3830.685850731688
 30
0.0
 10
6032.831248950009
 20
3822.677374248756
 30
0.0
 10
6033.42582171338
 20
3813.822597826859
 30
0.0
 10
6034.351831953311
 20
3805.209339542068
 30
0.0
 10
6035.400472491378
 20
3797.508758076506
 30
0.0
 10
6036.241968846153
 20
3792.805496993108
 30
0.0
 10
6036.578122361904
 20
3790.926679883909
 30
0.0
  0
SPLINE
  5
11F
330
1F
100
AcDbEntity
  8
0
  6
Continuous
 62
     7
370
    25
100
AcDbSpline
210
0.0
220
0.0
230
1.0
 70
     8
 71
     3
 72
    13
 73
     9
 74
     0
 42
0.00000001
 43
0.00000001
 40
0.0
 40
0.0
 40
0.0
 40
0.0
 40
0.1040353791612167
 40
0.3021761824234753
 40
0.4744168228522375
 40
0.6556608873601429
 40
0.8433733221325921
 40
1.0
 40
1.0
 40
1.0
 40
1.0
 10
6387.177532704073
 20
3790.9274760811
 30
0.0
 10
6387.471473490914
 20
3792.543052148781
 30
0.0
 10
6388.325239830234
 20
3797.235577061773
 30
0.0
 10
6389.33817778822
 20
3804.657366952531
 30
0.0
 10
6390.286161539538
 20
3813.312985713234
 30
0.0
 10
6390.884283311341
 20
3821.835569868244
 30
0.0
 10
6391.238971994687
 20
3830.12465406316
 30
0.0
 10
6391.301813056581
 20
3835.559249024447
 30
0.0
 10
6391.330397049501
 20
3838.031238185991
 30
0.0
  0
ARC
  5
120
330
1F
100
AcDbEntity
  8
0
  6
Continuous
 62
     7
370
    25
100
AcDbCircle
 10
6211.8800963089
 20
4428.0301186642
 30
0.0
 40
22.5
100
AcDbArc
 50
180.0
 51
270.0
  0
ARC
  5
121
330
1F
100
AcDbEntity
  8
0
  6
Continuous
 62
     7
370
    25
100
AcDbCircle
 10
6211.8800963089
 20
4428.0301186642
 30
0.0
 40
22.5
100
AcDbArc
 50
270.0
 51
0.0
  0
LINE
  5
122
330
1F
100
AcDbEntity
  8
0
  6
Continuous
 62
     7
370
    25
100
AcDbLine
 10
6234.3800963089
 20
4428.0301186642
 30
0.0
 11
6234.3800963089
 21
4430.5301186642
 31
0.0
  0
LINE
  5
123
330
1F
100
AcDbEntity
  8
0
  6
Continuous
 62
     7
370
    25
100
AcDbLine
 10
6189.3800963089
 20
4430.5301186642
 30
0.0
 11
6189.3800963089
 21
4428.0301186642
 31
0.0
  0
LINE
  5
124
330
1F
100
AcDbEntity
  8
0
  6
Continuous
 62
     7
370
    25
100
AcDbLine
 10
6234.3800963089
 20
4428.0301186642
 30
0.0
 11
6234.3800963089
 21
4430.5301186642
 31
0.0
  0
LINE
  5
125
330
1F
100
AcDbEntity
  8
0
  6
Continuous
 62
     7
370
    25
100
AcDbLine
 10
6189.3800963089
 20
4430.5301186642
 30
0.0
 11
6189.3800963089
 21
4428.0301186642
 31
0.0
  0
LINE
  5
126
330
1F
100
AcDbEntity
  8
0
  6
Continuous
 62
     7
370
    25
100
AcDbLine
 10
6389.8800963089
 20
4432.5301186642
 30
0.0
 11
6389.8800963089
 21
4515.5301186642
 31
0.0
  0
LINE
  5
127
330
1F
100
AcDbEntity
  8
0
  6
Continuous
 62
     7
370
    25
100
AcDbLine
 10
6033.8800963089
 20
4432.5301186642
 30
0.0
 11
6389.8800963089
 21
4432.5301186642
 31
0.0
  0
LINE
  5
128
330
1F
100
AcDbEntity
  8
0
  6
Continuous
 62
     7
370
    25
100
AcDbLine
 10
6033.8800963089
 20
4515.5301186642
 30
0.0
 11
6033.8800963089
 21
4432.5301186642
 31
0.0
  0
LINE
  5
129
330
1F
100
AcDbEntity
  8
0
  6
Continuous
 62
     7
370
    25
100
AcDbLine
 10
6389.8800963089
 20
4515.5301186642
 30
0.0
 11
6033.8800963089
 21
4515.5301186642
 31
0.0
  0
LINE
  5
12A
330
1F
100
AcDbEntity
  8
0
  6
Continuous
 62
     7
370
    25
100
AcDbLine
 10
6033.8800963089
 20
4432.5301186642
 30
0.0
 11
6031.8800963089
 21
4432.5301186642
 31
0.0
  0
LINE
  5
12B
330
1F
100
AcDbEntity
  8
0
  6
Continuous
 62
     7
370
    25
100
AcDbLine
 10
6031.8800963089
 20
4432.5301186642
 30
0.0
 11
6031.8800963089
 21
4515.5301186642
 31
0.0
  0
LINE
  5
12C
330
1F
100
AcDbEntity
  8
0
  6
Continuous
 62
     7
370
    25
100
AcDbLine
 10
6031.8800963089
 20
4515.5301186642
 30
0.0
 11
6033.8800963089
 21
4515.5301186642
 31
0.0
  0
LINE
  5
12D
330
1F
100
AcDbEntity
  8
0
  6
Continuous
 62
     7
370
    25
100
AcDbLine
 10
6391.8800963089
 20
4515.5301186642
 30
0.0
 11
6391.8800963089
 21
4432.5301186642
 31
0.0
  0
LINE
  5
12E
330
1F
100
AcDbEntity
  8
0
  6
Continuous
 62
     7
370
    25
100
AcDbLine
 10
6391.8800963089
 20
4432.5301186642
 30
0.0
 11
6389.8800963089
 21
4432.5301186642
 31
0.0
  0
LINE
  5
12F
330
1F
100
AcDbEntity
  8
0
  6
Continuous
 62
     7
370
    25
100
AcDbLine
 10
6389.8800963089
 20
4515.5301186642
 30
0.0
 11
6391.8800963089
 21
4515.5301186642
 31
0.0
  0
ARC
  5
130
330
1F
100
AcDbEntity
  8
0
  6
Continuous
 62
     7
370
    25
100
AcDbCircle
 10
6033.8800963089
 20
4432.5301186642
 30
0.0
 40
2.0
100
AcDbArc
 50
180.0
 51
270.0
  0
LINE
  5
131
330
1F
100
AcDbEntity
  8
0
  6
Continuous
 62
     7
370
    25
100
AcDbLine
 10
6033.8800963089
 20
4430.5301186642
 30
0.0
 11
6033.8800963089
 21
4432.5301186642
 31
0.0
  0
LINE
  5
132
330
1F
100
AcDbEntity
  8
0
  6
Continuous
 62
     7
370
    25
100
AcDbLine
 10
6389.8800963089
 20
4430.5301186642
 30
0.0
 11
6033.8800963089
 21
4430.5301186642
 31
0.0
  0
LINE
  5
133
330
1F
100
AcDbEntity
  8
0
  6
Continuous
 62
     7
370
    25
100
AcDbLine
 10
6389.8800963089
 20
4432.5301186642
 30
0.0
 11
6389.8800963089
 21
4430.5301186642
 31
0.0
  0
ARC
  5
134
330
1F
100
AcDbEntity
  8
0
  6
Continuous
 62
     7
370
    25
100
AcDbCircle
 10
6389.8800963089
 20
4432.5301186642
 30
0.0
 40
2.000000000000909
100
AcDbArc
 50
270.0
 51
0.0
  0
LINE
  5
135
330
1F
100
AcDbEntity
  8
0
  6
Continuous
 62
     7
370
    25
100
AcDbLine
 10
6334.3800963089
 20
4428.5301186642
 30
0.0
 11
6289.3800963089
 21
4428.5301186642
 31
0.0
  0
LINE
  5
136
330
1F
100
AcDbEntity
  8
0
  6
Continuous
 62
     7
370
    25
100
AcDbLine
 10
6134.3800963089
 20
4428.5301186642
 30
0.0
 11
6089.3800963089
 21
4428.5301186642
 31
0.0
  0
LINE
  5
137
330
1F
100
AcDbEntity
  8
0
  6
Continuous
 62
     7
370
    25
100
AcDbLine
 10
6391.8800963089
 20
4255.5301186642
 30
0.0
 11
6389.8800963089
 21
4255.5301186642
 31
0.0
  0
LINE
  5
138
330
1F
100
AcDbEntity
  8
0
  6
Continuous
 62
     7
370
    25
100
AcDbLine
 10
6391.8800963089
 20
4432.5301186642
 30
0.0
 11
6391.8800963089
 21
4255.5301186642
 31
0.0
  0
LINE
  5
139
330
1F
100
AcDbEntity
  8
0
  6
Continuous
 62
     7
370
    25
100
AcDbLine
 10
6031.8800963089
 20
4255.5301186642
 30
0.0
 11
6033.8800963089
 21
4255.5301186642
 31
0.0
  0
LINE
  5
13A
330
1F
100
AcDbEntity
  8
0
  6
Continuous
 62
     7
370
    25
100
AcDbLine
 10
6031.8800963089
 20
4255.5301186642
 30
0.0
 11
6031.8800963089
 21
4432.5301186642
 31
0.0
  0
ARC
  5
13B
330
1F
100
AcDbEntity
  8
0
  6
Continuous
 62
     7
370
    25
100
AcDbCircle
 10
6211.8800963089
 20
4255.5301186642
 30
0.0
 40
178.0
100
AcDbArc
 50
180.0
 51
0.0
  0
SPLINE
  5
13C
330
1F
100
AcDbEntity
  8
0
  6
Continuous
 62
     7
370
    25
100
AcDbSpline
210
0.0
220
0.0
230
1.0
 70
    11
 71
     3
 72
    70
 73
    66
 74
     0
 42
0.00000001
 43
0.00000001
 40
0.0
 40
0.0
 40
0.0
 40
0.0
 40
0.03125
 40
0.03125
 40
0.0625
 40
0.0625
 40
0.09375
 40
0.09375
 40
0.125
 40
0.125
 40
0.1562500000000001
 40
0.1562500000000001
 40
0.1875000000000001
 40
0.1875000000000001
 40
0.2187500000000001
 40
0.2187500000000001
 40
0.2500000000000001
 40
0.2500000000000001
 40
0.28125
 40
0.28125
 40
0.3125
 40
0.3125
 40
0.34375
 40
0.34375
 40
0.375
 40
0.375
 40
0.40625
 40
0.40625
 40
0.4375
 40
0.4375
 40
0.46875
 40
0.46875
 40
0.5
 40
0.5
 40
0.53125
 40
0.53125
 40
0.5625
 40
0.5625
 40
0.59375
 40
0.59375
 40
0.625
 40
0.625
 40
0.65625
 40
0.65625
 40
0.6875
 40
0.6875
 40
0.71875
 40
0.71875
 40
0.75
 40
0.75
 40
0.78125
 40
0.78125
 40
0.8125
 40
0.8125
 40
0.84375
 40
0.84375
 40
0.875
 40
0.875
 40
0.90625
 40
0.90625
 40
0.9375
 40
0.9375
 40
0.96875
 40
0.96875
 40
1.0
 40
1.0
 40
1.0
 40
1.0
 10
6209.386249256303
 20
4274.479432098422
 30
0.0
 10
6209.6339415299
 20
4274.644340274744
 30
0.0
 10
6209.893792372884
 20
4274.782233250364
 30
0.0
 10
6210.436875710663
 20
4275.006067737898
 30
0.0
 10
6210.723415955043
 20
4275.092505291204
 30
0.0
 10
6211.303439173103
 20
4275.206344959335
 30
0.0
 10
6211.595882919016
 20
4275.234355866834
 30
0.0
 10
6212.185600960365
 20
4275.232960769479
 30
0.0
 10
6212.484347697888
 20
4275.202608997522
 30
0.0
 10
6213.060969730166
 20
4275.085919217955
 30
0.0
 10
6213.342058651343
 20
4274.999893872406
 30
0.0
 10
6213.8894239968
 20
4274.771070382206
 30
0.0
 10
6214.150526460171
 20
4274.629978428074
 30
0.0
 10
6214.637183547212
 20
4274.302218977118
 30
0.0
 10
6214.866370059139
 20
4274.112969368913
 30
0.0
 10
6215.283009065808
 20
4273.693007618518
 30
0.0
 10
6215.467966427184
 20
4273.465566571143
 30
0.0
 10
6215.792292515276
 20
4272.976612445472
 30
0.0
 10
6215.932431776429
 20
4272.712237339053
 30
0.0
 10
6216.155106849751
 20
4272.169091660452
 30
0.0
 10
6216.239238928082
 20
4271.88889736636
 30
0.0
 10
6216.352594390451
 20
4271.31110787624
 30
0.0
 10
6216.380822232053
 20
4271.014743744212
 30
0.0
 10
6216.379341550181
 20
4270.429815628844
 30
0.0
 10
6216.350356316152
 20
4270.138071035155
 30
0.0
 10
6216.233517417559
 20
4269.556518246303
 30
0.0
 10
6216.147588217515
 20
4269.276220439913
 30
0.0
 10
6215.922867961217
 20
4268.735760394062
 30
0.0
 10
6215.782161383387
 20
4268.472972423982
 30
0.0
 10
6215.453953044262
 20
4267.983322291191
 30
0.0
 10
6215.267805967932
 20
4267.757122148452
 30
0.0
 10
6214.851768501765
 20
4267.341682755299
 30
0.0
 10
6214.619807802152
 20
4267.151724247075
 30
0.0
 10
6214.130687630629
 20
4266.825832675807
 30
0.0
 10
6213.871689766461
 20
4266.687524693833
 30
0.0
 10
6213.324122353622
 20
4266.461372642697
 30
0.0
 10
6213.038928279324
 20
4266.375531918802
 30
0.0
 10
6212.462603471282
 20
4266.261875699131
 30
0.0
 10
6212.167178444383
 20
4266.233029361105
 30
0.0
 10
6211.573242146387
 20
4266.234334178094
 30
0.0
 10
6211.280656936711
 20
4266.264087945525
 30
0.0
 10
6210.70400147555
 20
4266.38013207587
 30
0.0
 10
6210.417035739217
 20
4266.467955562772
 30
0.0
 10
6209.873126218837
 20
4266.695237462254
 30
0.0
 10
6209.614669307988
 20
4266.834322085163
 30
0.0
 10
6209.12484793035
 20
4267.163560669836
 30
0.0
 10
6208.894458493661
 20
4267.354031902117
 30
0.0
 10
6208.48109825179
 20
4267.770091115996
 30
0.0
 10
6208.295267697432
 20
4267.997407791072
 30
0.0
 10
6207.966871601102
 20
4268.492063358219
 30
0.0
 10
6207.829488396816
 20
4268.751691032024
 30
0.0
 10
6207.606876144911
 20
4269.29309528735
 30
0.0
 10
6207.521003475958
 20
4269.578254767785
 30
0.0
 10
6207.407621030356
 20
4270.156053674194
 30
0.0
 10
6207.379660736844
 20
4270.447154772703
 30
0.0
 10
6207.380542039848
 20
4271.033709599847
 30
0.0
 10
6207.41032486523
 20
4271.331154375592
 30
0.0
 10
6207.525535752716
 20
4271.905697195207
 30
0.0
 10
6207.610587378929
 20
4272.185696269257
 30
0.0
 10
6207.836777633775
 20
4272.73083345691
 30
0.0
 10
6207.977152579095
 20
4272.992597928216
 30
0.0
 10
6208.302760797655
 20
4273.47928407867
 30
0.0
 10
6208.489802447641
 20
4273.707558816141
 30
0.0
 10
6208.909789999951
 20
4274.127103121687
 30
0.0
 10
6209.138556982706
 20
4274.3145239221
 30
0.0
 10
6209.386249256303
 20
4274.479432098422
 30
0.0
  0
SPLINE
  5
13D
330
1F
100
AcDbEntity
  8
0
  6
Continuous
 62
     7
370
    25
100
AcDbSpline
210
0.0
220
0.0
230
1.0
 70
    11
 71
     3
 72
    70
 73
    66
 74
     0
 42
0.00000001
 43
0.00000001
 40
0.0
 40
0.0
 40
0.0
 40
0.0
 40
0.03125
 40
0.03125
 40
0.0625
 40
0.0625
 40
0.09375
 40
0.09375
 40
0.125
 40
0.125
 40
0.15625
 40
0.15625
 40
0.1875
 40
0.1875
 40
0.21875
 40
0.21875
 40
0.25
 40
0.25
 40
0.28125
 40
0.28125
 40
0.3125
 40
0.3125
 40
0.34375
 40
0.34375
 40
0.375
 40
0.375
 40
0.40625
 40
0.40625
 40
0.4375
 40
0.4375
 40
0.46875
 40
0.46875
 40
0.5
 40
0.5
 40
0.53125
 40
0.53125
 40
0.5625
 40
0.5625
 40
0.59375
 40
0.59375
 40
0.625
 40
0.625
 40
0.65625
 40
0.65625
 40
0.6875
 40
0.6875
 40
0.71875
 40
0.71875
 40
0.75
 40
0.75
 40
0.78125
 40
0.78125
 40
0.8125
 40
0.8125
 40
0.84375
 40
0.84375
 40
0.875
 40
0.875
 40
0.90625
 40
0.90625
 40
0.9375
 40
0.9375
 40
0.96875
 40
0.96875
 40
1.0
 40
1.0
 40
1.0
 40
1.0
 10
6198.77745609155
 20
4270.084573872514
 30
0.0
 10
6199.025382349324
 20
4270.249847295796
 30
0.0
 10
6199.285341882212
 20
4270.387926798227
 30
0.0
 10
6199.828307177054
 20
4270.612003988231
 30
0.0
 10
6200.114594269489
 20
4270.698493631453
 30
0.0
 10
6200.693865056745
 20
4270.812539376901
 30
0.0
 10
6200.985779338604
 20
4270.840689930033
 30
0.0
 10
6201.574118627641
 20
4270.839846068631
 30
0.0
 10
6201.872040066427
 20
4270.809921178818
 30
0.0
 10
6202.447122029062
 20
4270.694421625302
 30
0.0
 10
6202.727432403934
 20
4270.60916098358
 30
0.0
 10
6203.273256018443
 20
4270.382338583631
 30
0.0
 10
6203.534037001805
 20
4270.242256134324
 30
0.0
 10
6204.020061079064
 20
4269.916849175671
 30
0.0
 10
6204.248836993497
 20
4269.729159305452
 30
0.0
 10
6204.666216484866
 20
4269.311241068691
 30
0.0
 10
6204.851647499899
 20
4269.084825632099
 30
0.0
 10
6205.177159912417
 20
4268.597958720017
 30
0.0
 10
6205.318194074939
 20
4268.334431773039
 30
0.0
 10
6205.543087014914
 20
4267.791770180422
 30
0.0
 10
6205.6282881984
 20
4267.511789656772
 30
0.0
 10
6205.743806304904
 20
4266.934404509122
 30
0.0
 10
6205.773261062555
 20
4266.637051125803
 30
0.0
 10
6205.773725299635
 20
4266.050618792893
 30
0.0
 10
6205.745578995627
 20
4265.758274965145
 30
0.0
 10
6205.630252252077
 20
4265.175402298677
 30
0.0
 10
6205.5444787309
 20
4264.892901944596
 30
0.0
 10
6205.320226172594
 20
4264.350259832868
 30
0.0
 10
6205.179777608439
 20
4264.086714036723
 30
0.0
 10
6204.851017111475
 20
4263.59456580608
 30
0.0
 10
6204.664553855507
 20
4263.367480086867
 30
0.0
 10
6204.248061321498
 20
4262.950769538516
 30
0.0
 10
6204.015768115381
 20
4262.760246802352
 30
0.0
 10
6203.52602946698
 20
4262.433517500389
 30
0.0
 10
6203.266881437084
 20
4262.295012875717
 30
0.0
 10
6202.719498110241
 20
4262.068646309636
 30
0.0
 10
6202.434403389645
 20
4261.982707782127
 30
0.0
 10
6201.858763798957
 20
4261.868858916565
 30
0.0
 10
6201.563940181115
 20
4261.839891095843
 30
0.0
 10
6200.971344438873
 20
4261.840661771357
 30
0.0
 10
6200.67949856111
 20
4261.870021826877
 30
0.0
 10
6200.104435817099
 20
4261.984899499149
 30
0.0
 10
6199.818334610019
 20
4262.071919318779
 30
0.0
 10
6199.275664358698
 20
4262.297377018982
 30
0.0
 10
6199.017738099903
 20
4262.435400286841
 30
0.0
 10
6198.52876636763
 20
4262.762154082217
 30
0.0
 10
6198.29829493516
 20
4262.951498583139
 30
0.0
 10
6197.884538298897
 20
4263.365280565917
 30
0.0
 10
6197.698379635659
 20
4263.591413340218
 30
0.0
 10
6197.369015195519
 20
4264.083568177204
 30
0.0
 10
6197.230291734096
 20
4264.343246387262
 30
0.0
 10
6197.005740218584
 20
4264.883606652186
 30
0.0
 10
6196.918855885958
 20
4265.167999319459
 30
0.0
 10
6196.803049047541
 20
4265.74679170626
 30
0.0
 10
6196.774038021169
 20
4266.038357336996
 30
0.0
 10
6196.772966144846
 20
4266.625765136218
 30
0.0
 10
6196.801861641589
 20
4266.924210336507
 30
0.0
 10
6196.915892469782
 20
4267.501215449596
 30
0.0
 10
6197.00053415714
 20
4267.782244297652
 30
0.0
 10
6197.226020321566
 20
4268.329097709268
 30
0.0
 10
6197.366643942783
 20
4268.592561259068
 30
0.0
 10
6197.692593242426
 20
4269.081336581486
 30
0.0
 10
6197.879574563115
 20
4269.310109920764
 30
0.0
 10
6198.30038627309
 20
4269.731327571724
 30
0.0
 10
6198.529529833776
 20
4269.919300449232
 30
0.0
 10
6198.77745609155
 20
4270.084573872514
 30
0.0
  0
SPLINE
  5
13E
330
1F
100
AcDbEntity
  8
0
  6
Continuous
 62
     7
370
    25
100
AcDbSpline
210
0.0
220
0.0
230
1.0
 70
    11
 71
     3
 72
    70
 73
    66
 74
     0
 42
0.00000001
 43
0.00000001
 40
0.0
 40
0.0
 40
0.0
 40
0.0
 40
0.03125
 40
0.03125
 40
0.0625
 40
0.0625
 40
0.09375
 40
0.09375
 40
0.125
 40
0.125
 40
0.15625
 40
0.15625
 40
0.1875
 40
0.1875
 40
0.21875
 40
0.21875
 40
0.25
 40
0.25
 40
0.28125
 40
0.28125
 40
0.3125
 40
0.3125
 40
0.34375
 40
0.34375
 40
0.375
 40
0.375
 40
0.40625
 40
0.40625
 40
0.4375
 40
0.4375
 40
0.46875
 40
0.46875
 40
0.5
 40
0.5
 40
0.53125
 40
0.53125
 40
0.5625
 40
0.5625
 40
0.59375
 40
0.59375
 40
0.625
 40
0.625
 40
0.65625
 40
0.65625
 40
0.6875
 40
0.6875
 40
0.71875
 40
0.71875
 40
0.75
 40
0.75
 40
0.78125
 40
0.78125
 40
0.8125
 40
0.8125
 40
0.84375
 40
0.84375
 40
0.875
 40
0.875
 40
0.90625
 40
0.90625
 40
0.9375
 40
0.9375
 40
0.96875
 40
0.96875
 40
1.0
 40
1.0
 40
1.0
 40
1.0
 10
6193.692150169225
 20
4258.909674595852
 30
0.0
 10
6193.901987279639
 20
4259.120300738749
 30
0.0
 10
6194.128883860426
 20
4259.306713688203
 30
0.0
 10
6194.615307304401
 20
4259.63322670481
 30
0.0
 10
6194.877876859651
 20
4259.774446274052
 30
0.0
 10
6195.421649404317
 20
4260.000951178786
 30
0.0
 10
6195.701440703863
 20
4260.086470513038
 30
0.0
 10
6196.276654899813
 20
4260.20266989024
 30
0.0
 10
6196.574064355757
 20
4260.232798735373
 30
0.0
 10
6197.159917629643
 20
4260.2345049187
 30
0.0
 10
6197.451213877704
 20
4260.207024878353
 30
0.0
 10
6198.030473191029
 20
4260.094141530539
 30
0.0
 10
6198.314592878902
 20
4260.00892673992
 30
0.0
 10
6198.85607946255
 20
4259.787198188429
 30
0.0
 10
6199.117328450084
 20
4259.649341850599
 30
0.0
 10
6199.611150439222
 20
4259.322407443328
 30
0.0
 10
6199.838523044881
 20
4259.137160536767
 30
0.0
 10
6200.255293149867
 20
4258.724335832077
 30
0.0
 10
6200.446379283578
 20
4258.493825950989
 30
0.0
 10
6200.775864244422
 20
4258.005195133514
 30
0.0
 10
6200.915346091862
 20
4257.747066779875
 30
0.0
 10
6201.143636818128
 20
4257.203101434231
 30
0.0
 10
6201.231785982084
 20
4256.916547105006
 30
0.0
 10
6201.348682691976
 20
4256.340412074758
 30
0.0
 10
6201.378957478742
 20
4256.047783495452
 30
0.0
 10
6201.381172701589
 20
4255.45308251282
 30
0.0
 10
6201.352842771841
 20
4255.15848737291
 30
0.0
 10
6201.240104399176
 20
4254.581878187574
 30
0.0
 10
6201.154473434145
 20
4254.295883679724
 30
0.0
 10
6200.929435505864
 20
4253.748630861053
 30
0.0
 10
6200.791594675865
 20
4253.489407223904
 30
0.0
 10
6200.466128684664
 20
4252.99927686979
 30
0.0
 10
6200.276461217037
 20
4252.767021686339
 30
0.0
 10
6199.861936307771
 20
4252.350634932315
 30
0.0
 10
6199.635901626161
 20
4252.163968934065
 30
0.0
 10
6199.145677609618
 20
4251.834391936492
 30
0.0
 10
6198.883915608762
 20
4251.693825083387
 30
0.0
 10
6198.343794335167
 20
4251.468318148853
 30
0.0
 10
6198.061719609362
 20
4251.381512280283
 30
0.0
 10
6197.481780793963
 20
4251.264275632924
 30
0.0
 10
6197.190436962068
 20
4251.234854571266
 30
0.0
 10
6196.605087652667
 20
4251.232556602447
 30
0.0
 10
6196.30786263203
 20
4251.260541668361
 30
0.0
 10
6195.731048673988
 20
4251.372934031203
 30
0.0
 10
6195.450791221942
 20
4251.456583682867
 30
0.0
 10
6194.906589775559
 20
4251.678839206576
 30
0.0
 10
6194.642354822946
 20
4251.81852126895
 30
0.0
 10
6194.153467125471
 20
4252.141822226377
 30
0.0
 10
6193.925640479674
 20
4252.326471895127
 30
0.0
 10
6193.504348376597
 20
4252.74332974692
 30
0.0
 10
6193.315611354229
 20
4252.971341754955
 30
0.0
 10
6192.987222771017
 20
4253.457368871331
 30
0.0
 10
6192.845378672406
 20
4253.719032508454
 30
0.0
 10
6192.61613945814
 20
4254.265206994736
 30
0.0
 10
6192.529694183031
 20
4254.545987418446
 30
0.0
 10
6192.41207303661
 20
4255.12264000118
 30
0.0
 10
6192.381282055924
 20
4255.421453172217
 30
0.0
 10
6192.378979282793
 20
4256.010718047226
 30
0.0
 10
6192.406494675858
 20
4256.303248264369
 30
0.0
 10
6192.51957412766
 20
4256.884051821296
 30
0.0
 10
6192.605458584465
 20
4257.170231163646
 30
0.0
 10
6192.828405626426
 20
4257.71357890065
 30
0.0
 10
6192.966371606044
 20
4257.974462519217
 30
0.0
 10
6193.295186568132
 20
4258.469874527526
 30
0.0
 10
6193.482313058811
 20
4258.699048452954
 30
0.0
 10
6193.692150169225
 20
4258.909674595852
 30
0.0
  0
SPLINE
  5
13F
330
1F
100
AcDbEntity
  8
0
  6
Continuous
 62
     7
370
    25
100
AcDbSpline
210
0.0
220
0.0
230
1.0
 70
    11
 71
     3
 72
    70
 73
    66
 74
     0
 42
0.00000001
 43
0.00000001
 40
0.0
 40
0.0
 40
0.0
 40
0.0
 40
0.03125
 40
0.03125
 40
0.0625
 40
0.0625
 40
0.09375
 40
0.09375
 40
0.125
 40
0.125
 40
0.15625
 40
0.15625
 40
0.1875
 40
0.1875
 40
0.21875
 40
0.21875
 40
0.25
 40
0.25
 40
0.28125
 40
0.28125
 40
0.3125
 40
0.3125
 40
0.34375
 40
0.34375
 40
0.375
 40
0.375
 40
0.40625
 40
0.40625
 40
0.4375
 40
0.4375
 40
0.46875
 40
0.46875
 40
0.5
 40
0.5
 40
0.53125
 40
0.53125
 40
0.5625
 40
0.5625
 40
0.59375
 40
0.59375
 40
0.625
 40
0.625
 40
0.65625
 40
0.65625
 40
0.6875
 40
0.6875
 40
0.71875
 40
0.71875
 40
0.75
 40
0.75
 40
0.78125
 40
0.78125
 40
0.8125
 40
0.8125
 40
0.84375
 40
0.84375
 40
0.875
 40
0.875
 40
0.90625
 40
0.90625
 40
0.9375
 40
0.9375
 40
0.96875
 40
0.96875
 40
1.0
 40
1.0
 40
1.0
 40
1.0
 10
6198.063123143223
 20
4248.280403168907
 30
0.0
 10
6198.270963369074
 20
4248.492002806557
 30
0.0
 10
6198.496069627422
 20
4248.679742963732
 30
0.0
 10
6198.979415412193
 20
4249.009437165093
 30
0.0
 10
6199.240672611102
 20
4249.152535708339
 30
0.0
 10
6199.782703168999
 20
4249.383157397452
 30
0.0
 10
6200.061961630203
 20
4249.470851208902
 30
0.0
 10
6200.636824699649
 20
4249.591473494387
 30
0.0
 10
6200.934571628157
 20
4249.623881913048
 30
0.0
 10
6201.521716121306
 20
4249.629799418757
 30
0.0
 10
6201.813920054529
 20
4249.604288648652
 30
0.0
 10
6202.39552596894
 20
4249.494974792125
 30
0.0
 10
6202.681210412559
 20
4249.411282646161
 30
0.0
 10
6203.22578898643
 20
4249.192127045039
 30
0.0
 10
6203.488764476198
 20
4249.055271665442
 30
0.0
 10
6203.985785897508
 20
4248.730077824383
 30
0.0
 10
6204.214726178002
 20
4248.545495402363
 30
0.0
 10
6204.634601605886
 20
4248.133635445754
 30
0.0
 10
6204.827182403144
 20
4247.903451723058
 30
0.0
 10
6205.159177832878
 20
4247.415838024426
 30
0.0
 10
6205.2999201416
 20
4247.158091699287
 30
0.0
 10
6205.530756152355
 20
4246.614644110216
 30
0.0
 10
6205.619961860601
 20
4246.328899230148
 30
0.0
 10
6205.73926188537
 20
4245.754042587171
 30
0.0
 10
6205.770842238698
 20
4245.46189150489
 30
0.0
 10
6205.77582979597
 20
4244.867801864875
 30
0.0
 10
6205.74906405706
 20
4244.574711985527
 30
0.0
 10
6205.639675017428
 20
4243.999111297266
 30
0.0
 10
6205.555760765043
 20
4243.713201725773
 30
0.0
 10
6205.334826001619
 20
4243.166862067766
 30
0.0
 10
6205.199080916121
 20
4242.907646657507
 30
0.0
 10
6204.87769814658
 20
4242.416759041495
 30
0.0
 10
6204.69016794428
 20
4242.183909756005
 30
0.0
 10
6204.279685781484
 20
4241.765721427425
 30
0.0
 10
6204.05547845771
 20
4241.577763127482
 30
0.0
 10
6203.568357458135
 20
4241.244980553803
 30
0.0
 10
6203.307911765221
 20
4241.102551241356
 30
0.0
 10
6202.76967282138
 20
4240.873006583578
 30
0.0
 10
6202.488304478418
 20
4240.784029109344
 30
0.0
 10
6201.908466708319
 20
4240.662254455408
 30
0.0
 10
6201.61685957556
 20
4240.630614607258
 30
0.0
 10
6201.030369400644
 20
4240.624082018253
 30
0.0
 10
6200.73219250173
 20
4240.650031936829
 30
0.0
 10
6200.152853895898
 20
4240.758884790157
 30
0.0
 10
6199.871188054785
 20
4240.840989178044
 30
0.0
 10
6199.323883851256
 20
4241.060625601942
 30
0.0
 10
6199.057959698697
 20
4241.199243369792
 30
0.0
 10
6198.565807656971
 20
4241.520846512225
 30
0.0
 10
6198.336350464822
 20
4241.704860345555
 30
0.0
 10
6197.91178683304
 20
4242.120867276453
 30
0.0
 10
6197.721850371863
 20
4242.348201627878
 30
0.0
 10
6197.390746065105
 20
4242.833481285823
 30
0.0
 10
6197.247467321977
 20
4243.09515047733
 30
0.0
 10
6197.01602733657
 20
4243.639937115845
 30
0.0
 10
6196.928397643722
 20
4243.92015986201
 30
0.0
 10
6196.808271794099
 20
4244.495972538006
 30
0.0
 10
6196.776220369259
 20
4244.794115761606
 30
0.0
 10
6196.77110923414
 20
4245.381744497631
 30
0.0
 10
6196.797073037919
 20
4245.673712097001
 30
0.0
 10
6196.906868901266
 20
4246.25390035632
 30
0.0
 10
6196.990774274573
 20
4246.539145929409
 30
0.0
 10
6197.209753207851
 20
4247.081975837493
 30
0.0
 10
6197.345859100451
 20
4247.343246680557
 30
0.0
 10
6197.670292918074
 20
4247.839024374563
 30
0.0
 10
6197.855282917374
 20
4248.068803531257
 30
0.0
 10
6198.063123143223
 20
4248.280403168907
 30
0.0
  0
SPLINE
  5
140
330
1F
100
AcDbEntity
  8
0
  6
Continuous
 62
     7
370
    25
100
AcDbSpline
210
0.0
220
0.0
230
1.0
 70
    11
 71
     3
 72
    70
 73
    66
 74
     0
 42
0.00000001
 43
0.00000001
 40
0.0
 40
0.0
 40
0.0
 40
0.0
 40
0.03125
 40
0.03125
 40
0.0625
 40
0.0625
 40
0.09375
 40
0.09375
 40
0.125
 40
0.125
 40
0.15625
 40
0.15625
 40
0.1875
 40
0.1875
 40
0.21875
 40
0.21875
 40
0.25
 40
0.25
 40
0.28125
 40
0.28125
 40
0.3125
 40
0.3125
 40
0.34375
 40
0.34375
 40
0.375
 40
0.375
 40
0.40625
 40
0.40625
 40
0.4375
 40
0.4375
 40
0.46875
 40
0.46875
 40
0.5
 40
0.5
 40
0.53125
 40
0.53125
 40
0.5625
 40
0.5625
 40
0.59375
 40
0.59375
 40
0.625
 40
0.625
 40
0.65625
 40
0.65625
 40
0.6875
 40
0.6875
 40
0.71875
 40
0.71875
 40
0.75
 40
0.75
 40
0.78125
 40
0.78125
 40
0.8125
 40
0.8125
 40
0.84375
 40
0.84375
 40
0.875
 40
0.875
 40
0.90625
 40
0.90625
 40
0.9375
 40
0.9375
 40
0.96875
 40
0.96875
 40
1.0
 40
1.0
 40
1.0
 40
1.0
 10
6209.348284863712
 20
4244.45387665813
 30
0.0
 10
6209.594267680372
 20
4244.621281945031
 30
0.0
 10
6209.852676164154
 20
4244.761797899769
 30
0.0
 10
6210.393385198587
 20
4244.991126671798
 30
0.0
 10
6210.678984249896
 20
4245.080469247725
 30
0.0
 10
6211.257745931031
 20
4245.200213865621
 30
0.0
 10
6211.54984927485
 20
4245.231209491032
 30
0.0
 10
6212.139462698508
 20
4245.235853210545
 30
0.0
 10
6212.438474100266
 20
4245.208570548274
 30
0.0
 10
6213.016213845169
 20
4245.097814522926
 30
0.0
 10
6213.298144143251
 20
4245.014688678142
 30
0.0
 10
6213.847772639087
 20
4244.791530278085
 30
0.0
 10
6214.110340749888
 20
4244.653119195158
 30
0.0
 10
6214.600341849865
 20
4244.330381813485
 30
0.0
 10
6214.831441091423
 20
4244.143520875292
 30
0.0
 10
6215.252433006342
 20
4243.727808183063
 30
0.0
 10
6215.439734824105
 20
4243.502254029854
 30
0.0
 10
6215.76908550173
 20
4243.016616793767
 30
0.0
 10
6215.911946111473
 20
4242.753662492153
 30
0.0
 10
6216.140210240923
 20
4242.212727402604
 30
0.0
 10
6216.227211802211
 20
4241.93336906874
 30
0.0
 10
6216.346471503186
 20
4241.356712969374
 30
0.0
 10
6216.3777275568
 20
4241.060585311535
 30
0.0
 10
6216.382201831805
 20
4240.475590053946
 30
0.0
 10
6216.356185636652
 20
4240.18356809129
 30
0.0
 10
6216.245246472275
 20
4239.600775137226
 30
0.0
 10
6216.162157235725
 20
4239.319595045672
 30
0.0
 10
6215.942921497677
 20
4238.776860286515
 30
0.0
 10
6215.804889038258
 20
4238.512663712982
 30
0.0
 10
6215.481660694859
 20
4238.019706114526
 30
0.0
 10
6215.297821789884
 20
4237.791637605708
 30
0.0
 10
6214.886049592908
 20
4237.372026627659
 30
0.0
 10
6214.656049631172
 20
4237.179739585327
 30
0.0
 10
6214.170312739792
 20
4236.848924662515
 30
0.0
 10
6213.912765886094
 20
4236.708006757049
 30
0.0
 10
6213.367612290352
 20
4236.476322711043
 30
0.0
 10
6213.083337340908
 20
4236.387585957495
 30
0.0
 10
6212.508282036306
 20
4236.268066125956
 30
0.0
 10
6212.213231176262
 20
4236.23620545435
 30
0.0
 10
6211.619367014333
 20
4236.231427624753
 30
0.0
 10
6211.326523285766
 20
4236.258178171795
 30
0.0
 10
6210.748777729796
 20
4236.36828471697
 30
0.0
 10
6210.460957170709
 20
4236.453143824087
 30
0.0
 10
6209.91475755088
 20
4236.674814963661
 30
0.0
 10
6209.654897551382
 20
4236.811227919275
 30
0.0
 10
6209.161748761211
 20
4237.135385882919
 30
0.0
 10
6208.929391225506
 20
4237.323489206654
 30
0.0
 10
6208.511756434947
 20
4237.735290308276
 30
0.0
 10
6208.323595897448
 20
4237.960687831353
 30
0.0
 10
6207.990133253204
 20
4238.451935220494
 30
0.0
 10
6207.850047477328
 20
4238.710210812161
 30
0.0
 10
6207.62187119519
 20
4239.249351795484
 30
0.0
 10
6207.533074535911
 20
4239.533625282029
 30
0.0
 10
6207.413759849807
 20
4240.110335977066
 30
0.0
 10
6207.382822068214
 20
4240.401175794156
 30
0.0
 10
6207.377712030318
 20
4240.98776618024
 30
0.0
 10
6207.40446156893
 20
4241.285540300502
 30
0.0
 10
6207.513826764355
 20
4241.86130401282
 30
0.0
 10
6207.596033133334
 20
4242.142178858594
 30
0.0
 10
6207.816676336492
 20
4242.689613153962
 30
0.0
 10
6207.954398670028
 20
4242.952820558754
 30
0.0
 10
6208.275056957359
 20
4243.442807006541
 30
0.0
 10
6208.459764116837
 20
4243.672961102639
 30
0.0
 10
6208.875461036485
 20
4244.096744804619
 30
0.0
 10
6209.102302047053
 20
4244.286471371228
 30
0.0
 10
6209.348284863712
 20
4244.45387665813
 30
0.0
  0
SPLINE
  5
141
330
1F
100
AcDbEntity
  8
0
  6
Continuous
 62
     7
370
    25
100
AcDbSpline
210
0.0
220
0.0
230
1.0
 70
    11
 71
     3
 72
    70
 73
    66
 74
     0
 42
0.00000001
 43
0.00000001
 40
0.0
 40
0.0
 40
0.0
 40
0.0
 40
0.03125
 40
0.03125
 40
0.0625
 40
0.0625
 40
0.09375
 40
0.09375
 40
0.125
 40
0.125
 40
0.15625
 40
0.15625
 40
0.1875
 40
0.1875
 40
0.21875
 40
0.21875
 40
0.25
 40
0.25
 40
0.28125
 40
0.28125
 40
0.3125
 40
0.3125
 40
0.34375
 40
0.34375
 40
0.375
 40
0.375
 40
0.40625
 40
0.40625
 40
0.4375
 40
0.4375
 40
0.46875
 40
0.46875
 40
0.5
 40
0.5
 40
0.53125
 40
0.53125
 40
0.5625
 40
0.5625
 40
0.59375
 40
0.59375
 40
0.625
 40
0.625
 40
0.65625
 40
0.65625
 40
0.6875
 40
0.6875
 40
0.71875
 40
0.71875
 40
0.75
 40
0.75
 40
0.78125
 40
0.78125
 40
0.8125
 40
0.8125
 40
0.84375
 40
0.84375
 40
0.875
 40
0.875
 40
0.90625
 40
0.90625
 40
0.9375
 40
0.9375
 40
0.96875
 40
0.96875
 40
1.0
 40
1.0
 40
1.0
 40
1.0
 10
6208.69882958894
 20
4258.916365060954
 30
0.0
 10
6208.909093868641
 20
4259.126535037633
 30
0.0
 10
6209.136467087465
 20
4259.312561112994
 30
0.0
 10
6209.624032018862
 20
4259.638300253388
 30
0.0
 10
6209.887309778367
 20
4259.779137766734
 30
0.0
 10
6210.432421264393
 20
4260.004647052627
 30
0.0
 10
6210.712941398605
 20
4260.089612747171
 30
0.0
 10
6211.289767750945
 20
4260.204464135725
 30
0.0
 10
6211.587945493234
 20
4260.23376294019
 30
0.0
 10
6212.175075351966
 20
4260.233578436098
 30
0.0
 10
6212.466981266021
 20
4260.205036716785
 30
0.0
 10
6213.04739587433
 20
4260.08969637543
 30
0.0
 10
6213.331443101845
 20
4260.003270966678
 30
0.0
 10
6213.872970668859
 20
4259.778957542943
 30
0.0
 10
6214.134499547989
 20
4259.639481731017
 30
0.0
 10
6214.626896262526
 20
4259.31037080635
 30
0.0
 10
6214.853523588855
 20
4259.124077258936
 30
0.0
 10
6215.268680786984
 20
4258.709174268209
 30
0.0
 10
6215.458755471414
 20
4258.477712638321
 30
0.0
 10
6215.78558675824
 20
4257.98837948496
 30
0.0
 10
6215.923828840627
 20
4257.729946114741
 30
0.0
 10
6216.149685518067
 20
4257.18539246244
 30
0.0
 10
6216.236370539036
 20
4256.8993730924
 30
0.0
 10
6216.350810920089
 20
4256.324177142916
 30
0.0
 10
6216.380010360311
 20
4256.031968820082
 30
0.0
 10
6216.380181882302
 20
4255.437971831704
 30
0.0
 10
6216.351040405574
 20
4255.144951484766
 30
0.0
 10
6216.23687834086
 20
4254.569891720104
 30
0.0
 10
6216.150547685038
 20
4254.284407600781
 30
0.0
 10
6215.924657800846
 20
4253.739017698816
 30
0.0
 10
6215.78645595243
 20
4253.480505688653
 30
0.0
 10
6215.460163292108
 20
4252.991496667781
 30
0.0
 10
6215.270116461168
 20
4252.759783734995
 30
0.0
 10
6214.854859232692
 20
4252.344419206544
 30
0.0
 10
6214.628381346477
 20
4252.158151948187
 30
0.0
 10
6214.136960597786
 20
4251.829318201116
 30
0.0
 10
6213.874662203801
 20
4251.689217317889
 30
0.0
 10
6213.333209650784
 20
4251.464671075928
 30
0.0
 10
6213.050230806225
 20
4251.378371825293
 30
0.0
 10
6212.468888926194
 20
4251.262522499042
 30
0.0
 10
6212.176839519186
 20
4251.233891013843
 30
0.0
 10
6211.590066643805
 20
4251.233453310811
 30
0.0
 10
6211.29213029878
 20
4251.262546304439
 30
0.0
 10
6210.714652949428
 20
4251.377250241213
 30
0.0
 10
6210.434141602228
 20
4251.462137684506
 30
0.0
 10
6209.889608277769
 20
4251.687099706091
 30
0.0
 10
6209.625776019983
 20
4251.82802586735
 30
0.0
 10
6209.137884147364
 20
4252.15368548747
 30
0.0
 10
6208.910627287143
 20
4252.33951499383
 30
0.0
 10
6208.490672904627
 20
4252.758801225244
 30
0.0
 10
6208.303545620758
 20
4252.987000540562
 30
0.0
 10
6207.977466198626
 20
4253.474159642958
 30
0.0
 10
6207.836677907421
 20
4253.736670154446
 30
0.0
 10
6207.610335304014
 20
4254.282331753007
 30
0.0
 10
6207.525153805434
 20
4254.562859063099
 30
0.0
 10
6207.409887464612
 20
4255.139063915291
 30
0.0
 10
6207.380265786932
 20
4255.437302920192
 30
0.0
 10
6207.379928315372
 20
4256.024869711941
 30
0.0
 10
6207.408254400133
 20
4256.316683118827
 30
0.0
 10
6207.522854263417
 20
4256.896303719665
 30
0.0
 10
6207.609230200773
 20
4257.181293857397
 30
0.0
 10
6207.83309738723
 20
4257.72307012578
 30
0.0
 10
6207.971621134493
 20
4257.983554211905
 30
0.0
 10
6208.301106259298
 20
4258.477570195021
 30
0.0
 10
6208.48856530924
 20
4258.706195084275
 30
0.0
 10
6208.69882958894
 20
4258.916365060954
 30
0.0
  0
SPLINE
  5
142
330
1F
100
AcDbEntity
  8
0
  6
Continuous
 62
     7
370
    25
100
AcDbSpline
210
0.0
220
0.0
230
1.0
 70
    11
 71
     3
 72
    70
 73
    66
 74
     0
 42
0.00000001
 43
0.00000001
 40
0.0
 40
0.0
 40
0.0
 40
0.0
 40
0.0312499999999987
 40
0.0312499999999987
 40
0.0624999999999975
 40
0.0624999999999975
 40
0.0937499999999962
 40
0.0937499999999962
 40
0.1249999999999949
 40
0.1249999999999949
 40
0.1562499999999937
 40
0.1562499999999937
 40
0.1874999999999924
 40
0.1874999999999924
 40
0.2187499999999912
 40
0.2187499999999912
 40
0.2499999999999899
 40
0.2499999999999899
 40
0.2812499999999886
 40
0.2812499999999886
 40
0.3124999999999873
 40
0.3124999999999873
 40
0.3437499999999861
 40
0.3437499999999861
 40
0.3749999999999848
 40
0.3749999999999848
 40
0.4062499999999836
 40
0.4062499999999836
 40
0.4374999999999852
 40
0.4374999999999852
 40
0.4687499999999868
 40
0.4687499999999868
 40
0.4999999999999885
 40
0.4999999999999885
 40
0.5312499999999901
 40
0.5312499999999901
 40
0.5624999999999917
 40
0.5624999999999917
 40
0.5937499999999933
 40
0.5937499999999933
 40
0.6249999999999949
 40
0.6249999999999949
 40
0.6562499999999966
 40
0.6562499999999966
 40
0.6874999999999982
 40
0.6874999999999982
 40
0.7187499999999998
 40
0.7187499999999998
 40
0.7500000000000014
 40
0.7500000000000014
 40
0.7812500000000031
 40
0.7812500000000031
 40
0.8125000000000047
 40
0.8125000000000047
 40
0.8437500000000063
 40
0.8437500000000063
 40
0.875000000000005
 40
0.875000000000005
 40
0.9062500000000038
 40
0.9062500000000038
 40
0.9375000000000026
 40
0.9375000000000026
 40
0.9687500000000012
 40
0.9687500000000012
 40
1.0
 40
1.0
 40
1.0
 40
1.0
 10
6219.332105010579
 20
4269.549406919895
 30
0.0
 10
6219.543603630048
 20
4269.757310985989
 30
0.0
 10
6219.771951341488
 20
4269.94106785091
 30
0.0
 10
6220.26098640919
 20
4270.262234330768
 30
0.0
 10
6220.524711522821
 20
4270.400735822822
 30
0.0
 10
6221.070720322401
 20
4270.621833037349
 30
0.0
 10
6221.351491091746
 20
4270.704625522966
 30
0.0
 10
6221.928436564911
 20
4270.815159790521
 30
0.0
 10
6222.226747228659
 20
4270.842343762211
 30
0.0
 10
6222.813991935407
 20
4270.837949540834
 30
0.0
 10
6223.105750490107
 20
4270.807303006515
 30
0.0
 10
6223.685451254791
 20
4270.687752018769
 30
0.0
 10
6223.969666456794
 20
4270.599026451988
 30
0.0
 10
6224.510393739792
 20
4270.370264583173
 30
0.0
 10
6224.770975962912
 20
4270.2287543193
 30
0.0
 10
6225.262232429707
 20
4269.894794302021
 30
0.0
 10
6225.487900325841
 20
4269.7061730461
 30
0.0
 10
6225.900473780332
 20
4269.286903919619
 30
0.0
 10
6226.088966534796
 20
4269.053325387836
 30
0.0
 10
6226.41227438071
 20
4268.559922143304
 30
0.0
 10
6226.548432440976
 20
4268.299728712453
 30
0.0
 10
6226.769615324469
 20
4267.752283258043
 30
0.0
 10
6226.853734009664
 20
4267.46505893894
 30
0.0
 10
6226.962839989148
 20
4266.888269574742
 30
0.0
 10
6226.989253917028
 20
4266.595643244061
 30
0.0
 10
6226.983756793297
 20
4266.001619196481
 30
0.0
 10
6226.951840172534
 20
4265.709168976504
 30
0.0
 10
6226.832360813684
 20
4265.135697539808
 30
0.0
 10
6226.743443561125
 20
4264.851347280667
 30
0.0
 10
6226.513005536625
 20
4264.309108166382
 30
0.0
 10
6226.372763890417
 20
4264.052362709524
 30
0.0
 10
6226.042875311792
 20
4263.567252107149
 30
0.0
 10
6225.851323336718
 20
4263.337753337617
 30
0.0
 10
6225.433631691257
 20
4262.926856810594
 30
0.0
 10
6225.206185834961
 20
4262.742857941562
 30
0.0
 10
6224.713323772219
 20
4262.41864743495
 30
0.0
 10
6224.450420794286
 20
4262.280789718957
 30
0.0
 10
6223.908215203652
 20
4262.060681816683
 30
0.0
 10
6223.625307876983
 20
4261.976632611614
 30
0.0
 10
6223.04333907496
 20
4261.865014274887
 30
0.0
 10
6222.751173724463
 20
4261.838485487095
 30
0.0
 10
6222.164551783846
 20
4261.842244542836
 30
0.0
 10
6221.866813467411
 20
4261.873433832971
 30
0.0
 10
6221.289361727573
 20
4261.992481065101
 30
0.0
 10
6221.009127503132
 20
4262.079548810198
 30
0.0
 10
6220.465664907782
 20
4262.30884518403
 30
0.0
 10
6220.202186201795
 20
4262.452157196537
 30
0.0
 10
6219.71571850489
 20
4262.782449083149
 30
0.0
 10
6219.489515570075
 20
4262.970516963213
 30
0.0
 10
6219.072312850084
 20
4263.394032687927
 30
0.0
 10
6218.886444758287
 20
4263.624676188546
 30
0.0
 10
6218.563967833669
 20
4264.115755725054
 30
0.0
 10
6218.425331491574
 20
4264.379948455555
 30
0.0
 10
6218.203593929443
 20
4264.928681934525
 30
0.0
 10
6218.120940418995
 20
4265.210384893956
 30
0.0
 10
6218.011020157629
 20
4265.788191661799
 30
0.0
 10
6217.984247741852
 20
4266.086811365015
 30
0.0
 10
6217.989509184386
 20
4266.674329054508
 30
0.0
 10
6218.020611776363
 20
4266.965749709361
 30
0.0
 10
6218.140600838061
 20
4267.543845310402
 30
0.0
 10
6218.22949117199
 20
4267.827489418456
 30
0.0
 10
6218.457941783262
 20
4268.366290178938
 30
0.0
 10
6218.598606619287
 20
4268.625109407501
 30
0.0
 10
6218.931639495834
 20
4269.115032571422
 30
0.0
 10
6219.12060639111
 20
4269.341502853801
 30
0.0
 10
6219.332105010579
 20
4269.549406919895
 30
0.0
  0
SPLINE
  5
143
330
1F
100
AcDbEntity
  8
0
  6
Continuous
 62
     7
370
    25
100
AcDbSpline
210
0.0
220
0.0
230
1.0
 70
    11
 71
     3
 72
    70
 73
    66
 74
     0
 42
0.00000001
 43
0.00000001
 40
0.0
 40
0.0
 40
0.0
 40
0.0
 40
0.0312499999999999
 40
0.0312499999999999
 40
0.0624999999999998
 40
0.0624999999999998
 40
0.0937499999999998
 40
0.0937499999999998
 40
0.1249999999999997
 40
0.1249999999999997
 40
0.1562499999999996
 40
0.1562499999999996
 40
0.1874999999999995
 40
0.1874999999999995
 40
0.2187499999999994
 40
0.2187499999999994
 40
0.2499999999999993
 40
0.2499999999999993
 40
0.2812499999999992
 40
0.2812499999999992
 40
0.3124999999999992
 40
0.3124999999999992
 40
0.3437499999999991
 40
0.3437499999999991
 40
0.374999999999999
 40
0.374999999999999
 40
0.4062499999999989
 40
0.4062499999999989
 40
0.4374999999999988
 40
0.4374999999999988
 40
0.4687499999999988
 40
0.4687499999999988
 40
0.4999999999999987
 40
0.4999999999999987
 40
0.5312499999999986
 40
0.5312499999999986
 40
0.5624999999999984
 40
0.5624999999999984
 40
0.5937499999999984
 40
0.5937499999999984
 40
0.6249999999999983
 40
0.6249999999999983
 40
0.6562499999999984
 40
0.6562499999999984
 40
0.6874999999999986
 40
0.6874999999999986
 40
0.7187499999999988
 40
0.7187499999999988
 40
0.7499999999999989
 40
0.7499999999999989
 40
0.781249999999999
 40
0.781249999999999
 40
0.8124999999999991
 40
0.8124999999999991
 40
0.8437499999999993
 40
0.8437499999999993
 40
0.8749999999999994
 40
0.8749999999999994
 40
0.9062499999999996
 40
0.9062499999999996
 40
0.9374999999999997
 40
0.9374999999999997
 40
0.9687499999999999
 40
0.9687499999999999
 40
1.0
 40
1.0
 40
1.0
 40
1.0
 10
6223.160158244906
 20
4258.26587564138
 30
0.0
 10
6223.327586093927
 20
4258.511835701763
 30
0.0
 10
6223.516286012469
 20
4258.737121486307
 30
0.0
 10
6223.934373849663
 20
4259.148148068824
 30
0.0
 10
6224.166564924649
 20
4259.33555811988
 30
0.0
 10
6224.659481669778
 20
4259.658682333011
 30
0.0
 10
6224.918837636455
 20
4259.794415954073
 30
0.0
 10
6225.463051800583
 20
4260.014812201153
 30
0.0
 10
6225.749877051065
 20
4260.099266618228
 30
0.0
 10
6226.325424150254
 20
4260.20895416975
 30
0.0
 10
6226.616823189559
 20
4260.23564589297
 30
0.0
 10
6227.207033733965
 20
4260.231470750229
 30
0.0
 10
6227.501754056422
 20
4260.200108618786
 30
0.0
 10
6228.074611599148
 20
4260.08207951348
 30
0.0
 10
6228.356836216459
 20
4259.994746099776
 30
0.0
 10
6228.901983804671
 20
4259.76473695781
 30
0.0
 10
6229.159440826411
 20
4259.624751356405
 30
0.0
 10
6229.644948975058
 20
4259.296185219325
 30
0.0
 10
6229.875174881228
 20
4259.105047448591
 30
0.0
 10
6230.288900763183
 20
4258.686081384777
 30
0.0
 10
6230.473567423358
 20
4258.458349864286
 30
0.0
 10
6230.798327966932
 20
4257.966241340701
 30
0.0
 10
6230.937867301292
 20
4257.701108863349
 30
0.0
 10
6231.159232765797
 20
4257.15680432253
 30
0.0
 10
6231.243117147503
 20
4256.874918508058
 30
0.0
 10
6231.355340707732
 20
4256.290971985267
 30
0.0
 10
6231.382025985791
 20
4255.996243644559
 30
0.0
 10
6231.377950104451
 20
4255.408668617615
 30
0.0
 10
6231.346722672038
 20
4255.11169355618
 30
0.0
 10
6231.22677364588
 20
4254.532004140743
 30
0.0
 10
6231.139221958566
 20
4254.25161572801
 30
0.0
 10
6230.909875860502
 20
4253.709438801958
 30
0.0
 10
6230.766314526023
 20
4253.445935836677
 30
0.0
 10
6230.435644626891
 20
4252.959774741269
 30
0.0
 10
6230.247848291734
 20
4252.73440194792
 30
0.0
 10
6229.826594678548
 20
4252.319653469776
 30
0.0
 10
6229.595145145237
 20
4252.133079377888
 30
0.0
 10
6229.10561864838
 20
4251.811579646267
 30
0.0
 10
6228.84415934938
 20
4251.674112644429
 30
0.0
 10
6228.295669063381
 20
4251.451882648636
 30
0.0
 10
6228.014683059403
 20
4251.369222060916
 30
0.0
 10
6227.439655567227
 20
4251.259009549963
 30
0.0
 10
6227.142311746928
 20
4251.231723695394
 30
0.0
 10
6226.554837736366
 20
4251.235838930033
 30
0.0
 10
6226.264029609358
 20
4251.266365372332
 30
0.0
 10
6225.688278474016
 20
4251.384426470598
 30
0.0
 10
6225.403028766365
 20
4251.472914879938
 30
0.0
 10
6224.863236264504
 20
4251.700304321854
 30
0.0
 10
6224.6053807626
 20
4251.839649052934
 30
0.0
 10
6224.114584574995
 20
4252.171412933698
 30
0.0
 10
6223.887282835176
 20
4252.360399151731
 30
0.0
 10
6223.475028638548
 20
4252.777083518388
 30
0.0
 10
6223.287337147058
 20
4253.00793021773
 30
0.0
 10
6222.961310257532
 20
4253.501923477957
 30
0.0
 10
6222.82449250038
 20
4253.761717559439
 30
0.0
 10
6222.602301525726
 20
4254.306437901032
 30
0.0
 10
6222.516767436657
 20
4254.594312569359
 30
0.0
 10
6222.405471350083
 20
4255.172861000984
 30
0.0
 10
6222.378364261662
 20
4255.465418292393
 30
0.0
 10
6222.381998028128
 20
4256.057187136643
 30
0.0
 10
6222.413444532037
 20
4256.354413981339
 30
0.0
 10
6222.532056994625
 20
4256.929854080874
 30
0.0
 10
6222.619417327105
 20
4257.211885511257
 30
0.0
 10
6222.851097945701
 20
4257.759917682483
 30
0.0
 10
6222.992730395884
 20
4258.019915580997
 30
0.0
 10
6223.160158244906
 20
4258.26587564138
 30
0.0
  0
SPLINE
  5
144
330
1F
100
AcDbEntity
  8
0
  6
Continuous
 62
     7
370
    25
100
AcDbSpline
210
0.0
220
0.0
230
1.0
 70
    11
 71
     3
 72
    70
 73
    66
 74
     0
 42
0.00000001
 43
0.00000001
 40
0.0
 40
0.0
 40
0.0
 40
0.0
 40
0.03125
 40
0.03125
 40
0.0625
 40
0.0625
 40
0.09375
 40
0.09375
 40
0.125
 40
0.125
 40
0.15625
 40
0.15625
 40
0.1875
 40
0.1875
 40
0.21875
 40
0.21875
 40
0.25
 40
0.25
 40
0.28125
 40
0.28125
 40
0.3125
 40
0.3125
 40
0.34375
 40
0.34375
 40
0.375
 40
0.375
 40
0.40625
 40
0.40625
 40
0.4375
 40
0.4375
 40
0.46875
 40
0.46875
 40
0.5
 40
0.5
 40
0.53125
 40
0.53125
 40
0.5625
 40
0.5625
 40
0.59375
 40
0.59375
 40
0.625
 40
0.625
 40
0.65625
 40
0.65625
 40
0.6875
 40
0.6875
 40
0.71875
 40
0.71875
 40
0.75
 40
0.75
 40
0.78125
 40
0.78125
 40
0.8125
 40
0.8125
 40
0.84375
 40
0.84375
 40
0.875
 40
0.875
 40
0.90625
 40
0.90625
 40
0.9375
 40
0.9375
 40
0.96875
 40
0.96875
 40
1.0
 40
1.0
 40
1.0
 40
1.0
 10
6220.00488553227
 20
4248.880814887496
 30
0.0
 10
6220.253405964649
 20
4249.045125729072
 30
0.0
 10
6220.513852123981
 20
4249.182203091647
 30
0.0
 10
6221.057583771262
 20
4249.404201916748
 30
0.0
 10
6221.344148610219
 20
4249.489603188189
 30
0.0
 10
6221.92378154055
 20
4249.601468265257
 30
0.0
 10
6222.215767666072
 20
4249.628525990564
 30
0.0
 10
6222.804033812235
 20
4249.625492756859
 30
0.0
 10
6223.101826997679
 20
4249.594465037952
 30
0.0
 10
6223.676458026361
 20
4249.476837052295
 30
0.0
 10
6223.956439154557
 20
4249.390541389936
 30
0.0
 10
6224.501392103889
 20
4249.161711919752
 30
0.0
 10
6224.761690962009
 20
4249.02064625243
 30
0.0
 10
6225.246526758048
 20
4248.693423150107
 30
0.0
 10
6225.474593644341
 20
4248.504897111145
 30
0.0
 10
6225.890478574664
 20
4248.085365940829
 30
0.0
 10
6226.075084059598
 20
4247.858232068585
 30
0.0
 10
6226.398801190237
 20
4247.370105931973
 30
0.0
 10
6226.538860343343
 20
4247.106026471764
 30
0.0
 10
6226.761742900207
 20
4246.562437675867
 30
0.0
 10
6226.845893995097
 20
4246.282103656579
 30
0.0
 10
6226.959233343489
 20
4245.704236364235
 30
0.0
 10
6226.987562732766
 20
4245.406729857937
 30
0.0
 10
6226.985792315287
 20
4244.820240620712
 30
0.0
 10
6226.956526485033
 20
4244.52798751886
 30
0.0
 10
6226.838968880938
 20
4243.945543183509
 30
0.0
 10
6226.752106825383
 20
4243.663348955805
 30
0.0
 10
6226.525774678616
 20
4243.121564530055
 30
0.0
 10
6226.384321196121
 20
4242.858567333313
 30
0.0
 10
6226.05369130704
 20
4242.367698613201
 30
0.0
 10
6225.866372014319
 20
4242.141341992049
 30
0.0
 10
6225.448329354215
 20
4241.726260015564
 30
0.0
 10
6225.21533922816
 20
4241.536645103274
 30
0.0
 10
6224.7244241156
 20
4241.211815701625
 30
0.0
 10
6224.464789523879
 20
4241.074311590753
 30
0.0
 10
6223.91664309843
 20
4240.850043679187
 30
0.0
 10
6223.631265993271
 20
4240.765186615042
 30
0.0
 10
6223.055289050899
 20
4240.65350688749
 30
0.0
 10
6222.760419277361
 20
4240.625641391573
 30
0.0
 10
6222.167887869638
 20
4240.628609939183
 30
0.0
 10
6221.876181585412
 20
4240.659046632234
 30
0.0
 10
6221.301605422833
 20
4240.776033517585
 30
0.0
 10
6221.015850293944
 20
4240.864096363722
 30
0.0
 10
6220.47401333518
 20
4241.091548070715
 30
0.0
 10
6220.21659857346
 20
4241.230517988115
 30
0.0
 10
6219.728838463691
 20
4241.559062263314
 30
0.0
 10
6219.499035028014
 20
4241.749275623431
 30
0.0
 10
6219.086766915835
 20
4242.164622900945
 30
0.0
 10
6218.901431179324
 20
4242.391461857961
 30
0.0
 10
6218.573871385279
 20
4242.884866362718
 30
0.0
 10
6218.436071495017
 20
4243.14513751474
 30
0.0
 10
6218.213509455045
 20
4243.686413818863
 30
0.0
 10
6218.127684716918
 20
4243.971153869175
 30
0.0
 10
6218.014037005042
 20
4244.550492523766
 30
0.0
 10
6217.986127198388
 20
4244.842210993278
 30
0.0
 10
6217.987286374962
 20
4245.429685719734
 30
0.0
 10
6218.017321889743
 20
4245.728049977077
 30
0.0
 10
6218.133566232661
 20
4246.304670373203
 30
0.0
 10
6218.219288903944
 20
4246.585388552093
 30
0.0
 10
6218.446871161121
 20
4247.131383257642
 30
0.0
 10
6218.58850335995
 20
4247.394305147089
 30
0.0
 10
6218.916310868422
 20
4247.881813477132
 30
0.0
 10
6219.10415517598
 20
4248.10985549512
 30
0.0
 10
6219.5265320121
 20
4248.529425351121
 30
0.0
 10
6219.756365099892
 20
4248.716504045919
 30
0.0
 10
6220.00488553227
 20
4248.880814887496
 30
0.0
  0
ARC
  5
145
330
1F
100
AcDbEntity
  8
0
  6
Continuous
 62
     7
370
    25
100
AcDbCircle
 10
6211.8800963089
 20
4255.5301186642
 30
0.0
 40
180.0000000000009
100
AcDbArc
 50
180.0
 51
0.0
  0
LINE
  5
146
330
1F
100
AcDbEntity
  8
0
  6
Continuous
 62
     7
370
    25
100
AcDbLine
 10
6086.0588799846
 20
4126.5297049581
 30
0.0
 11
6034.3814719939
 21
4074.8522907789
 31
0.0
  0
SPLINE
  5
147
330
1F
100
AcDbEntity
  8
0
  6
Continuous
 62
     7
370
    25
100
AcDbSpline
210
0.0
220
0.0
230
1.0
 70
     8
 71
     3
 72
    14
 73
    10
 74
     0
 42
0.00000001
 43
0.00000001
 40
0.0
 40
0.0
 40
0.0
 40
0.0
 40
0.0032636362342947
 40
0.0566709433505653
 40
0.2813306995856329
 40
0.4902849439640435
 40
0.6865118540242291
 40
0.8787896708032429
 40
1.0
 40
1.0
 40
1.0
 40
1.0
 10
6034.381471993865
 20
4074.852290778904
 30
0.0
 10
6034.378196324739
 20
4074.853647605361
 30
0.0
 10
6034.321316437969
 20
4074.877208023799
 30
0.0
 10
6034.039064518143
 20
4074.99412058739
 30
0.0
 10
6033.554975022881
 20
4075.194637004486
 30
0.0
 10
6033.005297904389
 20
4075.4223207027
 30
0.0
 10
6032.615502785821
 20
4075.583779113665
 30
0.0
 10
6032.399322956971
 20
4075.673323723108
 30
0.0
 10
6032.403066570168
 20
4075.671773067881
 30
0.0
 10
6032.404514039854
 20
4075.671173506357
 30
0.0
  0
SPLINE
  5
148
330
1F
100
AcDbEntity
  8
0
  6
Continuous
 62
     7
370
    25
100
AcDbSpline
210
0.0
220
0.0
230
1.0
 70
     8
 71
     3
 72
    12
 73
     8
 74
     0
 42
0.00000001
 43
0.00000001
 40
0.0
 40
0.0
 40
0.0
 40
0.0
 40
0.1406738833957161
 40
0.3554540420652546
 40
0.5702185564270191
 40
0.7849351621741938
 40
1.0
 40
1.0
 40
1.0
 40
1.0
 10
6084.674881854306
 20
4127.93786276741
 30
0.0
 10
6084.672770398356
 20
4127.936763290541
 30
0.0
 10
6084.667435182368
 20
4127.933985138067
 30
0.0
 10
6084.840878980456
 20
4127.748868220204
 30
0.0
 10
6085.153168310233
 20
4127.427997602415
 30
0.0
 10
6085.57696507347
 20
4127.002342690948
 30
0.0
 10
6085.898200061091
 20
4126.687382214743
 30
0.0
 10
6086.058947695848
 20
4126.529774377667
 30
0.0
  0
SPLINE
  5
149
330
1F
100
AcDbEntity
  8
0
  6
Continuous
 62
     7
370
    25
100
AcDbSpline
210
0.0
220
0.0
230
1.0
 70
     8
 71
     3
 72
    14
 73
    10
 74
     0
 42
0.00000001
 43
0.00000001
 40
0.0
 40
0.0
 40
0.0
 40
0.0
 40
0.1212103291967606
 40
0.3134881459757898
 40
0.5097150560359327
 40
0.7186693004143951
 40
0.943329056649458
 40
0.9967363637535573
 40
0.9999999999999999
 40
0.9999999999999999
 40
0.9999999999999999
 40
0.9999999999999999
 10
6391.355678577981
 20
4075.671173506354
 30
0.0
 10
6391.357126047666
 20
4075.671773067878
 30
0.0
 10
6391.360869660863
 20
4075.673323723107
 30
0.0
 10
6391.144689832017
 20
4075.583779113654
 30
0.0
 10
6390.754894713433
 20
4075.422320702728
 30
0.0
 10
6390.205217595007
 20
4075.194637004355
 30
0.0
 10
6389.721128099557
 20
4074.994120587745
 30
0.0
 10
6389.43887617995
 20
4074.877208023625
 30
0.0
 10
6389.381996293112
 20
4074.853647605354
 30
0.0
 10
6389.37872062397
 20
4074.852290778902
 30
0.0
  0
LINE
  5
14A
330
1F
100
AcDbEntity
  8
0
  6
Continuous
 62
     7
370
    25
100
AcDbLine
 10
6389.378720624
 20
4074.8522907789
 30
0.0
 11
6337.7013119497
 21
4126.5297056416
 31
0.0
  0
SPLINE
  5
14B
330
1F
100
AcDbEntity
  8
0
  6
Continuous
 62
     7
370
    25
100
AcDbSpline
210
0.0
220
0.0
230
1.0
 70
     8
 71
     3
 72
    12
 73
     8
 74
     0
 42
0.00000001
 43
0.00000001
 40
0.0
 40
0.0
 40
0.0
 40
0.0
 40
0.2146661116584714
 40
0.4293326349485558
 40
0.6439983903306444
 40
0.8587109414934481
 40
1.0
 40
1.0
 40
1.0
 40
1.0
 10
6337.701244913365
 20
4126.529774369261
 30
0.0
 10
6337.861692704364
 20
4126.687086693317
 30
0.0
 10
6338.182588594027
 20
4127.001711643083
 30
0.0
 10
6338.606192097411
 20
4127.427154245624
 30
0.0
 10
6338.918664407343
 20
4127.748190839427
 30
0.0
 10
6339.092606893346
 20
4127.93380796778
 30
0.0
 10
6339.087327008539
 20
4127.936654449237
 30
0.0
 10
6339.085231540616
 20
4127.937784153919
 30
0.0
  0
LINE
  5
14C
330
1F
100
AcDbEntity
  8
0
  6
Continuous
 62
     7
370
    25
100
AcDbLine
 10
6034.3814719939
 20
4074.8522907789
 30
0.0
 11
6034.3814719939
 21
3838.0310952261
 31
0.0
  0
LINE
  5
14D
330
1F
100
AcDbEntity
  8
0
  6
Continuous
 62
     7
370
    25
100
AcDbLine
 10
6389.378720624
 20
3838.0310952266
 30
0.0
 11
6389.378720624
 21
4074.8522907789
 31
0.0
  0
LINE
  5
14E
330
1F
100
AcDbEntity
  8
0
  6
Continuous
 62
     7
370
    25
100
AcDbLine
 10
6339.0913347879
 20
4127.9488922277
 30
0.0
 11
6338.0463487805
 21
4127.1475780395
 31
0.0
  0
ARC
  5
14F
330
1F
100
AcDbEntity
  8
0
  6
Continuous
 62
     7
370
    25
100
AcDbCircle
 10
6211.8800956168
 20
4255.5306367278
 30
0.0
 40
180.2004958389551
100
AcDbArc
 50
225.7149098347
 51
314.2850904765
  0
LINE
  5
150
330
1F
100
AcDbEntity
  8
0
  6
Continuous
 62
     7
370
    25
100
AcDbLine
 10
6084.66885783
 20
4127.9488922277
 30
0.0
 11
6085.7138438373
 21
4127.1475780395
 31
0.0
  0
SPLINE
  5
151
330
1F
100
AcDbEntity
  8
0
  6
Continuous
 62
     7
370
    25
100
AcDbSpline
210
0.0
220
0.0
230
1.0
 70
     8
 71
     3
 72
    14
 73
    10
 74
     0
 42
0.00000001
 43
0.00000001
 40
0.0
 40
0.0
 40
0.0
 40
0.0
 40
0.25
 40
0.25
 40
0.5
 40
0.5
 40
0.75
 40
0.75
 40
1.0
 40
1.0
 40
1.0
 40
1.0
 10
6345.986544143736
 20
3858.497425003537
 30
0.0
 10
6345.78330054652
 20
3853.614839516213
 30
0.0
 10
6345.581690338649
 20
3848.732177168494
 30
0.0
 10
6345.15996057149
 20
3838.967723444865
 30
0.0
 10
6344.93584230654
 20
3834.086120231135
 30
0.0
 10
6344.453459336445
 20
3824.324520590761
 30
0.0
 10
6344.198533512651
 20
3819.444367050479
 30
0.0
 10
6343.696590717972
 20
3809.68368781274
 30
0.0
 10
6343.458844870956
 20
3804.802725855398
 30
0.0
 10
6343.230201068494
 20
3799.921335594327
 30
0.0
  0
SPLINE
  5
152
330
1F
100
AcDbEntity
  8
0
  6
Continuous
 62
     7
370
    25
100
AcDbSpline
210
0.0
220
0.0
230
1.0
 70
     8
 71
     3
 72
   110
 73
   106
 74
     0
 42
0.00000001
 43
0.00000001
 40
0.0
 40
0.0
 40
0.0
 40
0.0
 40
0.0078124999999991
 40
0.0078124999999991
 40
0.0156249999999982
 40
0.0156249999999982
 40
0.0312499999999972
 40
0.0312499999999972
 40
0.062499999999996
 40
0.062499999999996
 40
0.0937499999999948
 40
0.0937499999999948
 40
0.1015624999999943
 40
0.1015624999999943
 40
0.1093749999999938
 40
0.1093749999999938
 40
0.1249999999999936
 40
0.1249999999999936
 40
0.156249999999993
 40
0.156249999999993
 40
0.1874999999999925
 40
0.1874999999999925
 40
0.2031249999999926
 40
0.2031249999999926
 40
0.2109374999999923
 40
0.2109374999999923
 40
0.2187499999999919
 40
0.2187499999999919
 40
0.2499999999999912
 40
0.2499999999999912
 40
0.2812499999999904
 40
0.2812499999999904
 40
0.3124999999999897
 40
0.3124999999999897
 40
0.3203124999999895
 40
0.3203124999999895
 40
0.3281249999999892
 40
0.3281249999999892
 40
0.3437499999999891
 40
0.3437499999999891
 40
0.3749999999999886
 40
0.3749999999999886
 40
0.4062499999999881
 40
0.4062499999999881
 40
0.4140624999999881
 40
0.4140624999999881
 40
0.4218749999999881
 40
0.4218749999999881
 40
0.4374999999999881
 40
0.4374999999999881
 40
0.4687499999999881
 40
0.4687499999999881
 40
0.4999999999999882
 40
0.4999999999999882
 40
0.5156249999999882
 40
0.5156249999999882
 40
0.5312499999999882
 40
0.5312499999999882
 40
0.5624999999999883
 40
0.5624999999999883
 40
0.5937499999999886
 40
0.5937499999999886
 40
0.6249999999999887
 40
0.6249999999999887
 40
0.6328124999999889
 40
0.6328124999999889
 40
0.6406249999999891
 40
0.6406249999999891
 40
0.6562499999999892
 40
0.6562499999999892
 40
0.6874999999999897
 40
0.6874999999999897
 40
0.7187499999999902
 40
0.7187499999999902
 40
0.72656249999999
 40
0.72656249999999
 40
0.7343749999999898
 40
0.7343749999999898
 40
0.74999999999999
 40
0.74999999999999
 40
0.7812499999999905
 40
0.7812499999999905
 40
0.8124999999999909
 40
0.8124999999999909
 40
0.8281249999999916
 40
0.8281249999999916
 40
0.8437499999999921
 40
0.8437499999999921
 40
0.874999999999994
 40
0.874999999999994
 40
0.9062499999999959
 40
0.9062499999999959
 40
0.9374999999999978
 40
0.9374999999999978
 40
0.9453124999999978
 40
0.9453124999999978
 40
0.9531249999999977
 40
0.9531249999999977
 40
0.9687499999999982
 40
0.9687499999999982
 40
0.9843749999999988
 40
0.9843749999999988
 40
0.9921874999999994
 40
0.9921874999999994
 40
1.0
 40
1.0
 40
1.0
 40
1.0
 10
6077.773986300332
 20
3858.497508884438
 30
0.0
 10
6077.72668720146
 20
3859.634751183892
 30
0.0
 10
6077.690199468859
 20
3860.770622512181
 30
0.0
 10
6077.649809872564
 20
3863.038233009551
 30
0.0
 10
6077.644083933256
 20
3864.17020348659
 30
0.0
 10
6077.669829648688
 20
3867.560671856667
 30
0.0
 10
6077.744190403427
 20
3869.813731055097
 30
0.0
 10
6078.136343211431
 20
3876.5514690992
 30
0.0
 10
6078.622900801806
 20
3881.014747071071
 30
0.0
 10
6080.044030180088
 20
3889.884491088238
 30
0.0
 10
6080.97794823329
 20
3894.291040032531
 30
0.0
 10
6082.431154651606
 20
3899.76298327329
 30
0.0
 10
6082.736135362376
 20
3900.855553562818
 30
0.0
 10
6083.375135690455
 20
3903.037011766994
 30
0.0
 10
6083.709394623045
 20
3904.126499628179
 30
0.0
 10
6084.750142164793
 20
3907.37076747214
 30
0.0
 10
6085.496347842419
 20
3909.507383834821
 30
0.0
 10
6087.888284786
 20
3915.840450382203
 30
0.0
 10
6089.686553704277
 20
3919.960509780882
 30
0.0
 10
6093.683751814126
 20
3927.99997809792
 30
0.0
 10
6095.883426890955
 20
3931.919013477287
 30
0.0
 10
6099.489513738047
 20
3937.644034312238
 30
0.0
 10
6100.742492017636
 20
3939.526859189278
 30
0.0
 10
6102.699503645172
 20
3942.312262401114
 30
0.0
 10
6103.365561573452
 20
3943.235304857183
 30
0.0
 10
6104.72012856026
 20
3945.063247741106
 30
0.0
 10
6105.407551483606
 20
3945.966745101321
 30
0.0
 10
6108.894857447911
 20
3950.432383989773
 30
0.0
 10
6111.845206022163
 20
3953.839093870968
 30
0.0
 10
6118.060562148927
 20
3960.327469337972
 30
0.0
 10
6121.324620045961
 20
3963.410115922629
 30
0.0
 10
6128.165839750689
 20
3969.251971189154
 30
0.0
 10
6131.742945135083
 20
3972.011238156572
 30
0.0
 10
6136.41824866862
 20
3975.249669625277
 30
0.0
 10
6137.362305880723
 20
3975.885952417333
 30
0.0
 10
6139.260263226029
 20
3977.130535503191
 30
0.0
 10
6140.215318228484
 20
3977.739642011773
 30
0.0
 10
6143.098517629677
 20
3979.527828687636
 30
0.0
 10
6145.044691514307
 20
3980.667786654761
 30
0.0
 10
6150.954411624483
 20
3983.933166951948
 30
0.0
 10
6154.988883598217
 20
3985.904687427394
 30
0.0
 10
6163.246254448551
 20
3989.438860646176
 30
0.0
 10
6167.468892748316
 20
3991.002078815453
 30
0.0
 10
6172.86780206793
 20
3992.694386627552
 30
0.0
 10
6173.953632195949
 20
3993.019724055431
 30
0.0
 10
6176.137496399394
 20
3993.643917553044
 30
0.0
 10
6177.237075314212
 20
3993.943153047092
 30
0.0
 10
6180.538372305145
 20
3994.796637338712
 30
0.0
 10
6182.74471762224
 20
3995.307497412516
 30
0.0
 10
6189.379921950025
 20
3996.668591079078
 30
0.0
 10
6193.824867053669
 20
3997.348210840444
 30
0.0
 10
6202.757009847141
 20
3998.259307011304
 30
0.0
 10
6207.244213254881
 20
3998.490722774953
 30
0.0
 10
6214.007141453049
 20
3998.497139519779
 30
0.0
 10
6216.266822583151
 20
3998.442304279443
 30
0.0
 10
6220.797092315273
 20
3998.216945944628
 30
0.0
 10
6223.072596768579
 20
3998.045674035077
 30
0.0
 10
6229.842055170943
 20
3997.362341407713
 30
0.0
 10
6234.299007858607
 20
3996.681513182267
 30
0.0
 10
6243.104131147311
 20
3994.882408217211
 30
0.0
 10
6247.452260915287
 20
3993.763967274441
 30
0.0
 10
6256.039556596058
 20
3991.088905923637
 30
0.0
 10
6260.278638907236
 20
3989.531949326039
 30
0.0
 10
6265.507222880359
 20
3987.303179179299
 30
0.0
 10
6266.54963450432
 20
3986.843066550764
 30
0.0
 10
6268.615439630235
 20
3985.899693262511
 30
0.0
 10
6269.640345689216
 20
3985.415817409726
 30
0.0
 10
6272.691350619864
 20
3983.928043341851
 30
0.0
 10
6274.693738675207
 20
3982.888002321288
 30
0.0
 10
6280.607591801505
 20
3979.62564363552
 30
0.0
 10
6284.425979572341
 20
3977.26144663955
 30
0.0
 10
6291.816527184584
 20
3972.157723176308
 30
0.0
 10
6295.388077876061
 20
3969.417268171313
 30
0.0
 10
6299.695455805847
 20
3965.752289491093
 30
0.0
 10
6300.549058474597
 20
3965.007292931828
 30
0.0
 10
6302.2403431012
 20
3963.493031599627
 30
0.0
 10
6303.079154296835
 20
3962.722683689894
 30
0.0
 10
6305.562399604761
 20
3960.383349430257
 30
0.0
 10
6307.171588717878
 20
3958.788356543604
 30
0.0
 10
6311.862652093982
 20
3953.898919106817
 30
0.0
 10
6314.807422604852
 20
3950.499556795292
 30
0.0
 10
6320.340776696317
 20
3943.428262422806
 30
0.0
 10
6322.929989127348
 20
3939.756811585581
 30
0.0
 10
6326.543915528622
 20
3934.04310203103
 30
0.0
 10
6327.703397322584
 20
3932.103973520965
 30
0.0
 10
6329.929713501251
 20
3928.154818668881
 30
0.0
 10
6330.999175944656
 20
3926.139407693011
 30
0.0
 10
6334.036288129119
 20
3920.047347738566
 30
0.0
 10
6335.841019906573
 20
3915.914117370656
 30
0.0
 10
6339.023036449767
 20
3907.50804874194
 30
0.0
 10
6340.399360652905
 20
3903.234896753074
 30
0.0
 10
6342.722315490353
 20
3894.548251137453
 30
0.0
 10
6343.669515294831
 20
3890.134943406599
 30
0.0
 10
6344.57656290925
 20
3884.527853777144
 30
0.0
 10
6344.744198765899
 20
3883.400820975446
 30
0.0
 10
6345.050054016616
 20
3881.146869397058
 30
0.0
 10
6345.188435962804
 20
3880.019140102075
 30
0.0
 10
6345.560202954459
 20
3876.633705074736
 30
0.0
 10
6345.750239967258
 20
3874.373753796252
 30
0.0
 10
6346.015359664807
 20
3869.847896292071
 30
0.0
 10
6346.090448126476
 20
3867.581990365635
 30
0.0
 10
6346.116576000131
 20
3864.178650290813
 30
0.0
 10
6346.110859262933
 20
3863.043456291651
 30
0.0
 10
6346.070415410765
 20
3860.771565476765
 30
0.0
 10
6346.033887745595
 20
3859.634775387637
 30
0.0
 10
6345.986544143736
 20
3858.497425003537
 30
0.0
  0
SPLINE
  5
153
330
1F
100
AcDbEntity
  8
0
  6
Continuous
 62
     7
370
    25
100
AcDbSpline
210
0.0
220
0.0
230
1.0
 70
     8
 71
     3
 72
    14
 73
    10
 74
     0
 42
0.00000001
 43
0.00000001
 40
0.0
 40
0.0
 40
0.0
 40
0.0
 40
0.25
 40
0.25
 40
0.5
 40
0.5
 40
0.75
 40
0.75
 40
1.0
 40
1.0
 40
1.0
 40
1.0
 10
6080.529102019702
 20
3799.921289910113
 30
0.0
 10
6080.30044180932
 20
3804.8026853637
 30
0.0
 10
6080.062676751398
 20
3809.683652573384
 30
0.0
 10
6079.560747856774
 20
3819.444345333739
 30
0.0
 10
6079.30584802901
 20
3824.32450661442
 30
0.0
 10
6078.823667787036
 20
3834.086128247008
 30
0.0
 10
6078.599743098105
 20
3838.967746434493
 30
0.0
 10
6078.178455633965
 20
3848.732232141484
 30
0.0
 10
6077.977058707575
 20
3853.614909915842
 30
0.0
 10
6077.773986300332
 20
3858.497508884438
 30
0.0
  0
SPLINE
  5
154
330
1F
100
AcDbEntity
  8
0
  6
Continuous
 62
     7
370
    25
100
AcDbSpline
210
0.0
220
0.0
230
1.0
 70
     8
 71
     3
 72
   105
 73
   101
 74
     0
 42
0.00000001
 43
0.00000001
 40
0.0
 40
0.0
 40
0.0
 40
0.0
 40
0.00390625
 40
0.00390625
 40
0.0078124999999999
 40
0.0156250000000006
 40
0.0156250000000006
 40
0.0312500000000021
 40
0.0312500000000021
 40
0.0625000000000041
 40
0.0625000000000041
 40
0.0937500000000061
 40
0.0937500000000061
 40
0.1093750000000071
 40
0.1093750000000071
 40
0.1171875000000076
 40
0.1171875000000076
 40
0.1250000000000081
 40
0.1250000000000081
 40
0.1562500000000079
 40
0.1562500000000079
 40
0.1875000000000077
 40
0.1875000000000077
 40
0.2187500000000076
 40
0.2187500000000076
 40
0.2265625000000075
 40
0.2265625000000075
 40
0.2343750000000075
 40
0.2343750000000075
 40
0.2500000000000074
 40
0.2500000000000074
 40
0.2812500000000066
 40
0.2812500000000066
 40
0.3125000000000058
 40
0.3125000000000058
 40
0.3281250000000054
 40
0.3281250000000054
 40
0.3359375000000052
 40
0.3359375000000052
 40
0.343750000000005
 40
0.343750000000005
 40
0.3750000000000046
 40
0.3750000000000046
 40
0.4062500000000041
 40
0.4062500000000041
 40
0.4375000000000037
 40
0.4375000000000037
 40
0.4453125000000034
 40
0.4453125000000034
 40
0.4531250000000032
 40
0.4531250000000032
 40
0.4687500000000027
 40
0.4687500000000027
 40
0.5000000000000018
 40
0.5000000000000018
 40
0.5312500000000009
 40
0.5312500000000009
 40
0.5468750000000003
 40
0.5468750000000003
 40
0.5624999999999999
 40
0.5624999999999999
 40
0.5937499999999992
 40
0.5937499999999992
 40
0.6249999999999986
 40
0.6249999999999986
 40
0.6562499999999979
 40
0.6562499999999979
 40
0.6718749999999977
 40
0.6718749999999977
 40
0.6874999999999976
 40
0.6874999999999976
 40
0.7187499999999972
 40
0.7187499999999972
 40
0.7499999999999968
 40
0.7499999999999968
 40
0.7656249999999969
 40
0.7656249999999969
 40
0.7812499999999969
 40
0.7812499999999969
 40
0.8124999999999977
 40
0.8124999999999977
 40
0.8437499999999984
 40
0.8437499999999984
 40
0.8749999999999992
 40
0.8749999999999992
 40
0.8906249999999992
 40
0.8906249999999992
 40
0.9062499999999991
 40
0.9062499999999991
 40
0.9374999999999991
 40
0.9374999999999991
 40
0.9687499999999991
 40
0.9687499999999991
 40
0.9843749999999992
 40
0.9843749999999992
 40
0.9921874999999997
 40
0.9921874999999997
 40
0.9960937499999998
 40
0.9960937499999998
 40
1.0
 40
1.0
 40
1.0
 40
1.0
 10
6343.230201068495
 20
3799.921335594326
 30
0.0
 10
6343.205475290621
 20
3799.393456990069
 30
0.0
 10
6343.180979328769
 20
3798.865528980041
 30
0.0
 10
6343.123612854745
 20
3797.811473318013
 30
0.0
 10
6343.028200883849
 20
3796.232402520466
 30
0.0
 10
6342.904833726354
 20
3794.659341519591
 30
0.0
 10
6342.621127671507
 20
3791.521167690118
 30
0.0
 10
6342.382709958128
 20
3789.439646075573
 30
0.0
 10
6341.521455208598
 20
3783.226468609128
 30
0.0
 10
6340.752901786011
 20
3779.126138817282
 30
0.0
 10
6338.830856360663
 20
3771.008233200898
 30
0.0
 10
6337.677264726305
 20
3766.990678795129
 30
0.0
 10
6335.651101683429
 20
3761.027932924243
 30
0.0
 10
6334.926329697677
 20
3759.05096758862
 30
0.0
 10
6333.763483178443
 20
3756.101791082348
 30
0.0
 10
6333.363551818346
 20
3755.122312647492
 30
0.0
 10
6332.542866585306
 20
3753.179271776676
 30
0.0
 10
6332.121624111766
 20
3752.214454333853
 30
0.0
 10
6329.961533648733
 20
3747.423500074864
 30
0.0
 10
6328.061580199281
 20
3743.696436916413
 30
0.0
 10
6323.924586863269
 20
3736.449605785528
 30
0.0
 10
6321.686973194575
 20
3732.930190667023
 30
0.0
 10
6316.87301039399
 20
3726.099669703614
 30
0.0
 10
6314.296735719467
 20
3722.788518070292
 30
0.0
 10
6310.857945954621
 20
3718.783914671048
 30
0.0
 10
6310.158504073897
 20
3717.988946613998
 30
0.0
 10
6308.744839341644
 20
3716.420740373201
 30
0.0
 10
6308.029911147079
 20
3715.646642509761
 30
0.0
 10
6305.861024884201
 20
3713.354135061181
 30
0.0
 10
6304.383017823287
 20
3711.865446504889
 30
0.0
 10
6299.854628935407
 20
3707.516005483602
 30
0.0
 10
6296.709845056286
 20
3704.771920114067
 30
0.0
 10
6290.171009387424
 20
3699.591807965464
 30
0.0
 10
6286.777126456849
 20
3697.15557250122
 30
0.0
 10
6281.495958610113
 20
3693.73645590244
 30
0.0
 10
6279.703899445524
 20
3692.635889700729
 30
0.0
 10
6276.967326628124
 20
3691.044959600699
 30
0.0
 10
6276.045771943299
 20
3690.523964115488
 30
0.0
 10
6274.194363654866
 20
3689.506695597993
 30
0.0
 10
6273.264316595326
 20
3689.01024573803
 30
0.0
 10
6268.592671183113
 20
3686.588064239191
 30
0.0
 10
6264.7870987789
 20
3684.841816955362
 30
0.0
 10
6257.042233828402
 20
3681.724485018159
 30
0.0
 10
6253.103216558187
 20
3680.352628055596
 30
0.0
 10
6245.091214541731
 20
3677.984770676262
 30
0.0
 10
6241.018417595044
 20
3676.988243372719
 30
0.0
 10
6235.841263451796
 20
3675.984307340236
 30
0.0
 10
6234.800158924897
 20
3675.795425928538
 30
0.0
 10
6232.716285065565
 20
3675.443319055795
 30
0.0
 10
6231.674285831031
 20
3675.280183125663
 30
0.0
 10
6228.548103390356
 20
3674.829076392629
 30
0.0
 10
6226.463735661458
 20
3674.579362213348
 30
0.0
 10
6220.20990378258
 20
3673.981297532112
 30
0.0
 10
6216.039713883585
 20
3673.783414687016
 30
0.0
 10
6207.697421640462
 20
3673.784151275843
 30
0.0
 10
6203.525319319609
 20
3673.982765884453
 30
0.0
 10
6197.265708717839
 20
3674.582788801206
 30
0.0
 10
6195.17892827633
 20
3674.833296056716
 30
0.0
 10
6191.004873071816
 20
3675.436796958982
 30
0.0
 10
6188.915034020293
 20
3675.790576037772
 30
0.0
 10
6182.71181011122
 20
3676.995306446858
 30
0.0
 10
6178.643054287901
 20
3677.991651661842
 30
0.0
 10
6170.635265810663
 20
3680.359924830649
 30
0.0
 10
6166.696408517799
 20
3681.732360500909
 30
0.0
 10
6158.948371650506
 20
3684.852682987755
 30
0.0
 10
6155.13945647593
 20
3686.601335311544
 30
0.0
 10
6149.526071327146
 20
3689.513804269474
 30
0.0
 10
6147.668570028787
 20
3690.535203096217
 30
0.0
 10
6144.026031071413
 20
3692.654251352158
 30
0.0
 10
6142.236510096828
 20
3693.753868712889
 30
0.0
 10
6136.961426908764
 20
3697.170770602691
 30
0.0
 10
6133.56956094356
 20
3699.606378359803
 30
0.0
 10
6127.031492696585
 20
3704.78782742735
 30
0.0
 10
6123.885464486752
 20
3707.533888562531
 30
0.0
 10
6119.353303684454
 20
3711.888981430987
 30
0.0
 10
6117.873722808395
 20
3713.380003075571
 30
0.0
 10
6114.978189307307
 20
3716.442398568749
 30
0.0
 10
6113.559411412592
 20
3718.017426657251
 30
0.0
 10
6109.441456052743
 20
3722.816016014297
 30
0.0
 10
6106.86858665839
 20
3726.124176438383
 30
0.0
 10
6102.058207975451
 20
3732.952683024591
 30
0.0
 10
6099.820774601725
 20
3736.473077218815
 30
0.0
 10
6095.682152106809
 20
3743.726610753917
 30
0.0
 10
6093.780384402587
 20
3747.45938401945
 30
0.0
 10
6091.185008387769
 20
3753.221324760538
 30
0.0
 10
6090.36102052742
 20
3755.174269315237
 30
0.0
 10
6088.816056229733
 20
3759.097249110094
 30
0.0
 10
6088.093638627329
 20
3761.069882175663
 30
0.0
 10
6086.073548969065
 20
3767.02053636227
 30
0.0
 10
6084.922691364093
 20
3771.031234861376
 30
0.0
 10
6083.004375186629
 20
3779.1379672953
 30
0.0
 10
6082.236812800247
 20
3783.233978123634
 30
0.0
 10
6081.376331566877
 20
3789.442733353307
 30
0.0
 10
6081.138052499859
 20
3791.523124053513
 30
0.0
 10
6080.85445013872
 20
3794.660139829558
 30
0.0
 10
6080.772222564552
 20
3795.708550897142
 30
0.0
 10
6080.667501276158
 20
3797.28531188047
 30
0.0
 10
6080.635697788511
 20
3797.811589663776
 30
0.0
 10
6080.578328069185
 20
3798.86553349408
 30
0.0
 10
6080.553828345784
 20
3799.393436920259
 30
0.0
 10
6080.529102019703
 20
3799.921289910113
 30
0.0
  0
SPLINE
  5
155
330
1F
100
AcDbEntity
  8
0
  6
Continuous
 62
     7
370
    25
100
AcDbSpline
210
0.0
220
0.0
230
1.0
 70
     8
 71
     3
 72
    10
 73
     6
 74
     0
 42
0.00000001
 43
0.00000001
 40
0.0
 40
0.0
 40
0.0
 40
0.0
 40
0.5
 40
0.5
 40
1.0
 40
1.0
 40
1.0
 40
1.0
 10
6385.250182149764
 20
3791.270457324316
 30
0.0
 10
6386.626237879485
 20
3799.003155843663
 30
0.0
 10
6387.656286447831
 20
3806.766403644248
 30
0.0
 10
6389.031769260082
 20
3822.353344455432
 30
0.0
 10
6389.378720623947
 20
3830.176903518156
 30
0.0
 10
6389.378720623969
 20
3838.031095226595
 30
0.0
  0
SPLINE
  5
156
330
1F
100
AcDbEntity
  8
0
  6
Continuous
 62
     7
370
    25
100
AcDbSpline
210
0.0
220
0.0
230
1.0
 70
     8
 71
     3
 72
    18
 73
    14
 74
     0
 42
0.00000001
 43
0.00000001
 40
0.0
 40
0.0
 40
0.0
 40
0.0
 40
0.1249999999999997
 40
0.1249999999999997
 40
0.2499999999999994
 40
0.2499999999999994
 40
0.4999999999999984
 40
0.4999999999999984
 40
0.7499999999999976
 40
0.7499999999999976
 40
0.8749999999999988
 40
0.8749999999999988
 40
1.0
 40
1.0
 40
1.0
 40
1.0
 10
6352.395278096854
 20
3700.111826306053
 30
0.0
 10
6354.411571614842
 20
3703.664034824387
 30
0.0
 10
6356.341423230184
 20
3707.249322758028
 30
0.0
 10
6360.042983381976
 20
3714.480416504073
 30
0.0
 10
6361.812668743373
 20
3718.126996541082
 30
0.0
 10
6366.881391240272
 20
3729.15870703109
 30
0.0
 10
6369.940381961585
 20
3736.635697968238
 30
0.0
 10
6375.421559892709
 20
3751.833370543235
 30
0.0
 10
6377.843800053948
 20
3759.554031917736
 30
0.0
 10
6380.992084979507
 20
3771.320651636351
 30
0.0
 10
6381.960608526468
 20
3775.273818682395
 30
0.0
 10
6383.733032832492
 20
3783.243150295399
 30
0.0
 10
6384.534623402821
 20
3787.249399206181
 30
0.0
 10
6385.250182149764
 20
3791.270457324316
 30
0.0
  0
SPLINE
  5
157
330
1F
100
AcDbEntity
  8
0
  6
Continuous
 62
     7
370
    25
100
AcDbSpline
210
0.0
220
0.0
230
1.0
 70
     8
 71
     3
 72
    62
 73
    58
 74
     0
 42
0.00000001
 43
0.00000001
 40
0.0
 40
0.0
 40
0.0
 40
0.0
 40
0.0624999999999989
 40
0.0624999999999989
 40
0.1249999999999978
 40
0.1249999999999978
 40
0.1562499999999972
 40
0.1562499999999972
 40
0.1718749999999972
 40
0.1718749999999972
 40
0.1874999999999973
 40
0.1874999999999973
 40
0.2499999999999973
 40
0.2499999999999973
 40
0.3124999999999973
 40
0.3124999999999973
 40
0.3281249999999973
 40
0.3281249999999973
 40
0.3437499999999973
 40
0.3437499999999973
 40
0.3749999999999973
 40
0.3749999999999973
 40
0.4374999999999973
 40
0.4374999999999973
 40
0.4687499999999973
 40
0.4687499999999973
 40
0.4843749999999973
 40
0.4843749999999973
 40
0.4999999999999972
 40
0.4999999999999972
 40
0.5624999999999972
 40
0.5624999999999972
 40
0.6249999999999972
 40
0.6249999999999972
 40
0.640624999999997
 40
0.640624999999997
 40
0.6562499999999969
 40
0.6562499999999969
 40
0.6874999999999968
 40
0.6874999999999968
 40
0.7499999999999969
 40
0.7499999999999969
 40
0.7812499999999968
 40
0.7812499999999968
 40
0.7968749999999966
 40
0.7968749999999966
 40
0.8124999999999964
 40
0.8124999999999964
 40
0.8749999999999972
 40
0.8749999999999972
 40
0.937499999999998
 40
0.937499999999998
 40
0.9531249999999982
 40
0.9531249999999982
 40
0.9687499999999986
 40
0.9687499999999986
 40
1.0
 40
1.0
 40
1.0
 40
1.0
 10
6071.364914523492
 20
3700.111826301613
 30
0.0
 10
6074.90171559096
 20
3693.880861034652
 30
0.0
 10
6078.811166396586
 20
3687.954306209072
 30
0.0
 10
6087.345850715107
 20
3676.685905756766
 30
0.0
 10
6091.97107076183
 20
3671.344049129782
 30
0.0
 10
6099.451931227438
 20
3663.77485532988
 30
0.0
 10
6102.036434410766
 20
3661.32603133677
 30
0.0
 10
6106.052698722976
 20
3657.76675801889
 30
0.0
 10
6107.41319903928
 20
3656.600872695481
 30
0.0
 10
6110.160684891331
 20
3654.324190960891
 30
0.0
 10
6111.549988455966
 20
3653.211315844506
 30
0.0
 10
6118.573476252795
 20
3647.772905412567
 30
0.0
 10
6124.43712470726
 20
3643.822899589949
 30
0.0
 10
6136.645649081361
 20
3636.710440375287
 30
0.0
 10
6142.990442702873
 20
3633.547852298316
 30
0.0
 10
6151.232688416604
 20
3630.103999179104
 30
0.0
 10
6152.898996973424
 20
3629.440101763666
 30
0.0
 10
6156.239188276178
 20
3628.173108898302
 30
0.0
 10
6157.915559886282
 20
3627.568889652771
 30
0.0
 10
6162.963239297879
 20
3625.842835213708
 30
0.0
 10
6166.353083967649
 20
3624.807474037202
 30
0.0
 10
6176.595732895068
 20
3622.042469733135
 30
0.0
 10
6183.521211871473
 20
3620.651852312279
 30
0.0
 10
6194.055773843507
 20
3619.248614905179
 30
0.0
 10
6197.591794509752
 20
3618.89516101854
 30
0.0
 10
6202.933301366532
 20
3618.539804106193
 30
0.0
 10
6204.723347383103
 20
3618.450439043332
 30
0.0
 10
6208.298250545443
 20
3618.331525669547
 30
0.0
 10
6210.081920258264
 20
3618.301881668742
 30
0.0
 10
6218.981594112025
 20
3618.300875482271
 30
0.0
 10
6226.041910383165
 20
3618.768503982641
 30
0.0
 10
6240.046485030705
 20
3620.618652054188
 30
0.0
 10
6246.99074039939
 20
3622.001195335351
 30
0.0
 10
6255.596472761024
 20
3624.317346866474
 30
0.0
 10
6257.314532096305
 20
3624.810352166488
 30
0.0
 10
6260.740313130118
 20
3625.855474588327
 30
0.0
 10
6262.439710992409
 20
3626.405027180399
 30
0.0
 10
6267.498060026787
 20
3628.133391992332
 30
0.0
 10
6270.817226682438
 20
3629.391791148769
 30
0.0
 10
6280.618313797682
 20
3633.479884709921
 30
0.0
 10
6286.944699465063
 20
3636.620718692349
 30
0.0
 10
6296.123195901024
 20
3641.954273788407
 30
0.0
 10
6299.130600707743
 20
3643.836336940811
 30
0.0
 10
6303.562276149993
 20
3646.818330950714
 30
0.0
 10
6305.02624793737
 20
3647.838841638329
 30
0.0
 10
6307.927281721798
 20
3649.933694704076
 30
0.0
 10
6309.361762319275
 20
3651.006308619221
 30
0.0
 10
6316.415190498547
 20
3656.464979102838
 30
0.0
 10
6321.716542350312
 20
3661.162841329012
 30
0.0
 10
6331.657109149975
 20
3671.200405808018
 30
0.0
 10
6336.29617433308
 20
3676.540253234814
 30
0.0
 10
6341.671973595267
 20
3683.625127276297
 30
0.0
 10
6342.725854591989
 20
3685.06272866686
 30
0.0
 10
6344.790552068247
 20
3687.979675882859
 30
0.0
 10
6345.801984315211
 20
3689.46007015072
 30
0.0
 10
6348.757342421751
 20
3693.944053931662
 30
0.0
 10
6350.626871451342
 20
3696.996332904907
 30
0.0
 10
6352.395278096854
 20
3700.111826306053
 30
0.0
  0
SPLINE
  5
158
330
1F
100
AcDbEntity
  8
0
  6
Continuous
 62
     7
370
    25
100
AcDbSpline
210
0.0
220
0.0
230
1.0
 70
     8
 71
     3
 72
    18
 73
    14
 74
     0
 42
0.00000001
 43
0.00000001
 40
0.0
 40
0.0
 40
0.0
 40
0.0
 40
0.2499999999999999
 40
0.2499999999999999
 40
0.4999999999999998
 40
0.4999999999999998
 40
0.7499999999999997
 40
0.7499999999999997
 40
0.8749999999999998
 40
0.8749999999999998
 40
0.9374999999999999
 40
0.9374999999999999
 40
1.0
 40
1.0
 40
1.0
 40
1.0
 10
6038.510010468086
 20
3791.270457324208
 30
0.0
 10
6039.941125633189
 20
3783.228354174478
 30
0.0
 10
6041.706073487727
 20
3775.29923628977
 30
0.0
 10
6045.885375005583
 20
3759.660791121255
 30
0.0
 10
6048.299783757609
 20
3751.951482482154
 30
0.0
 10
6053.774379612209
 20
3736.751428096054
 30
0.0
 10
6056.834586497207
 20
3729.260689044394
 30
0.0
 10
6061.916787756131
 20
3718.191060350413
 30
0.0
 10
6063.692908379241
 20
3714.528955038158
 30
0.0
 10
6066.482317039479
 20
3709.078180240175
 30
0.0
 10
6067.43231483608
 20
3707.269700852314
 30
0.0
 10
6069.369823327241
 20
3703.675177794537
 30
0.0
 10
6070.35684040514
 20
3701.887802585874
 30
0.0
 10
6071.364914523492
 20
3700.111826301613
 30
0.0
  0
SPLINE
  5
159
330
1F
100
AcDbEntity
  8
0
  6
Continuous
 62
     7
370
    25
100
AcDbSpline
210
0.0
220
0.0
230
1.0
 70
     8
 71
     3
 72
    12
 73
     8
 74
     0
 42
0.00000001
 43
0.00000001
 40
0.0
 40
0.0
 40
0.0
 40
0.0
 40
0.25
 40
0.25
 40
0.5
 40
0.5
 40
1.0
 40
1.0
 40
1.0
 40
1.0
 10
6034.381471993863
 20
3838.031095226123
 30
0.0
 10
6034.381471993863
 20
3834.111840656039
 30
0.0
 10
6034.468134912227
 20
3830.193193908343
 30
0.0
 10
6034.813405633433
 20
3822.365812925626
 30
0.0
 10
6035.072430658523
 20
3818.453738038022
 30
0.0
 10
6036.105742688681
 20
3806.748242779991
 30
0.0
 10
6037.136696610635
 20
3798.98774798528
 30
0.0
 10
6038.510010468086
 20
3791.270457324208
 30
0.0
  0
ARC
  5
15A
330
1F
100
AcDbEntity
  8
0
  6
Continuous
 62
     7
370
    25
100
AcDbCircle
 10
6211.8800963089
 20
3867.0301186642
 30
0.0
 40
37.5
100
AcDbArc
 50
0.0
 51
180.0
  0
SPLINE
  5
15B
330
1F
100
AcDbEntity
  8
0
  6
Continuous
 62
     7
370
    25
100
AcDbSpline
210
0.0
220
0.0
230
1.0
 70
     8
 71
     3
 72
    70
 73
    66
 74
     0
 42
0.00000001
 43
0.00000001
 40
0.0
 40
0.0
 40
0.0
 40
0.0
 40
0.0625000000000007
 40
0.0625000000000007
 40
0.093750000000001
 40
0.093750000000001
 40
0.1250000000000014
 40
0.1250000000000014
 40
0.1875000000000021
 40
0.1875000000000021
 40
0.2031250000000022
 40
0.2031250000000022
 40
0.2187500000000024
 40
0.2187500000000024
 40
0.2500000000000027
 40
0.2500000000000027
 40
0.3125000000000032
 40
0.3125000000000032
 40
0.3281250000000033
 40
0.3281250000000033
 40
0.3437500000000035
 40
0.3437500000000035
 40
0.3750000000000053
 40
0.3750000000000053
 40
0.406250000000007
 40
0.406250000000007
 40
0.4218750000000074
 40
0.4218750000000074
 40
0.4375000000000078
 40
0.4375000000000078
 40
0.5000000000000083
 40
0.5000000000000083
 40
0.5312500000000087
 40
0.5312500000000087
 40
0.5468750000000089
 40
0.5468750000000089
 40
0.562500000000009
 40
0.562500000000009
 40
0.6250000000000085
 40
0.6250000000000085
 40
0.6406250000000085
 40
0.6406250000000085
 40
0.6562500000000083
 40
0.6562500000000083
 40
0.6875000000000068
 40
0.6875000000000068
 40
0.7187500000000052
 40
0.7187500000000052
 40
0.7500000000000037
 40
0.7500000000000037
 40
0.8125000000000024
 40
0.8125000000000024
 40
0.8437500000000006
 40
0.8437500000000006
 40
0.8593749999999996
 40
0.8593749999999996
 40
0.8749999999999987
 40
0.8749999999999987
 40
0.9374999999999979
 40
0.9374999999999979
 40
0.9531249999999977
 40
0.9531249999999977
 40
0.9687499999999976
 40
0.9687499999999976
 40
1.0
 40
1.0
 40
1.0
 40
1.0
 10
6174.380088768413
 20
3867.030115427728
 30
0.0
 10
6174.366856069174
 20
3864.535099133683
 30
0.0
 10
6174.599954479154
 20
3862.080940558735
 30
0.0
 10
6175.300673600204
 20
3858.457933185271
 30
0.0
 10
6175.593190207016
 20
3857.260040737733
 30
0.0
 10
6176.298228101781
 20
3854.884160423775
 30
0.0
 10
6176.712888748019
 20
3853.702468710907
 30
0.0
 10
6178.111958033555
 20
3850.26219477943
 30
0.0
 10
6179.254814806042
 20
3848.083778943457
 30
0.0
 10
6180.945421299597
 20
3845.504281363784
 30
0.0
 10
6181.296750949156
 20
3844.99561633162
 30
0.0
 10
6182.026191676426
 20
3843.992955002965
 30
0.0
 10
6182.405158790189
 20
3843.49790745882
 30
0.0
 10
6183.577110536021
 20
3842.042717643408
 30
0.0
 10
6184.399707118045
 20
3841.118584378315
 30
0.0
 10
6186.988182752299
 20
3838.480599971432
 30
0.0
 10
6188.873696516803
 20
3836.89999345798
 30
0.0
 10
6191.43448210165
 20
3835.151324068402
 30
0.0
 10
6191.958352101716
 20
3834.812229765719
 30
0.0
 10
6193.020144245532
 20
3834.161977496024
 30
0.0
 10
6193.55701857152
 20
3833.851367450792
 30
0.0
 10
6195.185265831164
 20
3832.962331690997
 30
0.0
 10
6196.294181948229
 20
3832.426503433674
 30
0.0
 10
6198.558043635828
 20
3831.466613274657
 30
0.0
 10
6199.712988344891
 20
3831.04254928119
 30
0.0
 10
6201.480601072278
 20
3830.491913594767
 30
0.0
 10
6202.075686432509
 20
3830.322648594176
 30
0.0
 10
6203.277885219107
 20
3830.013324525623
 30
0.0
 10
6203.886773037338
 20
3829.872918302192
 30
0.0
 10
6206.934250072112
 20
3829.250858255991
 30
0.0
 10
6209.384443838662
 20
3829.003683411129
 30
0.0
 10
6213.077648624433
 20
3829.00034333853
 30
0.0
 10
6214.311730427163
 20
3829.061038252392
 30
0.0
 10
6216.167473362445
 20
3829.246842407308
 30
0.0
 10
6216.787765180337
 20
3829.324833794432
 30
0.0
 10
6218.016095950066
 20
3829.510825902738
 30
0.0
 10
6218.625752858145
 20
3829.618937643271
 30
0.0
 10
6221.651880752082
 20
3830.233781505856
 30
0.0
 10
6224.002270423556
 20
3830.962066154679
 30
0.0
 10
6226.852786803442
 20
3832.1656872689
 30
0.0
 10
6227.418478154179
 20
3832.421203467269
 30
0.0
 10
6228.540866342634
 20
3832.962391999738
 30
0.0
 10
6229.095358847908
 20
3833.24707621594
 30
0.0
 10
6230.72831182476
 20
3834.137319286349
 30
0.0
 10
6231.780694830448
 20
3834.781204789432
 30
0.0
 10
6233.815181249854
 20
3836.166663282388
 30
0.0
 10
6234.797311833137
 20
3836.908198507006
 30
0.0
 10
6236.691123684976
 20
3838.489192354901
 30
0.0
 10
6237.604009140153
 20
3839.329892444519
 30
0.0
 10
6240.225205967268
 20
3841.997142260625
 30
0.0
 10
6241.770611923365
 20
3843.917690395596
 30
0.0
 10
6243.798967806349
 20
3847.002688522015
 30
0.0
 10
6244.426146917857
 20
3848.065506703498
 30
0.0
 10
6245.292360437352
 20
3849.712269630206
 30
0.0
 10
6245.569304869984
 20
3850.271405611327
 30
0.0
 10
6246.094368196194
 20
3851.400236653852
 30
0.0
 10
6246.342101692853
 20
3851.968888360973
 30
0.0
 10
6247.508151260097
 20
3854.832934809064
 30
0.0
 10
6248.210766058437
 20
3857.190077110615
 30
0.0
 10
6248.800984882527
 20
3860.218963308273
 30
0.0
 10
6248.904492284529
 20
3860.828901788646
 30
0.0
 10
6249.08189100143
 20
3862.057256776032
 30
0.0
 10
6249.155874356354
 20
3862.676849271614
 30
0.0
 10
6249.331344588084
 20
3864.53837791526
 30
0.0
 10
6249.386725509699
 20
3865.78262300937
 30
0.0
 10
6249.380100018785
 20
3867.030115426132
 30
0.0
  0
SPLINE
  5
15C
330
1F
100
AcDbEntity
  8
0
  6
Continuous
 62
     7
370
    25
100
AcDbSpline
210
0.0
220
0.0
230
1.0
 70
     8
 71
     3
 72
    16
 73
    12
 74
     0
 42
0.00000001
 43
0.00000001
 40
0.0
 40
0.0
 40
0.0
 40
0.0
 40
0.1249999999999979
 40
0.1249999999999979
 40
0.2499999999999958
 40
0.2499999999999958
 40
0.4999999999999972
 40
0.4999999999999972
 40
0.7499999999999987
 40
0.7499999999999987
 40
1.0
 40
1.0
 40
1.0
 40
1.0
 10
6341.323313652555
 20
3800.010653998783
 30
0.0
 10
6341.433553357642
 20
3802.451178989225
 30
0.0
 10
6341.544975524322
 20
3804.89164223517
 30
0.0
 10
6341.77251715392
 20
3809.772269121639
 30
0.0
 10
6341.889058714461
 20
3812.212407344012
 30
0.0
 10
6342.246370742615
 20
3819.532398127834
 30
0.0
 10
6342.49079631352
 20
3824.412105785499
 30
0.0
 10
6342.960600971989
 20
3834.172498020706
 30
0.0
 10
6343.182486979347
 20
3839.053346372038
 30
0.0
 10
6343.603266294899
 20
3848.816174763122
 30
0.0
 10
6343.805871030522
 20
3853.697974882606
 30
0.0
 10
6344.009908748516
 20
3858.579704871273
 30
0.0
  0
SPLINE
  5
15D
330
1F
100
AcDbEntity
  8
0
  6
Continuous
 62
     7
370
    25
100
AcDbSpline
210
0.0
220
0.0
230
1.0
 70
     8
 71
     3
 72
   103
 73
    99
 74
     0
 42
0.00000001
 43
0.00000001
 40
0.0
 40
0.0
 40
0.0
 40
0.0
 40
0.0039062500000002
 40
0.0039062500000002
 40
0.0078125000000004
 40
0.0156250000000008
 40
0.0156250000000008
 40
0.0312500000000017
 40
0.0312500000000017
 40
0.0625000000000026
 40
0.0625000000000026
 40
0.0937500000000035
 40
0.0937500000000035
 40
0.1093750000000039
 40
0.1093750000000039
 40
0.1250000000000044
 40
0.1250000000000044
 40
0.1562500000000061
 40
0.1562500000000061
 40
0.1875000000000078
 40
0.1875000000000078
 40
0.2187500000000095
 40
0.2187500000000095
 40
0.23437500000001
 40
0.23437500000001
 40
0.2500000000000105
 40
0.2500000000000105
 40
0.2812500000000109
 40
0.2812500000000109
 40
0.3125000000000113
 40
0.3125000000000113
 40
0.3281250000000113
 40
0.3281250000000113
 40
0.3437500000000113
 40
0.3437500000000113
 40
0.3750000000000112
 40
0.3750000000000112
 40
0.406250000000011
 40
0.406250000000011
 40
0.4375000000000109
 40
0.4375000000000109
 40
0.4453125000000109
 40
0.4453125000000109
 40
0.4531250000000108
 40
0.4531250000000108
 40
0.4687500000000107
 40
0.4687500000000107
 40
0.5000000000000105
 40
0.5000000000000105
 40
0.5312500000000104
 40
0.5312500000000104
 40
0.5468750000000104
 40
0.5468750000000104
 40
0.5546875000000103
 40
0.5546875000000103
 40
0.5625000000000103
 40
0.5625000000000103
 40
0.5937500000000102
 40
0.5937500000000102
 40
0.6250000000000101
 40
0.6250000000000101
 40
0.6562500000000101
 40
0.6562500000000101
 40
0.6640625000000098
 40
0.6640625000000098
 40
0.6718750000000095
 40
0.6718750000000095
 40
0.6875000000000087
 40
0.6875000000000087
 40
0.7187500000000072
 40
0.7187500000000072
 40
0.7500000000000058
 40
0.7500000000000058
 40
0.7656250000000054
 40
0.7656250000000054
 40
0.7734375000000051
 40
0.7734375000000051
 40
0.7812500000000049
 40
0.7812500000000049
 40
0.8125000000000042
 40
0.8125000000000042
 40
0.8750000000000029
 40
0.8750000000000029
 40
0.8906250000000026
 40
0.8906250000000026
 40
0.9062500000000022
 40
0.9062500000000022
 40
0.9375000000000016
 40
0.9375000000000016
 40
0.9687500000000009
 40
0.9687500000000009
 40
0.9843750000000004
 40
0.9843750000000004
 40
0.9921875000000003
 40
0.9921875000000003
 40
0.9960937500000002
 40
0.9960937500000002
 40
1.0
 40
1.0
 40
1.0
 40
1.0
 10
6082.436332660793
 20
3800.010630706979
 30
0.0
 10
6082.459816072674
 20
3799.490814716808
 30
0.0
 10
6082.4838838982
 20
3798.971132825997
 30
0.0
 10
6082.540406936434
 20
3797.93363976811
 30
0.0
 10
6082.634416827074
 20
3796.379457128048
 30
0.0
 10
6082.755961054741
 20
3794.831413723069
 30
0.0
 10
6083.035434975249
 20
3791.743439611647
 30
0.0
 10
6083.27024947382
 20
3789.695603699857
 30
0.0
 10
6084.118162492773
 20
3783.584084452094
 30
0.0
 10
6084.874434539148
 20
3779.552323522225
 30
0.0
 10
6086.764146761451
 20
3771.572895463011
 30
0.0
 10
6087.897699646249
 20
3767.625253513306
 30
0.0
 10
6089.887087905265
 20
3761.768239076537
 30
0.0
 10
6090.598479571981
 20
3759.826661465274
 30
0.0
 10
6092.119751891504
 20
3755.965465236044
 30
0.0
 10
6092.931132205161
 20
3754.043067416751
 30
0.0
 10
6095.486764693785
 20
3748.370989888631
 30
0.0
 10
6097.359187699022
 20
3744.69646203777
 30
0.0
 10
6101.433467360115
 20
3737.556114063761
 30
0.0
 10
6103.635903890418
 20
3734.090661374833
 30
0.0
 10
6108.370465620141
 20
3727.368623384107
 30
0.0
 10
6110.902528484693
 20
3724.111998973179
 30
0.0
 10
6114.954704253414
 20
3719.388030299914
 30
0.0
 10
6116.350928879969
 20
3717.837257345087
 30
0.0
 10
6119.200730047075
 20
3714.821558051281
 30
0.0
 10
6120.656899276549
 20
3713.353229056942
 30
0.0
 10
6125.117209107287
 20
3709.064271657594
 30
0.0
 10
6128.213184040277
 20
3706.359713791622
 30
0.0
 10
6134.646850726673
 20
3701.256105139329
 30
0.0
 10
6137.984363535707
 20
3698.856828671286
 30
0.0
 10
6143.174609304109
 20
3695.490442598911
 30
0.0
 10
6144.935298725214
 20
3694.406998844341
 30
0.0
 10
6148.519035189059
 20
3692.318925521577
 30
0.0
 10
6150.346714736413
 20
3691.312221814954
 30
0.0
 10
6155.871153560808
 20
3688.440733416551
 30
0.0
 10
6159.619635242664
 20
3686.716226119332
 30
0.0
 10
6167.244573554005
 20
3683.637954329192
 30
0.0
 10
6171.120769298325
 20
3682.283433863154
 30
0.0
 10
6179.000964060628
 20
3679.944638302749
 30
0.0
 10
6183.004800041575
 20
3678.959890615844
 30
0.0
 10
6188.091515679897
 20
3677.966279669939
 30
0.0
 10
6189.112970165303
 20
3677.779468045992
 30
0.0
 10
6191.164173513604
 20
3677.429873534153
 30
0.0
 10
6192.192678976895
 20
3677.267336839604
 30
0.0
 10
6195.274389867209
 20
3676.818201431959
 30
0.0
 10
6197.328620758442
 20
3676.569190926417
 30
0.0
 10
6203.490595070842
 20
3675.97116977204
 30
0.0
 10
6207.597622710859
 20
3675.770634183798
 30
0.0
 10
6215.809798532636
 20
3675.759420785388
 30
0.0
 10
6219.91494645213
 20
3675.948797389818
 30
0.0
 10
6226.071240993646
 20
3676.528936164309
 30
0.0
 10
6228.123100487756
 20
3676.771826696315
 30
0.0
 10
6231.20052712403
 20
3677.211377954235
 30
0.0
 10
6232.226275517509
 20
3677.370441555414
 30
0.0
 10
6234.277649934436
 20
3677.713952080598
 30
0.0
 10
6235.303077241751
 20
3677.898410772721
 30
0.0
 10
6240.401950425035
 20
3678.879235437621
 30
0.0
 10
6244.413254904913
 20
3679.854211530649
 30
0.0
 10
6252.30457240209
 20
3682.172734099294
 30
0.0
 10
6256.184377887413
 20
3683.5168633937
 30
0.0
 10
6263.813165722543
 20
3686.57237792048
 30
0.0
 10
6267.561866073164
 20
3688.284554918487
 30
0.0
 10
6272.163961692254
 20
3690.659969078761
 30
0.0
 10
6273.08017692507
 20
3691.146853372815
 30
0.0
 10
6274.904082561232
 20
3692.14455345138
 30
0.0
 10
6275.812359744129
 20
3692.65576726064
 30
0.0
 10
6278.509831257981
 20
3694.217101492483
 30
0.0
 10
6280.27635540112
 20
3695.297312722772
 30
0.0
 10
6285.482543898761
 20
3698.653454090912
 30
0.0
 10
6288.828616310862
 20
3701.045149111081
 30
0.0
 10
6295.276111364342
 20
3706.131150520409
 30
0.0
 10
6298.37742478943
 20
3708.82559148669
 30
0.0
 10
6302.843946251109
 20
3713.096637931553
 30
0.0
 10
6304.301895055951
 20
3714.558530527986
 30
0.0
 10
6306.441589339139
 20
3716.809787564739
 30
0.0
 10
6307.146932726679
 20
3717.569963435041
 30
0.0
 10
6308.541717031755
 20
3719.109985314163
 30
0.0
 10
6309.232017044952
 20
3719.890850002273
 30
0.0
 10
6312.627372524021
 20
3723.826031911271
 30
0.0
 10
6315.171786817093
 20
3727.08001060049
 30
0.0
 10
6322.305675549515
 20
3737.149437298667
 30
0.0
 10
6326.398553136894
 20
3744.270677499112
 30
0.0
 10
6330.675300235015
 20
3753.689084235732
 30
0.0
 10
6331.488808984898
 20
3755.599997488794
 30
0.0
 10
6333.027037634658
 20
3759.470248815351
 30
0.0
 10
6333.749606373247
 20
3761.424400012218
 30
0.0
 10
6335.772472953069
 20
3767.328156536116
 30
0.0
 10
6336.92965856398
 20
3771.321894281452
 30
0.0
 10
6338.86131463234
 20
3779.424527320381
 30
0.0
 10
6339.628793508089
 20
3783.503456778084
 30
0.0
 10
6340.485689318622
 20
3789.662825121462
 30
0.0
 10
6340.722186472697
 20
3791.722788223745
 30
0.0
 10
6341.003054154776
 20
3794.823017924588
 30
0.0
 10
6341.084359938028
 20
3795.858142524395
 30
0.0
 10
6341.187786436124
 20
3797.413409423984
 30
0.0
 10
6341.219172985709
 20
3797.932261759169
 30
0.0
 10
6341.27575549777
 20
3798.970828269193
 30
0.0
 10
6341.299827039841
 20
3799.490699185572
 30
0.0
 10
6341.323313652555
 20
3800.010653998783
 30
0.0
  0
SPLINE
  5
15E
330
1F
100
AcDbEntity
  8
0
  6
Continuous
 62
     7
370
    25
100
AcDbSpline
210
0.0
220
0.0
230
1.0
 70
     8
 71
     3
 72
    16
 73
    12
 74
     0
 42
0.00000001
 43
0.00000001
 40
0.0
 40
0.0
 40
0.0
 40
0.0
 40
0.2500000000000014
 40
0.2500000000000014
 40
0.5000000000000029
 40
0.5000000000000029
 40
0.7500000000000043
 40
0.7500000000000043
 40
0.8750000000000021
 40
0.8750000000000021
 40
1.0
 40
1.0
 40
1.0
 40
1.0
 10
6079.750569749041
 20
3858.579717061195
 30
0.0
 10
6079.954468181195
 20
3853.697933162663
 30
0.0
 10
6080.156894737534
 20
3848.81608510798
 30
0.0
 10
6080.577309232563
 20
3839.053058561719
 30
0.0
 10
6080.799044648412
 20
3834.172033468361
 30
0.0
 10
6081.268724012229
 20
3824.411635046519
 30
0.0
 10
6081.513160481005
 20
3819.532021807735
 30
0.0
 10
6081.870512770902
 20
3812.212143688805
 30
0.0
 10
6081.987071793477
 20
3809.772046925314
 30
0.0
 10
6082.2146445689
 20
3804.891517582782
 30
0.0
 10
6082.326080558257
 20
3802.451111082601
 30
0.0
 10
6082.436332660793
 20
3800.010630706979
 30
0.0
  0
SPLINE
  5
15F
330
1F
100
AcDbEntity
  8
0
  6
Continuous
 62
     7
370
    25
100
AcDbSpline
210
0.0
220
0.0
230
1.0
 70
     8
 71
     3
 72
   110
 73
   106
 74
     0
 42
0.00000001
 43
0.00000001
 40
0.0
 40
0.0
 40
0.0
 40
0.0
 40
0.0078124999999997
 40
0.0078124999999997
 40
0.0156249999999993
 40
0.0156249999999993
 40
0.0312499999999994
 40
0.0312499999999994
 40
0.0468749999999995
 40
0.0468749999999995
 40
0.0546874999999996
 40
0.0546874999999996
 40
0.0624999999999996
 40
0.0624999999999996
 40
0.0937500000000014
 40
0.0937500000000014
 40
0.1250000000000032
 40
0.1250000000000032
 40
0.1562500000000049
 40
0.1562500000000049
 40
0.1718750000000054
 40
0.1718750000000054
 40
0.1875000000000059
 40
0.1875000000000059
 40
0.2187500000000069
 40
0.2187500000000069
 40
0.2500000000000079
 40
0.2500000000000079
 40
0.2656250000000084
 40
0.2656250000000084
 40
0.2734375000000087
 40
0.2734375000000087
 40
0.2812500000000089
 40
0.2812500000000089
 40
0.3125000000000095
 40
0.3125000000000095
 40
0.34375000000001
 40
0.34375000000001
 40
0.3593750000000105
 40
0.3593750000000105
 40
0.3671875000000108
 40
0.3671875000000108
 40
0.375000000000011
 40
0.375000000000011
 40
0.4062500000000115
 40
0.4062500000000115
 40
0.4375000000000122
 40
0.4375000000000122
 40
0.4687500000000127
 40
0.4687500000000127
 40
0.484375000000013
 40
0.484375000000013
 40
0.5000000000000133
 40
0.5000000000000133
 40
0.531250000000014
 40
0.531250000000014
 40
0.5625000000000145
 40
0.5625000000000145
 40
0.578125000000015
 40
0.578125000000015
 40
0.5859375000000151
 40
0.5859375000000151
 40
0.5937500000000152
 40
0.5937500000000152
 40
0.6250000000000153
 40
0.6250000000000153
 40
0.6562500000000154
 40
0.6562500000000154
 40
0.6718750000000155
 40
0.6718750000000155
 40
0.6796875000000153
 40
0.6796875000000153
 40
0.687500000000015
 40
0.687500000000015
 40
0.7187500000000134
 40
0.7187500000000134
 40
0.7500000000000119
 40
0.7500000000000119
 40
0.7812500000000103
 40
0.7812500000000103
 40
0.7890625000000099
 40
0.7890625000000099
 40
0.7968750000000094
 40
0.7968750000000094
 40
0.8125000000000085
 40
0.8125000000000085
 40
0.8437500000000069
 40
0.8437500000000069
 40
0.8750000000000052
 40
0.8750000000000052
 40
0.8906250000000048
 40
0.8906250000000048
 40
0.9062500000000043
 40
0.9062500000000043
 40
0.9218750000000039
 40
0.9218750000000039
 40
0.9375000000000033
 40
0.9375000000000033
 40
0.9687500000000024
 40
0.9687500000000024
 40
0.9843750000000016
 40
0.9843750000000016
 40
0.9921875000000008
 40
0.9921875000000008
 40
1.0
 40
1.0
 40
1.0
 40
1.0
 10
6344.009908748516
 20
3858.579704871273
 30
0.0
 10
6344.056710825019
 20
3859.699473817128
 30
0.0
 10
6344.092336724239
 20
3860.818661626801
 30
0.0
 10
6344.132011635279
 20
3863.055401527108
 30
0.0
 10
6344.137590007768
 20
3864.173032171763
 30
0.0
 10
6344.111777463901
 20
3867.523718082775
 30
0.0
 10
6344.037872466613
 20
3869.754569067188
 30
0.0
 10
6343.77703907775
 20
3874.210410910865
 30
0.0
 10
6343.590105252991
 20
3876.435401489215
 30
0.0
 10
6343.224429263263
 20
3879.768465904179
 30
0.0
 10
6343.088317156838
 20
3880.878750074677
 30
0.0
 10
6342.787481581766
 20
3883.097834933696
 30
0.0
 10
6342.622594831479
 20
3884.207459754163
 30
0.0
 10
6341.730406336907
 20
3889.728066593196
 30
0.0
 10
6340.798730721126
 20
3894.073377954329
 30
0.0
 10
6338.513805383986
 20
3902.626314883424
 30
0.0
 10
6337.159985301083
 20
3906.833754175803
 30
0.0
 10
6334.029926436234
 20
3915.110671145805
 30
0.0
 10
6332.254649773817
 20
3919.180463049931
 30
0.0
 10
6329.267104602407
 20
3925.179126969078
 30
0.0
 10
6328.214998005562
 20
3927.163849316538
 30
0.0
 10
6326.024676366632
 20
3931.053081633514
 30
0.0
 10
6324.883923193915
 20
3932.962807314963
 30
0.0
 10
6321.328339843947
 20
3938.589955595109
 30
0.0
 10
6318.780895725339
 20
3942.205892679705
 30
0.0
 10
6313.336812401001
 20
3949.170538174144
 30
0.0
 10
6310.439551921294
 20
3952.518771131782
 30
0.0
 10
6305.824158941406
 20
3957.334878467828
 30
0.0
 10
6304.24092937235
 20
3958.905990065678
 30
0.0
 10
6301.797762094571
 20
3961.210371950047
 30
0.0
 10
6300.972275297428
 20
3961.969422991103
 30
0.0
 10
6299.307915653033
 20
3963.461442625695
 30
0.0
 10
6298.46790159318
 20
3964.195508813602
 30
0.0
 10
6294.229093946776
 20
3967.806783010928
 30
0.0
 10
6290.714408758799
 20
3970.507309280975
 30
0.0
 10
6283.441558109132
 20
3975.537165795748
 30
0.0
 10
6279.684000589384
 20
3977.867422896613
 30
0.0
 10
6273.86445727843
 20
3981.083501729525
 30
0.0
 10
6271.89401702673
 20
3982.108888486594
 30
0.0
 10
6268.891720026953
 20
3983.575869152579
 30
0.0
 10
6267.883181038767
 20
3984.053011956109
 30
0.0
 10
6265.850377376322
 20
3984.983323102009
 30
0.0
 10
6264.824616190801
 20
3985.437105565732
 30
0.0
 10
6259.678003450051
 20
3987.636018941541
 30
0.0
 10
6255.505396326285
 20
3989.172643398443
 30
0.0
 10
6247.052838106324
 20
3991.814113496144
 30
0.0
 10
6242.772962047837
 20
3992.9192610407
 30
0.0
 10
6234.106172588952
 20
3994.699011408912
 30
0.0
 10
6229.719288683818
 20
3995.373732923827
 30
0.0
 10
6223.056382663308
 20
3996.053647268793
 30
0.0
 10
6220.816312927155
 20
3996.224774683963
 30
0.0
 10
6216.355638055968
 20
3996.451758347476
 30
0.0
 10
6214.130665563967
 20
3996.50833162923
 30
0.0
 10
6207.471596275149
 20
3996.509912782755
 30
0.0
 10
6203.053282250537
 20
3996.287475980829
 30
0.0
 10
6194.258207540271
 20
3995.401747965218
 30
0.0
 10
6189.881446886079
 20
3994.738456390506
 30
0.0
 10
6183.347966861458
 20
3993.407615642405
 30
0.0
 10
6181.175438599133
 20
3992.90778912888
 30
0.0
 10
6177.924725954754
 20
3992.072328068115
 30
0.0
 10
6176.841621648627
 20
3991.779252983608
 30
0.0
 10
6174.690198235158
 20
3991.167699264556
 30
0.0
 10
6173.620491600047
 20
3990.848889414547
 30
0.0
 10
6168.301715502621
 20
3989.190257452975
 30
0.0
 10
6164.141665636615
 20
3987.657233294875
 30
0.0
 10
6156.006401596725
 20
3984.190029930305
 30
0.0
 10
6152.031456212667
 20
3982.255267333859
 30
0.0
 10
6146.20867172195
 20
3979.050071771587
 30
0.0
 10
6144.291081166267
 20
3977.931022826994
 30
0.0
 10
6141.450153910503
 20
3976.175492385919
 30
0.0
 10
6140.509088514425
 20
3975.577488116291
 30
0.0
 10
6138.638903172433
 20
3974.355553941022
 30
0.0
 10
6137.70888397968
 20
3973.731000568804
 30
0.0
 10
6133.099310712855
 20
3970.549577333942
 30
0.0
 10
6129.572287223577
 20
3967.838487672422
 30
0.0
 10
6122.826345265449
 20
3962.098007041634
 30
0.0
 10
6119.607454926823
 20
3959.068587027148
 30
0.0
 10
6113.477291332426
 20
3952.691949822785
 30
0.0
 10
6110.566947213136
 20
3949.343772752308
 30
0.0
 10
6107.126364714359
 20
3944.954672795845
 30
0.0
 10
6106.448119109259
 20
3944.066655247148
 30
0.0
 10
6105.111562838462
 20
3942.270025494975
 30
0.0
 10
6104.453767469153
 20
3941.36202786447
 30
0.0
 10
6102.521350702405
 20
3938.622565314365
 30
0.0
 10
6101.283976654525
 20
3936.770764729564
 30
0.0
 10
6097.722284243619
 20
3931.140028953487
 30
0.0
 10
6095.548962538764
 20
3927.285475828241
 30
0.0
 10
6091.598178626377
 20
3919.378126278834
 30
0.0
 10
6089.819921312101
 20
3915.325728033618
 30
0.0
 10
6087.452793343895
 20
3909.096763810901
 30
0.0
 10
6086.713975085911
 20
3906.995290417738
 30
0.0
 10
6085.339303711487
 20
3902.740779495808
 30
0.0
 10
6084.70356469231
 20
3900.587561550802
 30
0.0
 10
6083.544273934242
 20
3896.257998240941
 30
0.0
 10
6083.019488389739
 20
3894.077338697347
 30
0.0
 10
6082.083778250118
 20
3889.705620071418
 30
0.0
 10
6081.672147844075
 20
3887.512160692444
 30
0.0
 10
6080.605031547845
 20
3880.909103906921
 30
0.0
 10
6080.117355256883
 20
3876.47682315682
 30
0.0
 10
6079.7238426503
 20
3869.782713367892
 30
0.0
 10
6079.649115070705
 20
3867.541015035183
 30
0.0
 10
6079.622923739933
 20
3864.179997174754
 30
0.0
 10
6079.628469223258
 20
3863.05977594496
 30
0.0
 10
6079.668134794333
 20
3860.819569797574
 30
0.0
 10
6079.703795430344
 20
3859.699598727124
 30
0.0
 10
6079.750569749041
 20
3858.579717061195
 30
0.0
  0
LINE
  5
160
330
1F
100
AcDbEntity
  8
0
  6
Continuous
 62
     7
370
    25
100
AcDbLine
 10
6079.750569749
 20
3858.5797170612
 30
0.0
 11
6077.7739863003
 21
3858.4975088844
 31
0.0
  0
LINE
  5
161
330
1F
100
AcDbEntity
  8
0
  6
Continuous
 62
     7
370
    25
100
AcDbLine
 10
6344.0099087485
 20
3858.5797048713
 30
0.0
 11
6345.9865441437
 21
3858.4974250035
 31
0.0
  0
LINE
  5
162
330
1F
100
AcDbEntity
  8
0
  6
Continuous
 62
     7
370
    25
100
AcDbLine
 10
6080.5291020197
 20
3799.9212899101
 30
0.0
 11
6082.4363326608
 21
3800.010630707
 31
0.0
  0
LINE
  5
163
330
1F
100
AcDbEntity
  8
0
  6
Continuous
 62
     7
370
    25
100
AcDbLine
 10
6343.2302010685
 20
3799.9213355943
 30
0.0
 11
6341.3233136526
 21
3800.0106539988
 31
0.0
  0
SPLINE
  5
164
330
1F
100
AcDbEntity
  8
0
  6
Continuous
 62
     7
370
    25
100
AcDbSpline
210
0.0
220
0.0
230
1.0
 70
     8
 71
     3
 72
    46
 73
    42
 74
     0
 42
0.00000001
 43
0.00000001
 40
0.0
 40
0.0
 40
0.0
 40
0.0
 40
0.0312500000000001
 40
0.0312500000000001
 40
0.0625000000000002
 40
0.0625000000000002
 40
0.0937500000000003
 40
0.0937500000000003
 40
0.1250000000000004
 40
0.1250000000000004
 40
0.1875000000000004
 40
0.1875000000000004
 40
0.2500000000000004
 40
0.2500000000000004
 40
0.3125000000000004
 40
0.3125000000000004
 40
0.3750000000000004
 40
0.3750000000000004
 40
0.4375000000000003
 40
0.4375000000000003
 40
0.5000000000000003
 40
0.5000000000000003
 40
0.5625000000000002
 40
0.5625000000000002
 40
0.6250000000000002
 40
0.6250000000000002
 40
0.6875000000000002
 40
0.6875000000000002
 40
0.7500000000000001
 40
0.7500000000000001
 40
0.8125
 40
0.8125
 40
0.875
 40
0.875
 40
0.90625
 40
0.90625
 40
0.9375
 40
0.9375
 40
0.96875
 40
0.96875
 40
1.0
 40
1.0
 40
1.0
 40
1.0
 10
6174.380096308916
 20
3867.030118664241
 30
0.0
 10
6174.380096308993
 20
3865.467647137722
 30
0.0
 10
6174.478129587386
 20
3863.905222923706
 30
0.0
 10
6174.865720618419
 20
3860.816663180174
 30
0.0
 10
6175.155244238246
 20
3859.290614733646
 30
0.0
 10
6175.912640688053
 20
3856.308420558581
 30
0.0
 10
6176.380452307975
 20
3854.852341296387
 30
0.0
 10
6177.474079933538
 20
3852.038579827888
 30
0.0
 10
6178.099819492892
 20
3850.680935632654
 30
0.0
 10
6180.175944060432
 20
3846.788273006138
 30
0.0
 10
6181.8252079628
 20
3844.437173281375
 30
0.0
 10
6185.428135341282
 20
3840.308894224768
 30
0.0
 10
6187.38009630954
 20
3838.53063802114
 30
0.0
 10
6191.380096309463
 20
3835.53069269033
 30
0.0
 10
6193.427565063357
 20
3834.307573962159
 30
0.0
 10
6197.467459016036
 20
3832.338161549557
 30
0.0
 10
6199.460096309251
 20
3831.590764489199
 30
0.0
 10
6203.300096309143
 20
3830.470784899027
 30
0.0
 10
6205.147971632139
 20
3830.097594111919
 30
0.0
 10
6208.656468773559
 20
3829.627714664691
 30
0.0
 10
6210.317596308954
 20
3829.530802028699
 30
0.0
 10
6213.442596308878
 20
3829.530802028699
 30
0.0
 10
6215.103723844271
 20
3829.627714664691
 30
0.0
 10
6218.612220985692
 20
3830.097594111919
 30
0.0
 10
6220.460096308689
 20
3830.470784899026
 30
0.0
 10
6224.300096308581
 20
3831.590764489199
 30
0.0
 10
6226.292733601796
 20
3832.338161549557
 30
0.0
 10
6230.332627554475
 20
3834.307573962159
 30
0.0
 10
6232.38009630837
 20
3835.530692690329
 30
0.0
 10
6236.380096308291
 20
3838.53063802114
 30
0.0
 10
6238.332057276551
 20
3840.308894224768
 30
0.0
 10
6241.934984655032
 20
3844.437173281375
 30
0.0
 10
6243.584248557399
 20
3846.788273006138
 30
0.0
 10
6245.66037312494
 20
3850.680935632654
 30
0.0
 10
6246.286112684294
 20
3852.038579827888
 30
0.0
 10
6247.379740309857
 20
3854.852341296387
 30
0.0
 10
6247.847551929778
 20
3856.308420558581
 30
0.0
 10
6248.604948379586
 20
3859.290614733646
 30
0.0
 10
6248.894471999413
 20
3860.816663180175
 30
0.0
 10
6249.282063030445
 20
3863.905222923706
 30
0.0
 10
6249.38009630884
 20
3865.467647137722
 30
0.0
 10
6249.380096308916
 20
3867.030118664241
 30
0.0
  0
SPLINE
  5
165
330
1F
100
AcDbEntity
  8
0
  6
Continuous
 62
     7
370
    25
100
AcDbSpline
210
0.0
220
0.0
230
1.0
 70
     8
 71
     3
 72
    46
 73
    42
 74
     0
 42
0.00000001
 43
0.00000001
 40
0.0
 40
0.0
 40
0.0
 40
0.0
 40
0.0312499999999999
 40
0.0312499999999999
 40
0.0624999999999997
 40
0.0624999999999997
 40
0.0937499999999996
 40
0.0937499999999996
 40
0.1249999999999994
 40
0.1249999999999994
 40
0.1874999999999991
 40
0.1874999999999991
 40
0.2499999999999989
 40
0.2499999999999989
 40
0.3124999999999986
 40
0.3124999999999986
 40
0.3749999999999982
 40
0.3749999999999982
 40
0.437499999999998
 40
0.437499999999998
 40
0.4999999999999978
 40
0.4999999999999978
 40
0.5624999999999974
 40
0.5624999999999974
 40
0.6249999999999971
 40
0.6249999999999971
 40
0.6874999999999969
 40
0.6874999999999969
 40
0.7499999999999967
 40
0.7499999999999967
 40
0.8124999999999964
 40
0.8124999999999964
 40
0.8749999999999961
 40
0.8749999999999961
 40
0.9062499999999971
 40
0.9062499999999971
 40
0.9374999999999981
 40
0.9374999999999981
 40
0.968749999999999
 40
0.968749999999999
 40
1.0
 40
1.0
 40
1.0
 40
1.0
 10
6249.380096308916
 20
3867.030118664242
 30
0.0
 10
6249.380096308993
 20
3868.592590190837
 30
0.0
 10
6249.28206303074
 20
3870.155014404943
 30
0.0
 10
6248.894471999969
 20
3873.243574148679
 30
0.0
 10
6248.604948380258
 20
3874.76962259532
 30
0.0
 10
6247.847551930657
 20
3877.751816770625
 30
0.0
 10
6247.379740310823
 20
3879.207896032947
 30
0.0
 10
6246.286112685407
 20
3882.021657501707
 30
0.0
 10
6245.66037312611
 20
3883.379301697074
 30
0.0
 10
6243.584248558702
 20
3887.271964323991
 30
0.0
 10
6241.934984656363
 20
3889.623064049017
 30
0.0
 10
6238.332057277854
 20
3893.7513431061
 30
0.0
 10
6236.380096309539
 20
3895.529599309942
 30
0.0
 10
6232.380096309462
 20
3898.529544641112
 30
0.0
 10
6230.332627555467
 20
3899.752663369431
 30
0.0
 10
6226.292733602577
 20
3901.722075782267
 30
0.0
 10
6224.30009630925
 20
3902.469472842713
 30
0.0
 10
6220.460096309143
 20
3903.589452433013
 30
0.0
 10
6218.612220986043
 20
3903.962643220161
 30
0.0
 10
6215.103723844434
 20
3904.432522667439
 30
0.0
 10
6213.442596308954
 20
3904.52943530344
 30
0.0
 10
6210.317596308878
 20
3904.52943530344
 30
0.0
 10
6208.656468773397
 20
3904.43252266744
 30
0.0
 10
6205.147971631788
 20
3903.962643220161
 30
0.0
 10
6203.300096308689
 20
3903.589452433013
 30
0.0
 10
6199.46009630858
 20
3902.469472842713
 30
0.0
 10
6197.467459015254
 20
3901.722075782267
 30
0.0
 10
6193.427565062365
 20
3899.752663369431
 30
0.0
 10
6191.38009630837
 20
3898.529544641112
 30
0.0
 10
6187.380096308291
 20
3895.529599309942
 30
0.0
 10
6185.428135339977
 20
3893.751343106099
 30
0.0
 10
6181.825207961469
 20
3889.623064049017
 30
0.0
 10
6180.17594405913
 20
3887.271964323991
 30
0.0
 10
6178.099819491721
 20
3883.379301697074
 30
0.0
 10
6177.474079932425
 20
3882.021657501706
 30
0.0
 10
6176.380452307008
 20
3879.207896032947
 30
0.0
 10
6175.912640687175
 20
3877.751816770625
 30
0.0
 10
6175.155244237573
 20
3874.76962259532
 30
0.0
 10
6174.865720617863
 20
3873.243574148679
 30
0.0
 10
6174.478129587092
 20
3870.155014404942
 30
0.0
 10
6174.38009630884
 20
3868.592590190836
 30
0.0
 10
6174.380096308916
 20
3867.030118664241
 30
0.0
  0
LINE
  5
166
330
1F
100
AcDbEntity
  8
0
  6
Continuous
 62
     7
370
    25
100
AcDbLine
 10
6174.3800963089
 20
3867.0301186642
 30
0.0
 11
6249.3800963089
 21
3867.0301186642
 31
0.0
  0
SPLINE
  5
167
330
1F
100
AcDbEntity
  8
0
  6
Continuous
 62
     7
370
    25
100
AcDbSpline
210
0.0
220
0.0
230
1.0
 70
     8
 71
     3
 72
    14
 73
    10
 74
     0
 42
0.00000001
 43
0.00000001
 40
0.0
 40
0.0
 40
0.0
 40
0.0
 40
0.0032636362342947
 40
0.0566709433505653
 40
0.2813306995856329
 40
0.4902849439640435
 40
0.6865118540242291
 40
0.8787896708032429
 40
1.0
 40
1.0
 40
1.0
 40
1.0
 10
6034.381471993865
 20
4074.852290778904
 30
0.0
 10
6034.378196324739
 20
4074.853647605361
 30
0.0
 10
6034.321316437969
 20
4074.877208023799
 30
0.0
 10
6034.039064518143
 20
4074.99412058739
 30
0.0
 10
6033.554975022881
 20
4075.194637004486
 30
0.0
 10
6033.005297904389
 20
4075.4223207027
 30
0.0
 10
6032.615502785821
 20
4075.583779113665
 30
0.0
 10
6032.399322956971
 20
4075.673323723108
 30
0.0
 10
6032.403066570168
 20
4075.671773067881
 30
0.0
 10
6032.404514039854
 20
4075.671173506357
 30
0.0
  0
SPLINE
  5
168
330
1F
100
AcDbEntity
  8
0
  6
Continuous
 62
     7
370
    25
100
AcDbSpline
210
0.0
220
0.0
230
1.0
 70
     8
 71
     3
 72
    12
 73
     8
 74
     0
 42
0.00000001
 43
0.00000001
 40
0.0
 40
0.0
 40
0.0
 40
0.0
 40
0.1406738833957161
 40
0.3554540420652546
 40
0.5702185564270191
 40
0.7849351621741938
 40
1.0
 40
1.0
 40
1.0
 40
1.0
 10
6084.674881854306
 20
4127.93786276741
 30
0.0
 10
6084.672770398356
 20
4127.936763290541
 30
0.0
 10
6084.667435182368
 20
4127.933985138067
 30
0.0
 10
6084.840878980456
 20
4127.748868220204
 30
0.0
 10
6085.153168310233
 20
4127.427997602415
 30
0.0
 10
6085.57696507347
 20
4127.002342690948
 30
0.0
 10
6085.898200061091
 20
4126.687382214743
 30
0.0
 10
6086.058947695848
 20
4126.529774377667
 30
0.0
  0
SPLINE
  5
169
330
1F
100
AcDbEntity
  8
0
  6
Continuous
 62
     7
370
    25
100
AcDbSpline
210
0.0
220
0.0
230
1.0
 70
     8
 71
     3
 72
    14
 73
    10
 74
     0
 42
0.00000001
 43
0.00000001
 40
0.0
 40
0.0
 40
0.0
 40
0.0
 40
0.1212103291967606
 40
0.3134881459757898
 40
0.5097150560359327
 40
0.7186693004143951
 40
0.943329056649458
 40
0.9967363637535573
 40
0.9999999999999999
 40
0.9999999999999999
 40
0.9999999999999999
 40
0.9999999999999999
 10
6391.355678577981
 20
4075.671173506354
 30
0.0
 10
6391.357126047666
 20
4075.671773067878
 30
0.0
 10
6391.360869660863
 20
4075.673323723107
 30
0.0
 10
6391.144689832017
 20
4075.583779113654
 30
0.0
 10
6390.754894713433
 20
4075.422320702728
 30
0.0
 10
6390.205217595007
 20
4075.194637004355
 30
0.0
 10
6389.721128099557
 20
4074.994120587745
 30
0.0
 10
6389.43887617995
 20
4074.877208023625
 30
0.0
 10
6389.381996293112
 20
4074.853647605354
 30
0.0
 10
6389.37872062397
 20
4074.852290778902
 30
0.0
  0
SPLINE
  5
16A
330
1F
100
AcDbEntity
  8
0
  6
Continuous
 62
     7
370
    25
100
AcDbSpline
210
0.0
220
0.0
230
1.0
 70
     8
 71
     3
 72
    12
 73
     8
 74
     0
 42
0.00000001
 43
0.00000001
 40
0.0
 40
0.0
 40
0.0
 40
0.0
 40
0.2146661116584714
 40
0.4293326349485558
 40
0.6439983903306444
 40
0.8587109414934481
 40
1.0
 40
1.0
 40
1.0
 40
1.0
 10
6337.701244913365
 20
4126.529774369261
 30
0.0
 10
6337.861692704364
 20
4126.687086693317
 30
0.0
 10
6338.182588594027
 20
4127.001711643083
 30
0.0
 10
6338.606192097411
 20
4127.427154245624
 30
0.0
 10
6338.918664407343
 20
4127.748190839427
 30
0.0
 10
6339.092606893346
 20
4127.93380796778
 30
0.0
 10
6339.087327008539
 20
4127.936654449237
 30
0.0
 10
6339.085231540616
 20
4127.937784153919
 30
0.0
  0
LINE
  5
16B
330
1F
100
AcDbEntity
  8
0
  6
Continuous
 62
     7
370
    25
100
AcDbLine
 10
6034.3814719939
 20
4074.8522907789
 30
0.0
 11
6034.3814719939
 21
3838.0310952261
 31
0.0
  0
LINE
  5
16C
330
1F
100
AcDbEntity
  8
0
  6
Continuous
 62
     7
370
    25
100
AcDbLine
 10
6389.378720624
 20
3838.0310952266
 30
0.0
 11
6389.378720624
 21
4074.8522907789
 31
0.0
  0
SPLINE
  5
16D
330
1F
100
AcDbEntity
  8
0
  6
Continuous
 62
     7
370
    25
100
AcDbSpline
210
0.0
220
0.0
230
1.0
 70
     8
 71
     3
 72
    14
 73
    10
 74
     0
 42
0.00000001
 43
0.00000001
 40
0.0
 40
0.0
 40
0.0
 40
0.0
 40
0.25
 40
0.25
 40
0.5
 40
0.5
 40
0.75
 40
0.75
 40
1.0
 40
1.0
 40
1.0
 40
1.0
 10
6345.986544143736
 20
3858.497425003537
 30
0.0
 10
6345.78330054652
 20
3853.614839516213
 30
0.0
 10
6345.581690338649
 20
3848.732177168494
 30
0.0
 10
6345.15996057149
 20
3838.967723444865
 30
0.0
 10
6344.93584230654
 20
3834.086120231135
 30
0.0
 10
6344.453459336445
 20
3824.324520590761
 30
0.0
 10
6344.198533512651
 20
3819.444367050479
 30
0.0
 10
6343.696590717972
 20
3809.68368781274
 30
0.0
 10
6343.458844870956
 20
3804.802725855398
 30
0.0
 10
6343.230201068494
 20
3799.921335594327
 30
0.0
  0
SPLINE
  5
16E
330
1F
100
AcDbEntity
  8
0
  6
Continuous
 62
     7
370
    25
100
AcDbSpline
210
0.0
220
0.0
230
1.0
 70
     8
 71
     3
 72
   110
 73
   106
 74
     0
 42
0.00000001
 43
0.00000001
 40
0.0
 40
0.0
 40
0.0
 40
0.0
 40
0.0078124999999991
 40
0.0078124999999991
 40
0.0156249999999982
 40
0.0156249999999982
 40
0.0312499999999972
 40
0.0312499999999972
 40
0.062499999999996
 40
0.062499999999996
 40
0.0937499999999948
 40
0.0937499999999948
 40
0.1015624999999943
 40
0.1015624999999943
 40
0.1093749999999938
 40
0.1093749999999938
 40
0.1249999999999936
 40
0.1249999999999936
 40
0.156249999999993
 40
0.156249999999993
 40
0.1874999999999925
 40
0.1874999999999925
 40
0.2031249999999926
 40
0.2031249999999926
 40
0.2109374999999923
 40
0.2109374999999923
 40
0.2187499999999919
 40
0.2187499999999919
 40
0.2499999999999912
 40
0.2499999999999912
 40
0.2812499999999904
 40
0.2812499999999904
 40
0.3124999999999897
 40
0.3124999999999897
 40
0.3203124999999895
 40
0.3203124999999895
 40
0.3281249999999892
 40
0.3281249999999892
 40
0.3437499999999891
 40
0.3437499999999891
 40
0.3749999999999886
 40
0.3749999999999886
 40
0.4062499999999881
 40
0.4062499999999881
 40
0.4140624999999881
 40
0.4140624999999881
 40
0.4218749999999881
 40
0.4218749999999881
 40
0.4374999999999881
 40
0.4374999999999881
 40
0.4687499999999881
 40
0.4687499999999881
 40
0.4999999999999882
 40
0.4999999999999882
 40
0.5156249999999882
 40
0.5156249999999882
 40
0.5312499999999882
 40
0.5312499999999882
 40
0.5624999999999883
 40
0.5624999999999883
 40
0.5937499999999886
 40
0.5937499999999886
 40
0.6249999999999887
 40
0.6249999999999887
 40
0.6328124999999889
 40
0.6328124999999889
 40
0.6406249999999891
 40
0.6406249999999891
 40
0.6562499999999892
 40
0.6562499999999892
 40
0.6874999999999897
 40
0.6874999999999897
 40
0.7187499999999902
 40
0.7187499999999902
 40
0.72656249999999
 40
0.72656249999999
 40
0.7343749999999898
 40
0.7343749999999898
 40
0.74999999999999
 40
0.74999999999999
 40
0.7812499999999905
 40
0.7812499999999905
 40
0.8124999999999909
 40
0.8124999999999909
 40
0.8281249999999916
 40
0.8281249999999916
 40
0.8437499999999921
 40
0.8437499999999921
 40
0.874999999999994
 40
0.874999999999994
 40
0.9062499999999959
 40
0.9062499999999959
 40
0.9374999999999978
 40
0.9374999999999978
 40
0.9453124999999978
 40
0.9453124999999978
 40
0.9531249999999977
 40
0.9531249999999977
 40
0.9687499999999982
 40
0.9687499999999982
 40
0.9843749999999988
 40
0.9843749999999988
 40
0.9921874999999994
 40
0.9921874999999994
 40
1.0
 40
1.0
 40
1.0
 40
1.0
 10
6077.773986300332
 20
3858.497508884438
 30
0.0
 10
6077.72668720146
 20
3859.634751183892
 30
0.0
 10
6077.690199468859
 20
3860.770622512181
 30
0.0
 10
6077.649809872564
 20
3863.038233009551
 30
0.0
 10
6077.644083933256
 20
3864.17020348659
 30
0.0
 10
6077.669829648688
 20
3867.560671856667
 30
0.0
 10
6077.744190403427
 20
3869.813731055097
 30
0.0
 10
6078.136343211431
 20
3876.5514690992
 30
0.0
 10
6078.622900801806
 20
3881.014747071071
 30
0.0
 10
6080.044030180088
 20
3889.884491088238
 30
0.0
 10
6080.97794823329
 20
3894.291040032531
 30
0.0
 10
6082.431154651606
 20
3899.76298327329
 30
0.0
 10
6082.736135362376
 20
3900.855553562818
 30
0.0
 10
6083.375135690455
 20
3903.037011766994
 30
0.0
 10
6083.709394623045
 20
3904.126499628179
 30
0.0
 10
6084.750142164793
 20
3907.37076747214
 30
0.0
 10
6085.496347842419
 20
3909.507383834821
 30
0.0
 10
6087.888284786
 20
3915.840450382203
 30
0.0
 10
6089.686553704277
 20
3919.960509780882
 30
0.0
 10
6093.683751814126
 20
3927.99997809792
 30
0.0
 10
6095.883426890955
 20
3931.919013477287
 30
0.0
 10
6099.489513738047
 20
3937.644034312238
 30
0.0
 10
6100.742492017636
 20
3939.526859189278
 30
0.0
 10
6102.699503645172
 20
3942.312262401114
 30
0.0
 10
6103.365561573452
 20
3943.235304857183
 30
0.0
 10
6104.72012856026
 20
3945.063247741106
 30
0.0
 10
6105.407551483606
 20
3945.966745101321
 30
0.0
 10
6108.894857447911
 20
3950.432383989773
 30
0.0
 10
6111.845206022163
 20
3953.839093870968
 30
0.0
 10
6118.060562148927
 20
3960.327469337972
 30
0.0
 10
6121.324620045961
 20
3963.410115922629
 30
0.0
 10
6128.165839750689
 20
3969.251971189154
 30
0.0
 10
6131.742945135083
 20
3972.011238156572
 30
0.0
 10
6136.41824866862
 20
3975.249669625277
 30
0.0
 10
6137.362305880723
 20
3975.885952417333
 30
0.0
 10
6139.260263226029
 20
3977.130535503191
 30
0.0
 10
6140.215318228484
 20
3977.739642011773
 30
0.0
 10
6143.098517629677
 20
3979.527828687636
 30
0.0
 10
6145.044691514307
 20
3980.667786654761
 30
0.0
 10
6150.954411624483
 20
3983.933166951948
 30
0.0
 10
6154.988883598217
 20
3985.904687427394
 30
0.0
 10
6163.246254448551
 20
3989.438860646176
 30
0.0
 10
6167.468892748316
 20
3991.002078815453
 30
0.0
 10
6172.86780206793
 20
3992.694386627552
 30
0.0
 10
6173.953632195949
 20
3993.019724055431
 30
0.0
 10
6176.137496399394
 20
3993.643917553044
 30
0.0
 10
6177.237075314212
 20
3993.943153047092
 30
0.0
 10
6180.538372305145
 20
3994.796637338712
 30
0.0
 10
6182.74471762224
 20
3995.307497412516
 30
0.0
 10
6189.379921950025
 20
3996.668591079078
 30
0.0
 10
6193.824867053669
 20
3997.348210840444
 30
0.0
 10
6202.757009847141
 20
3998.259307011304
 30
0.0
 10
6207.244213254881
 20
3998.490722774953
 30
0.0
 10
6214.007141453049
 20
3998.497139519779
 30
0.0
 10
6216.266822583151
 20
3998.442304279443
 30
0.0
 10
6220.797092315273
 20
3998.216945944628
 30
0.0
 10
6223.072596768579
 20
3998.045674035077
 30
0.0
 10
6229.842055170943
 20
3997.362341407713
 30
0.0
 10
6234.299007858607
 20
3996.681513182267
 30
0.0
 10
6243.104131147311
 20
3994.882408217211
 30
0.0
 10
6247.452260915287
 20
3993.763967274441
 30
0.0
 10
6256.039556596058
 20
3991.088905923637
 30
0.0
 10
6260.278638907236
 20
3989.531949326039
 30
0.0
 10
6265.507222880359
 20
3987.303179179299
 30
0.0
 10
6266.54963450432
 20
3986.843066550764
 30
0.0
 10
6268.615439630235
 20
3985.899693262511
 30
0.0
 10
6269.640345689216
 20
3985.415817409726
 30
0.0
 10
6272.691350619864
 20
3983.928043341851
 30
0.0
 10
6274.693738675207
 20
3982.888002321288
 30
0.0
 10
6280.607591801505
 20
3979.62564363552
 30
0.0
 10
6284.425979572341
 20
3977.26144663955
 30
0.0
 10
6291.816527184584
 20
3972.157723176308
 30
0.0
 10
6295.388077876061
 20
3969.417268171313
 30
0.0
 10
6299.695455805847
 20
3965.752289491093
 30
0.0
 10
6300.549058474597
 20
3965.007292931828
 30
0.0
 10
6302.2403431012
 20
3963.493031599627
 30
0.0
 10
6303.079154296835
 20
3962.722683689894
 30
0.0
 10
6305.562399604761
 20
3960.383349430257
 30
0.0
 10
6307.171588717878
 20
3958.788356543604
 30
0.0
 10
6311.862652093982
 20
3953.898919106817
 30
0.0
 10
6314.807422604852
 20
3950.499556795292
 30
0.0
 10
6320.340776696317
 20
3943.428262422806
 30
0.0
 10
6322.929989127348
 20
3939.756811585581
 30
0.0
 10
6326.543915528622
 20
3934.04310203103
 30
0.0
 10
6327.703397322584
 20
3932.103973520965
 30
0.0
 10
6329.929713501251
 20
3928.154818668881
 30
0.0
 10
6330.999175944656
 20
3926.139407693011
 30
0.0
 10
6334.036288129119
 20
3920.047347738566
 30
0.0
 10
6335.841019906573
 20
3915.914117370656
 30
0.0
 10
6339.023036449767
 20
3907.50804874194
 30
0.0
 10
6340.399360652905
 20
3903.234896753074
 30
0.0
 10
6342.722315490353
 20
3894.548251137453
 30
0.0
 10
6343.669515294831
 20
3890.134943406599
 30
0.0
 10
6344.57656290925
 20
3884.527853777144
 30
0.0
 10
6344.744198765899
 20
3883.400820975446
 30
0.0
 10
6345.050054016616
 20
3881.146869397058
 30
0.0
 10
6345.188435962804
 20
3880.019140102075
 30
0.0
 10
6345.560202954459
 20
3876.633705074736
 30
0.0
 10
6345.750239967258
 20
3874.373753796252
 30
0.0
 10
6346.015359664807
 20
3869.847896292071
 30
0.0
 10
6346.090448126476
 20
3867.581990365635
 30
0.0
 10
6346.116576000131
 20
3864.178650290813
 30
0.0
 10
6346.110859262933
 20
3863.043456291651
 30
0.0
 10
6346.070415410765
 20
3860.771565476765
 30
0.0
 10
6346.033887745595
 20
3859.634775387637
 30
0.0
 10
6345.986544143736
 20
3858.497425003537
 30
0.0
  0
SPLINE
  5
16F
330
1F
100
AcDbEntity
  8
0
  6
Continuous
 62
     7
370
    25
100
AcDbSpline
210
0.0
220
0.0
230
1.0
 70
     8
 71
     3
 72
    14
 73
    10
 74
     0
 42
0.00000001
 43
0.00000001
 40
0.0
 40
0.0
 40
0.0
 40
0.0
 40
0.25
 40
0.25
 40
0.5
 40
0.5
 40
0.75
 40
0.75
 40
1.0
 40
1.0
 40
1.0
 40
1.0
 10
6080.529102019702
 20
3799.921289910113
 30
0.0
 10
6080.30044180932
 20
3804.8026853637
 30
0.0
 10
6080.062676751398
 20
3809.683652573384
 30
0.0
 10
6079.560747856774
 20
3819.444345333739
 30
0.0
 10
6079.30584802901
 20
3824.32450661442
 30
0.0
 10
6078.823667787036
 20
3834.086128247008
 30
0.0
 10
6078.599743098105
 20
3838.967746434493
 30
0.0
 10
6078.178455633965
 20
3848.732232141484
 30
0.0
 10
6077.977058707575
 20
3853.614909915842
 30
0.0
 10
6077.773986300332
 20
3858.497508884438
 30
0.0
  0
SPLINE
  5
170
330
1F
100
AcDbEntity
  8
0
  6
Continuous
 62
     7
370
    25
100
AcDbSpline
210
0.0
220
0.0
230
1.0
 70
     8
 71
     3
 72
   105
 73
   101
 74
     0
 42
0.00000001
 43
0.00000001
 40
0.0
 40
0.0
 40
0.0
 40
0.0
 40
0.00390625
 40
0.00390625
 40
0.0078124999999999
 40
0.0156250000000006
 40
0.0156250000000006
 40
0.0312500000000021
 40
0.0312500000000021
 40
0.0625000000000041
 40
0.0625000000000041
 40
0.0937500000000061
 40
0.0937500000000061
 40
0.1093750000000071
 40
0.1093750000000071
 40
0.1171875000000076
 40
0.1171875000000076
 40
0.1250000000000081
 40
0.1250000000000081
 40
0.1562500000000079
 40
0.1562500000000079
 40
0.1875000000000077
 40
0.1875000000000077
 40
0.2187500000000076
 40
0.2187500000000076
 40
0.2265625000000075
 40
0.2265625000000075
 40
0.2343750000000075
 40
0.2343750000000075
 40
0.2500000000000074
 40
0.2500000000000074
 40
0.2812500000000066
 40
0.2812500000000066
 40
0.3125000000000058
 40
0.3125000000000058
 40
0.3281250000000054
 40
0.3281250000000054
 40
0.3359375000000052
 40
0.3359375000000052
 40
0.343750000000005
 40
0.343750000000005
 40
0.3750000000000046
 40
0.3750000000000046
 40
0.4062500000000041
 40
0.4062500000000041
 40
0.4375000000000037
 40
0.4375000000000037
 40
0.4453125000000034
 40
0.4453125000000034
 40
0.4531250000000032
 40
0.4531250000000032
 40
0.4687500000000027
 40
0.4687500000000027
 40
0.5000000000000018
 40
0.5000000000000018
 40
0.5312500000000009
 40
0.5312500000000009
 40
0.5468750000000003
 40
0.5468750000000003
 40
0.5624999999999999
 40
0.5624999999999999
 40
0.5937499999999992
 40
0.5937499999999992
 40
0.6249999999999986
 40
0.6249999999999986
 40
0.6562499999999979
 40
0.6562499999999979
 40
0.6718749999999977
 40
0.6718749999999977
 40
0.6874999999999976
 40
0.6874999999999976
 40
0.7187499999999972
 40
0.7187499999999972
 40
0.7499999999999968
 40
0.7499999999999968
 40
0.7656249999999969
 40
0.7656249999999969
 40
0.7812499999999969
 40
0.7812499999999969
 40
0.8124999999999977
 40
0.8124999999999977
 40
0.8437499999999984
 40
0.8437499999999984
 40
0.8749999999999992
 40
0.8749999999999992
 40
0.8906249999999992
 40
0.8906249999999992
 40
0.9062499999999991
 40
0.9062499999999991
 40
0.9374999999999991
 40
0.9374999999999991
 40
0.9687499999999991
 40
0.9687499999999991
 40
0.9843749999999992
 40
0.9843749999999992
 40
0.9921874999999997
 40
0.9921874999999997
 40
0.9960937499999998
 40
0.9960937499999998
 40
1.0
 40
1.0
 40
1.0
 40
1.0
 10
6343.230201068495
 20
3799.921335594326
 30
0.0
 10
6343.205475290621
 20
3799.393456990069
 30
0.0
 10
6343.180979328769
 20
3798.865528980041
 30
0.0
 10
6343.123612854745
 20
3797.811473318013
 30
0.0
 10
6343.028200883849
 20
3796.232402520466
 30
0.0
 10
6342.904833726354
 20
3794.659341519591
 30
0.0
 10
6342.621127671507
 20
3791.521167690118
 30
0.0
 10
6342.382709958128
 20
3789.439646075573
 30
0.0
 10
6341.521455208598
 20
3783.226468609128
 30
0.0
 10
6340.752901786011
 20
3779.126138817282
 30
0.0
 10
6338.830856360663
 20
3771.008233200898
 30
0.0
 10
6337.677264726305
 20
3766.990678795129
 30
0.0
 10
6335.651101683429
 20
3761.027932924243
 30
0.0
 10
6334.926329697677
 20
3759.05096758862
 30
0.0
 10
6333.763483178443
 20
3756.101791082348
 30
0.0
 10
6333.363551818346
 20
3755.122312647492
 30
0.0
 10
6332.542866585306
 20
3753.179271776676
 30
0.0
 10
6332.121624111766
 20
3752.214454333853
 30
0.0
 10
6329.961533648733
 20
3747.423500074864
 30
0.0
 10
6328.061580199281
 20
3743.696436916413
 30
0.0
 10
6323.924586863269
 20
3736.449605785528
 30
0.0
 10
6321.686973194575
 20
3732.930190667023
 30
0.0
 10
6316.87301039399
 20
3726.099669703614
 30
0.0
 10
6314.296735719467
 20
3722.788518070292
 30
0.0
 10
6310.857945954621
 20
3718.783914671048
 30
0.0
 10
6310.158504073897
 20
3717.988946613998
 30
0.0
 10
6308.744839341644
 20
3716.420740373201
 30
0.0
 10
6308.029911147079
 20
3715.646642509761
 30
0.0
 10
6305.861024884201
 20
3713.354135061181
 30
0.0
 10
6304.383017823287
 20
3711.865446504889
 30
0.0
 10
6299.854628935407
 20
3707.516005483602
 30
0.0
 10
6296.709845056286
 20
3704.771920114067
 30
0.0
 10
6290.171009387424
 20
3699.591807965464
 30
0.0
 10
6286.777126456849
 20
3697.15557250122
 30
0.0
 10
6281.495958610113
 20
3693.73645590244
 30
0.0
 10
6279.703899445524
 20
3692.635889700729
 30
0.0
 10
6276.967326628124
 20
3691.044959600699
 30
0.0
 10
6276.045771943299
 20
3690.523964115488
 30
0.0
 10
6274.194363654866
 20
3689.506695597993
 30
0.0
 10
6273.264316595326
 20
3689.01024573803
 30
0.0
 10
6268.592671183113
 20
3686.588064239191
 30
0.0
 10
6264.7870987789
 20
3684.841816955362
 30
0.0
 10
6257.042233828402
 20
3681.724485018159
 30
0.0
 10
6253.103216558187
 20
3680.352628055596
 30
0.0
 10
6245.091214541731
 20
3677.984770676262
 30
0.0
 10
6241.018417595044
 20
3676.988243372719
 30
0.0
 10
6235.841263451796
 20
3675.984307340236
 30
0.0
 10
6234.800158924897
 20
3675.795425928538
 30
0.0
 10
6232.716285065565
 20
3675.443319055795
 30
0.0
 10
6231.674285831031
 20
3675.280183125663
 30
0.0
 10
6228.548103390356
 20
3674.829076392629
 30
0.0
 10
6226.463735661458
 20
3674.579362213348
 30
0.0
 10
6220.20990378258
 20
3673.981297532112
 30
0.0
 10
6216.039713883585
 20
3673.783414687016
 30
0.0
 10
6207.697421640462
 20
3673.784151275843
 30
0.0
 10
6203.525319319609
 20
3673.982765884453
 30
0.0
 10
6197.265708717839
 20
3674.582788801206
 30
0.0
 10
6195.17892827633
 20
3674.833296056716
 30
0.0
 10
6191.004873071816
 20
3675.436796958982
 30
0.0
 10
6188.915034020293
 20
3675.790576037772
 30
0.0
 10
6182.71181011122
 20
3676.995306446858
 30
0.0
 10
6178.643054287901
 20
3677.991651661842
 30
0.0
 10
6170.635265810663
 20
3680.359924830649
 30
0.0
 10
6166.696408517799
 20
3681.732360500909
 30
0.0
 10
6158.948371650506
 20
3684.852682987755
 30
0.0
 10
6155.13945647593
 20
3686.601335311544
 30
0.0
 10
6149.526071327146
 20
3689.513804269474
 30
0.0
 10
6147.668570028787
 20
3690.535203096217
 30
0.0
 10
6144.026031071413
 20
3692.654251352158
 30
0.0
 10
6142.236510096828
 20
3693.753868712889
 30
0.0
 10
6136.961426908764
 20
3697.170770602691
 30
0.0
 10
6133.56956094356
 20
3699.606378359803
 30
0.0
 10
6127.031492696585
 20
3704.78782742735
 30
0.0
 10
6123.885464486752
 20
3707.533888562531
 30
0.0
 10
6119.353303684454
 20
3711.888981430987
 30
0.0
 10
6117.873722808395
 20
3713.380003075571
 30
0.0
 10
6114.978189307307
 20
3716.442398568749
 30
0.0
 10
6113.559411412592
 20
3718.017426657251
 30
0.0
 10
6109.441456052743
 20
3722.816016014297
 30
0.0
 10
6106.86858665839
 20
3726.124176438383
 30
0.0
 10
6102.058207975451
 20
3732.952683024591
 30
0.0
 10
6099.820774601725
 20
3736.473077218815
 30
0.0
 10
6095.682152106809
 20
3743.726610753917
 30
0.0
 10
6093.780384402587
 20
3747.45938401945
 30
0.0
 10
6091.185008387769
 20
3753.221324760538
 30
0.0
 10
6090.36102052742
 20
3755.174269315237
 30
0.0
 10
6088.816056229733
 20
3759.097249110094
 30
0.0
 10
6088.093638627329
 20
3761.069882175663
 30
0.0
 10
6086.073548969065
 20
3767.02053636227
 30
0.0
 10
6084.922691364093
 20
3771.031234861376
 30
0.0
 10
6083.004375186629
 20
3779.1379672953
 30
0.0
 10
6082.236812800247
 20
3783.233978123634
 30
0.0
 10
6081.376331566877
 20
3789.442733353307
 30
0.0
 10
6081.138052499859
 20
3791.523124053513
 30
0.0
 10
6080.85445013872
 20
3794.660139829558
 30
0.0
 10
6080.772222564552
 20
3795.708550897142
 30
0.0
 10
6080.667501276158
 20
3797.28531188047
 30
0.0
 10
6080.635697788511
 20
3797.811589663776
 30
0.0
 10
6080.578328069185
 20
3798.86553349408
 30
0.0
 10
6080.553828345784
 20
3799.393436920259
 30
0.0
 10
6080.529102019703
 20
3799.921289910113
 30
0.0
  0
SPLINE
  5
171
330
1F
100
AcDbEntity
  8
0
  6
Continuous
 62
     7
370
    25
100
AcDbSpline
210
0.0
220
0.0
230
1.0
 70
     8
 71
     3
 72
    10
 73
     6
 74
     0
 42
0.00000001
 43
0.00000001
 40
0.0
 40
0.0
 40
0.0
 40
0.0
 40
0.5
 40
0.5
 40
1.0
 40
1.0
 40
1.0
 40
1.0
 10
6385.250182149764
 20
3791.270457324316
 30
0.0
 10
6386.626237879485
 20
3799.003155843663
 30
0.0
 10
6387.656286447831
 20
3806.766403644248
 30
0.0
 10
6389.031769260082
 20
3822.353344455432
 30
0.0
 10
6389.378720623947
 20
3830.176903518156
 30
0.0
 10
6389.378720623969
 20
3838.031095226595
 30
0.0
  0
SPLINE
  5
172
330
1F
100
AcDbEntity
  8
0
  6
Continuous
 62
     7
370
    25
100
AcDbSpline
210
0.0
220
0.0
230
1.0
 70
     8
 71
     3
 72
    18
 73
    14
 74
     0
 42
0.00000001
 43
0.00000001
 40
0.0
 40
0.0
 40
0.0
 40
0.0
 40
0.1249999999999997
 40
0.1249999999999997
 40
0.2499999999999994
 40
0.2499999999999994
 40
0.4999999999999984
 40
0.4999999999999984
 40
0.7499999999999976
 40
0.7499999999999976
 40
0.8749999999999988
 40
0.8749999999999988
 40
1.0
 40
1.0
 40
1.0
 40
1.0
 10
6352.395278096854
 20
3700.111826306053
 30
0.0
 10
6354.411571614842
 20
3703.664034824387
 30
0.0
 10
6356.341423230184
 20
3707.249322758028
 30
0.0
 10
6360.042983381976
 20
3714.480416504073
 30
0.0
 10
6361.812668743373
 20
3718.126996541082
 30
0.0
 10
6366.881391240272
 20
3729.15870703109
 30
0.0
 10
6369.940381961585
 20
3736.635697968238
 30
0.0
 10
6375.421559892709
 20
3751.833370543235
 30
0.0
 10
6377.843800053948
 20
3759.554031917736
 30
0.0
 10
6380.992084979507
 20
3771.320651636351
 30
0.0
 10
6381.960608526468
 20
3775.273818682395
 30
0.0
 10
6383.733032832492
 20
3783.243150295399
 30
0.0
 10
6384.534623402821
 20
3787.249399206181
 30
0.0
 10
6385.250182149764
 20
3791.270457324316
 30
0.0
  0
SPLINE
  5
173
330
1F
100
AcDbEntity
  8
0
  6
Continuous
 62
     7
370
    25
100
AcDbSpline
210
0.0
220
0.0
230
1.0
 70
     8
 71
     3
 72
    62
 73
    58
 74
     0
 42
0.00000001
 43
0.00000001
 40
0.0
 40
0.0
 40
0.0
 40
0.0
 40
0.0624999999999989
 40
0.0624999999999989
 40
0.1249999999999978
 40
0.1249999999999978
 40
0.1562499999999972
 40
0.1562499999999972
 40
0.1718749999999972
 40
0.1718749999999972
 40
0.1874999999999973
 40
0.1874999999999973
 40
0.2499999999999973
 40
0.2499999999999973
 40
0.3124999999999973
 40
0.3124999999999973
 40
0.3281249999999973
 40
0.3281249999999973
 40
0.3437499999999973
 40
0.3437499999999973
 40
0.3749999999999973
 40
0.3749999999999973
 40
0.4374999999999973
 40
0.4374999999999973
 40
0.4687499999999973
 40
0.4687499999999973
 40
0.4843749999999973
 40
0.4843749999999973
 40
0.4999999999999972
 40
0.4999999999999972
 40
0.5624999999999972
 40
0.5624999999999972
 40
0.6249999999999972
 40
0.6249999999999972
 40
0.640624999999997
 40
0.640624999999997
 40
0.6562499999999969
 40
0.6562499999999969
 40
0.6874999999999968
 40
0.6874999999999968
 40
0.7499999999999969
 40
0.7499999999999969
 40
0.7812499999999968
 40
0.7812499999999968
 40
0.7968749999999966
 40
0.7968749999999966
 40
0.8124999999999964
 40
0.8124999999999964
 40
0.8749999999999972
 40
0.8749999999999972
 40
0.937499999999998
 40
0.937499999999998
 40
0.9531249999999982
 40
0.9531249999999982
 40
0.9687499999999986
 40
0.9687499999999986
 40
1.0
 40
1.0
 40
1.0
 40
1.0
 10
6071.364914523492
 20
3700.111826301613
 30
0.0
 10
6074.90171559096
 20
3693.880861034652
 30
0.0
 10
6078.811166396586
 20
3687.954306209072
 30
0.0
 10
6087.345850715107
 20
3676.685905756766
 30
0.0
 10
6091.97107076183
 20
3671.344049129782
 30
0.0
 10
6099.451931227438
 20
3663.77485532988
 30
0.0
 10
6102.036434410766
 20
3661.32603133677
 30
0.0
 10
6106.052698722976
 20
3657.76675801889
 30
0.0
 10
6107.41319903928
 20
3656.600872695481
 30
0.0
 10
6110.160684891331
 20
3654.324190960891
 30
0.0
 10
6111.549988455966
 20
3653.211315844506
 30
0.0
 10
6118.573476252795
 20
3647.772905412567
 30
0.0
 10
6124.43712470726
 20
3643.822899589949
 30
0.0
 10
6136.645649081361
 20
3636.710440375287
 30
0.0
 10
6142.990442702873
 20
3633.547852298316
 30
0.0
 10
6151.232688416604
 20
3630.103999179104
 30
0.0
 10
6152.898996973424
 20
3629.440101763666
 30
0.0
 10
6156.239188276178
 20
3628.173108898302
 30
0.0
 10
6157.915559886282
 20
3627.568889652771
 30
0.0
 10
6162.963239297879
 20
3625.842835213708
 30
0.0
 10
6166.353083967649
 20
3624.807474037202
 30
0.0
 10
6176.595732895068
 20
3622.042469733135
 30
0.0
 10
6183.521211871473
 20
3620.651852312279
 30
0.0
 10
6194.055773843507
 20
3619.248614905179
 30
0.0
 10
6197.591794509752
 20
3618.89516101854
 30
0.0
 10
6202.933301366532
 20
3618.539804106193
 30
0.0
 10
6204.723347383103
 20
3618.450439043332
 30
0.0
 10
6208.298250545443
 20
3618.331525669547
 30
0.0
 10
6210.081920258264
 20
3618.301881668742
 30
0.0
 10
6218.981594112025
 20
3618.300875482271
 30
0.0
 10
6226.041910383165
 20
3618.768503982641
 30
0.0
 10
6240.046485030705
 20
3620.618652054188
 30
0.0
 10
6246.99074039939
 20
3622.001195335351
 30
0.0
 10
6255.596472761024
 20
3624.317346866474
 30
0.0
 10
6257.314532096305
 20
3624.810352166488
 30
0.0
 10
6260.740313130118
 20
3625.855474588327
 30
0.0
 10
6262.439710992409
 20
3626.405027180399
 30
0.0
 10
6267.498060026787
 20
3628.133391992332
 30
0.0
 10
6270.817226682438
 20
3629.391791148769
 30
0.0
 10
6280.618313797682
 20
3633.479884709921
 30
0.0
 10
6286.944699465063
 20
3636.620718692349
 30
0.0
 10
6296.123195901024
 20
3641.954273788407
 30
0.0
 10
6299.130600707743
 20
3643.836336940811
 30
0.0
 10
6303.562276149993
 20
3646.818330950714
 30
0.0
 10
6305.02624793737
 20
3647.838841638329
 30
0.0
 10
6307.927281721798
 20
3649.933694704076
 30
0.0
 10
6309.361762319275
 20
3651.006308619221
 30
0.0
 10
6316.415190498547
 20
3656.464979102838
 30
0.0
 10
6321.716542350312
 20
3661.162841329012
 30
0.0
 10
6331.657109149975
 20
3671.200405808018
 30
0.0
 10
6336.29617433308
 20
3676.540253234814
 30
0.0
 10
6341.671973595267
 20
3683.625127276297
 30
0.0
 10
6342.725854591989
 20
3685.06272866686
 30
0.0
 10
6344.790552068247
 20
3687.979675882859
 30
0.0
 10
6345.801984315211
 20
3689.46007015072
 30
0.0
 10
6348.757342421751
 20
3693.944053931662
 30
0.0
 10
6350.626871451342
 20
3696.996332904907
 30
0.0
 10
6352.395278096854
 20
3700.111826306053
 30
0.0
  0
SPLINE
  5
174
330
1F
100
AcDbEntity
  8
0
  6
Continuous
 62
     7
370
    25
100
AcDbSpline
210
0.0
220
0.0
230
1.0
 70
     8
 71
     3
 72
    18
 73
    14
 74
     0
 42
0.00000001
 43
0.00000001
 40
0.0
 40
0.0
 40
0.0
 40
0.0
 40
0.2499999999999999
 40
0.2499999999999999
 40
0.4999999999999998
 40
0.4999999999999998
 40
0.7499999999999997
 40
0.7499999999999997
 40
0.8749999999999998
 40
0.8749999999999998
 40
0.9374999999999999
 40
0.9374999999999999
 40
1.0
 40
1.0
 40
1.0
 40
1.0
 10
6038.510010468086
 20
3791.270457324208
 30
0.0
 10
6039.941125633189
 20
3783.228354174478
 30
0.0
 10
6041.706073487727
 20
3775.29923628977
 30
0.0
 10
6045.885375005583
 20
3759.660791121255
 30
0.0
 10
6048.299783757609
 20
3751.951482482154
 30
0.0
 10
6053.774379612209
 20
3736.751428096054
 30
0.0
 10
6056.834586497207
 20
3729.260689044394
 30
0.0
 10
6061.916787756131
 20
3718.191060350413
 30
0.0
 10
6063.692908379241
 20
3714.528955038158
 30
0.0
 10
6066.482317039479
 20
3709.078180240175
 30
0.0
 10
6067.43231483608
 20
3707.269700852314
 30
0.0
 10
6069.369823327241
 20
3703.675177794537
 30
0.0
 10
6070.35684040514
 20
3701.887802585874
 30
0.0
 10
6071.364914523492
 20
3700.111826301613
 30
0.0
  0
SPLINE
  5
175
330
1F
100
AcDbEntity
  8
0
  6
Continuous
 62
     7
370
    25
100
AcDbSpline
210
0.0
220
0.0
230
1.0
 70
     8
 71
     3
 72
    12
 73
     8
 74
     0
 42
0.00000001
 43
0.00000001
 40
0.0
 40
0.0
 40
0.0
 40
0.0
 40
0.25
 40
0.25
 40
0.5
 40
0.5
 40
1.0
 40
1.0
 40
1.0
 40
1.0
 10
6034.381471993863
 20
3838.031095226123
 30
0.0
 10
6034.381471993863
 20
3834.111840656039
 30
0.0
 10
6034.468134912227
 20
3830.193193908343
 30
0.0
 10
6034.813405633433
 20
3822.365812925626
 30
0.0
 10
6035.072430658523
 20
3818.453738038022
 30
0.0
 10
6036.105742688681
 20
3806.748242779991
 30
0.0
 10
6037.136696610635
 20
3798.98774798528
 30
0.0
 10
6038.510010468086
 20
3791.270457324208
 30
0.0
  0
SPLINE
  5
176
330
1F
100
AcDbEntity
  8
0
  6
Continuous
 62
     7
370
    25
100
AcDbSpline
210
0.0
220
0.0
230
1.0
 70
     8
 71
     3
 72
    70
 73
    66
 74
     0
 42
0.00000001
 43
0.00000001
 40
0.0
 40
0.0
 40
0.0
 40
0.0
 40
0.0625000000000007
 40
0.0625000000000007
 40
0.093750000000001
 40
0.093750000000001
 40
0.1250000000000014
 40
0.1250000000000014
 40
0.1875000000000021
 40
0.1875000000000021
 40
0.2031250000000022
 40
0.2031250000000022
 40
0.2187500000000024
 40
0.2187500000000024
 40
0.2500000000000027
 40
0.2500000000000027
 40
0.3125000000000032
 40
0.3125000000000032
 40
0.3281250000000033
 40
0.3281250000000033
 40
0.3437500000000035
 40
0.3437500000000035
 40
0.3750000000000053
 40
0.3750000000000053
 40
0.406250000000007
 40
0.406250000000007
 40
0.4218750000000074
 40
0.4218750000000074
 40
0.4375000000000078
 40
0.4375000000000078
 40
0.5000000000000083
 40
0.5000000000000083
 40
0.5312500000000087
 40
0.5312500000000087
 40
0.5468750000000089
 40
0.5468750000000089
 40
0.562500000000009
 40
0.562500000000009
 40
0.6250000000000085
 40
0.6250000000000085
 40
0.6406250000000085
 40
0.6406250000000085
 40
0.6562500000000083
 40
0.6562500000000083
 40
0.6875000000000068
 40
0.6875000000000068
 40
0.7187500000000052
 40
0.7187500000000052
 40
0.7500000000000037
 40
0.7500000000000037
 40
0.8125000000000024
 40
0.8125000000000024
 40
0.8437500000000006
 40
0.8437500000000006
 40
0.8593749999999996
 40
0.8593749999999996
 40
0.8749999999999987
 40
0.8749999999999987
 40
0.9374999999999979
 40
0.9374999999999979
 40
0.9531249999999977
 40
0.9531249999999977
 40
0.9687499999999976
 40
0.9687499999999976
 40
1.0
 40
1.0
 40
1.0
 40
1.0
 10
6174.380088768413
 20
3867.030115427728
 30
0.0
 10
6174.366856069174
 20
3864.535099133683
 30
0.0
 10
6174.599954479154
 20
3862.080940558735
 30
0.0
 10
6175.300673600204
 20
3858.457933185271
 30
0.0
 10
6175.593190207016
 20
3857.260040737733
 30
0.0
 10
6176.298228101781
 20
3854.884160423775
 30
0.0
 10
6176.712888748019
 20
3853.702468710907
 30
0.0
 10
6178.111958033555
 20
3850.26219477943
 30
0.0
 10
6179.254814806042
 20
3848.083778943457
 30
0.0
 10
6180.945421299597
 20
3845.504281363784
 30
0.0
 10
6181.296750949156
 20
3844.99561633162
 30
0.0
 10
6182.026191676426
 20
3843.992955002965
 30
0.0
 10
6182.405158790189
 20
3843.49790745882
 30
0.0
 10
6183.577110536021
 20
3842.042717643408
 30
0.0
 10
6184.399707118045
 20
3841.118584378315
 30
0.0
 10
6186.988182752299
 20
3838.480599971432
 30
0.0
 10
6188.873696516803
 20
3836.89999345798
 30
0.0
 10
6191.43448210165
 20
3835.151324068402
 30
0.0
 10
6191.958352101716
 20
3834.812229765719
 30
0.0
 10
6193.020144245532
 20
3834.161977496024
 30
0.0
 10
6193.55701857152
 20
3833.851367450792
 30
0.0
 10
6195.185265831164
 20
3832.962331690997
 30
0.0
 10
6196.294181948229
 20
3832.426503433674
 30
0.0
 10
6198.558043635828
 20
3831.466613274657
 30
0.0
 10
6199.712988344891
 20
3831.04254928119
 30
0.0
 10
6201.480601072278
 20
3830.491913594767
 30
0.0
 10
6202.075686432509
 20
3830.322648594176
 30
0.0
 10
6203.277885219107
 20
3830.013324525623
 30
0.0
 10
6203.886773037338
 20
3829.872918302192
 30
0.0
 10
6206.934250072112
 20
3829.250858255991
 30
0.0
 10
6209.384443838662
 20
3829.003683411129
 30
0.0
 10
6213.077648624433
 20
3829.00034333853
 30
0.0
 10
6214.311730427163
 20
3829.061038252392
 30
0.0
 10
6216.167473362445
 20
3829.246842407308
 30
0.0
 10
6216.787765180337
 20
3829.324833794432
 30
0.0
 10
6218.016095950066
 20
3829.510825902738
 30
0.0
 10
6218.625752858145
 20
3829.618937643271
 30
0.0
 10
6221.651880752082
 20
3830.233781505856
 30
0.0
 10
6224.002270423556
 20
3830.962066154679
 30
0.0
 10
6226.852786803442
 20
3832.1656872689
 30
0.0
 10
6227.418478154179
 20
3832.421203467269
 30
0.0
 10
6228.540866342634
 20
3832.962391999738
 30
0.0
 10
6229.095358847908
 20
3833.24707621594
 30
0.0
 10
6230.72831182476
 20
3834.137319286349
 30
0.0
 10
6231.780694830448
 20
3834.781204789432
 30
0.0
 10
6233.815181249854
 20
3836.166663282388
 30
0.0
 10
6234.797311833137
 20
3836.908198507006
 30
0.0
 10
6236.691123684976
 20
3838.489192354901
 30
0.0
 10
6237.604009140153
 20
3839.329892444519
 30
0.0
 10
6240.225205967268
 20
3841.997142260625
 30
0.0
 10
6241.770611923365
 20
3843.917690395596
 30
0.0
 10
6243.798967806349
 20
3847.002688522015
 30
0.0
 10
6244.426146917857
 20
3848.065506703498
 30
0.0
 10
6245.292360437352
 20
3849.712269630206
 30
0.0
 10
6245.569304869984
 20
3850.271405611327
 30
0.0
 10
6246.094368196194
 20
3851.400236653852
 30
0.0
 10
6246.342101692853
 20
3851.968888360973
 30
0.0
 10
6247.508151260097
 20
3854.832934809064
 30
0.0
 10
6248.210766058437
 20
3857.190077110615
 30
0.0
 10
6248.800984882527
 20
3860.218963308273
 30
0.0
 10
6248.904492284529
 20
3860.828901788646
 30
0.0
 10
6249.08189100143
 20
3862.057256776032
 30
0.0
 10
6249.155874356354
 20
3862.676849271614
 30
0.0
 10
6249.331344588084
 20
3864.53837791526
 30
0.0
 10
6249.386725509699
 20
3865.78262300937
 30
0.0
 10
6249.380100018785
 20
3867.030115426132
 30
0.0
  0
SPLINE
  5
177
330
1F
100
AcDbEntity
  8
0
  6
Continuous
 62
     7
370
    25
100
AcDbSpline
210
0.0
220
0.0
230
1.0
 70
     8
 71
     3
 72
    16
 73
    12
 74
     0
 42
0.00000001
 43
0.00000001
 40
0.0
 40
0.0
 40
0.0
 40
0.0
 40
0.1249999999999979
 40
0.1249999999999979
 40
0.2499999999999958
 40
0.2499999999999958
 40
0.4999999999999972
 40
0.4999999999999972
 40
0.7499999999999987
 40
0.7499999999999987
 40
1.0
 40
1.0
 40
1.0
 40
1.0
 10
6341.323313652555
 20
3800.010653998783
 30
0.0
 10
6341.433553357642
 20
3802.451178989225
 30
0.0
 10
6341.544975524322
 20
3804.89164223517
 30
0.0
 10
6341.77251715392
 20
3809.772269121639
 30
0.0
 10
6341.889058714461
 20
3812.212407344012
 30
0.0
 10
6342.246370742615
 20
3819.532398127834
 30
0.0
 10
6342.49079631352
 20
3824.412105785499
 30
0.0
 10
6342.960600971989
 20
3834.172498020706
 30
0.0
 10
6343.182486979347
 20
3839.053346372038
 30
0.0
 10
6343.603266294899
 20
3848.816174763122
 30
0.0
 10
6343.805871030522
 20
3853.697974882606
 30
0.0
 10
6344.009908748516
 20
3858.579704871273
 30
0.0
  0
SPLINE
  5
178
330
1F
100
AcDbEntity
  8
0
  6
Continuous
 62
     7
370
    25
100
AcDbSpline
210
0.0
220
0.0
230
1.0
 70
     8
 71
     3
 72
   103
 73
    99
 74
     0
 42
0.00000001
 43
0.00000001
 40
0.0
 40
0.0
 40
0.0
 40
0.0
 40
0.0039062500000002
 40
0.0039062500000002
 40
0.0078125000000004
 40
0.0156250000000008
 40
0.0156250000000008
 40
0.0312500000000017
 40
0.0312500000000017
 40
0.0625000000000026
 40
0.0625000000000026
 40
0.0937500000000035
 40
0.0937500000000035
 40
0.1093750000000039
 40
0.1093750000000039
 40
0.1250000000000044
 40
0.1250000000000044
 40
0.1562500000000061
 40
0.1562500000000061
 40
0.1875000000000078
 40
0.1875000000000078
 40
0.2187500000000095
 40
0.2187500000000095
 40
0.23437500000001
 40
0.23437500000001
 40
0.2500000000000105
 40
0.2500000000000105
 40
0.2812500000000109
 40
0.2812500000000109
 40
0.3125000000000113
 40
0.3125000000000113
 40
0.3281250000000113
 40
0.3281250000000113
 40
0.3437500000000113
 40
0.3437500000000113
 40
0.3750000000000112
 40
0.3750000000000112
 40
0.406250000000011
 40
0.406250000000011
 40
0.4375000000000109
 40
0.4375000000000109
 40
0.4453125000000109
 40
0.4453125000000109
 40
0.4531250000000108
 40
0.4531250000000108
 40
0.4687500000000107
 40
0.4687500000000107
 40
0.5000000000000105
 40
0.5000000000000105
 40
0.5312500000000104
 40
0.5312500000000104
 40
0.5468750000000104
 40
0.5468750000000104
 40
0.5546875000000103
 40
0.5546875000000103
 40
0.5625000000000103
 40
0.5625000000000103
 40
0.5937500000000102
 40
0.5937500000000102
 40
0.6250000000000101
 40
0.6250000000000101
 40
0.6562500000000101
 40
0.6562500000000101
 40
0.6640625000000098
 40
0.6640625000000098
 40
0.6718750000000095
 40
0.6718750000000095
 40
0.6875000000000087
 40
0.6875000000000087
 40
0.7187500000000072
 40
0.7187500000000072
 40
0.7500000000000058
 40
0.7500000000000058
 40
0.7656250000000054
 40
0.7656250000000054
 40
0.7734375000000051
 40
0.7734375000000051
 40
0.7812500000000049
 40
0.7812500000000049
 40
0.8125000000000042
 40
0.8125000000000042
 40
0.8750000000000029
 40
0.8750000000000029
 40
0.8906250000000026
 40
0.8906250000000026
 40
0.9062500000000022
 40
0.9062500000000022
 40
0.9375000000000016
 40
0.9375000000000016
 40
0.9687500000000009
 40
0.9687500000000009
 40
0.9843750000000004
 40
0.9843750000000004
 40
0.9921875000000003
 40
0.9921875000000003
 40
0.9960937500000002
 40
0.9960937500000002
 40
1.0
 40
1.0
 40
1.0
 40
1.0
 10
6082.436332660793
 20
3800.010630706979
 30
0.0
 10
6082.459816072674
 20
3799.490814716808
 30
0.0
 10
6082.4838838982
 20
3798.971132825997
 30
0.0
 10
6082.540406936434
 20
3797.93363976811
 30
0.0
 10
6082.634416827074
 20
3796.379457128048
 30
0.0
 10
6082.755961054741
 20
3794.831413723069
 30
0.0
 10
6083.035434975249
 20
3791.743439611647
 30
0.0
 10
6083.27024947382
 20
3789.695603699857
 30
0.0
 10
6084.118162492773
 20
3783.584084452094
 30
0.0
 10
6084.874434539148
 20
3779.552323522225
 30
0.0
 10
6086.764146761451
 20
3771.572895463011
 30
0.0
 10
6087.897699646249
 20
3767.625253513306
 30
0.0
 10
6089.887087905265
 20
3761.768239076537
 30
0.0
 10
6090.598479571981
 20
3759.826661465274
 30
0.0
 10
6092.119751891504
 20
3755.965465236044
 30
0.0
 10
6092.931132205161
 20
3754.043067416751
 30
0.0
 10
6095.486764693785
 20
3748.370989888631
 30
0.0
 10
6097.359187699022
 20
3744.69646203777
 30
0.0
 10
6101.433467360115
 20
3737.556114063761
 30
0.0
 10
6103.635903890418
 20
3734.090661374833
 30
0.0
 10
6108.370465620141
 20
3727.368623384107
 30
0.0
 10
6110.902528484693
 20
3724.111998973179
 30
0.0
 10
6114.954704253414
 20
3719.388030299914
 30
0.0
 10
6116.350928879969
 20
3717.837257345087
 30
0.0
 10
6119.200730047075
 20
3714.821558051281
 30
0.0
 10
6120.656899276549
 20
3713.353229056942
 30
0.0
 10
6125.117209107287
 20
3709.064271657594
 30
0.0
 10
6128.213184040277
 20
3706.359713791622
 30
0.0
 10
6134.646850726673
 20
3701.256105139329
 30
0.0
 10
6137.984363535707
 20
3698.856828671286
 30
0.0
 10
6143.174609304109
 20
3695.490442598911
 30
0.0
 10
6144.935298725214
 20
3694.406998844341
 30
0.0
 10
6148.519035189059
 20
3692.318925521577
 30
0.0
 10
6150.346714736413
 20
3691.312221814954
 30
0.0
 10
6155.871153560808
 20
3688.440733416551
 30
0.0
 10
6159.619635242664
 20
3686.716226119332
 30
0.0
 10
6167.244573554005
 20
3683.637954329192
 30
0.0
 10
6171.120769298325
 20
3682.283433863154
 30
0.0
 10
6179.000964060628
 20
3679.944638302749
 30
0.0
 10
6183.004800041575
 20
3678.959890615844
 30
0.0
 10
6188.091515679897
 20
3677.966279669939
 30
0.0
 10
6189.112970165303
 20
3677.779468045992
 30
0.0
 10
6191.164173513604
 20
3677.429873534153
 30
0.0
 10
6192.192678976895
 20
3677.267336839604
 30
0.0
 10
6195.274389867209
 20
3676.818201431959
 30
0.0
 10
6197.328620758442
 20
3676.569190926417
 30
0.0
 10
6203.490595070842
 20
3675.97116977204
 30
0.0
 10
6207.597622710859
 20
3675.770634183798
 30
0.0
 10
6215.809798532636
 20
3675.759420785388
 30
0.0
 10
6219.91494645213
 20
3675.948797389818
 30
0.0
 10
6226.071240993646
 20
3676.528936164309
 30
0.0
 10
6228.123100487756
 20
3676.771826696315
 30
0.0
 10
6231.20052712403
 20
3677.211377954235
 30
0.0
 10
6232.226275517509
 20
3677.370441555414
 30
0.0
 10
6234.277649934436
 20
3677.713952080598
 30
0.0
 10
6235.303077241751
 20
3677.898410772721
 30
0.0
 10
6240.401950425035
 20
3678.879235437621
 30
0.0
 10
6244.413254904913
 20
3679.854211530649
 30
0.0
 10
6252.30457240209
 20
3682.172734099294
 30
0.0
 10
6256.184377887413
 20
3683.5168633937
 30
0.0
 10
6263.813165722543
 20
3686.57237792048
 30
0.0
 10
6267.561866073164
 20
3688.284554918487
 30
0.0
 10
6272.163961692254
 20
3690.659969078761
 30
0.0
 10
6273.08017692507
 20
3691.146853372815
 30
0.0
 10
6274.904082561232
 20
3692.14455345138
 30
0.0
 10
6275.812359744129
 20
3692.65576726064
 30
0.0
 10
6278.509831257981
 20
3694.217101492483
 30
0.0
 10
6280.27635540112
 20
3695.297312722772
 30
0.0
 10
6285.482543898761
 20
3698.653454090912
 30
0.0
 10
6288.828616310862
 20
3701.045149111081
 30
0.0
 10
6295.276111364342
 20
3706.131150520409
 30
0.0
 10
6298.37742478943
 20
3708.82559148669
 30
0.0
 10
6302.843946251109
 20
3713.096637931553
 30
0.0
 10
6304.301895055951
 20
3714.558530527986
 30
0.0
 10
6306.441589339139
 20
3716.809787564739
 30
0.0
 10
6307.146932726679
 20
3717.569963435041
 30
0.0
 10
6308.541717031755
 20
3719.109985314163
 30
0.0
 10
6309.232017044952
 20
3719.890850002273
 30
0.0
 10
6312.627372524021
 20
3723.826031911271
 30
0.0
 10
6315.171786817093
 20
3727.08001060049
 30
0.0
 10
6322.305675549515
 20
3737.149437298667
 30
0.0
 10
6326.398553136894
 20
3744.270677499112
 30
0.0
 10
6330.675300235015
 20
3753.689084235732
 30
0.0
 10
6331.488808984898
 20
3755.599997488794
 30
0.0
 10
6333.027037634658
 20
3759.470248815351
 30
0.0
 10
6333.749606373247
 20
3761.424400012218
 30
0.0
 10
6335.772472953069
 20
3767.328156536116
 30
0.0
 10
6336.92965856398
 20
3771.321894281452
 30
0.0
 10
6338.86131463234
 20
3779.424527320381
 30
0.0
 10
6339.628793508089
 20
3783.503456778084
 30
0.0
 10
6340.485689318622
 20
3789.662825121462
 30
0.0
 10
6340.722186472697
 20
3791.722788223745
 30
0.0
 10
6341.003054154776
 20
3794.823017924588
 30
0.0
 10
6341.084359938028
 20
3795.858142524395
 30
0.0
 10
6341.187786436124
 20
3797.413409423984
 30
0.0
 10
6341.219172985709
 20
3797.932261759169
 30
0.0
 10
6341.27575549777
 20
3798.970828269193
 30
0.0
 10
6341.299827039841
 20
3799.490699185572
 30
0.0
 10
6341.323313652555
 20
3800.010653998783
 30
0.0
  0
SPLINE
  5
179
330
1F
100
AcDbEntity
  8
0
  6
Continuous
 62
     7
370
    25
100
AcDbSpline
210
0.0
220
0.0
230
1.0
 70
     8
 71
     3
 72
    16
 73
    12
 74
     0
 42
0.00000001
 43
0.00000001
 40
0.0
 40
0.0
 40
0.0
 40
0.0
 40
0.2500000000000014
 40
0.2500000000000014
 40
0.5000000000000029
 40
0.5000000000000029
 40
0.7500000000000043
 40
0.7500000000000043
 40
0.8750000000000021
 40
0.8750000000000021
 40
1.0
 40
1.0
 40
1.0
 40
1.0
 10
6079.750569749041
 20
3858.579717061195
 30
0.0
 10
6079.954468181195
 20
3853.697933162663
 30
0.0
 10
6080.156894737534
 20
3848.81608510798
 30
0.0
 10
6080.577309232563
 20
3839.053058561719
 30
0.0
 10
6080.799044648412
 20
3834.172033468361
 30
0.0
 10
6081.268724012229
 20
3824.411635046519
 30
0.0
 10
6081.513160481005
 20
3819.532021807735
 30
0.0
 10
6081.870512770902
 20
3812.212143688805
 30
0.0
 10
6081.987071793477
 20
3809.772046925314
 30
0.0
 10
6082.2146445689
 20
3804.891517582782
 30
0.0
 10
6082.326080558257
 20
3802.451111082601
 30
0.0
 10
6082.436332660793
 20
3800.010630706979
 30
0.0
  0
SPLINE
  5
17A
330
1F
100
AcDbEntity
  8
0
  6
Continuous
 62
     7
370
    25
100
AcDbSpline
210
0.0
220
0.0
230
1.0
 70
     8
 71
     3
 72
   110
 73
   106
 74
     0
 42
0.00000001
 43
0.00000001
 40
0.0
 40
0.0
 40
0.0
 40
0.0
 40
0.0078124999999997
 40
0.0078124999999997
 40
0.0156249999999993
 40
0.0156249999999993
 40
0.0312499999999994
 40
0.0312499999999994
 40
0.0468749999999995
 40
0.0468749999999995
 40
0.0546874999999996
 40
0.0546874999999996
 40
0.0624999999999996
 40
0.0624999999999996
 40
0.0937500000000014
 40
0.0937500000000014
 40
0.1250000000000032
 40
0.1250000000000032
 40
0.1562500000000049
 40
0.1562500000000049
 40
0.1718750000000054
 40
0.1718750000000054
 40
0.1875000000000059
 40
0.1875000000000059
 40
0.2187500000000069
 40
0.2187500000000069
 40
0.2500000000000079
 40
0.2500000000000079
 40
0.2656250000000084
 40
0.2656250000000084
 40
0.2734375000000087
 40
0.2734375000000087
 40
0.2812500000000089
 40
0.2812500000000089
 40
0.3125000000000095
 40
0.3125000000000095
 40
0.34375000000001
 40
0.34375000000001
 40
0.3593750000000105
 40
0.3593750000000105
 40
0.3671875000000108
 40
0.3671875000000108
 40
0.375000000000011
 40
0.375000000000011
 40
0.4062500000000115
 40
0.4062500000000115
 40
0.4375000000000122
 40
0.4375000000000122
 40
0.4687500000000127
 40
0.4687500000000127
 40
0.484375000000013
 40
0.484375000000013
 40
0.5000000000000133
 40
0.5000000000000133
 40
0.531250000000014
 40
0.531250000000014
 40
0.5625000000000145
 40
0.5625000000000145
 40
0.578125000000015
 40
0.578125000000015
 40
0.5859375000000151
 40
0.5859375000000151
 40
0.5937500000000152
 40
0.5937500000000152
 40
0.6250000000000153
 40
0.6250000000000153
 40
0.6562500000000154
 40
0.6562500000000154
 40
0.6718750000000155
 40
0.6718750000000155
 40
0.6796875000000153
 40
0.6796875000000153
 40
0.687500000000015
 40
0.687500000000015
 40
0.7187500000000134
 40
0.7187500000000134
 40
0.7500000000000119
 40
0.7500000000000119
 40
0.7812500000000103
 40
0.7812500000000103
 40
0.7890625000000099
 40
0.7890625000000099
 40
0.7968750000000094
 40
0.7968750000000094
 40
0.8125000000000085
 40
0.8125000000000085
 40
0.8437500000000069
 40
0.8437500000000069
 40
0.8750000000000052
 40
0.8750000000000052
 40
0.8906250000000048
 40
0.8906250000000048
 40
0.9062500000000043
 40
0.9062500000000043
 40
0.9218750000000039
 40
0.9218750000000039
 40
0.9375000000000033
 40
0.9375000000000033
 40
0.9687500000000024
 40
0.9687500000000024
 40
0.9843750000000016
 40
0.9843750000000016
 40
0.9921875000000008
 40
0.9921875000000008
 40
1.0
 40
1.0
 40
1.0
 40
1.0
 10
6344.009908748516
 20
3858.579704871273
 30
0.0
 10
6344.056710825019
 20
3859.699473817128
 30
0.0
 10
6344.092336724239
 20
3860.818661626801
 30
0.0
 10
6344.132011635279
 20
3863.055401527108
 30
0.0
 10
6344.137590007768
 20
3864.173032171763
 30
0.0
 10
6344.111777463901
 20
3867.523718082775
 30
0.0
 10
6344.037872466613
 20
3869.754569067188
 30
0.0
 10
6343.77703907775
 20
3874.210410910865
 30
0.0
 10
6343.590105252991
 20
3876.435401489215
 30
0.0
 10
6343.224429263263
 20
3879.768465904179
 30
0.0
 10
6343.088317156838
 20
3880.878750074677
 30
0.0
 10
6342.787481581766
 20
3883.097834933696
 30
0.0
 10
6342.622594831479
 20
3884.207459754163
 30
0.0
 10
6341.730406336907
 20
3889.728066593196
 30
0.0
 10
6340.798730721126
 20
3894.073377954329
 30
0.0
 10
6338.513805383986
 20
3902.626314883424
 30
0.0
 10
6337.159985301083
 20
3906.833754175803
 30
0.0
 10
6334.029926436234
 20
3915.110671145805
 30
0.0
 10
6332.254649773817
 20
3919.180463049931
 30
0.0
 10
6329.267104602407
 20
3925.179126969078
 30
0.0
 10
6328.214998005562
 20
3927.163849316538
 30
0.0
 10
6326.024676366632
 20
3931.053081633514
 30
0.0
 10
6324.883923193915
 20
3932.962807314963
 30
0.0
 10
6321.328339843947
 20
3938.589955595109
 30
0.0
 10
6318.780895725339
 20
3942.205892679705
 30
0.0
 10
6313.336812401001
 20
3949.170538174144
 30
0.0
 10
6310.439551921294
 20
3952.518771131782
 30
0.0
 10
6305.824158941406
 20
3957.334878467828
 30
0.0
 10
6304.24092937235
 20
3958.905990065678
 30
0.0
 10
6301.797762094571
 20
3961.210371950047
 30
0.0
 10
6300.972275297428
 20
3961.969422991103
 30
0.0
 10
6299.307915653033
 20
3963.461442625695
 30
0.0
 10
6298.46790159318
 20
3964.195508813602
 30
0.0
 10
6294.229093946776
 20
3967.806783010928
 30
0.0
 10
6290.714408758799
 20
3970.507309280975
 30
0.0
 10
6283.441558109132
 20
3975.537165795748
 30
0.0
 10
6279.684000589384
 20
3977.867422896613
 30
0.0
 10
6273.86445727843
 20
3981.083501729525
 30
0.0
 10
6271.89401702673
 20
3982.108888486594
 30
0.0
 10
6268.891720026953
 20
3983.575869152579
 30
0.0
 10
6267.883181038767
 20
3984.053011956109
 30
0.0
 10
6265.850377376322
 20
3984.983323102009
 30
0.0
 10
6264.824616190801
 20
3985.437105565732
 30
0.0
 10
6259.678003450051
 20
3987.636018941541
 30
0.0
 10
6255.505396326285
 20
3989.172643398443
 30
0.0
 10
6247.052838106324
 20
3991.814113496144
 30
0.0
 10
6242.772962047837
 20
3992.9192610407
 30
0.0
 10
6234.106172588952
 20
3994.699011408912
 30
0.0
 10
6229.719288683818
 20
3995.373732923827
 30
0.0
 10
6223.056382663308
 20
3996.053647268793
 30
0.0
 10
6220.816312927155
 20
3996.224774683963
 30
0.0
 10
6216.355638055968
 20
3996.451758347476
 30
0.0
 10
6214.130665563967
 20
3996.50833162923
 30
0.0
 10
6207.471596275149
 20
3996.509912782755
 30
0.0
 10
6203.053282250537
 20
3996.287475980829
 30
0.0
 10
6194.258207540271
 20
3995.401747965218
 30
0.0
 10
6189.881446886079
 20
3994.738456390506
 30
0.0
 10
6183.347966861458
 20
3993.407615642405
 30
0.0
 10
6181.175438599133
 20
3992.90778912888
 30
0.0
 10
6177.924725954754
 20
3992.072328068115
 30
0.0
 10
6176.841621648627
 20
3991.779252983608
 30
0.0
 10
6174.690198235158
 20
3991.167699264556
 30
0.0
 10
6173.620491600047
 20
3990.848889414547
 30
0.0
 10
6168.301715502621
 20
3989.190257452975
 30
0.0
 10
6164.141665636615
 20
3987.657233294875
 30
0.0
 10
6156.006401596725
 20
3984.190029930305
 30
0.0
 10
6152.031456212667
 20
3982.255267333859
 30
0.0
 10
6146.20867172195
 20
3979.050071771587
 30
0.0
 10
6144.291081166267
 20
3977.931022826994
 30
0.0
 10
6141.450153910503
 20
3976.175492385919
 30
0.0
 10
6140.509088514425
 20
3975.577488116291
 30
0.0
 10
6138.638903172433
 20
3974.355553941022
 30
0.0
 10
6137.70888397968
 20
3973.731000568804
 30
0.0
 10
6133.099310712855
 20
3970.549577333942
 30
0.0
 10
6129.572287223577
 20
3967.838487672422
 30
0.0
 10
6122.826345265449
 20
3962.098007041634
 30
0.0
 10
6119.607454926823
 20
3959.068587027148
 30
0.0
 10
6113.477291332426
 20
3952.691949822785
 30
0.0
 10
6110.566947213136
 20
3949.343772752308
 30
0.0
 10
6107.126364714359
 20
3944.954672795845
 30
0.0
 10
6106.448119109259
 20
3944.066655247148
 30
0.0
 10
6105.111562838462
 20
3942.270025494975
 30
0.0
 10
6104.453767469153
 20
3941.36202786447
 30
0.0
 10
6102.521350702405
 20
3938.622565314365
 30
0.0
 10
6101.283976654525
 20
3936.770764729564
 30
0.0
 10
6097.722284243619
 20
3931.140028953487
 30
0.0
 10
6095.548962538764
 20
3927.285475828241
 30
0.0
 10
6091.598178626377
 20
3919.378126278834
 30
0.0
 10
6089.819921312101
 20
3915.325728033618
 30
0.0
 10
6087.452793343895
 20
3909.096763810901
 30
0.0
 10
6086.713975085911
 20
3906.995290417738
 30
0.0
 10
6085.339303711487
 20
3902.740779495808
 30
0.0
 10
6084.70356469231
 20
3900.587561550802
 30
0.0
 10
6083.544273934242
 20
3896.257998240941
 30
0.0
 10
6083.019488389739
 20
3894.077338697347
 30
0.0
 10
6082.083778250118
 20
3889.705620071418
 30
0.0
 10
6081.672147844075
 20
3887.512160692444
 30
0.0
 10
6080.605031547845
 20
3880.909103906921
 30
0.0
 10
6080.117355256883
 20
3876.47682315682
 30
0.0
 10
6079.7238426503
 20
3869.782713367892
 30
0.0
 10
6079.649115070705
 20
3867.541015035183
 30
0.0
 10
6079.622923739933
 20
3864.179997174754
 30
0.0
 10
6079.628469223258
 20
3863.05977594496
 30
0.0
 10
6079.668134794333
 20
3860.819569797574
 30
0.0
 10
6079.703795430344
 20
3859.699598727124
 30
0.0
 10
6079.750569749041
 20
3858.579717061195
 30
0.0
  0
SPLINE
  5
17B
330
1F
100
AcDbEntity
  8
0
  6
Continuous
 62
     7
370
    25
100
AcDbSpline
210
0.0
220
0.0
230
1.0
 70
     8
 71
     3
 72
    46
 73
    42
 74
     0
 42
0.00000001
 43
0.00000001
 40
0.0
 40
0.0
 40
0.0
 40
0.0
 40
0.0312500000000001
 40
0.0312500000000001
 40
0.0625000000000002
 40
0.0625000000000002
 40
0.0937500000000003
 40
0.0937500000000003
 40
0.1250000000000004
 40
0.1250000000000004
 40
0.1875000000000004
 40
0.1875000000000004
 40
0.2500000000000004
 40
0.2500000000000004
 40
0.3125000000000004
 40
0.3125000000000004
 40
0.3750000000000004
 40
0.3750000000000004
 40
0.4375000000000003
 40
0.4375000000000003
 40
0.5000000000000003
 40
0.5000000000000003
 40
0.5625000000000002
 40
0.5625000000000002
 40
0.6250000000000002
 40
0.6250000000000002
 40
0.6875000000000002
 40
0.6875000000000002
 40
0.7500000000000001
 40
0.7500000000000001
 40
0.8125
 40
0.8125
 40
0.875
 40
0.875
 40
0.90625
 40
0.90625
 40
0.9375
 40
0.9375
 40
0.96875
 40
0.96875
 40
1.0
 40
1.0
 40
1.0
 40
1.0
 10
6174.380096308916
 20
3867.030118664241
 30
0.0
 10
6174.380096308993
 20
3865.467647137722
 30
0.0
 10
6174.478129587386
 20
3863.905222923706
 30
0.0
 10
6174.865720618419
 20
3860.816663180174
 30
0.0
 10
6175.155244238246
 20
3859.290614733646
 30
0.0
 10
6175.912640688053
 20
3856.308420558581
 30
0.0
 10
6176.380452307975
 20
3854.852341296387
 30
0.0
 10
6177.474079933538
 20
3852.038579827888
 30
0.0
 10
6178.099819492892
 20
3850.680935632654
 30
0.0
 10
6180.175944060432
 20
3846.788273006138
 30
0.0
 10
6181.8252079628
 20
3844.437173281375
 30
0.0
 10
6185.428135341282
 20
3840.308894224768
 30
0.0
 10
6187.38009630954
 20
3838.53063802114
 30
0.0
 10
6191.380096309463
 20
3835.53069269033
 30
0.0
 10
6193.427565063357
 20
3834.307573962159
 30
0.0
 10
6197.467459016036
 20
3832.338161549557
 30
0.0
 10
6199.460096309251
 20
3831.590764489199
 30
0.0
 10
6203.300096309143
 20
3830.470784899027
 30
0.0
 10
6205.147971632139
 20
3830.097594111919
 30
0.0
 10
6208.656468773559
 20
3829.627714664691
 30
0.0
 10
6210.317596308954
 20
3829.530802028699
 30
0.0
 10
6213.442596308878
 20
3829.530802028699
 30
0.0
 10
6215.103723844271
 20
3829.627714664691
 30
0.0
 10
6218.612220985692
 20
3830.097594111919
 30
0.0
 10
6220.460096308689
 20
3830.470784899026
 30
0.0
 10
6224.300096308581
 20
3831.590764489199
 30
0.0
 10
6226.292733601796
 20
3832.338161549557
 30
0.0
 10
6230.332627554475
 20
3834.307573962159
 30
0.0
 10
6232.38009630837
 20
3835.530692690329
 30
0.0
 10
6236.380096308291
 20
3838.53063802114
 30
0.0
 10
6238.332057276551
 20
3840.308894224768
 30
0.0
 10
6241.934984655032
 20
3844.437173281375
 30
0.0
 10
6243.584248557399
 20
3846.788273006138
 30
0.0
 10
6245.66037312494
 20
3850.680935632654
 30
0.0
 10
6246.286112684294
 20
3852.038579827888
 30
0.0
 10
6247.379740309857
 20
3854.852341296387
 30
0.0
 10
6247.847551929778
 20
3856.308420558581
 30
0.0
 10
6248.604948379586
 20
3859.290614733646
 30
0.0
 10
6248.894471999413
 20
3860.816663180175
 30
0.0
 10
6249.282063030445
 20
3863.905222923706
 30
0.0
 10
6249.38009630884
 20
3865.467647137722
 30
0.0
 10
6249.380096308916
 20
3867.030118664241
 30
0.0
  0
SPLINE
  5
17C
330
1F
100
AcDbEntity
  8
0
  6
Continuous
 62
     7
370
    25
100
AcDbSpline
210
0.0
220
0.0
230
1.0
 70
     8
 71
     3
 72
    46
 73
    42
 74
     0
 42
0.00000001
 43
0.00000001
 40
0.0
 40
0.0
 40
0.0
 40
0.0
 40
0.0312499999999999
 40
0.0312499999999999
 40
0.0624999999999997
 40
0.0624999999999997
 40
0.0937499999999996
 40
0.0937499999999996
 40
0.1249999999999994
 40
0.1249999999999994
 40
0.1874999999999991
 40
0.1874999999999991
 40
0.2499999999999989
 40
0.2499999999999989
 40
0.3124999999999986
 40
0.3124999999999986
 40
0.3749999999999982
 40
0.3749999999999982
 40
0.437499999999998
 40
0.437499999999998
 40
0.4999999999999978
 40
0.4999999999999978
 40
0.5624999999999974
 40
0.5624999999999974
 40
0.6249999999999971
 40
0.6249999999999971
 40
0.6874999999999969
 40
0.6874999999999969
 40
0.7499999999999967
 40
0.7499999999999967
 40
0.8124999999999964
 40
0.8124999999999964
 40
0.8749999999999961
 40
0.8749999999999961
 40
0.9062499999999971
 40
0.9062499999999971
 40
0.9374999999999981
 40
0.9374999999999981
 40
0.968749999999999
 40
0.968749999999999
 40
1.0
 40
1.0
 40
1.0
 40
1.0
 10
6249.380096308916
 20
3867.030118664242
 30
0.0
 10
6249.380096308993
 20
3868.592590190837
 30
0.0
 10
6249.28206303074
 20
3870.155014404943
 30
0.0
 10
6248.894471999969
 20
3873.243574148679
 30
0.0
 10
6248.604948380258
 20
3874.76962259532
 30
0.0
 10
6247.847551930657
 20
3877.751816770625
 30
0.0
 10
6247.379740310823
 20
3879.207896032947
 30
0.0
 10
6246.286112685407
 20
3882.021657501707
 30
0.0
 10
6245.66037312611
 20
3883.379301697074
 30
0.0
 10
6243.584248558702
 20
3887.271964323991
 30
0.0
 10
6241.934984656363
 20
3889.623064049017
 30
0.0
 10
6238.332057277854
 20
3893.7513431061
 30
0.0
 10
6236.380096309539
 20
3895.529599309942
 30
0.0
 10
6232.380096309462
 20
3898.529544641112
 30
0.0
 10
6230.332627555467
 20
3899.752663369431
 30
0.0
 10
6226.292733602577
 20
3901.722075782267
 30
0.0
 10
6224.30009630925
 20
3902.469472842713
 30
0.0
 10
6220.460096309143
 20
3903.589452433013
 30
0.0
 10
6218.612220986043
 20
3903.962643220161
 30
0.0
 10
6215.103723844434
 20
3904.432522667439
 30
0.0
 10
6213.442596308954
 20
3904.52943530344
 30
0.0
 10
6210.317596308878
 20
3904.52943530344
 30
0.0
 10
6208.656468773397
 20
3904.43252266744
 30
0.0
 10
6205.147971631788
 20
3903.962643220161
 30
0.0
 10
6203.300096308689
 20
3903.589452433013
 30
0.0
 10
6199.46009630858
 20
3902.469472842713
 30
0.0
 10
6197.467459015254
 20
3901.722075782267
 30
0.0
 10
6193.427565062365
 20
3899.752663369431
 30
0.0
 10
6191.38009630837
 20
3898.529544641112
 30
0.0
 10
6187.380096308291
 20
3895.529599309942
 30
0.0
 10
6185.428135339977
 20
3893.751343106099
 30
0.0
 10
6181.825207961469
 20
3889.623064049017
 30
0.0
 10
6180.17594405913
 20
3887.271964323991
 30
0.0
 10
6178.099819491721
 20
3883.379301697074
 30
0.0
 10
6177.474079932425
 20
3882.021657501706
 30
0.0
 10
6176.380452307008
 20
3879.207896032947
 30
0.0
 10
6175.912640687175
 20
3877.751816770625
 30
0.0
 10
6175.155244237573
 20
3874.76962259532
 30
0.0
 10
6174.865720617863
 20
3873.243574148679
 30
0.0
 10
6174.478129587092
 20
3870.155014404942
 30
0.0
 10
6174.38009630884
 20
3868.592590190836
 30
0.0
 10
6174.380096308916
 20
3867.030118664241
 30
0.0
  0
LINE
  5
17D
330
1F
100
AcDbEntity
  8
0
  6
Continuous
 62
     8
370
    25
100
AcDbLine
 10
6389.8800963089
 20
4255.5301186642
 30
0.0
 11
6389.8800963089
 21
4430.5301186642
 31
0.0
  0
LINE
  5
17E
330
1F
100
AcDbEntity
  8
0
  6
Continuous
 62
     8
370
    25
100
AcDbLine
 10
6033.8800963089
 20
4430.5301186642
 30
0.0
 11
6033.8800963089
 21
4255.5301186642
 31
0.0
  0
ARC
  5
17F
330
1F
100
AcDbEntity
  8
0
  6
Continuous
 62
     8
370
    25
100
AcDbCircle
 10
6211.8800963089
 20
4255.5301186642
 30
0.0
 40
158.487381201155
100
AcDbArc
 50
96.1030147039
 51
270.0
  0
ARC
  5
180
330
1F
100
AcDbEntity
  8
0
  6
Continuous
 62
     8
370
    25
100
AcDbCircle
 10
6211.8800963089
 20
4255.5301186642
 30
0.0
 40
158.4873812011551
100
AcDbArc
 50
270.0
 51
83.8969852961
  0
ARC
  5
181
330
1F
100
AcDbEntity
  8
0
  6
Continuous
 62
     8
370
    25
100
AcDbCircle
 10
6211.8800963089
 20
4255.5301186642
 30
0.0
 40
156.4875404289002
100
AcDbArc
 50
270.0
 51
84.4856224457
  0
ARC
  5
182
330
1F
100
AcDbEntity
  8
0
  6
Continuous
 62
     8
370
    25
100
AcDbCircle
 10
6211.8800963089
 20
4255.5301186642
 30
0.0
 40
156.4875404289002
100
AcDbArc
 50
95.5143775543
 51
270.0
  0
LINE
  5
183
330
1F
100
AcDbEntity
  8
0
  6
Continuous
 62
     8
370
    25
100
AcDbLine
 10
6032.3814720833
 20
3838.0310952261
 30
0.0
 11
6034.3814719939
 21
3838.0310952261
 31
0.0
  0
LINE
  5
184
330
1F
100
AcDbEntity
  8
0
  6
Continuous
 62
     8
370
    25
100
AcDbLine
 10
6391.3787205647
 20
3838.0310952266
 30
0.0
 11
6389.378720624
 21
3838.0310952266
 31
0.0
  0
LINE
  5
185
330
1F
100
AcDbEntity
  8
0
  6
Continuous
 62
     8
370
    25
100
AcDbLine
 10
6354.1346128871
 20
3699.1245505183
 30
0.0
 11
6352.3952780969
 21
3700.1118263061
 31
0.0
  0
LINE
  5
186
330
1F
100
AcDbEntity
  8
0
  6
Continuous
 62
     8
370
    25
100
AcDbLine
 10
6387.2192477015
 20
3790.9200565001
 30
0.0
 11
6385.2501821498
 21
3791.2704573243
 31
0.0
  0
LINE
  5
187
330
1F
100
AcDbEntity
  8
0
  6
Continuous
 62
     8
370
    25
100
AcDbLine
 10
6036.540944895
 20
3790.9200564962
 30
0.0
 11
6038.5100104681
 21
3791.2704573242
 31
0.0
  0
LINE
  5
188
330
1F
100
AcDbEntity
  8
0
  6
Continuous
 62
     8
370
    25
100
AcDbLine
 10
6069.6255797989
 20
3699.1245505511
 30
0.0
 11
6071.3649145235
 21
3700.1118263016
 31
0.0
  0
LINE
  5
189
330
1F
100
AcDbEntity
  8
0
  6
Continuous
 62
     8
370
    25
100
AcDbLine
 10
6234.3800963089
 20
4428.0301186642
 30
0.0
 11
6189.3800963089
 21
4428.0301186642
 31
0.0
  0
ENDSEC
  0
SECTION
  2
OBJECTS
  0
DICTIONARY
  5
C
330
0
100
AcDbDictionary
281
     1
  3
ACAD_GROUP
350
D
  3
ACAD_LAYOUT
350
1A
  3
ACAD_MLINESTYLE
350
17
  3
ACAD_PLOTSETTINGS
350
19
  3
ACAD_PLOTSTYLENAME
350
E
  3
ACAD_SCALELIST
350
47
  3
DWGPROPS
350
18A
  0
DICTIONARY
  5
D
102
{ACAD_REACTORS
330
C
102
}
330
C
100
AcDbDictionary
281
     1
  0
DICTIONARY
  5
1A
102
{ACAD_REACTORS
330
C
102
}
330
C
100
AcDbDictionary
281
     1
  3
Layout1
350
1E
  3
Layout2
350
26
  3
Model
350
22
  0
DICTIONARY
  5
17
102
{ACAD_REACTORS
330
C
102
}
330
C
100
AcDbDictionary
281
     1
  3
Standard
350
18
  0
DICTIONARY
  5
19
102
{ACAD_REACTORS
330
C
102
}
330
C
100
AcDbDictionary
281
     1
  0
ACDBDICTIONARYWDFLT
  5
E
102
{ACAD_REACTORS
330
C
102
}
330
C
100
AcDbDictionary
281
     1
  3
Normal
350
F
100
AcDbDictionaryWithDefault
340
F
  0
DICTIONARY
  5
47
102
{ACAD_REACTORS
330
C
102
}
330
C
100
AcDbDictionary
281
     1
  3
A0
350
48
  3
A1
350
49
  3
A2
350
4A
  3
A3
350
4B
  3
A4
350
4C
  3
A5
350
4D
  3
A6
350
4E
  3
A7
350
4F
  3
A8
350
50
  3
A9
350
51
  3
B0
350
52
  3
B1
350
53
  3
B2
350
54
  3
B3
350
55
  3
B4
350
56
  3
B5
350
57
  3
B6
350
58
  3
B7
350
59
  3
B8
350
5A
  3
B9
350
5B
  3
C0
350
5C
  3
C1
350
5D
  3
C2
350
5E
  3
C3
350
5F
  3
C4
350
60
  3
C5
350
61
  3
C6
350
62
  3
C7
350
63
  3
C8
350
64
  3
C9
350
65
  3
D0
350
66
  3
D1
350
67
  3
D2
350
68
  0
XRECORD
  5
18A
102
{ACAD_REACTORS
330
C
102
}
330
C
100
AcDbXrecord
280
     1
  1
DWGPROPS COOKIE
  2

  3

  4

  6

  7

  8
radek.stransky
  9

300
=
301
=
302
=
303
=
304
=
305
=
306
=
307
=
308
=
309
=
 40
0.0
 41
2460286.365964155
 42
2460286.365966389
  1

 90
        0
  0
LAYOUT
  5
1E
102
{ACAD_REACTORS
330
1A
102
}
330
1A
100
AcDbPlotSettings
  1

  2
none_device
  4

  6

 40
0.0
 41
0.0
 42
0.0
 43
0.0
 44
0.0
 45
0.0
 46
0.0
 47
0.0
 48
0.0
 49
0.0
140
0.0
141
0.0
142
1.0
143
1.0
 70
   688
 72
     1
 73
     0
 74
     5
  7

 75
    16
147
1.0
148
0.0
149
0.0
100
AcDbLayout
  1
Layout1
 70
     1
 71
     1
 10
0.0
 20
0.0
 11
420.0
 21
297.0
 12
0.0
 22
0.0
 32
0.0
 14
1.0000000000E+20
 24
1.0000000000E+20
 34
1.0000000000E+20
 15
-1.0000000000E+20
 25
-1.0000000000E+20
 35
-1.0000000000E+20
146
0.0
 13
0.0
 23
0.0
 33
0.0
 16
1.0
 26
0.0
 36
0.0
 17
0.0
 27
1.0
 37
0.0
 76
     0
330
1B
  0
LAYOUT
  5
26
102
{ACAD_REACTORS
330
1A
102
}
330
1A
100
AcDbPlotSettings
  1

  2
none_device
  4

  6

 40
0.0
 41
0.0
 42
0.0
 43
0.0
 44
0.0
 45
0.0
 46
0.0
 47
0.0
 48
0.0
 49
0.0
140
0.0
141
0.0
142
1.0
143
1.0
 70
   688
 72
     1
 73
     0
 74
     5
  7

 75
    16
147
1.0
148
0.0
149
0.0
100
AcDbLayout
  1
Layout2
 70
     1
 71
     2
 10
0.0
 20
0.0
 11
0.0
 21
0.0
 12
0.0
 22
0.0
 32
0.0
 14
0.0
 24
0.0
 34
0.0
 15
0.0
 25
0.0
 35
0.0
146
0.0
 13
0.0
 23
0.0
 33
0.0
 16
1.0
 26
0.0
 36
0.0
 17
0.0
 27
1.0
 37
0.0
 76
     0
330
23
  0
LAYOUT
  5
22
102
{ACAD_REACTORS
330
1A
102
}
330
1A
100
AcDbPlotSettings
  1

  2
none_device
  4
Letter_(8.50_x_11.00_Inches)
  6

 40
6.35
 41
6.35
 42
6.35000508
 43
6.35000508
 44
215.9
 45
279.4
 46
0.0
 47
0.0
 48
0.0
 49
0.0
140
0.0
141
0.0
142
1.0
143
1.0
 70
  1712
 72
     1
 73
     0
 74
     0
  7

 75
     0
147
1.0
148
0.0
149
0.0
100
AcDbLayout
  1
Model
 70
     1
 71
     0
 10
0.0
 20
0.0
 11
20000.0
 21
10000.0
 12
0.0
 22
0.0
 32
0.0
 14
0.0
 24
0.0
 34
0.0
 15
20000.0
 25
10000.0
 35
0.0
146
0.0
 13
0.0
 23
0.0
 33
0.0
 16
1.0
 26
0.0
 36
0.0
 17
0.0
 27
1.0
 37
0.0
 76
     0
330
1F
331
29
  0
MLINESTYLE
  5
18
102
{ACAD_REACTORS
330
17
102
}
330
17
100
AcDbMlineStyle
  2
Standard
 70
     0
  3

 62
   256
 51
90.0
 52
90.0
 71
     2
 49
0.5
 62
   256
  6
BYLAYER
 49
-0.5
 62
   256
  6
BYLAYER
  0
ACDBPLACEHOLDER
  5
F
102
{ACAD_REACTORS
330
E
102
}
330
E
  0
SCALE
  5
48
102
{ACAD_REACTORS
330
47
102
}
330
47
100
AcDbScale
 70
     0
300
1:1
140
1.0
141
1.0
290
     1
  0
SCALE
  5
49
102
{ACAD_REACTORS
330
47
102
}
330
47
100
AcDbScale
 70
     0
300
1:2
140
1.0
141
2.0
290
     0
  0
SCALE
  5
4A
102
{ACAD_REACTORS
330
47
102
}
330
47
100
AcDbScale
 70
     0
300
1:4
140
1.0
141
4.0
290
     0
  0
SCALE
  5
4B
102
{ACAD_REACTORS
330
47
102
}
330
47
100
AcDbScale
 70
     0
300
1:5
140
1.0
141
5.0
290
     0
  0
SCALE
  5
4C
102
{ACAD_REACTORS
330
47
102
}
330
47
100
AcDbScale
 70
     0
300
1:8
140
1.0
141
8.0
290
     0
  0
SCALE
  5
4D
102
{ACAD_REACTORS
330
47
102
}
330
47
100
AcDbScale
 70
     0
300
1:10
140
1.0
141
10.0
290
     0
  0
SCALE
  5
4E
102
{ACAD_REACTORS
330
47
102
}
330
47
100
AcDbScale
 70
     0
300
1:16
140
1.0
141
16.0
290
     0
  0
SCALE
  5
4F
102
{ACAD_REACTORS
330
47
102
}
330
47
100
AcDbScale
 70
     0
300
1:20
140
1.0
141
20.0
290
     0
  0
SCALE
  5
50
102
{ACAD_REACTORS
330
47
102
}
330
47
100
AcDbScale
 70
     0
300
1:30
140
1.0
141
30.0
290
     0
  0
SCALE
  5
51
102
{ACAD_REACTORS
330
47
102
}
330
47
100
AcDbScale
 70
     0
300
1:40
140
1.0
141
40.0
290
     0
  0
SCALE
  5
52
102
{ACAD_REACTORS
330
47
102
}
330
47
100
AcDbScale
 70
     0
300
1:50
140
1.0
141
50.0
290
     0
  0
SCALE
  5
53
102
{ACAD_REACTORS
330
47
102
}
330
47
100
AcDbScale
 70
     0
300
1:100
140
1.0
141
100.0
290
     0
  0
SCALE
  5
54
102
{ACAD_REACTORS
330
47
102
}
330
47
100
AcDbScale
 70
     0
300
2:1
140
2.0
141
1.0
290
     0
  0
SCALE
  5
55
102
{ACAD_REACTORS
330
47
102
}
330
47
100
AcDbScale
 70
     0
300
4:1
140
4.0
141
1.0
290
     0
  0
SCALE
  5
56
102
{ACAD_REACTORS
330
47
102
}
330
47
100
AcDbScale
 70
     0
300
8:1
140
8.0
141
1.0
290
     0
  0
SCALE
  5
57
102
{ACAD_REACTORS
330
47
102
}
330
47
100
AcDbScale
 70
     0
300
10:1
140
10.0
141
1.0
290
     0
  0
SCALE
  5
58
102
{ACAD_REACTORS
330
47
102
}
330
47
100
AcDbScale
 70
     0
300
100:1
140
100.0
141
1.0
290
     0
  0
SCALE
  5
59
102
{ACAD_REACTORS
330
47
102
}
330
47
100
AcDbScale
 70
     0
300
1/128" = 1'-0"
140
0.0078125
141
12.0
290
     0
  0
SCALE
  5
5A
102
{ACAD_REACTORS
330
47
102
}
330
47
100
AcDbScale
 70
     0
300
1/64" = 1'-0"
140
0.015625
141
12.0
290
     0
  0
SCALE
  5
5B
102
{ACAD_REACTORS
330
47
102
}
330
47
100
AcDbScale
 70
     0
300
1/32" = 1'-0"
140
0.03125
141
12.0
290
     0
  0
SCALE
  5
5C
102
{ACAD_REACTORS
330
47
102
}
330
47
100
AcDbScale
 70
     0
300
1/16" = 1'-0"
140
0.0625
141
12.0
290
     0
  0
SCALE
  5
5D
102
{ACAD_REACTORS
330
47
102
}
330
47
100
AcDbScale
 70
     0
300
3/32" = 1'-0"
140
0.09375
141
12.0
290
     0
  0
SCALE
  5
5E
102
{ACAD_REACTORS
330
47
102
}
330
47
100
AcDbScale
 70
     0
300
1/8" = 1'-0"
140
0.125
141
12.0
290
     0
  0
SCALE
  5
5F
102
{ACAD_REACTORS
330
47
102
}
330
47
100
AcDbScale
 70
     0
300
3/16" = 1'-0"
140
0.1875
141
12.0
290
     0
  0
SCALE
  5
60
102
{ACAD_REACTORS
330
47
102
}
330
47
100
AcDbScale
 70
     0
300
1/4" = 1'-0"
140
0.25
141
12.0
290
     0
  0
SCALE
  5
61
102
{ACAD_REACTORS
330
47
102
}
330
47
100
AcDbScale
 70
     0
300
3/8" = 1'-0"
140
0.375
141
12.0
290
     0
  0
SCALE
  5
62
102
{ACAD_REACTORS
330
47
102
}
330
47
100
AcDbScale
 70
     0
300
1/2" = 1'-0"
140
0.5
141
12.0
290
     0
  0
SCALE
  5
63
102
{ACAD_REACTORS
330
47
102
}
330
47
100
AcDbScale
 70
     0
300
3/4" = 1'-0"
140
0.75
141
12.0
290
     0
  0
SCALE
  5
64
102
{ACAD_REACTORS
330
47
102
}
330
47
100
AcDbScale
 70
     0
300
1" = 1'-0"
140
1.0
141
12.0
290
     0
  0
SCALE
  5
65
102
{ACAD_REACTORS
330
47
102
}
330
47
100
AcDbScale
 70
     0
300
1-1/2" = 1'-0"
140
1.5
141
12.0
290
     0
  0
SCALE
  5
66
102
{ACAD_REACTORS
330
47
102
}
330
47
100
AcDbScale
 70
     0
300
3" = 1'-0"
140
3.0
141
12.0
290
     0
  0
SCALE
  5
67
102
{ACAD_REACTORS
330
47
102
}
330
47
100
AcDbScale
 70
     0
300
6" = 1'-0"
140
6.0
141
12.0
290
     0
  0
SCALE
  5
68
102
{ACAD_REACTORS
330
47
102
}
330
47
100
AcDbScale
 70
     0
300
1'-0" = 1'-0"
140
12.0
141
12.0
290
     0
  0
ENDSEC
  0
EOF
