  0
SECTION
  2
HEADER
  9
$ACADVER
  1
AC1015
  9
$ACADMAINTVER
 70
     6
  9
$DWGCODEPAGE
  3
ANSI_1250
  9
$INSBASE
 10
0.0
 20
0.0
 30
0.0
  9
$EXTMIN
 10
0.0
 20
0.0
 30
0.0
  9
$EXTMAX
 10
20000.0
 20
10000.0
 30
0.0
  9
$LIMMIN
 10
0.0
 20
0.0
  9
$LIMMAX
 10
20000.0
 20
10000.0
  9
$ORTHOMODE
 70
     0
  9
$REGENMODE
 70
     1
  9
$FILLMODE
 70
     1
  9
$QTEXTMODE
 70
     0
  9
$MIRRTEXT
 70
     1
  9
$LTSCALE
 40
1.0
  9
$ATTMODE
 70
     1
  9
$TEXTSIZE
 40
2.0
  9
$TRACEWID
 40
1.0
  9
$TEXTSTYLE
  7
Standard
  9
$CLAYER
  8
0
  9
$CELTYPE
  6
ByLayer
  9
$CECOLOR
 62
   256
  9
$CELTSCALE
 40
1.0
  9
$DISPSILH
 70
     0
  9
$DIMSCALE
 40
1.0
  9
$DIMASZ
 40
2.0
  9
$DIMEXO
 40
1.0
  9
$DIMDLI
 40
3.75
  9
$DIMRND
 40
0.0
  9
$DIMDLE
 40
0.0
  9
$DIMEXE
 40
1.0
  9
$DIMTP
 40
0.0
  9
$DIMTM
 40
0.0
  9
$DIMTXT
 40
2.0
  9
$DIMCEN
 40
2.5
  9
$DIMTSZ
 40
0.0
  9
$DIMTOL
 70
     0
  9
$DIMLIM
 70
     0
  9
$DIMTIH
 70
     1
  9
$DIMTOH
 70
     1
  9
$DIMSE1
 70
     0
  9
$DIMSE2
 70
     0
  9
$DIMTAD
 70
     1
  9
$DIMZIN
 70
     0
  9
$DIMBLK
  1

  9
$DIMASO
 70
     1
  9
$DIMSHO
 70
     1
  9
$DIMPOST
  1

  9
$DIMAPOST
  1

  9
$DIMALT
 70
     0
  9
$DIMALTD
 70
     3
  9
$DIMALTF
 40
0.0393700787
  9
$DIMLFAC
 40
1.0
  9
$DIMTOFL
 70
     1
  9
$DIMTVP
 40
0.0
  9
$DIMTIX
 70
     0
  9
$DIMSOXD
 70
     0
  9
$DIMSAH
 70
     0
  9
$DIMBLK1
  1

  9
$DIMBLK2
  1

  9
$DIMSTYLE
  2
ISO-25
  9
$DIMCLRD
 70
     0
  9
$DIMCLRE
 70
     0
  9
$DIMCLRT
 70
     0
  9
$DIMTFAC
 40
1.0
  9
$DIMGAP
 40
1.524
  9
$DIMJUST
 70
     0
  9
$DIMSD1
 70
     0
  9
$DIMSD2
 70
     0
  9
$DIMTOLJ
 70
     0
  9
$DIMTZIN
 70
     0
  9
$DIMALTZ
 70
     0
  9
$DIMALTTZ
 70
     0
  9
$DIMUPT
 70
     0
  9
$DIMDEC
 70
     2
  9
$DIMTDEC
 70
     0
  9
$DIMALTU
 70
     2
  9
$DIMALTTD
 70
     3
  9
$DIMTXSTY
  7
Standard
  9
$DIMAUNIT
 70
     0
  9
$DIMADEC
 70
     2
  9
$DIMALTRND
 40
0.0
  9
$DIMAZIN
 70
     0
  9
$DIMDSEP
 70
    44
  9
$DIMATFIT
 70
     3
  9
$DIMFRAC
 70
     0
  9
$DIMLDRBLK
  1

  9
$DIMLUNIT
 70
     2
  9
$DIMLWD
 70
    -2
  9
$DIMLWE
 70
    -2
  9
$DIMTMOVE
 70
     0
  9
$LUNITS
 70
     2
  9
$LUPREC
 70
     3
  9
$SKETCHINC
 40
1.0
  9
$FILLETRAD
 40
10.0
  9
$AUNITS
 70
     0
  9
$AUPREC
 70
     2
  9
$MENU
  1
.
  9
$ELEVATION
 40
0.0
  9
$PELEVATION
 40
0.0
  9
$THICKNESS
 40
0.0
  9
$LIMCHECK
 70
     0
  9
$CHAMFERA
 40
0.0
  9
$CHAMFERB
 40
0.0
  9
$CHAMFERC
 40
0.0
  9
$CHAMFERD
 40
0.0
  9
$SKPOLY
 70
     0
  9
$TDCREATE
 40
2459122.308745289
  9
$TDUCREATE
 40
2459122.225411956
  9
$TDUPDATE
 40
2459122.308745625
  9
$TDUUPDATE
 40
2459122.225412291
  9
$TDINDWG
 40
0.0000000116
  9
$TDUSRTIMER
 40
0.0000000116
  9
$USRTIMER
 70
     1
  9
$ANGBASE
 50
0.0
  9
$ANGDIR
 70
     0
  9
$PDMODE
 70
     0
  9
$PDSIZE
 40
-1.0
  9
$PLINEWID
 40
0.0
  9
$SPLFRAME
 70
     0
  9
$SPLINETYPE
 70
     6
  9
$SPLINESEGS
 70
     8
  9
$HANDSEED
  5
D4
  9
$SURFTAB1
 70
     6
  9
$SURFTAB2
 70
     6
  9
$SURFTYPE
 70
     6
  9
$SURFU
 70
     6
  9
$SURFV
 70
     6
  9
$UCSBASE
  2

  9
$UCSNAME
  2

  9
$UCSORG
 10
0.0
 20
0.0
 30
0.0
  9
$UCSXDIR
 10
1.0
 20
0.0
 30
0.0
  9
$UCSYDIR
 10
0.0
 20
1.0
 30
0.0
  9
$UCSORTHOREF
  2

  9
$UCSORTHOVIEW
 70
     0
  9
$UCSORGTOP
 10
0.0
 20
0.0
 30
0.0
  9
$UCSORGBOTTOM
 10
0.0
 20
0.0
 30
0.0
  9
$UCSORGLEFT
 10
0.0
 20
0.0
 30
0.0
  9
$UCSORGRIGHT
 10
0.0
 20
0.0
 30
0.0
  9
$UCSORGFRONT
 10
0.0
 20
0.0
 30
0.0
  9
$UCSORGBACK
 10
0.0
 20
0.0
 30
0.0
  9
$PUCSBASE
  2

  9
$PUCSNAME
  2

  9
$PUCSORG
 10
0.0
 20
0.0
 30
0.0
  9
$PUCSXDIR
 10
1.0
 20
0.0
 30
0.0
  9
$PUCSYDIR
 10
0.0
 20
1.0
 30
0.0
  9
$PUCSORTHOREF
  2

  9
$PUCSORTHOVIEW
 70
     0
  9
$PUCSORGTOP
 10
0.0
 20
0.0
 30
0.0
  9
$PUCSORGBOTTOM
 10
0.0
 20
0.0
 30
0.0
  9
$PUCSORGLEFT
 10
0.0
 20
0.0
 30
0.0
  9
$PUCSORGRIGHT
 10
0.0
 20
0.0
 30
0.0
  9
$PUCSORGFRONT
 10
0.0
 20
0.0
 30
0.0
  9
$PUCSORGBACK
 10
0.0
 20
0.0
 30
0.0
  9
$USERI1
 70
     0
  9
$USERI2
 70
     0
  9
$USERI3
 70
     0
  9
$USERI4
 70
     0
  9
$USERI5
 70
     0
  9
$USERR1
 40
0.0
  9
$USERR2
 40
0.0
  9
$USERR3
 40
0.0
  9
$USERR4
 40
0.0
  9
$USERR5
 40
0.0
  9
$WORLDVIEW
 70
     1
  9
$SHADEDGE
 70
     3
  9
$SHADEDIF
 70
    70
  9
$TILEMODE
 70
     1
  9
$MAXACTVP
 70
    64
  9
$PINSBASE
 10
0.0
 20
0.0
 30
0.0
  9
$PLIMCHECK
 70
     0
  9
$PEXTMIN
 10
1.0000000000E+20
 20
1.0000000000E+20
 30
1.0000000000E+20
  9
$PEXTMAX
 10
-1.0000000000E+20
 20
-1.0000000000E+20
 30
-1.0000000000E+20
  9
$PLIMMIN
 10
0.0
 20
0.0
  9
$PLIMMAX
 10
420.0
 20
297.0
  9
$UNITMODE
 70
     0
  9
$VISRETAIN
 70
     1
  9
$PLINEGEN
 70
     0
  9
$PSLTSCALE
 70
     1
  9
$TREEDEPTH
 70
  3020
  9
$CMLSTYLE
  2
Standard
  9
$CMLJUST
 70
     0
  9
$CMLSCALE
 40
20.0
  9
$PROXYGRAPHICS
 70
     1
  9
$MEASUREMENT
 70
     1
  9
$CELWEIGHT
370
    -1
  9
$ENDCAPS
280
     0
  9
$JOINSTYLE
280
     0
  9
$LWDISPLAY
290
     1
  9
$INSUNITS
 70
     4
  9
$HYPERLINKBASE
  1

  9
$STYLESHEET
  1

  9
$XEDIT
290
     1
  9
$CEPSNTYPE
380
     0
  9
$PSTYLEMODE
290
     1
  9
$FINGERPRINTGUID
  2
{50fa9b0a-78aa-4059-a86a-96dd85aff21f}
  9
$VERSIONGUID
  2
{FAEB1C32-E019-11D5-929B-00C0DF256EC4}
  9
$EXTNAMES
290
     1
  9
$PSVPSCALE
 40
0.0
  9
$OLESTARTUP
290
     0
  0
ENDSEC
  0
SECTION
  2
CLASSES
  0
CLASS
  1
ACDBDICTIONARYWDFLT
  2
AcDbDictionaryWithDefault
  3
ObjectDBX Classes
 90
        0
280
     0
281
     0
  0
CLASS
  1
VISUALSTYLE
  2
AcDbVisualStyle
  3
ObjectDBX Classes
 90
     4095
280
     0
281
     0
  0
CLASS
  1
MATERIAL
  2
AcDbMaterial
  3
ObjectDBX Classes
 90
     1153
280
     0
281
     0
  0
CLASS
  1
SCALE
  2
AcDbScale
  3
ObjectDBX Classes
 90
     1153
280
     0
281
     0
  0
CLASS
  1
TABLESTYLE
  2
AcDbTableStyle
  3
ObjectDBX Classes
 90
     4095
280
     0
281
     0
  0
CLASS
  1
MLEADERSTYLE
  2
AcDbMLeaderStyle
  3
ACDB_MLEADERSTYLE_CLASS
 90
     4095
280
     0
281
     0
  0
CLASS
  1
SUN
  2
AcDbSun
  3
SCENEOE
 90
     1153
280
     0
281
     0
  0
CLASS
  1
ACDBPLACEHOLDER
  2
AcDbPlaceHolder
  3
ObjectDBX Classes
 90
        0
280
     0
281
     0
  0
CLASS
  1
LAYOUT
  2
AcDbLayout
  3
ObjectDBX Classes
 90
        0
280
     0
281
     0
  0
ENDSEC
  0
SECTION
  2
TABLES
  0
TABLE
  2
VPORT
  5
8
330
0
100
AcDbSymbolTable
 70
     1
  0
VPORT
  5
29
330
8
100
AcDbSymbolTableRecord
100
AcDbViewportTableRecord
  2
*Active
 70
     0
 10
0.0
 20
0.0
 11
1.0
 21
1.0
 12
10000.0
 22
5000.0
 13
0.0
 23
0.0
 14
10.0
 24
10.0
 15
10.0
 25
10.0
 16
0.0
 26
0.0
 36
1.0
 17
0.0
 27
0.0
 37
0.0
 40
10000.0
 41
2.0
 42
50.0
 43
0.0
 44
0.0
 50
0.0
 51
0.0
 71
     0
 72
  2000
 73
     1
 74
     3
 75
     0
 76
     0
 77
     0
 78
     0
281
     0
 65
     1
110
0.0
120
0.0
130
0.0
111
1.0
121
0.0
131
0.0
112
0.0
122
1.0
132
0.0
 79
     0
146
0.0
  0
ENDTAB
  0
TABLE
  2
LTYPE
  5
5
330
0
100
AcDbSymbolTable
 70
     6
  0
LTYPE
  5
14
330
5
100
AcDbSymbolTableRecord
100
AcDbLinetypeTableRecord
  2
ByBlock
 70
     0
  3

 72
    65
 73
     0
 40
0.0
  0
LTYPE
  5
15
330
5
100
AcDbSymbolTableRecord
100
AcDbLinetypeTableRecord
  2
ByLayer
 70
     0
  3

 72
    65
 73
     0
 40
0.0
  0
LTYPE
  5
16
330
5
100
AcDbSymbolTableRecord
100
AcDbLinetypeTableRecord
  2
Continuous
 70
     0
  3
Solid line
 72
    65
 73
     0
 40
0.0
  0
LTYPE
  5
6E
330
5
100
AcDbSymbolTableRecord
100
AcDbLinetypeTableRecord
  2
HIDDEN
 70
     0
  3
Hidden __ __ __ __ __ __ __ __ __ __ __ __ __ __
 72
    65
 73
     2
 40
1.905
 49
1.27
 74
     0
 49
-0.635
 74
     0
  0
LTYPE
  5
6F
330
5
100
AcDbSymbolTableRecord
100
AcDbLinetypeTableRecord
  2
PHANTOM
 70
     0
  3
Phantom ______  __  __  ______  __  __  ______
 72
    65
 73
     6
 40
12.7
 49
6.35
 74
     0
 49
-1.27
 74
     0
 49
1.27
 74
     0
 49
-1.27
 74
     0
 49
1.27
 74
     0
 49
-1.27
 74
     0
  0
LTYPE
  5
70
330
5
100
AcDbSymbolTableRecord
100
AcDbLinetypeTableRecord
  2
CENTER
 70
     0
  3
Center ____ _ ____ _ ____ _ ____ _ ____ _ ____
 72
    65
 73
     4
 40
10.16
 49
6.35
 74
     0
 49
-1.27
 74
     0
 49
1.27
 74
     0
 49
-1.27
 74
     0
  0
LTYPE
  5
71
330
5
100
AcDbSymbolTableRecord
100
AcDbLinetypeTableRecord
  2
CENTERX2
 70
     0
  3
Center (2x) ________  __  ________  __  _____
 72
    65
 73
     4
 40
20.32
 49
12.7
 74
     0
 49
-2.54
 74
     0
 49
2.54
 74
     0
 49
-2.54
 74
     0
  0
LTYPE
  5
72
330
5
100
AcDbSymbolTableRecord
100
AcDbLinetypeTableRecord
  2
DOT2
 70
     0
  3
Dot (.5x) ........................................
 72
    65
 73
     2
 40
0.635
 49
0.0
 74
     0
 49
-0.635
 74
     0
  0
ENDTAB
  0
TABLE
  2
LAYER
  5
2
330
0
100
AcDbSymbolTable
 70
    13
  0
LAYER
  5
10
330
2
100
AcDbSymbolTableRecord
100
AcDbLayerTableRecord
  2
0
 70
     0
 62
     7
  6
Continuous
370
    -3
390
F
  0
LAYER
  5
73
330
2
100
AcDbSymbolTableRecord
100
AcDbLayerTableRecord
  2
FORMAT
 70
     0
 62
     7
  6
Continuous
370
    -3
390
F
  0
LAYER
  5
74
330
2
100
AcDbSymbolTableRecord
100
AcDbLayerTableRecord
  2
OSA
 70
     0
 62
     7
  6
CENTER
370
    -3
390
F
  0
LAYER
  5
75
330
2
100
AcDbSymbolTableRecord
100
AcDbLayerTableRecord
  2
0_35
 70
     0
 62
     7
  6
Continuous
370
    35
390
F
  0
LAYER
  5
76
330
2
100
AcDbSymbolTableRecord
100
AcDbLayerTableRecord
  2
0_5
 70
     0
 62
     7
  6
Continuous
370
    50
390
F
  0
LAYER
  5
77
330
2
100
AcDbSymbolTableRecord
100
AcDbLayerTableRecord
  2
0_25
 70
     0
 62
     7
  6
Continuous
370
    25
390
F
  0
LAYER
  5
78
330
2
100
AcDbSymbolTableRecord
100
AcDbLayerTableRecord
  2
0_18
 70
     0
 62
     7
  6
Continuous
370
    -3
390
F
  0
LAYER
  5
79
330
2
100
AcDbSymbolTableRecord
100
AcDbLayerTableRecord
  2
SLD-0
 70
     0
 62
   179
  6
Continuous
370
    -3
390
F
  0
LAYER
  5
7A
330
2
100
AcDbSymbolTableRecord
100
AcDbLayerTableRecord
  2
KOTY
 70
     0
 62
     7
  6
Continuous
370
    -3
390
F
  0
LAYER
  5
7B
330
2
100
AcDbSymbolTableRecord
100
AcDbLayerTableRecord
  2
SILNA
 70
     0
 62
   179
  6
Continuous
370
    -3
390
F
  0
LAYER
  5
7C
330
2
100
AcDbSymbolTableRecord
100
AcDbLayerTableRecord
  2
0_18_1
 70
     0
 62
   179
  6
Continuous
370
    -3
390
F
  0
LAYER
  5
7D
330
2
100
AcDbSymbolTableRecord
100
AcDbLayerTableRecord
  2
0_35_1
 70
     0
 62
   179
  6
Continuous
370
    35
390
F
  0
LAYER
  5
7E
330
2
100
AcDbSymbolTableRecord
100
AcDbLayerTableRecord
  2
0_5_1
 70
     0
 62
   179
  6
Continuous
370
    50
390
F
  0
ENDTAB
  0
TABLE
  2
STYLE
  5
3
330
0
100
AcDbSymbolTable
 70
     1
  0
STYLE
  5
11
330
3
100
AcDbSymbolTableRecord
100
AcDbTextStyleTableRecord
  2
Standard
 70
     0
 40
0.0
 41
1.0
 50
0.0
 71
     0
 42
2.0
  3
txt
  4

  0
ENDTAB
  0
TABLE
  2
VIEW
  5
6
330
0
100
AcDbSymbolTable
 70
     0
  0
ENDTAB
  0
TABLE
  2
UCS
  5
7
330
0
100
AcDbSymbolTable
 70
     0
  0
ENDTAB
  0
TABLE
  2
APPID
  5
9
330
0
100
AcDbSymbolTable
 70
     1
  0
APPID
  5
12
330
9
100
AcDbSymbolTableRecord
100
AcDbRegAppTableRecord
  2
ACAD
 70
     0
  0
ENDTAB
  0
TABLE
  2
DIMSTYLE
  5
A
330
0
100
AcDbSymbolTable
 70
     1
100
AcDbDimStyleTable
  0
DIMSTYLE
105
27
330
A
100
AcDbSymbolTableRecord
100
AcDbDimStyleTableRecord
  2
ISO-25
 70
     0
 41
2.5
 42
0.625
 43
3.75
 44
1.25
 73
     0
 74
     0
 77
     1
 78
     8
140
2.5
141
2.5
143
0.0393700787
147
0.625
171
     3
172
     1
178
     0
271
     2
272
     2
274
     3
278
    44
283
     0
284
     8
340
11
  0
ENDTAB
  0
TABLE
  2
BLOCK_RECORD
  5
1
330
0
100
AcDbSymbolTable
 70
     1
  0
BLOCK_RECORD
  5
1F
330
1
100
AcDbSymbolTableRecord
100
AcDbBlockTableRecord
  2
*Model_Space
340
22
  0
BLOCK_RECORD
  5
1B
330
1
100
AcDbSymbolTableRecord
100
AcDbBlockTableRecord
  2
*Paper_Space
340
1E
  0
BLOCK_RECORD
  5
23
330
1
100
AcDbSymbolTableRecord
100
AcDbBlockTableRecord
  2
*Paper_Space0
340
26
  0
ENDTAB
  0
ENDSEC
  0
SECTION
  2
BLOCKS
  0
BLOCK
  5
20
330
1F
100
AcDbEntity
  8
0
100
AcDbBlockBegin
  2
*Model_Space
 70
     0
 10
0.0
 20
0.0
 30
0.0
  3
*Model_Space
  1

  0
ENDBLK
  5
21
330
1F
100
AcDbEntity
  8
0
100
AcDbBlockEnd
  0
BLOCK
  5
1C
330
1B
100
AcDbEntity
 67
     1
  8
0
100
AcDbBlockBegin
  2
*Paper_Space
 70
     0
 10
0.0
 20
0.0
 30
0.0
  3
*Paper_Space
  1

  0
ENDBLK
  5
1D
330
1B
100
AcDbEntity
 67
     1
  8
0
100
AcDbBlockEnd
  0
BLOCK
  5
24
330
23
100
AcDbEntity
  8
0
100
AcDbBlockBegin
  2
*Paper_Space0
 70
     0
 10
0.0
 20
0.0
 30
0.0
  3
*Paper_Space0
  1

  0
ENDBLK
  5
25
330
23
100
AcDbEntity
  8
0
100
AcDbBlockEnd
  0
ENDSEC
  0
SECTION
  2
ENTITIES
  0
ARC
  5
7F
330
1F
100
AcDbEntity
  8
0
  6
Continuous
 62
     7
370
    25
100
AcDbCircle
 10
6282.9327639348
 20
5185.0691683517
 30
0.0
 40
8.486710140306565
100
AcDbArc
 50
279.5042127063
 51
311.3767680434
  0
LWPOLYLINE
  5
80
330
1F
100
AcDbEntity
  8
0
  6
Continuous
 62
     7
370
    25
100
AcDbPolyline
 90
       12
 70
   128
 43
0.0
 10
6259.0288602336
 20
5179.8681801836
 10
6259.0328632578
 20
5179.6490787626
 10
6259.1197184332
 20
5179.3110576646
 10
6259.2802829748
 20
5178.9892249168
 10
6259.5173874378
 20
5178.6754586076
 10
6259.8393115549
 20
5178.3653256372
 10
6260.2497953125
 20
5178.0615372608
 10
6260.7428642129
 20
5177.770610059
 10
6261.307989706
 20
5177.4972040252
 10
6261.9393545075
 20
5177.2416078998
 10
6262.6333515221
 20
5177.0033342476
 10
6263.2319896914
 20
5176.827617456
  0
ARC
  5
81
330
1F
100
AcDbEntity
  8
0
  6
Continuous
 62
     7
370
    25
100
AcDbCircle
 10
6287.2973083369
 20
5179.8799437969
 30
0.0
 40
1.714851184918167
100
AcDbArc
 50
316.5644441744
 51
357.8694477754
  0
LINE
  5
82
330
1F
100
AcDbEntity
  8
0
  6
Continuous
 62
     7
370
    25
100
AcDbLine
 10
6259.0187553361
 20
5210.3683922883
 30
0.0
 11
6259.0187553361
 21
5179.8526428755
 31
0.0
  0
LINE
  5
83
330
1F
100
AcDbEntity
  8
0
  6
Continuous
 62
     7
370
    25
100
AcDbLine
 10
6289.0187553361
 20
5179.8526428755
 30
0.0
 11
6289.0187553361
 21
5210.3683922883
 31
0.0
  0
LWPOLYLINE
  5
84
330
1F
100
AcDbEntity
  8
0
  6
Continuous
 62
     7
370
    25
100
AcDbPolyline
 90
       44
 70
   128
 43
0.0
 10
6289.0171191527
 20
5210.4149820042
 10
6288.968197867
 20
5210.7528493324
 10
6288.8421931898
 20
5211.0813260085
 10
6288.6421183883
 20
5211.397997964
 10
6288.3612437057
 20
5211.7097264319
 10
6287.9923812077
 20
5212.0172612482
 10
6287.5371428335
 20
5212.3150107174
 10
6287.0049578832
 20
5212.5969463087
 10
6286.4043694943
 20
5212.8608883374
 10
6285.7395472885
 20
5213.1072974841
 10
6285.0138085252
 20
5213.3365282246
 10
6284.2304869053
 20
5213.5485709074
 10
6283.3932393923
 20
5213.7431237097
 10
6282.5061192699
 20
5213.9197064136
 10
6281.5735666223
 20
5214.0777513918
 10
6280.6003719972
 20
5214.2166675229
 10
6279.5916325911
 20
5214.3358837598
 10
6278.5527073416
 20
5214.4348788455
 10
6277.4891727858
 20
5214.5132017593
 10
6276.4067800096
 20
5214.5704858659
 10
6275.3114125466
 20
5214.6064586385
 10
6274.2090449881
 20
5214.6209481194
 10
6273.1057020837
 20
5214.6138868222
 10
6272.0074333772
 20
5214.5853140242
 10
6270.9202734678
 20
5214.5353771082
 10
6269.8501549528
 20
5214.4643275241
 10
6268.8028995535
 20
5214.372516531
 10
6267.7841773753
 20
5214.2603885257
 10
6266.7994656054
 20
5214.1284711541
 10
6265.8540062721
 20
5213.9773610274
 10
6264.9527625549
 20
5213.8077030709
 10
6264.1003730625
 20
5213.6201601931
 10
6263.3011036745
 20
5213.4153676418
 10
6262.55879756
 20
5213.1938623502
 10
6261.8768275183
 20
5212.955970574
 10
6261.2580656496
 20
5212.7016258414
 10
6260.7049173806
 20
5212.4300757359
 10
6260.2195579237
 20
5212.1394448209
 10
6259.8047423932
 20
5211.8262872104
 10
6259.4664829409
 20
5211.4867785848
 10
6259.2420406656
 20
5211.1679374312
 10
6259.096830974
 20
5210.8453286795
 10
6259.0264044252
 20
5210.5183457491
 10
6259.0293164193
 20
5210.3589607389
  0
LWPOLYLINE
  5
85
330
1F
100
AcDbEntity
  8
0
  6
Continuous
 62
     7
370
    25
100
AcDbPolyline
 90
       29
 70
   128
 43
0.0
 10
6268.0179060404
 20
5178.7169547409
 10
6268.0306256297
 20
5178.7395761399
 10
6268.0940157597
 20
5178.8109992555
 10
6268.2315834722
 20
5178.9184870448
 10
6268.4444097223
 20
5179.0423584659
 10
6268.7360490453
 20
5179.1742926282
 10
6269.105409516
 20
5179.307027662
 10
6269.5477580607
 20
5179.4346124579
 10
6270.0561669353
 20
5179.5524469307
 10
6270.6224957586
 20
5179.6570606873
 10
6271.2379227821
 20
5179.7458526819
 10
6271.8931970226
 20
5179.8168842519
 10
6272.5787644157
 20
5179.8687407915
 10
6273.2848516436
 20
5179.9004473191
 10
6274.001542454
 20
5179.91141974
 10
6274.7188571753
 20
5179.9014383816
 10
6275.4267638125
 20
5179.8706400947
 10
6276.1153289271
 20
5179.819522404
 10
6276.7748810525
 20
5179.7489461115
 10
6277.3960004721
 20
5179.6601643067
 10
6277.9695760132
 20
5179.5548810089
 10
6278.4868450572
 20
5179.4353645162
 10
6278.9394250661
 20
5179.3046642733
 10
6279.3193821636
 20
5179.1670232051
 10
6279.6194975325
 20
5179.0286428274
 10
6279.8342153242
 20
5178.8989846482
 10
6279.9624835814
 20
5178.7923964711
 10
6280.0143649977
 20
5178.7277319124
 10
6280.0178480323
 20
5178.7216499047
  0
ARC
  5
86
330
1F
100
AcDbEntity
  8
0
  6
Continuous
 62
     7
370
    25
100
AcDbCircle
 10
6235.5290236831
 20
5206.0367713712
 30
0.0
 40
24.02247104436724
100
AcDbArc
 50
11.7953483039
 51
18.4403710449
  0
LWPOLYLINE
  5
87
330
1F
100
AcDbEntity
  8
0
  6
Continuous
 62
     7
370
    25
100
AcDbPolyline
 90
       11
 70
   128
 43
0.0
 10
6288.9932747306
 20
5210.9473627322
 10
6289.1947218593
 20
5211.8036473214
 10
6289.3551893057
 20
5212.4285727234
 10
6289.4789843263
 20
5212.8735235196
 10
6289.570059861
 20
5213.1783644792
 10
6289.631916787
 20
5213.373351237
 10
6289.6691293452
 20
5213.4853674871
 10
6289.6969049111
 20
5213.5659480009
 10
6289.7182504402
 20
5213.6257838914
 10
6289.7407463428
 20
5213.6864506158
 10
6289.7379705477
 20
5213.6803169115
  0
ARC
  5
88
330
1F
100
AcDbEntity
  8
0
  6
Continuous
 62
     7
370
    25
100
AcDbCircle
 10
6274.0187553361
 20
5226.2924994062
 30
0.0
 40
27.49999999999981
100
AcDbArc
 50
303.0557311509
 51
236.9442688491
  0
LINE
  5
89
330
1F
100
AcDbEntity
  8
0
  6
Continuous
 62
     7
370
    25
100
AcDbLine
 10
6289.0187553361
 20
5179.8526428755
 30
0.0
 11
6289.0184387166
 21
5179.8274183286
 31
0.0
  0
ARC
  5
8A
330
1F
100
AcDbEntity
  8
0
  6
Continuous
 62
     7
370
    25
100
AcDbCircle
 10
6274.0565470533
 20
5222.28625842
 30
0.0
 40
46.72697912643385
100
AcDbArc
 50
256.6823065648
 51
282.6336681984
  0
LINE
  5
8B
330
1F
100
AcDbEntity
  8
0
  6
Continuous
 62
     7
370
    25
100
AcDbLine
 10
6289.0187553361
 20
5210.3683922883
 30
0.0
 11
6289.0182501771
 21
5210.4002538645
 31
0.0
  0
ARC
  5
8C
330
1F
100
AcDbEntity
  8
0
  6
Continuous
 62
     7
370
    25
100
AcDbCircle
 10
6274.0348514557
 20
5200.0801126823
 30
0.0
 40
23.52884243522143
100
AcDbArc
 50
261.6912999524
 51
276.2236349154
  0
LWPOLYLINE
  5
8D
330
1F
100
AcDbEntity
  8
0
  6
Continuous
 62
     7
370
    25
100
AcDbPolyline
 90
       22
 70
   128
 43
0.0
 10
6274.0187553361
 20
5215.0570707593
 10
6272.8418689002
 20
5215.0451029682
 10
6271.6722383605
 20
5215.0092733803
 10
6270.5170748783
 20
5214.949802897
 10
6269.3835004205
 20
5214.8670581736
 10
6268.2785038506
 20
5214.7615493587
 10
6267.20889784
 20
5214.6339269493
 10
6266.1812768654
 20
5214.4849777801
 10
6265.2019765517
 20
5214.3156201721
 10
6264.2770346111
 20
5214.1268982714
 10
6263.4121536183
 20
5213.9199756112
 10
6262.6126658521
 20
5213.6961279385
 10
6261.8835004205
 20
5213.4567353486
 10
6261.2291528708
 20
5213.2032737766
 10
6260.6536574733
 20
5212.9373058972
 10
6260.1605623484
 20
5212.6604714909
 10
6259.7529075917
 20
5212.3744773338
 10
6259.4332065301
 20
5212.0810866751
 10
6259.2034302272
 20
5211.7821083657
 10
6259.0649953301
 20
5211.4793857063
 10
6259.0187553361
 20
5211.1747850828
 10
6259.0464197687
 20
5210.9391079711
  0
LWPOLYLINE
  5
8E
330
1F
100
AcDbEntity
  8
0
  6
Continuous
 62
     7
370
    25
100
AcDbPolyline
 90
       22
 70
   128
 43
0.0
 10
6288.9909485239
 20
5210.9385028348
 10
6289.0187553361
 20
5211.1747850828
 10
6288.9725153421
 20
5211.4793857063
 10
6288.834080445
 20
5211.7821083657
 10
6288.6043041421
 20
5212.0810866751
 10
6288.2846030805
 20
5212.3744773338
 10
6287.8769483238
 20
5212.6604714909
 10
6287.3838531989
 20
5212.9373058972
 10
6286.8083578014
 20
5213.2032737766
 10
6286.1540102517
 20
5213.4567353486
 10
6285.4248448201
 20
5213.6961279385
 10
6284.6253570539
 20
5213.9199756112
 10
6283.7604760611
 20
5214.1268982714
 10
6282.8355341205
 20
5214.3156201721
 10
6281.8562338068
 20
5214.4849777801
 10
6280.8286128322
 20
5214.6339269493
 10
6279.7590068216
 20
5214.7615493587
 10
6278.6540102517
 20
5214.8670581736
 10
6277.5204357939
 20
5214.949802897
 10
6276.3652723117
 20
5215.0092733803
 10
6275.195641772
 20
5215.0451029682
 10
6274.0187553361
 20
5215.0570707593
  0
LWPOLYLINE
  5
8F
330
1F
100
AcDbEntity
  8
0
  6
Continuous
 62
     7
370
    25
100
AcDbPolyline
 90
       20
 70
   128
 43
0.0
 10
6276.5187553361
 20
5248.0400243961
 10
6276.3784482258
 20
5247.9457622048
 10
6275.9711959674
 20
5247.8845397591
 10
6275.3456705744
 20
5247.852943827
 10
6274.5715723052
 20
5247.8407699583
 10
6273.7342827293
 20
5247.8393947128
 10
6272.9285534587
 20
5247.8474182783
 10
6272.2459993433
 20
5247.8716306913
 10
6271.7638150793
 20
5247.9221807054
 10
6271.5342957412
 20
5248.0053007181
 10
6271.581045358
 20
5248.1179414697
 10
6271.9032109777
 20
5248.2461098635
 10
6272.4718989221
 20
5248.3658653458
 10
6273.218777356
 20
5248.4495887085
 10
6274.0450960974
 20
5248.4779298571
 10
6274.8546887766
 20
5248.4469316173
 10
6275.5710586996
 20
5248.3650041993
 10
6276.1262763953
 20
5248.2483740152
 10
6276.4534338359
 20
5248.1199292415
 10
6276.5187553361
 20
5248.0400243961
  0
ARC
  5
90
330
1F
100
AcDbEntity
  8
0
  6
Continuous
 62
     7
370
    25
100
AcDbCircle
 10
6274.0187553361
 20
5226.2924994062
 30
0.0
 40
22.5
100
AcDbArc
 50
180.0
 51
228.1896851042
  0
ARC
  5
91
330
1F
100
AcDbEntity
  8
0
  6
Continuous
 62
     7
370
    25
100
AcDbCircle
 10
6274.0187553361
 20
5226.2924994062
 30
0.0
 40
22.5
100
AcDbArc
 50
311.8103148958
 51
180.0
  0
ARC
  5
92
330
1F
100
AcDbEntity
  8
0
  6
Continuous
 62
     8
370
    25
100
AcDbCircle
 10
6274.0187553361
 20
5226.2924994062
 30
0.0
 40
26.50000000000023
100
AcDbArc
 50
304.4743846098
 51
235.5256153902
  0
LWPOLYLINE
  5
93
330
1F
100
AcDbEntity
  8
0
  6
Continuous
 62
     8
370
    25
100
AcDbPolyline
 90
       42
 70
   128
 43
0.0
 10
6259.0188111371
 20
5179.8632324248
 10
6259.0496657483
 20
5180.1017495729
 10
6259.1713253246
 20
5180.404954595
 10
6259.3845242442
 20
5180.7047544315
 10
6259.6879480648
 20
5180.999300717
 10
6260.0797260777
 20
5181.2867774756
 10
6260.5574428412
 20
5181.5654123175
 10
6261.1181530726
 20
5181.8334873662
 10
6261.7583998068
 20
5182.08934985
 10
6262.4742357099
 20
5182.3314222914
 10
6263.2612474153
 20
5182.5582122335
 10
6264.1145827344
 20
5182.7683214408
 10
6265.028980571
 20
5182.9604545202
 10
6265.9988033584
 20
5183.1334269073
 10
6267.0180718167
 20
5183.28617217
 10
6268.0805018168
 20
5183.4177485827
 10
6269.1795431246
 20
5183.5273449333
 10
6270.3084197848
 20
5183.6142855237
 10
6271.4601718975
 20
5183.6780343363
 10
6272.627698528
 20
5183.7181983384
 10
6273.8038014862
 20
5183.7345299057
 10
6274.9812297064
 20
5183.7269283486
 10
6276.1527239521
 20
5183.6954405333
 10
6277.3110615716
 20
5183.6402605925
 10
6278.4491010283
 20
5183.561728729
 10
6279.5598259307
 20
5183.4603291178
 10
6280.6363882902
 20
5183.3366869212
 10
6281.672150742
 20
5183.1915644346
 10
6282.6607274661
 20
5183.0258563862
 10
6283.5960235583
 20
5182.8405844213
 10
6284.4722726071
 20
5182.6368908032
 10
6285.2840722458
 20
5182.4160313708
 10
6286.0264174596
 20
5182.1793677959
 10
6286.6947314435
 20
5181.9283591881
 10
6287.2848938195
 20
5181.6645530991
 10
6287.7932660403
 20
5181.3895759809
 10
6288.2167138222
 20
5181.1051231591
 10
6288.5526264686
 20
5180.8129483799
 10
6288.7989329666
 20
5180.5148529979
 10
6288.9541147545
 20
5180.2126748703
 10
6289.0172150851
 20
5179.9082770257
 10
6289.0187553361
 20
5179.8526428755
  0
LWPOLYLINE
  5
94
330
1F
100
AcDbEntity
  8
0
  6
Continuous
 62
     8
370
    25
100
AcDbPolyline
 90
       53
 70
   128
 43
0.0
 10
6288.2619562701
 20
5178.5499370834
 10
6288.4715161717
 20
5178.8454447922
 10
6288.589701066
 20
5179.1443275792
 10
6288.61576375
 20
5179.4446958111
 10
6288.549539447
 20
5179.7446504633
 10
6288.3914468483
 20
5180.0422951259
 10
6288.1424854663
 20
5180.3357479934
 10
6287.804229315
 20
5180.6231537625
 10
6287.3788169587
 20
5180.9026953612
 10
6286.8689379912
 20
5181.1726054377
 10
6286.2778160317
 20
5181.4311775334
 10
6285.6091883433
 20
5181.6767768723
 10
6284.8672822057
 20
5181.9078506964
 10
6284.0567881883
 20
5182.1229380825
 10
6283.1828304953
 20
5182.3206791789
 10
6282.2509345686
 20
5182.4998238027
 10
6281.2669921542
 20
5182.659239344
 10
6280.237224053
 20
5182.7979179264
 10
6279.1681407904
 20
5182.9149827792
 10
6278.0665014549
 20
5183.0096937807
 10
6276.9392709653
 20
5183.0814521375
 10
6275.7935760355
 20
5183.1298041702
 10
6274.6366601178
 20
5183.1544441816
 10
6273.4758376072
 20
5183.1552163896
 10
6272.3184475972
 20
5183.1321159122
 10
6271.1718074802
 20
5183.0852887978
 10
6270.0431666842
 20
5183.0150311028
 10
6268.9396608397
 20
5182.9217870187
 10
6267.8682666659
 20
5182.8061460648
 10
6266.8357578617
 20
5182.6688393604
 10
6265.8486622803
 20
5182.5107350026
 10
6264.9132206577
 20
5182.3328325782
 10
6264.0353471571
 20
5182.1362568435
 10
6263.2205919773
 20
5181.9222506136
 10
6262.474106263
 20
5181.6921669048
 10
6261.8006095371
 20
5181.4474603805
 10
6261.2043598629
 20
5181.1896781539
 10
6260.6891269228
 20
5180.9204500075
 10
6260.2581681852
 20
5180.6414780881
 10
6259.91420831
 20
5180.3545261461
 10
6259.6594219225
 20
5180.0614083841
 10
6259.495419864
 20
5179.7639779869
 10
6259.4232390085
 20
5179.4641154053
 10
6259.4433357066
 20
5179.163716467
 10
6259.5555829004
 20
5178.8646803908
 10
6259.759270927
 20
5178.5688977792
 10
6260.0531120052
 20
5178.278238665
 10
6260.4352483771
 20
5177.9945406887
 10
6260.9032640535
 20
5177.7195974802
 10
6261.4542000885
 20
5177.4551473191
 10
6262.0845732873
 20
5177.2028621445
 10
6262.7903982274
 20
5176.9643369843
 10
6263.2929756215
 20
5176.8158712618
  0
ARC
  5
95
330
1F
100
AcDbEntity
  8
0
  6
Continuous
 62
     8
370
    25
100
AcDbCircle
 10
6282.6928754969
 20
5185.2861674088
 30
0.0
 40
8.740220801340518
100
AcDbArc
 50
280.4390839682
 51
309.5817475983
  0
LWPOLYLINE
  5
96
330
1F
100
AcDbEntity
  8
0
  6
Continuous
 62
     8
370
    25
100
AcDbPolyline
 90
       42
 70
   128
 43
0.0
 10
6289.0182501771
 20
5210.4002538645
 10
6289.0172150851
 20
5210.4240264385
 10
6288.9541147545
 20
5210.7284242831
 10
6288.7989329666
 20
5211.0306024107
 10
6288.5526264686
 20
5211.3286977927
 10
6288.2167138222
 20
5211.6208725719
 10
6287.7932660403
 20
5211.9053253937
 10
6287.2848938195
 20
5212.1803025119
 10
6286.6947314435
 20
5212.4441086009
 10
6286.0264174596
 20
5212.6951172087
 10
6285.2840722458
 20
5212.9317807836
 10
6284.4722726071
 20
5213.152640216
 10
6283.5960235583
 20
5213.3563338341
 10
6282.6607274661
 20
5213.541605799
 10
6281.672150742
 20
5213.7073138474
 10
6280.6363882902
 20
5213.8524363341
 10
6279.5598259307
 20
5213.9760785306
 10
6278.4491010283
 20
5214.0774781418
 10
6277.3110615716
 20
5214.1560100053
 10
6276.1527239521
 20
5214.2111899461
 10
6274.9812297064
 20
5214.2426777615
 10
6273.8038014862
 20
5214.2502793186
 10
6272.627698528
 20
5214.2339477512
 10
6271.4601718975
 20
5214.1937837491
 10
6270.3084197848
 20
5214.1300349365
 10
6269.1795431246
 20
5214.0430943461
 10
6268.0805018168
 20
5213.9334979955
 10
6267.0180718167
 20
5213.8019215828
 10
6265.9988033584
 20
5213.6491763202
 10
6265.028980571
 20
5213.476203933
 10
6264.1145827344
 20
5213.2840708536
 10
6263.2612474153
 20
5213.0739616463
 10
6262.4742357099
 20
5212.8471717043
 10
6261.7583998068
 20
5212.6050992628
 10
6261.1181530726
 20
5212.3492367791
 10
6260.5574428412
 20
5212.0811617303
 10
6260.0797260777
 20
5211.8025268884
 10
6259.6879480648
 20
5211.5150501298
 10
6259.3845242442
 20
5211.2205038444
 10
6259.1713253246
 20
5210.9207040078
 10
6259.0496657483
 20
5210.6174989858
 10
6259.0187553361
 20
5210.3683922883
  0
ARC
  5
97
330
1F
100
AcDbEntity
  8
0
  6
Continuous
 62
     8
370
    25
100
AcDbCircle
 10
6276.5206851312
 20
5183.635906169
 30
0.0
 40
6.946267994730568
100
AcDbArc
 50
270.5354541902
 51
303.9865655314
  0
LWPOLYLINE
  5
98
330
1F
100
AcDbEntity
  8
0
  6
Continuous
 62
     8
370
    25
100
AcDbPolyline
 90
       40
 70
   128
 43
0.0
 10
6270.6347818837
 20
5176.7982323191
 10
6270.6131054856
 20
5176.8016363317
 10
6269.9760369441
 20
5176.9160401268
 10
6269.395719307
 20
5177.0491424602
 10
6268.880298962
 20
5177.1990748669
 10
6268.4370112808
 20
5177.3637326246
 10
6268.0720790508
 20
5177.5408042993
 10
6267.7906251206
 20
5177.7278041928
 10
6267.5966004864
 20
5177.9221072366
 10
6267.4927288287
 20
5178.1209858418
 10
6267.480468278
 20
5178.3216481887
 10
6267.5599909454
 20
5178.5212774178
 10
6267.7301805072
 20
5178.7170711725
 10
6267.9886478748
 20
5178.9062809374
 10
6268.331764733
 20
5179.0862506224
 10
6268.7547144732
 20
5179.2544538475
 10
6269.2515598082
 20
5179.4085294081
 10
6269.8153261186
 20
5179.5463144211
 10
6270.4380993612
 20
5179.665874687
 10
6271.1111371648
 20
5179.7655318416
 10
6271.8249915539
 20
5179.8438869171
 10
6272.5696415778
 20
5179.8998399798
 10
6273.3346339823
 20
5179.9326055715
 10
6274.109229951
 20
5179.9417237351
 10
6274.8825558545
 20
5179.9270664715
 10
6275.6437558921
 20
5179.8888395366
 10
6276.382144484
 20
5179.8275795527
 10
6277.0873562728
 20
5179.7441464758
 10
6277.749491631
 20
5179.6397115233
 10
6278.3592556294
 20
5179.5157407331
 10
6278.9080885183
 20
5179.3739743833
 10
6279.3882858868
 20
5179.2164025627
 10
6279.7931068165
 20
5179.0452372343
 10
6280.116868509
 20
5178.862881184
 10
6280.3550260597
 20
5178.6718942912
 10
6280.5042362588
 20
5178.474957593
 10
6280.5624045221
 20
5178.2748356492
 10
6280.5287142946
 20
5178.074337733
 10
6280.4036385134
 20
5177.8762783958
 10
6280.4036385134
 20
5177.8762783958
  0
LWPOLYLINE
  5
99
330
1F
100
AcDbEntity
  8
0
  6
Continuous
 62
     8
370
    25
100
AcDbPolyline
 90
        3
 70
   128
 43
0.0
 10
6279.8724477729
 20
5178.388257343
 10
6279.9913438141
 20
5178.580830755
 10
6280.0187322949
 20
5178.7334056358
  0
LWPOLYLINE
  5
9A
330
1F
100
AcDbEntity
  8
0
  6
Continuous
 62
     8
370
    25
100
AcDbPolyline
 90
       25
 70
   128
 43
0.0
 10
6268.0187621247
 20
5178.7267659516
 10
6268.0214621049
 20
5178.6824614382
 10
6268.0913382487
 20
5178.4882852496
 10
6268.2546933008
 20
5178.2979068844
 10
6268.5089510544
 20
5178.1143287232
 10
6268.850101713
 20
5177.9404459034
 10
6269.2727651268
 20
5177.7790006607
 10
6269.7702756413
 20
5177.6325390832
 10
6270.3347872186
 20
5177.5033709574
 10
6270.9573971737
 20
5177.3935333418
 10
6271.6282865759
 20
5177.3047584412
 10
6272.3368750984
 20
5177.2384462889
 10
6273.0719878769
 20
5177.195642667
 10
6273.8220317438
 20
5177.1770226144
 10
6274.5751780594
 20
5177.1828797803
 10
6275.3195492561
 20
5177.2131217937
 10
6276.0434061557
 20
5177.26727172
 10
6276.7353331024
 20
5177.3444755825
 10
6277.3844179949
 20
5177.4435158302
 10
6277.9804243768
 20
5177.5628305393
 10
6278.5139528713
 20
5177.7005380454
 10
6278.9765894153
 20
5177.854466619
 10
6279.3610379543
 20
5178.0221887145
 10
6279.661235505
 20
5178.2010592543
 10
6279.8724477729
 20
5178.388257343
  0
LINE
  5
9B
330
1F
100
AcDbEntity
  8
0
  6
Continuous
 62
     7
370
    25
100
AcDbLine
 10
6428.0246519084
 20
5198.7924994062
 30
0.0
 11
6429.0246519084
 21
5198.7924994062
 31
0.0
  0
LINE
  5
9C
330
1F
100
AcDbEntity
  8
0
  6
Continuous
 62
     7
370
    25
100
AcDbLine
 10
6429.0246519084
 20
5253.7924994062
 30
0.0
 11
6428.0246519084
 21
5253.7924994062
 31
0.0
  0
ARC
  5
9D
330
1F
100
AcDbEntity
  8
0
  6
Continuous
 62
     7
370
    25
100
AcDbCircle
 10
6429.0246519084
 20
5252.7924994062
 30
0.0
 40
1.0
100
AcDbArc
 50
0.0
 51
90.0
  0
ARC
  5
9E
330
1F
100
AcDbEntity
  8
0
  6
Continuous
 62
     7
370
    25
100
AcDbCircle
 10
6429.0246519084
 20
5199.7924994062
 30
0.0
 40
1.0
100
AcDbArc
 50
270.0
 51
0.0
  0
ARC
  5
9F
330
1F
100
AcDbEntity
  8
0
  6
Continuous
 62
     7
370
    25
100
AcDbCircle
 10
6467.3840444583
 20
5206.6155161343
 30
0.0
 40
0.4999999999997651
100
AcDbArc
 50
104.9999999999
 51
195.0
  0
ARC
  5
A0
330
1F
100
AcDbEntity
  8
0
  6
Continuous
 62
     7
370
    25
100
AcDbCircle
 10
6495.3958934206
 20
5214.1212684423
 30
0.0
 40
0.500000000000879
100
AcDbArc
 50
15.0
 51
105.0
  0
LINE
  5
A1
330
1F
100
AcDbEntity
  8
0
  6
Continuous
 62
     7
370
    25
100
AcDbLine
 10
6466.9010815451
 20
5206.4861066118
 30
0.0
 11
6475.0777519567
 21
5175.970357199
 31
0.0
  0
LINE
  5
A2
330
1F
100
AcDbEntity
  8
0
  6
Continuous
 62
     7
370
    25
100
AcDbLine
 10
6504.0555267454
 20
5183.734928552
 30
0.0
 11
6495.8788563338
 21
5214.2506779648
 31
0.0
  0
ARC
  5
A3
330
1F
100
AcDbEntity
  8
0
  6
Continuous
 62
     7
370
    25
100
AcDbCircle
 10
6475.5607148699
 20
5176.0997667215
 30
0.0
 40
0.4999999999999992
100
AcDbArc
 50
195.0
 51
273.5570088469
  0
ARC
  5
A4
330
1F
100
AcDbEntity
  8
0
  6
Continuous
 62
     7
370
    25
100
AcDbCircle
 10
6503.5725638322
 20
5183.6055190295
 30
0.0
 40
0.500000000000879
100
AcDbArc
 50
296.4429911532
 51
15.0
  0
ARC
  5
A5
330
1F
100
AcDbEntity
  8
0
  6
Continuous
 62
     7
370
    25
100
AcDbCircle
 10
6471.0262570988
 20
5249.0462914325
 30
0.0
 40
73.58732294106916
100
AcDbArc
 50
290.1023248115
 51
296.4429911532
  0
ARC
  5
A6
330
1F
100
AcDbEntity
  8
0
  6
Continuous
 62
     7
370
    25
100
AcDbCircle
 10
6471.0262570988
 20
5249.0462914325
 30
0.0
 40
73.58732294106946
100
AcDbArc
 50
273.5570088468
 51
279.8976751885
  0
ARC
  5
A7
330
1F
100
AcDbEntity
  8
0
  6
Continuous
 62
     7
370
    25
100
AcDbCircle
 10
6483.5891733597
 20
5177.0467781723
 30
0.0
 40
0.5000000000003322
100
AcDbArc
 50
279.8976751884
 51
285.0
  0
ARC
  5
A8
330
1F
100
AcDbEntity
  8
0
  6
Continuous
 62
     7
370
    25
100
AcDbCircle
 10
6496.1462091014
 20
5180.4114257586
 30
0.0
 40
0.5000000000003185
100
AcDbArc
 50
285.0000000001
 51
290.1023248116
  0
LINE
  5
A9
330
1F
100
AcDbEntity
  8
0
  6
Continuous
 62
     7
370
    25
100
AcDbLine
 10
6483.7185828822
 20
5176.5638152591
 30
0.0
 11
6496.275618624
 21
5179.9284628454
 31
0.0
  0
LINE
  5
AA
330
1F
100
AcDbEntity
  8
0
  6
Continuous
 62
     7
370
    25
100
AcDbLine
 10
6493.8175951587
 20
5214.2160027878
 30
0.0
 11
6493.6881856361
 21
5214.6989657009
 31
0.0
  0
LINE
  5
AB
330
1F
100
AcDbEntity
  8
0
  6
Continuous
 62
     7
370
    25
100
AcDbLine
 10
6468.5741141526
 20
5207.9696705283
 30
0.0
 11
6468.7035236751
 21
5207.4867076151
 31
0.0
  0
LWPOLYLINE
  5
AC
330
1F
100
AcDbEntity
  8
0
  6
Continuous
 62
     7
370
    25
100
AcDbPolyline
 90
        9
 70
   128
 43
0.0
 10
6430.0246519084
 20
5203.7924994062
 10
6435.0308693625
 20
5203.7971886513
 10
6439.9236351851
 20
5203.8534650094
 10
6444.6839292233
 20
5204.0164952327
 10
6449.2956967105
 20
5204.331209381
 10
6453.7458537005
 20
5204.8283610974
 10
6458.0252110535
 20
5205.5009305819
 10
6462.1271640274
 20
5206.3287360785
 10
6466.0468771198
 20
5207.2924994062
  0
LWPOLYLINE
  5
AD
330
1F
100
AcDbEntity
  8
0
  6
Continuous
 62
     7
370
    25
100
AcDbPolyline
 90
        3
 70
   128
 43
0.0
 10
6436.0280026719
 20
5248.4648805708
 10
6433.3207864378
 20
5248.6911326406
 10
6430.0246519084
 20
5248.7924994062
  0
LWPOLYLINE
  5
AE
330
1F
100
AcDbEntity
  8
0
  6
Continuous
 62
     7
370
    25
100
AcDbPolyline
 90
       29
 70
   128
 43
0.0
 10
6495.0246519084
 20
5215.0570707593
 10
6494.3518193582
 20
5217.2537995281
 10
6493.6053240827
 20
5219.1981504208
 10
6492.8155907465
 20
5220.9144258211
 10
6492.0091292781
 20
5222.424076169
 10
6491.2089170576
 20
5223.7459411815
 10
6490.247321328
 20
5225.1590500767
 10
6489.3586708719
 20
5226.331664744
 10
6488.5693049119
 20
5227.286368485
 10
6487.9001973818
 20
5228.0414277678
 10
6487.2740696678
 20
5228.7086005668
 10
6486.5444775249
 20
5229.4433971494
 10
6485.638430577
 20
5230.2994516517
 10
6484.5413872261
 20
5231.2629894357
 10
6483.2376977268
 20
5232.3187651803
 10
6481.7112226856
 20
5233.4504532521
 10
6479.94604043
 20
5234.6410941662
 10
6477.9272432433
 20
5235.8735971357
 10
6475.6418224678
 20
5237.1312987112
 10
6473.0796424758
 20
5238.3985775089
 10
6470.2345035067
 20
5239.6615250289
 10
6467.1052933737
 20
5240.9086725623
 10
6463.697228036
 20
5242.1317741878
 10
6460.0231809449
 20
5243.3266445334
 10
6456.1852205597
 20
5244.4647683097
 10
6452.140750441
 20
5245.5462712741
 10
6447.9282707528
 20
5246.5389780978
 10
6443.5981155705
 20
5247.4056203513
 10
6440.9917836439
 20
5247.8330433573
  0
LINE
  5
AF
330
1F
100
AcDbEntity
  8
0
  6
Continuous
 62
     7
370
    25
100
AcDbLine
 10
6428.0246519084
 20
5237.2924994062
 30
0.0
 11
6415.0246519084
 21
5237.2924994062
 31
0.0
  0
LINE
  5
B0
330
1F
100
AcDbEntity
  8
0
  6
Continuous
 62
     7
370
    25
100
AcDbLine
 10
6415.0246519084
 20
5215.2924994062
 30
0.0
 11
6428.0246519084
 21
5215.2924994062
 31
0.0
  0
LINE
  5
B1
330
1F
100
AcDbEntity
  8
0
  6
Continuous
 62
     7
370
    25
100
AcDbLine
 10
6428.0246519084
 20
5253.7924994062
 30
0.0
 11
6428.0246519084
 21
5198.7924994062
 31
0.0
  0
LINE
  5
B2
330
1F
100
AcDbEntity
  8
0
  6
Continuous
 62
     7
370
    25
100
AcDbLine
 10
6430.0246519084
 20
5252.7924994042
 30
0.0
 11
6430.0246519084
 21
5199.7924994062
 31
0.0
  0
LINE
  5
B3
330
1F
100
AcDbEntity
  8
0
  6
Continuous
 62
     7
370
    25
100
AcDbLine
 10
6467.2546349357
 20
5207.0984790475
 30
0.0
 11
6495.2664838981
 21
5214.6042313554
 31
0.0
  0
LWPOLYLINE
  5
B4
330
1F
100
AcDbEntity
  8
0
  6
Continuous
 62
     7
370
    25
100
AcDbPolyline
 90
       20
 70
   128
 43
0.0
 10
6471.5896061854
 20
5190.4015169809
 10
6471.5255797619
 20
5190.3117058407
 10
6471.514048977
 20
5190.0989722
 10
6471.551935486
 20
5189.7852818196
 10
6471.6299657386
 20
5189.4040945798
 10
6471.7352988013
 20
5188.9987729436
 10
6471.8552794002
 20
5188.6150777921
 10
6471.9796521849
 20
5188.2954140839
 10
6472.0997147497
 20
5188.0767832053
 10
6472.2065847646
 20
5187.9862770545
 10
6472.2907044038
 20
5188.0346975209
 10
6472.34226538
 20
5188.2155568639
 10
6472.3519344042
 20
5188.5082478092
 10
6472.3130769003
 20
5188.879325765
 10
6472.2255865791
 20
5189.2846961516
 10
6472.0980481875
 20
5189.6772947549
 10
6471.9464496568
 20
5190.0146447879
 10
6471.7917714544
 20
5190.2609412239
 10
6471.6568642745
 20
5190.3889187271
 10
6471.5896061854
 20
5190.4015169809
  0
LWPOLYLINE
  5
B5
330
1F
100
AcDbEntity
  8
0
  6
Continuous
 62
     7
370
    25
100
AcDbPolyline
 90
       11
 70
   128
 43
0.0
 10
6440.9929018674
 20
5247.8398620399
 10
6441.0084142433
 20
5247.8393947128
 10
6440.7744207558
 20
5247.8474182783
 10
6440.2874157014
 20
5247.8716306913
 10
6439.6041167935
 20
5247.9221807054
 10
6438.8029692118
 20
5248.0053007181
 10
6437.9700619135
 20
5248.1179414697
 10
6437.1925587932
 20
5248.2461098635
 10
6436.5606673783
 20
5248.3658653458
 10
6436.1561006146
 20
5248.4495887085
 10
6436.0290170141
 20
5248.4770176703
  0
LINE
  5
B6
330
1F
100
AcDbEntity
  8
0
  6
Continuous
 62
     7
370
    25
100
AcDbLine
 10
6495.0246519084
 20
5215.0570707593
 30
0.0
 11
6466.0468773429
 21
5207.292499466
 31
0.0
  0
LINE
  5
B7
330
1F
100
AcDbEntity
  8
0
  6
Continuous
 62
     7
370
    25
100
AcDbLine
 10
6415.0246519084
 20
5237.2924994062
 30
0.0
 11
6415.0246519084
 21
5215.2924994062
 31
0.0
  0
LINE
  5
B8
330
1F
100
AcDbEntity
  8
0
  6
Continuous
 62
     8
370
    25
100
AcDbLine
 10
6429.0246519084
 20
5198.7924994062
 30
0.0
 11
6429.0246519084
 21
5253.7924994062
 31
0.0
  0
LINE
  5
B9
330
1F
100
AcDbEntity
  8
0
  6
Continuous
 62
     8
370
    25
100
AcDbLine
 10
6495.8788563338
 20
5214.2506779648
 30
0.0
 11
6466.9010815451
 21
5206.4861066118
 31
0.0
  0
LINE
  5
BA
330
1F
100
AcDbEntity
  8
0
  6
Continuous
 62
     8
370
    25
100
AcDbLine
 10
6475.0777519567
 20
5175.970357199
 30
0.0
 11
6504.0555267454
 21
5183.734928552
 31
0.0
  0
LINE
  5
BB
330
1F
100
AcDbEntity
  8
0
  6
Continuous
 62
     8
370
    25
100
AcDbLine
 10
6503.7952174021
 20
5183.1578300886
 30
0.0
 11
6475.5917356925
 21
5175.6007299407
 31
0.0
  0
LINE
  5
BC
330
1F
100
AcDbEntity
  8
0
  6
Continuous
 62
     8
370
    25
100
AcDbLine
 10
6483.675117924
 20
5176.5542200215
 30
0.0
 11
6496.3180580008
 21
5179.941885605
 31
0.0
  0
LINE
  5
BD
330
1F
100
AcDbEntity
  8
0
  6
Continuous
 62
     7
370
    25
100
AcDbLine
 10
6246.5187553361
 20
5054.0817812555
 30
0.0
 11
6246.5187553361
 21
5053.0817812555
 31
0.0
  0
LINE
  5
BE
330
1F
100
AcDbEntity
  8
0
  6
Continuous
 62
     7
370
    25
100
AcDbLine
 10
6301.5187553361
 20
5053.0817812555
 30
0.0
 11
6301.5187553361
 21
5054.0817812555
 31
0.0
  0
ARC
  5
BF
330
1F
100
AcDbEntity
  8
0
  6
Continuous
 62
     7
370
    25
100
AcDbCircle
 10
6300.5187553361
 20
5053.0817812555
 30
0.0
 40
1.0
100
AcDbArc
 50
270.0
 51
0.0
  0
ARC
  5
C0
330
1F
100
AcDbEntity
  8
0
  6
Continuous
 62
     7
370
    25
100
AcDbCircle
 10
6247.5187553361
 20
5053.0817812555
 30
0.0
 40
1.0
100
AcDbArc
 50
180.0
 51
270.0
  0
LINE
  5
C1
330
1F
100
AcDbEntity
  8
0
  6
Continuous
 62
     7
370
    25
100
AcDbLine
 10
6259.0187553361
 20
4999.8937749426
 30
0.0
 11
6259.0187553361
 21
4992.5397938129
 31
0.0
  0
LINE
  5
C2
330
1F
100
AcDbEntity
  8
0
  6
Continuous
 62
     7
370
    25
100
AcDbLine
 10
6289.0187553361
 20
4992.5397938129
 30
0.0
 11
6289.0187553361
 21
4999.8893324506
 31
0.0
  0
LWPOLYLINE
  5
C3
330
1F
100
AcDbEntity
  8
0
  6
Continuous
 62
     7
370
    25
100
AcDbPolyline
 90
       43
 70
   128
 43
0.0
 10
6251.5179820838
 20
5052.0817812555
 10
6251.7372661231
 20
5050.6255332459
 10
6251.9160262502
 20
5049.4090719244
 10
6252.0542824683
 20
5048.4513522688
 10
6252.1756539517
 20
5047.5991504867
 10
6252.2986288569
 20
5046.7253517867
 10
6252.5448810179
 20
5044.9465637089
 10
6252.7990280738
 20
5043.0741121368
 10
6253.1216579704
 20
5040.6511978112
 10
6253.467383322
 20
5038.0086019088
 10
6253.8361573777
 20
5035.1510024682
 10
6254.1000179021
 20
5033.0902770734
 10
6254.3288345118
 20
5031.2976141862
 10
6254.5226624292
 20
5029.7783184288
 10
6254.6815642006
 20
5028.5348757726
 10
6254.7819596265
 20
5027.7519853344
 10
6254.8753371131
 20
5027.0256409843
 10
6254.9895302594
 20
5026.1358637871
 10
6255.1250553313
 20
5025.0797837237
 10
6255.2362837197
 20
5024.2148264672
 10
6255.3585919124
 20
5023.267328292
 10
6255.4937803901
 20
5022.2268752692
 10
6255.6436049825
 20
5021.082984534
 10
6255.8081384271
 20
5019.8380892379
 10
6255.9875195136
 20
5018.4954357233
 10
6256.1730552421
 20
5017.1245054571
 10
6256.3330068116
 20
5015.9587219337
 10
6256.4699821365
 20
5014.9733606276
 10
6256.5759794022
 20
5014.2196423953
 10
6256.6815387901
 20
5013.4771029749
 10
6256.8055662595
 20
5012.6154731759
 10
6256.9481676362
 20
5011.6400466947
 10
6257.1024545854
 20
5010.604119505
 10
6257.3768686275
 20
5008.815241208
 10
6257.6643036701
 20
5007.0213482788
 10
6257.92761371
 20
5005.4560778015
 10
6258.1536938612
 20
5004.1760353779
 10
6258.2905463687
 20
5003.4313601785
 10
6258.4413318167
 20
5002.6382123291
 10
6258.6340860662
 20
5001.6673142379
 10
6258.8713725001
 20
5000.5403804226
 10
6259.1603247613
 20
4999.2726743546
 10
6259.5057148846
 20
4997.9099511981
  0
LWPOLYLINE
  5
C4
330
1F
100
AcDbEntity
  8
0
  6
Continuous
 62
     7
370
    25
100
AcDbPolyline
 90
       31
 70
   128
 43
0.0
 10
6288.5317957876
 20
4997.9099511981
 10
6288.8398474734
 20
4999.1173650799
 10
6289.0993627497
 20
5000.2371444037
 10
6289.3134434937
 20
5001.2309583647
 10
6289.4804675868
 20
5002.0494635151
 10
6289.5772248371
 20
5002.5405529508
 10
6289.6503157798
 20
5002.9196143715
 10
6289.7399833107
 20
5003.3940007047
 10
6289.8532582593
 20
5004.0077480468
 10
6290.3130726869
 20
5006.6570787157
 10
6290.7509893127
 20
5009.3963191985
 10
6291.1561034904
 20
5012.0946199578
 10
6291.5368040143
 20
5014.7540786307
 10
6291.9432021528
 20
5017.7040158784
 10
6292.288601658
 20
5020.2846624512
 10
6292.6284168889
 20
5022.875162919
 10
6293.0074782322
 20
5025.8089148966
 10
6293.389620838
 20
5028.7952629828
 10
6293.7745048486
 20
5031.8132889422
 10
6294.1868651337
 20
5035.037979609
 10
6294.6334216594
 20
5038.4952400857
 10
6294.8926685972
 20
5040.4752124978
 10
6295.1404249908
 20
5042.3426700994
 10
6295.3681249567
 20
5044.0335766893
 10
6295.5758396033
 20
5045.5517555382
 10
6295.6766893622
 20
5046.2796570429
 10
6295.7811841996
 20
5047.0270770737
 10
6295.9166638541
 20
5047.9852783642
 10
6296.0849263838
 20
5049.1572387295
 10
6296.2859075159
 20
5050.5289214292
 10
6296.5195285884
 20
5052.0817812555
  0
LINE
  5
C5
330
1F
100
AcDbEntity
  8
0
  6
Continuous
 62
     7
370
    25
100
AcDbLine
 10
6285.0187553361
 20
5054.0817812555
 30
0.0
 11
6285.0187553361
 21
5067.0817812555
 31
0.0
  0
LINE
  5
C6
330
1F
100
AcDbEntity
  8
0
  6
Continuous
 62
     7
370
    25
100
AcDbLine
 10
6263.0187553361
 20
5067.0817812555
 30
0.0
 11
6263.0187553361
 21
5054.0817812555
 31
0.0
  0
LINE
  5
C7
330
1F
100
AcDbEntity
  8
0
  6
Continuous
 62
     7
370
    25
100
AcDbLine
 10
6301.5187553361
 20
5054.0817812555
 30
0.0
 11
6246.5187553361
 21
5054.0817812555
 31
0.0
  0
LINE
  5
C8
330
1F
100
AcDbEntity
  8
0
  6
Continuous
 62
     7
370
    25
100
AcDbLine
 10
6300.5187553361
 20
5052.0817812555
 30
0.0
 11
6247.5187553361
 21
5052.0817812555
 31
0.0
  0
LWPOLYLINE
  5
C9
330
1F
100
AcDbEntity
  8
0
  6
Continuous
 62
     7
370
    25
100
AcDbPolyline
 90
       42
 70
   128
 43
0.0
 10
6259.0187553361
 20
4992.5397938129
 10
6259.0496657483
 20
4991.6101149614
 10
6259.1713253246
 20
4990.4785384142
 10
6259.3845242442
 20
4989.359670192
 10
6259.6879480648
 20
4988.2604084893
 10
6260.0797260777
 20
4987.1875306203
 10
6260.5574428412
 20
4986.1476512336
 10
6261.1181530726
 20
4985.1471815315
 10
6261.7583998068
 20
4984.1922897424
 10
6262.4742357099
 20
4983.2888630918
 10
6263.2612474153
 20
4982.4424715053
 10
6264.1145827344
 20
4981.6583332685
 10
6265.028980571
 20
4980.9412828544
 10
6265.9988033584
 20
4980.2957411173
 10
6267.0180718167
 20
4979.7256880366
 10
6268.0805018168
 20
4979.2346381792
 10
6269.1795431246
 20
4978.8256190306
 10
6270.3084197848
 20
4978.50115233
 10
6271.4601718975
 20
4978.2632385225
 10
6272.627698528
 20
4978.1133444257
 10
6273.8038014862
 20
4978.0523941867
 10
6274.9812297064
 20
4978.080763584
 10
6276.1527239521
 20
4978.1982777107
 10
6277.3110615716
 20
4978.4042120533
 10
6278.4491010283
 20
4978.6972969579
 10
6279.5598259307
 20
4979.0757254588
 10
6280.6363882902
 20
4979.5371644183
 10
6281.672150742
 20
4980.0787689119
 10
6282.6607274661
 20
4980.6971997676
 10
6283.5960235583
 20
4981.3886441538
 10
6284.4722726071
 20
4982.1488390857
 10
6285.2840722458
 20
4982.9730977088
 10
6286.0264174596
 20
4983.8563381947
 10
6286.6947314435
 20
4984.793115072
 10
6287.2848938195
 20
4985.7776527998
 10
6287.7932660403
 20
4986.8038813755
 10
6288.2167138222
 20
4987.8654737589
 10
6288.5526264686
 20
4988.9558848797
 10
6288.7989329666
 20
4990.0683919908
 10
6288.9541147545
 20
4991.1961361161
 10
6289.0172150851
 20
4992.3321643378
 10
6289.0187553361
 20
4992.5397938129
  0
CIRCLE
  5
CA
330
1F
100
AcDbEntity
  8
0
  6
Continuous
 62
     7
370
    25
100
AcDbCircle
 10
6274.0187553361
 20
5043.5817812555
 30
0.0
 40
2.5
  0
ARC
  5
CB
330
1F
100
AcDbEntity
  8
0
  6
Continuous
 62
     7
370
    25
100
AcDbCircle
 10
6273.8431073576
 20
5001.9863843684
 30
0.0
 40
14.90563806641937
100
AcDbArc
 50
195.7856773836
 51
270.6751888602
  0
ARC
  5
CC
330
1F
100
AcDbEntity
  8
0
  6
Continuous
 62
     7
370
    25
100
AcDbCircle
 10
6274.1866104775
 20
5001.9967894855
 30
0.0
 40
14.91595273018609
100
AcDbArc
 50
269.3552142231
 51
344.188798568
  0
LINE
  5
CD
330
1F
100
AcDbEntity
  8
0
  6
Continuous
 62
     7
370
    25
100
AcDbLine
 10
6274.0187553361
 20
5067.0817812555
 30
0.0
 11
6263.0187553361
 21
5067.0817812555
 31
0.0
  0
LINE
  5
CE
330
1F
100
AcDbEntity
  8
0
  6
Continuous
 62
     7
370
    25
100
AcDbLine
 10
6285.0187553361
 20
5067.0817812555
 30
0.0
 11
6274.0187553361
 21
5067.0817812555
 31
0.0
  0
LINE
  5
CF
330
1F
100
AcDbEntity
  8
0
  6
Continuous
 62
     7
370
    25
100
AcDbLine
 10
6274.9569051933
 20
5045.8817812555
 30
0.0
 11
6273.0881757008
 21
5045.8817812555
 31
0.0
  0
LINE
  5
D0
330
1F
100
AcDbEntity
  8
0
  6
Continuous
 62
     8
370
    25
100
AcDbLine
 10
6246.5187553361
 20
5053.0817812555
 30
0.0
 11
6301.5187553361
 21
5053.0817812555
 31
0.0
  0
ARC
  5
D1
330
1F
100
AcDbEntity
  8
0
  6
Continuous
 62
     8
370
    25
100
AcDbCircle
 10
6274.0187553361
 20
5001.6385980848
 30
0.0
 40
14.81111586483751
100
AcDbArc
 50
222.0699633552
 51
317.9300366448
  0
ARC
  5
D2
330
1F
100
AcDbEntity
  8
0
  6
Continuous
 62
     8
370
    25
100
AcDbCircle
 10
6274.0192903595
 20
5001.1730937687
 30
0.0
 40
15.03652916489717
100
AcDbArc
 50
185.7150574691
 51
354.1237715697
  0
ENDSEC
  0
SECTION
  2
OBJECTS
  0
DICTIONARY
  5
C
330
0
100
AcDbDictionary
281
     1
  3
ACAD_GROUP
350
D
  3
ACAD_LAYOUT
350
1A
  3
ACAD_MLINESTYLE
350
17
  3
ACAD_PLOTSETTINGS
350
19
  3
ACAD_PLOTSTYLENAME
350
E
  3
ACAD_SCALELIST
350
47
  3
DWGPROPS
350
D3
  0
DICTIONARY
  5
D
102
{ACAD_REACTORS
330
C
102
}
330
C
100
AcDbDictionary
281
     1
  0
DICTIONARY
  5
1A
102
{ACAD_REACTORS
330
C
102
}
330
C
100
AcDbDictionary
281
     1
  3
Layout1
350
1E
  3
Layout2
350
26
  3
Model
350
22
  0
DICTIONARY
  5
17
102
{ACAD_REACTORS
330
C
102
}
330
C
100
AcDbDictionary
281
     1
  3
Standard
350
18
  0
DICTIONARY
  5
19
102
{ACAD_REACTORS
330
C
102
}
330
C
100
AcDbDictionary
281
     1
  0
ACDBDICTIONARYWDFLT
  5
E
102
{ACAD_REACTORS
330
C
102
}
330
C
100
AcDbDictionary
281
     1
  3
Normal
350
F
100
AcDbDictionaryWithDefault
340
F
  0
DICTIONARY
  5
47
102
{ACAD_REACTORS
330
C
102
}
330
C
100
AcDbDictionary
281
     1
  3
A0
350
48
  3
A1
350
49
  3
A2
350
4A
  3
A3
350
4B
  3
A4
350
4C
  3
A5
350
4D
  3
A6
350
4E
  3
A7
350
4F
  3
A8
350
50
  3
A9
350
51
  3
B0
350
52
  3
B1
350
53
  3
B2
350
54
  3
B3
350
55
  3
B4
350
56
  3
B5
350
57
  3
B6
350
58
  3
B7
350
59
  3
B8
350
5A
  3
B9
350
5B
  3
C0
350
5C
  3
C1
350
5D
  3
C2
350
5E
  3
C3
350
5F
  3
C4
350
60
  3
C5
350
61
  3
C6
350
62
  3
C7
350
63
  3
C8
350
64
  3
C9
350
65
  3
D0
350
66
  3
D1
350
67
  3
D2
350
68
  0
XRECORD
  5
D3
102
{ACAD_REACTORS
330
C
102
}
330
C
100
AcDbXrecord
280
     1
  1
DWGPROPS COOKIE
  2

  3

  4

  6

  7

  8
radek.stransky
  9

300
=
301
=
302
=
303
=
304
=
305
=
306
=
307
=
308
=
309
=
 40
0.0
 41
2459122.225411956
 42
2459122.225412291
  1

 90
        0
  0
LAYOUT
  5
1E
102
{ACAD_REACTORS
330
1A
102
}
330
1A
100
AcDbPlotSettings
  1

  2
none_device
  4

  6

 40
0.0
 41
0.0
 42
0.0
 43
0.0
 44
0.0
 45
0.0
 46
0.0
 47
0.0
 48
0.0
 49
0.0
140
0.0
141
0.0
142
1.0
143
1.0
 70
   688
 72
     1
 73
     0
 74
     5
  7

 75
    16
147
1.0
148
0.0
149
0.0
100
AcDbLayout
  1
Layout1
 70
     1
 71
     1
 10
0.0
 20
0.0
 11
420.0
 21
297.0
 12
0.0
 22
0.0
 32
0.0
 14
1.0000000000E+20
 24
1.0000000000E+20
 34
1.0000000000E+20
 15
-1.0000000000E+20
 25
-1.0000000000E+20
 35
-1.0000000000E+20
146
0.0
 13
0.0
 23
0.0
 33
0.0
 16
1.0
 26
0.0
 36
0.0
 17
0.0
 27
1.0
 37
0.0
 76
     0
330
1B
  0
LAYOUT
  5
26
102
{ACAD_REACTORS
330
1A
102
}
330
1A
100
AcDbPlotSettings
  1

  2
none_device
  4

  6

 40
0.0
 41
0.0
 42
0.0
 43
0.0
 44
0.0
 45
0.0
 46
0.0
 47
0.0
 48
0.0
 49
0.0
140
0.0
141
0.0
142
1.0
143
1.0
 70
   688
 72
     1
 73
     0
 74
     5
  7

 75
    16
147
1.0
148
0.0
149
0.0
100
AcDbLayout
  1
Layout2
 70
     1
 71
     2
 10
0.0
 20
0.0
 11
0.0
 21
0.0
 12
0.0
 22
0.0
 32
0.0
 14
0.0
 24
0.0
 34
0.0
 15
0.0
 25
0.0
 35
0.0
146
0.0
 13
0.0
 23
0.0
 33
0.0
 16
1.0
 26
0.0
 36
0.0
 17
0.0
 27
1.0
 37
0.0
 76
     0
330
23
  0
LAYOUT
  5
22
102
{ACAD_REACTORS
330
1A
102
}
330
1A
100
AcDbPlotSettings
  1

  2
none_device
  4
Letter_(8.50_x_11.00_Inches)
  6

 40
6.35
 41
6.35
 42
6.35000508
 43
6.35000508
 44
215.9
 45
279.4
 46
0.0
 47
0.0
 48
0.0
 49
0.0
140
0.0
141
0.0
142
1.0
143
1.0
 70
  1712
 72
     1
 73
     0
 74
     0
  7

 75
     0
147
1.0
148
0.0
149
0.0
100
AcDbLayout
  1
Model
 70
     1
 71
     0
 10
0.0
 20
0.0
 11
20000.0
 21
10000.0
 12
0.0
 22
0.0
 32
0.0
 14
0.0
 24
0.0
 34
0.0
 15
20000.0
 25
10000.0
 35
0.0
146
0.0
 13
0.0
 23
0.0
 33
0.0
 16
1.0
 26
0.0
 36
0.0
 17
0.0
 27
1.0
 37
0.0
 76
     0
330
1F
331
29
  0
MLINESTYLE
  5
18
102
{ACAD_REACTORS
330
17
102
}
330
17
100
AcDbMlineStyle
  2
Standard
 70
     0
  3

 62
   256
 51
90.0
 52
90.0
 71
     2
 49
0.5
 62
   256
  6
BYLAYER
 49
-0.5
 62
   256
  6
BYLAYER
  0
ACDBPLACEHOLDER
  5
F
102
{ACAD_REACTORS
330
E
102
}
330
E
  0
SCALE
  5
48
102
{ACAD_REACTORS
330
47
102
}
330
47
100
AcDbScale
 70
     0
300
1:1
140
1.0
141
1.0
290
     1
  0
SCALE
  5
49
102
{ACAD_REACTORS
330
47
102
}
330
47
100
AcDbScale
 70
     0
300
1:2
140
1.0
141
2.0
290
     0
  0
SCALE
  5
4A
102
{ACAD_REACTORS
330
47
102
}
330
47
100
AcDbScale
 70
     0
300
1:4
140
1.0
141
4.0
290
     0
  0
SCALE
  5
4B
102
{ACAD_REACTORS
330
47
102
}
330
47
100
AcDbScale
 70
     0
300
1:5
140
1.0
141
5.0
290
     0
  0
SCALE
  5
4C
102
{ACAD_REACTORS
330
47
102
}
330
47
100
AcDbScale
 70
     0
300
1:8
140
1.0
141
8.0
290
     0
  0
SCALE
  5
4D
102
{ACAD_REACTORS
330
47
102
}
330
47
100
AcDbScale
 70
     0
300
1:10
140
1.0
141
10.0
290
     0
  0
SCALE
  5
4E
102
{ACAD_REACTORS
330
47
102
}
330
47
100
AcDbScale
 70
     0
300
1:16
140
1.0
141
16.0
290
     0
  0
SCALE
  5
4F
102
{ACAD_REACTORS
330
47
102
}
330
47
100
AcDbScale
 70
     0
300
1:20
140
1.0
141
20.0
290
     0
  0
SCALE
  5
50
102
{ACAD_REACTORS
330
47
102
}
330
47
100
AcDbScale
 70
     0
300
1:30
140
1.0
141
30.0
290
     0
  0
SCALE
  5
51
102
{ACAD_REACTORS
330
47
102
}
330
47
100
AcDbScale
 70
     0
300
1:40
140
1.0
141
40.0
290
     0
  0
SCALE
  5
52
102
{ACAD_REACTORS
330
47
102
}
330
47
100
AcDbScale
 70
     0
300
1:50
140
1.0
141
50.0
290
     0
  0
SCALE
  5
53
102
{ACAD_REACTORS
330
47
102
}
330
47
100
AcDbScale
 70
     0
300
1:100
140
1.0
141
100.0
290
     0
  0
SCALE
  5
54
102
{ACAD_REACTORS
330
47
102
}
330
47
100
AcDbScale
 70
     0
300
2:1
140
2.0
141
1.0
290
     0
  0
SCALE
  5
55
102
{ACAD_REACTORS
330
47
102
}
330
47
100
AcDbScale
 70
     0
300
4:1
140
4.0
141
1.0
290
     0
  0
SCALE
  5
56
102
{ACAD_REACTORS
330
47
102
}
330
47
100
AcDbScale
 70
     0
300
8:1
140
8.0
141
1.0
290
     0
  0
SCALE
  5
57
102
{ACAD_REACTORS
330
47
102
}
330
47
100
AcDbScale
 70
     0
300
10:1
140
10.0
141
1.0
290
     0
  0
SCALE
  5
58
102
{ACAD_REACTORS
330
47
102
}
330
47
100
AcDbScale
 70
     0
300
100:1
140
100.0
141
1.0
290
     0
  0
SCALE
  5
59
102
{ACAD_REACTORS
330
47
102
}
330
47
100
AcDbScale
 70
     0
300
1/128" = 1'-0"
140
0.0078125
141
12.0
290
     0
  0
SCALE
  5
5A
102
{ACAD_REACTORS
330
47
102
}
330
47
100
AcDbScale
 70
     0
300
1/64" = 1'-0"
140
0.015625
141
12.0
290
     0
  0
SCALE
  5
5B
102
{ACAD_REACTORS
330
47
102
}
330
47
100
AcDbScale
 70
     0
300
1/32" = 1'-0"
140
0.03125
141
12.0
290
     0
  0
SCALE
  5
5C
102
{ACAD_REACTORS
330
47
102
}
330
47
100
AcDbScale
 70
     0
300
1/16" = 1'-0"
140
0.0625
141
12.0
290
     0
  0
SCALE
  5
5D
102
{ACAD_REACTORS
330
47
102
}
330
47
100
AcDbScale
 70
     0
300
3/32" = 1'-0"
140
0.09375
141
12.0
290
     0
  0
SCALE
  5
5E
102
{ACAD_REACTORS
330
47
102
}
330
47
100
AcDbScale
 70
     0
300
1/8" = 1'-0"
140
0.125
141
12.0
290
     0
  0
SCALE
  5
5F
102
{ACAD_REACTORS
330
47
102
}
330
47
100
AcDbScale
 70
     0
300
3/16" = 1'-0"
140
0.1875
141
12.0
290
     0
  0
SCALE
  5
60
102
{ACAD_REACTORS
330
47
102
}
330
47
100
AcDbScale
 70
     0
300
1/4" = 1'-0"
140
0.25
141
12.0
290
     0
  0
SCALE
  5
61
102
{ACAD_REACTORS
330
47
102
}
330
47
100
AcDbScale
 70
     0
300
3/8" = 1'-0"
140
0.375
141
12.0
290
     0
  0
SCALE
  5
62
102
{ACAD_REACTORS
330
47
102
}
330
47
100
AcDbScale
 70
     0
300
1/2" = 1'-0"
140
0.5
141
12.0
290
     0
  0
SCALE
  5
63
102
{ACAD_REACTORS
330
47
102
}
330
47
100
AcDbScale
 70
     0
300
3/4" = 1'-0"
140
0.75
141
12.0
290
     0
  0
SCALE
  5
64
102
{ACAD_REACTORS
330
47
102
}
330
47
100
AcDbScale
 70
     0
300
1" = 1'-0"
140
1.0
141
12.0
290
     0
  0
SCALE
  5
65
102
{ACAD_REACTORS
330
47
102
}
330
47
100
AcDbScale
 70
     0
300
1-1/2" = 1'-0"
140
1.5
141
12.0
290
     0
  0
SCALE
  5
66
102
{ACAD_REACTORS
330
47
102
}
330
47
100
AcDbScale
 70
     0
300
3" = 1'-0"
140
3.0
141
12.0
290
     0
  0
SCALE
  5
67
102
{ACAD_REACTORS
330
47
102
}
330
47
100
AcDbScale
 70
     0
300
6" = 1'-0"
140
6.0
141
12.0
290
     0
  0
SCALE
  5
68
102
{ACAD_REACTORS
330
47
102
}
330
47
100
AcDbScale
 70
     0
300
1'-0" = 1'-0"
140
12.0
141
12.0
290
     0
  0
ENDSEC
  0
EOF
