  0
SECTION
  2
HEADER
  9
$ACADVER
  1
AC1015
  9
$ACADMAINTVER
 70
     6
  9
$DWGCODEPAGE
  3
ANSI_1250
  9
$INSBASE
 10
0.0
 20
0.0
 30
0.0
  9
$EXTMIN
 10
0.0
 20
0.0
 30
0.0
  9
$EXTMAX
 10
20000.0
 20
10000.0
 30
0.0
  9
$LIMMIN
 10
0.0
 20
0.0
  9
$LIMMAX
 10
20000.0
 20
10000.0
  9
$ORTHOMODE
 70
     0
  9
$REGENMODE
 70
     1
  9
$FILLMODE
 70
     1
  9
$QTEXTMODE
 70
     0
  9
$MIRRTEXT
 70
     1
  9
$LTSCALE
 40
1.0
  9
$ATTMODE
 70
     1
  9
$TEXTSIZE
 40
2.0
  9
$TRACEWID
 40
1.0
  9
$TEXTSTYLE
  7
Standard
  9
$CLAYER
  8
0
  9
$CELTYPE
  6
ByLayer
  9
$CECOLOR
 62
   256
  9
$CELTSCALE
 40
1.0
  9
$DISPSILH
 70
     0
  9
$DIMSCALE
 40
1.0
  9
$DIMASZ
 40
2.0
  9
$DIMEXO
 40
1.0
  9
$DIMDLI
 40
3.75
  9
$DIMRND
 40
0.0
  9
$DIMDLE
 40
0.0
  9
$DIMEXE
 40
1.0
  9
$DIMTP
 40
0.0
  9
$DIMTM
 40
0.0
  9
$DIMTXT
 40
2.0
  9
$DIMCEN
 40
2.5
  9
$DIMTSZ
 40
0.0
  9
$DIMTOL
 70
     0
  9
$DIMLIM
 70
     0
  9
$DIMTIH
 70
     1
  9
$DIMTOH
 70
     1
  9
$DIMSE1
 70
     0
  9
$DIMSE2
 70
     0
  9
$DIMTAD
 70
     1
  9
$DIMZIN
 70
     0
  9
$DIMBLK
  1

  9
$DIMASO
 70
     1
  9
$DIMSHO
 70
     1
  9
$DIMPOST
  1

  9
$DIMAPOST
  1

  9
$DIMALT
 70
     0
  9
$DIMALTD
 70
     3
  9
$DIMALTF
 40
0.0393700787
  9
$DIMLFAC
 40
1.0
  9
$DIMTOFL
 70
     1
  9
$DIMTVP
 40
0.0
  9
$DIMTIX
 70
     0
  9
$DIMSOXD
 70
     0
  9
$DIMSAH
 70
     0
  9
$DIMBLK1
  1

  9
$DIMBLK2
  1

  9
$DIMSTYLE
  2
ISO-25
  9
$DIMCLRD
 70
     0
  9
$DIMCLRE
 70
     0
  9
$DIMCLRT
 70
     0
  9
$DIMTFAC
 40
1.0
  9
$DIMGAP
 40
1.524
  9
$DIMJUST
 70
     0
  9
$DIMSD1
 70
     0
  9
$DIMSD2
 70
     0
  9
$DIMTOLJ
 70
     0
  9
$DIMTZIN
 70
     0
  9
$DIMALTZ
 70
     0
  9
$DIMALTTZ
 70
     0
  9
$DIMUPT
 70
     0
  9
$DIMDEC
 70
     2
  9
$DIMTDEC
 70
     0
  9
$DIMALTU
 70
     2
  9
$DIMALTTD
 70
     3
  9
$DIMTXSTY
  7
Standard
  9
$DIMAUNIT
 70
     0
  9
$DIMADEC
 70
     2
  9
$DIMALTRND
 40
0.0
  9
$DIMAZIN
 70
     0
  9
$DIMDSEP
 70
    44
  9
$DIMATFIT
 70
     3
  9
$DIMFRAC
 70
     0
  9
$DIMLDRBLK
  1

  9
$DIMLUNIT
 70
     2
  9
$DIMLWD
 70
    -2
  9
$DIMLWE
 70
    -2
  9
$DIMTMOVE
 70
     0
  9
$LUNITS
 70
     2
  9
$LUPREC
 70
     3
  9
$SKETCHINC
 40
1.0
  9
$FILLETRAD
 40
10.0
  9
$AUNITS
 70
     0
  9
$AUPREC
 70
     2
  9
$MENU
  1
.
  9
$ELEVATION
 40
0.0
  9
$PELEVATION
 40
0.0
  9
$THICKNESS
 40
0.0
  9
$LIMCHECK
 70
     0
  9
$CHAMFERA
 40
0.0
  9
$CHAMFERB
 40
0.0
  9
$CHAMFERC
 40
0.0
  9
$CHAMFERD
 40
0.0
  9
$SKPOLY
 70
     0
  9
$TDCREATE
 40
2459116.319466019
  9
$TDUCREATE
 40
2459116.236132685
  9
$TDUPDATE
 40
2459116.319466458
  9
$TDUUPDATE
 40
2459116.236133125
  9
$TDINDWG
 40
0.0000000116
  9
$TDUSRTIMER
 40
0.0000000116
  9
$USRTIMER
 70
     1
  9
$ANGBASE
 50
0.0
  9
$ANGDIR
 70
     0
  9
$PDMODE
 70
     0
  9
$PDSIZE
 40
-1.0
  9
$PLINEWID
 40
0.0
  9
$SPLFRAME
 70
     0
  9
$SPLINETYPE
 70
     6
  9
$SPLINESEGS
 70
     8
  9
$HANDSEED
  5
106
  9
$SURFTAB1
 70
     6
  9
$SURFTAB2
 70
     6
  9
$SURFTYPE
 70
     6
  9
$SURFU
 70
     6
  9
$SURFV
 70
     6
  9
$UCSBASE
  2

  9
$UCSNAME
  2

  9
$UCSORG
 10
0.0
 20
0.0
 30
0.0
  9
$UCSXDIR
 10
1.0
 20
0.0
 30
0.0
  9
$UCSYDIR
 10
0.0
 20
1.0
 30
0.0
  9
$UCSORTHOREF
  2

  9
$UCSORTHOVIEW
 70
     0
  9
$UCSORGTOP
 10
0.0
 20
0.0
 30
0.0
  9
$UCSORGBOTTOM
 10
0.0
 20
0.0
 30
0.0
  9
$UCSORGLEFT
 10
0.0
 20
0.0
 30
0.0
  9
$UCSORGRIGHT
 10
0.0
 20
0.0
 30
0.0
  9
$UCSORGFRONT
 10
0.0
 20
0.0
 30
0.0
  9
$UCSORGBACK
 10
0.0
 20
0.0
 30
0.0
  9
$PUCSBASE
  2

  9
$PUCSNAME
  2

  9
$PUCSORG
 10
0.0
 20
0.0
 30
0.0
  9
$PUCSXDIR
 10
1.0
 20
0.0
 30
0.0
  9
$PUCSYDIR
 10
0.0
 20
1.0
 30
0.0
  9
$PUCSORTHOREF
  2

  9
$PUCSORTHOVIEW
 70
     0
  9
$PUCSORGTOP
 10
0.0
 20
0.0
 30
0.0
  9
$PUCSORGBOTTOM
 10
0.0
 20
0.0
 30
0.0
  9
$PUCSORGLEFT
 10
0.0
 20
0.0
 30
0.0
  9
$PUCSORGRIGHT
 10
0.0
 20
0.0
 30
0.0
  9
$PUCSORGFRONT
 10
0.0
 20
0.0
 30
0.0
  9
$PUCSORGBACK
 10
0.0
 20
0.0
 30
0.0
  9
$USERI1
 70
     0
  9
$USERI2
 70
     0
  9
$USERI3
 70
     0
  9
$USERI4
 70
     0
  9
$USERI5
 70
     0
  9
$USERR1
 40
0.0
  9
$USERR2
 40
0.0
  9
$USERR3
 40
0.0
  9
$USERR4
 40
0.0
  9
$USERR5
 40
0.0
  9
$WORLDVIEW
 70
     1
  9
$SHADEDGE
 70
     3
  9
$SHADEDIF
 70
    70
  9
$TILEMODE
 70
     1
  9
$MAXACTVP
 70
    64
  9
$PINSBASE
 10
0.0
 20
0.0
 30
0.0
  9
$PLIMCHECK
 70
     0
  9
$PEXTMIN
 10
1.0000000000E+20
 20
1.0000000000E+20
 30
1.0000000000E+20
  9
$PEXTMAX
 10
-1.0000000000E+20
 20
-1.0000000000E+20
 30
-1.0000000000E+20
  9
$PLIMMIN
 10
0.0
 20
0.0
  9
$PLIMMAX
 10
420.0
 20
297.0
  9
$UNITMODE
 70
     0
  9
$VISRETAIN
 70
     1
  9
$PLINEGEN
 70
     0
  9
$PSLTSCALE
 70
     1
  9
$TREEDEPTH
 70
  3020
  9
$CMLSTYLE
  2
Standard
  9
$CMLJUST
 70
     0
  9
$CMLSCALE
 40
20.0
  9
$PROXYGRAPHICS
 70
     1
  9
$MEASUREMENT
 70
     1
  9
$CELWEIGHT
370
    -1
  9
$ENDCAPS
280
     0
  9
$JOINSTYLE
280
     0
  9
$LWDISPLAY
290
     1
  9
$INSUNITS
 70
     4
  9
$HYPERLINKBASE
  1

  9
$STYLESHEET
  1

  9
$XEDIT
290
     1
  9
$CEPSNTYPE
380
     0
  9
$PSTYLEMODE
290
     1
  9
$FINGERPRINTGUID
  2
{ff1f0cdd-4e09-4dda-8a1f-b991920f86a8}
  9
$VERSIONGUID
  2
{FAEB1C32-E019-11D5-929B-00C0DF256EC4}
  9
$EXTNAMES
290
     1
  9
$PSVPSCALE
 40
0.0
  9
$OLESTARTUP
290
     0
  0
ENDSEC
  0
SECTION
  2
CLASSES
  0
CLASS
  1
ACDBDICTIONARYWDFLT
  2
AcDbDictionaryWithDefault
  3
ObjectDBX Classes
 90
        0
280
     0
281
     0
  0
CLASS
  1
VISUALSTYLE
  2
AcDbVisualStyle
  3
ObjectDBX Classes
 90
     4095
280
     0
281
     0
  0
CLASS
  1
MATERIAL
  2
AcDbMaterial
  3
ObjectDBX Classes
 90
     1153
280
     0
281
     0
  0
CLASS
  1
SCALE
  2
AcDbScale
  3
ObjectDBX Classes
 90
     1153
280
     0
281
     0
  0
CLASS
  1
TABLESTYLE
  2
AcDbTableStyle
  3
ObjectDBX Classes
 90
     4095
280
     0
281
     0
  0
CLASS
  1
MLEADERSTYLE
  2
AcDbMLeaderStyle
  3
ACDB_MLEADERSTYLE_CLASS
 90
     4095
280
     0
281
     0
  0
CLASS
  1
SUN
  2
AcDbSun
  3
SCENEOE
 90
     1153
280
     0
281
     0
  0
CLASS
  1
ACDBPLACEHOLDER
  2
AcDbPlaceHolder
  3
ObjectDBX Classes
 90
        0
280
     0
281
     0
  0
CLASS
  1
LAYOUT
  2
AcDbLayout
  3
ObjectDBX Classes
 90
        0
280
     0
281
     0
  0
ENDSEC
  0
SECTION
  2
TABLES
  0
TABLE
  2
VPORT
  5
8
330
0
100
AcDbSymbolTable
 70
     1
  0
VPORT
  5
29
330
8
100
AcDbSymbolTableRecord
100
AcDbViewportTableRecord
  2
*Active
 70
     0
 10
0.0
 20
0.0
 11
1.0
 21
1.0
 12
10000.0
 22
5000.0
 13
0.0
 23
0.0
 14
10.0
 24
10.0
 15
10.0
 25
10.0
 16
0.0
 26
0.0
 36
1.0
 17
0.0
 27
0.0
 37
0.0
 40
10000.0
 41
2.0
 42
50.0
 43
0.0
 44
0.0
 50
0.0
 51
0.0
 71
     0
 72
  2000
 73
     1
 74
     3
 75
     0
 76
     0
 77
     0
 78
     0
281
     0
 65
     1
110
0.0
120
0.0
130
0.0
111
1.0
121
0.0
131
0.0
112
0.0
122
1.0
132
0.0
 79
     0
146
0.0
  0
ENDTAB
  0
TABLE
  2
LTYPE
  5
5
330
0
100
AcDbSymbolTable
 70
     6
  0
LTYPE
  5
14
330
5
100
AcDbSymbolTableRecord
100
AcDbLinetypeTableRecord
  2
ByBlock
 70
     0
  3

 72
    65
 73
     0
 40
0.0
  0
LTYPE
  5
15
330
5
100
AcDbSymbolTableRecord
100
AcDbLinetypeTableRecord
  2
ByLayer
 70
     0
  3

 72
    65
 73
     0
 40
0.0
  0
LTYPE
  5
16
330
5
100
AcDbSymbolTableRecord
100
AcDbLinetypeTableRecord
  2
Continuous
 70
     0
  3
Solid line
 72
    65
 73
     0
 40
0.0
  0
LTYPE
  5
6E
330
5
100
AcDbSymbolTableRecord
100
AcDbLinetypeTableRecord
  2
HIDDEN
 70
     0
  3
Hidden __ __ __ __ __ __ __ __ __ __ __ __ __ __
 72
    65
 73
     2
 40
1.905
 49
1.27
 74
     0
 49
-0.635
 74
     0
  0
LTYPE
  5
6F
330
5
100
AcDbSymbolTableRecord
100
AcDbLinetypeTableRecord
  2
PHANTOM
 70
     0
  3
Phantom ______  __  __  ______  __  __  ______
 72
    65
 73
     6
 40
12.7
 49
6.35
 74
     0
 49
-1.27
 74
     0
 49
1.27
 74
     0
 49
-1.27
 74
     0
 49
1.27
 74
     0
 49
-1.27
 74
     0
  0
LTYPE
  5
70
330
5
100
AcDbSymbolTableRecord
100
AcDbLinetypeTableRecord
  2
CENTER
 70
     0
  3
Center ____ _ ____ _ ____ _ ____ _ ____ _ ____
 72
    65
 73
     4
 40
10.16
 49
6.35
 74
     0
 49
-1.27
 74
     0
 49
1.27
 74
     0
 49
-1.27
 74
     0
  0
LTYPE
  5
71
330
5
100
AcDbSymbolTableRecord
100
AcDbLinetypeTableRecord
  2
CENTERX2
 70
     0
  3
Center (2x) ________  __  ________  __  _____
 72
    65
 73
     4
 40
20.32
 49
12.7
 74
     0
 49
-2.54
 74
     0
 49
2.54
 74
     0
 49
-2.54
 74
     0
  0
LTYPE
  5
72
330
5
100
AcDbSymbolTableRecord
100
AcDbLinetypeTableRecord
  2
DOT2
 70
     0
  3
Dot (.5x) ........................................
 72
    65
 73
     2
 40
0.635
 49
0.0
 74
     0
 49
-0.635
 74
     0
  0
ENDTAB
  0
TABLE
  2
LAYER
  5
2
330
0
100
AcDbSymbolTable
 70
    13
  0
LAYER
  5
10
330
2
100
AcDbSymbolTableRecord
100
AcDbLayerTableRecord
  2
0
 70
     0
 62
     7
  6
Continuous
370
    -3
390
F
  0
LAYER
  5
73
330
2
100
AcDbSymbolTableRecord
100
AcDbLayerTableRecord
  2
FORMAT
 70
     0
 62
     7
  6
Continuous
370
    -3
390
F
  0
LAYER
  5
74
330
2
100
AcDbSymbolTableRecord
100
AcDbLayerTableRecord
  2
OSA
 70
     0
 62
     7
  6
CENTER
370
    -3
390
F
  0
LAYER
  5
75
330
2
100
AcDbSymbolTableRecord
100
AcDbLayerTableRecord
  2
0_35
 70
     0
 62
     7
  6
Continuous
370
    35
390
F
  0
LAYER
  5
76
330
2
100
AcDbSymbolTableRecord
100
AcDbLayerTableRecord
  2
0_5
 70
     0
 62
     7
  6
Continuous
370
    50
390
F
  0
LAYER
  5
77
330
2
100
AcDbSymbolTableRecord
100
AcDbLayerTableRecord
  2
0_25
 70
     0
 62
     7
  6
Continuous
370
    25
390
F
  0
LAYER
  5
78
330
2
100
AcDbSymbolTableRecord
100
AcDbLayerTableRecord
  2
0_18
 70
     0
 62
     7
  6
Continuous
370
    -3
390
F
  0
LAYER
  5
79
330
2
100
AcDbSymbolTableRecord
100
AcDbLayerTableRecord
  2
SLD-0
 70
     0
 62
   179
  6
Continuous
370
    -3
390
F
  0
LAYER
  5
7A
330
2
100
AcDbSymbolTableRecord
100
AcDbLayerTableRecord
  2
KOTY
 70
     0
 62
     7
  6
Continuous
370
    -3
390
F
  0
LAYER
  5
7B
330
2
100
AcDbSymbolTableRecord
100
AcDbLayerTableRecord
  2
SILNA
 70
     0
 62
   179
  6
Continuous
370
    -3
390
F
  0
LAYER
  5
7C
330
2
100
AcDbSymbolTableRecord
100
AcDbLayerTableRecord
  2
0_18_1
 70
     0
 62
   179
  6
Continuous
370
    -3
390
F
  0
LAYER
  5
7D
330
2
100
AcDbSymbolTableRecord
100
AcDbLayerTableRecord
  2
0_35_1
 70
     0
 62
   179
  6
Continuous
370
    35
390
F
  0
LAYER
  5
7E
330
2
100
AcDbSymbolTableRecord
100
AcDbLayerTableRecord
  2
0_5_1
 70
     0
 62
   179
  6
Continuous
370
    50
390
F
  0
ENDTAB
  0
TABLE
  2
STYLE
  5
3
330
0
100
AcDbSymbolTable
 70
     1
  0
STYLE
  5
11
330
3
100
AcDbSymbolTableRecord
100
AcDbTextStyleTableRecord
  2
Standard
 70
     0
 40
0.0
 41
1.0
 50
0.0
 71
     0
 42
2.0
  3
txt
  4

  0
ENDTAB
  0
TABLE
  2
VIEW
  5
6
330
0
100
AcDbSymbolTable
 70
     0
  0
ENDTAB
  0
TABLE
  2
UCS
  5
7
330
0
100
AcDbSymbolTable
 70
     0
  0
ENDTAB
  0
TABLE
  2
APPID
  5
9
330
0
100
AcDbSymbolTable
 70
     1
  0
APPID
  5
12
330
9
100
AcDbSymbolTableRecord
100
AcDbRegAppTableRecord
  2
ACAD
 70
     0
  0
ENDTAB
  0
TABLE
  2
DIMSTYLE
  5
A
330
0
100
AcDbSymbolTable
 70
     1
100
AcDbDimStyleTable
  0
DIMSTYLE
105
27
330
A
100
AcDbSymbolTableRecord
100
AcDbDimStyleTableRecord
  2
ISO-25
 70
     0
 41
2.5
 42
0.625
 43
3.75
 44
1.25
 73
     0
 74
     0
 77
     1
 78
     8
140
2.5
141
2.5
143
0.0393700787
147
0.625
171
     3
172
     1
178
     0
271
     2
272
     2
274
     3
278
    44
283
     0
284
     8
340
11
  0
ENDTAB
  0
TABLE
  2
BLOCK_RECORD
  5
1
330
0
100
AcDbSymbolTable
 70
     5
  0
BLOCK_RECORD
  5
1F
330
1
100
AcDbSymbolTableRecord
100
AcDbBlockTableRecord
  2
*Model_Space
340
22
  0
BLOCK_RECORD
  5
1B
330
1
100
AcDbSymbolTableRecord
100
AcDbBlockTableRecord
  2
*Paper_Space
340
1E
  0
BLOCK_RECORD
  5
23
330
1
100
AcDbSymbolTableRecord
100
AcDbBlockTableRecord
  2
*Paper_Space0
340
26
  0
BLOCK_RECORD
  5
D5
330
1
100
AcDbSymbolTableRecord
100
AcDbBlockTableRecord
  2
SW_CENTERMARKSYMBOL_0
340
0
102
{BLKREFS
331
E0
102
}
  0
BLOCK_RECORD
  5
E1
330
1
100
AcDbSymbolTableRecord
100
AcDbBlockTableRecord
  2
SW_CENTERMARKSYMBOL_1
340
0
102
{BLKREFS
331
EC
102
}
  0
BLOCK_RECORD
  5
ED
330
1
100
AcDbSymbolTableRecord
100
AcDbBlockTableRecord
  2
SW_CENTERMARKSYMBOL_2
340
0
102
{BLKREFS
331
F8
102
}
  0
BLOCK_RECORD
  5
F9
330
1
100
AcDbSymbolTableRecord
100
AcDbBlockTableRecord
  2
SW_CENTERMARKSYMBOL_3
340
0
102
{BLKREFS
331
104
102
}
  0
ENDTAB
  0
ENDSEC
  0
SECTION
  2
BLOCKS
  0
BLOCK
  5
20
330
1F
100
AcDbEntity
  8
0
100
AcDbBlockBegin
  2
*Model_Space
 70
     0
 10
0.0
 20
0.0
 30
0.0
  3
*Model_Space
  1

  0
ENDBLK
  5
21
330
1F
100
AcDbEntity
  8
0
100
AcDbBlockEnd
  0
BLOCK
  5
1C
330
1B
100
AcDbEntity
 67
     1
  8
0
100
AcDbBlockBegin
  2
*Paper_Space
 70
     0
 10
0.0
 20
0.0
 30
0.0
  3
*Paper_Space
  1

  0
ENDBLK
  5
1D
330
1B
100
AcDbEntity
 67
     1
  8
0
100
AcDbBlockEnd
  0
BLOCK
  5
24
330
23
100
AcDbEntity
  8
0
100
AcDbBlockBegin
  2
*Paper_Space0
 70
     0
 10
0.0
 20
0.0
 30
0.0
  3
*Paper_Space0
  1

  0
ENDBLK
  5
25
330
23
100
AcDbEntity
  8
0
100
AcDbBlockEnd
  0
BLOCK
  5
D6
330
D5
100
AcDbEntity
  8
0
100
AcDbBlockBegin
  2
SW_CENTERMARKSYMBOL_0
 70
     0
 10
0.0
 20
0.0
 30
0.0
  3
SW_CENTERMARKSYMBOL_0
  1

  0
LINE
  5
D8
330
D5
100
AcDbEntity
  8
SLD-0
 62
     0
100
AcDbLine
 10
0.0
 20
0.0
 30
0.0
 11
0.0
 21
2.5
 31
0.0
  0
LINE
  5
D9
330
D5
100
AcDbEntity
  8
SLD-0
 62
     0
100
AcDbLine
 10
0.0
 20
0.0
 30
0.0
 11
-2.5
 21
0.0
 31
0.0
  0
LINE
  5
DA
330
D5
100
AcDbEntity
  8
SLD-0
 62
     0
100
AcDbLine
 10
0.0
 20
0.0
 30
0.0
 11
0.0
 21
-2.5
 31
0.0
  0
LINE
  5
DB
330
D5
100
AcDbEntity
  8
SLD-0
 62
     0
100
AcDbLine
 10
0.0
 20
0.0
 30
0.0
 11
2.5
 21
0.0
 31
0.0
  0
LINE
  5
DC
330
D5
100
AcDbEntity
  8
SLD-0
 62
     0
100
AcDbLine
 10
0.0
 20
5.0
 30
0.0
 11
0.0
 21
6.0
 31
0.0
  0
LINE
  5
DD
330
D5
100
AcDbEntity
  8
SLD-0
 62
     0
100
AcDbLine
 10
-5.0
 20
0.0
 30
0.0
 11
-6.0
 21
0.0
 31
0.0
  0
LINE
  5
DE
330
D5
100
AcDbEntity
  8
SLD-0
 62
     0
100
AcDbLine
 10
0.0
 20
-5.0
 30
0.0
 11
0.0
 21
-6.0
 31
0.0
  0
LINE
  5
DF
330
D5
100
AcDbEntity
  8
SLD-0
 62
     0
100
AcDbLine
 10
5.0
 20
0.0
 30
0.0
 11
6.0
 21
0.0
 31
0.0
  0
ENDBLK
  5
D7
330
D5
100
AcDbEntity
  8
0
100
AcDbBlockEnd
  0
BLOCK
  5
E2
330
E1
100
AcDbEntity
  8
0
100
AcDbBlockBegin
  2
SW_CENTERMARKSYMBOL_1
 70
     0
 10
0.0
 20
0.0
 30
0.0
  3
SW_CENTERMARKSYMBOL_1
  1

  0
LINE
  5
E4
330
E1
100
AcDbEntity
  8
SLD-0
 62
     0
100
AcDbLine
 10
0.0
 20
0.0
 30
0.0
 11
0.0
 21
2.5
 31
0.0
  0
LINE
  5
E5
330
E1
100
AcDbEntity
  8
SLD-0
 62
     0
100
AcDbLine
 10
0.0
 20
0.0
 30
0.0
 11
-2.5
 21
0.0
 31
0.0
  0
LINE
  5
E6
330
E1
100
AcDbEntity
  8
SLD-0
 62
     0
100
AcDbLine
 10
0.0
 20
0.0
 30
0.0
 11
0.0
 21
-2.5
 31
0.0
  0
LINE
  5
E7
330
E1
100
AcDbEntity
  8
SLD-0
 62
     0
100
AcDbLine
 10
0.0
 20
0.0
 30
0.0
 11
2.5
 21
0.0
 31
0.0
  0
LINE
  5
E8
330
E1
100
AcDbEntity
  8
SLD-0
 62
     0
100
AcDbLine
 10
0.0
 20
5.0
 30
0.0
 11
0.0
 21
6.0
 31
0.0
  0
LINE
  5
E9
330
E1
100
AcDbEntity
  8
SLD-0
 62
     0
100
AcDbLine
 10
-5.0
 20
0.0
 30
0.0
 11
-6.0
 21
0.0
 31
0.0
  0
LINE
  5
EA
330
E1
100
AcDbEntity
  8
SLD-0
 62
     0
100
AcDbLine
 10
0.0
 20
-5.0
 30
0.0
 11
0.0
 21
-6.0
 31
0.0
  0
LINE
  5
EB
330
E1
100
AcDbEntity
  8
SLD-0
 62
     0
100
AcDbLine
 10
5.0
 20
0.0
 30
0.0
 11
6.0
 21
0.0
 31
0.0
  0
ENDBLK
  5
E3
330
E1
100
AcDbEntity
  8
0
100
AcDbBlockEnd
  0
BLOCK
  5
EE
330
ED
100
AcDbEntity
  8
0
100
AcDbBlockBegin
  2
SW_CENTERMARKSYMBOL_2
 70
     0
 10
0.0
 20
0.0
 30
0.0
  3
SW_CENTERMARKSYMBOL_2
  1

  0
LINE
  5
F0
330
ED
100
AcDbEntity
  8
SLD-0
 62
     0
100
AcDbLine
 10
0.0
 20
0.0
 30
0.0
 11
0.0
 21
2.5
 31
0.0
  0
LINE
  5
F1
330
ED
100
AcDbEntity
  8
SLD-0
 62
     0
100
AcDbLine
 10
0.0
 20
0.0
 30
0.0
 11
-2.5
 21
0.0
 31
0.0
  0
LINE
  5
F2
330
ED
100
AcDbEntity
  8
SLD-0
 62
     0
100
AcDbLine
 10
0.0
 20
0.0
 30
0.0
 11
0.0
 21
-2.5
 31
0.0
  0
LINE
  5
F3
330
ED
100
AcDbEntity
  8
SLD-0
 62
     0
100
AcDbLine
 10
0.0
 20
0.0
 30
0.0
 11
2.5
 21
0.0
 31
0.0
  0
LINE
  5
F4
330
ED
100
AcDbEntity
  8
SLD-0
 62
     0
100
AcDbLine
 10
0.0
 20
5.0
 30
0.0
 11
0.0
 21
6.0
 31
0.0
  0
LINE
  5
F5
330
ED
100
AcDbEntity
  8
SLD-0
 62
     0
100
AcDbLine
 10
-5.0
 20
0.0
 30
0.0
 11
-6.0
 21
0.0
 31
0.0
  0
LINE
  5
F6
330
ED
100
AcDbEntity
  8
SLD-0
 62
     0
100
AcDbLine
 10
0.0
 20
-5.0
 30
0.0
 11
0.0
 21
-6.0
 31
0.0
  0
LINE
  5
F7
330
ED
100
AcDbEntity
  8
SLD-0
 62
     0
100
AcDbLine
 10
5.0
 20
0.0
 30
0.0
 11
6.0
 21
0.0
 31
0.0
  0
ENDBLK
  5
EF
330
ED
100
AcDbEntity
  8
0
100
AcDbBlockEnd
  0
BLOCK
  5
FA
330
F9
100
AcDbEntity
  8
0
100
AcDbBlockBegin
  2
SW_CENTERMARKSYMBOL_3
 70
     0
 10
0.0
 20
0.0
 30
0.0
  3
SW_CENTERMARKSYMBOL_3
  1

  0
LINE
  5
FC
330
F9
100
AcDbEntity
  8
SLD-0
 62
     0
100
AcDbLine
 10
0.0
 20
0.0
 30
0.0
 11
0.0
 21
2.5
 31
0.0
  0
LINE
  5
FD
330
F9
100
AcDbEntity
  8
SLD-0
 62
     0
100
AcDbLine
 10
0.0
 20
0.0
 30
0.0
 11
-2.5
 21
0.0
 31
0.0
  0
LINE
  5
FE
330
F9
100
AcDbEntity
  8
SLD-0
 62
     0
100
AcDbLine
 10
0.0
 20
0.0
 30
0.0
 11
0.0
 21
-2.5
 31
0.0
  0
LINE
  5
FF
330
F9
100
AcDbEntity
  8
SLD-0
 62
     0
100
AcDbLine
 10
0.0
 20
0.0
 30
0.0
 11
2.5
 21
0.0
 31
0.0
  0
LINE
  5
100
330
F9
100
AcDbEntity
  8
SLD-0
 62
     0
100
AcDbLine
 10
0.0
 20
5.0
 30
0.0
 11
0.0
 21
6.0
 31
0.0
  0
LINE
  5
101
330
F9
100
AcDbEntity
  8
SLD-0
 62
     0
100
AcDbLine
 10
-5.0
 20
0.0
 30
0.0
 11
-6.0
 21
0.0
 31
0.0
  0
LINE
  5
102
330
F9
100
AcDbEntity
  8
SLD-0
 62
     0
100
AcDbLine
 10
0.0
 20
-5.0
 30
0.0
 11
0.0
 21
-6.0
 31
0.0
  0
LINE
  5
103
330
F9
100
AcDbEntity
  8
SLD-0
 62
     0
100
AcDbLine
 10
5.0
 20
0.0
 30
0.0
 11
6.0
 21
0.0
 31
0.0
  0
ENDBLK
  5
FB
330
F9
100
AcDbEntity
  8
0
100
AcDbBlockEnd
  0
ENDSEC
  0
SECTION
  2
ENTITIES
  0
LWPOLYLINE
  5
7F
330
1F
100
AcDbEntity
  8
0
  6
Continuous
 62
     7
370
    25
100
AcDbPolyline
 90
       63
 70
   128
 43
0.0
 10
10306.5135457005
 20
6147.5353203055
 10
10305.7382668089
 20
6143.5408427095
 10
10304.3815749635
 20
6138.1974329319
 10
10302.7171465498
 20
6132.9111109644
 10
10300.7487449103
 20
6127.6934761102
 10
10298.4808044546
 20
6122.5559293569
 10
10295.9184068682
 20
6117.5096496085
 10
10293.067258
 20
6112.5655747052
 10
10289.9336664335
 20
6107.7343860642
 10
10286.5245242112
 20
6103.0264956162
 10
10282.847289692
 20
6098.452033779
 10
10278.9099721625
 20
6094.0208374276
 10
10274.7211175949
 20
6089.7424371247
 10
10270.2897948599
 20
6085.6260431881
 10
10265.6255817181
 20
6081.680530458
 10
10260.7385500078
 20
6077.9144218448
 10
10255.6392495744
 20
6074.3358708958
 10
10250.3386906271
 20
6070.9526437057
 10
10244.8483243423
 20
6067.7721005349
 10
10239.1800216466
 20
6064.8011774917
 10
10233.346050199
 20
6062.0463686093
 10
10227.3590496603
 20
6059.5137086019
 10
10221.232005378
 20
6057.208756534
 10
10214.9782206422
 20
6055.1365805916
 10
10208.6112876756
 20
6053.3017440926
 10
10202.145057525
 20
6051.708292843
 10
10195.5936090139
 20
6050.3597439062
 10
10188.9712169062
 20
6049.2590758346
 10
10182.2923194214
 20
6048.40872039
 10
10175.5714864312
 20
6047.8105558521
 10
10168.8233834519
 20
6047.4659014441
 10
10162.0627380525
 20
6047.3755138431
 10
10155.3043078216
 20
6047.5395850983
 10
10148.5628472994
 20
6047.9577417134
 10
10141.8530721763
 20
6048.6290453486
 10
10135.1896249877
 20
6049.5519952156
 10
10128.5870418354
 20
6050.7245319012
 10
10122.0597219536
 20
6052.1440419814
 10
10115.6218913963
 20
6053.8073651343
 10
10109.2875701085
 20
6055.7108025902
 10
10103.0705401925
 20
6057.8501269346
 10
10096.9843143082
 20
6060.2205935552
 10
10091.0421048934
 20
6062.8169536391
 10
10085.2567943621
 20
6065.6334686978
 10
10079.640906451
 20
6068.663926576
 10
10074.2065789001
 20
6071.9016588697
 10
10068.9655376615
 20
6075.339559642
 10
10063.9290728322
 20
6078.9701052755
 10
10059.1080164976
 20
6082.7853752436
 10
10054.5127226457
 20
6086.7770735177
 10
10050.153049264
 20
6090.9365502611
 10
10046.0383426577
 20
6095.2548233937
 10
10042.1774239216
 20
6099.7225995649
 10
10038.5785773657
 20
6104.3302940484
 10
10035.2495405339
 20
6109.068049095
 10
10032.1974952817
 20
6113.925750366
 10
10029.4290592181
 20
6118.8930412308
 10
10026.95027669
 20
6123.9593349601
 10
10024.7666084441
 20
6129.1138251767
 10
10022.8829191774
 20
6134.3454953013
 10
10021.3034624095
 20
6139.6431281203
 10
10020.0318625049
 20
6144.9953169103
 10
10019.6190057343
 20
6147.3137005179
  0
LWPOLYLINE
  5
80
330
1F
100
AcDbEntity
  8
0
  6
Continuous
 62
     7
370
    25
100
AcDbPolyline
 90
       36
 70
   128
 43
0.0
 10
10163.0419922753
 20
6310.6978182423
 10
10159.0538422576
 20
6310.6619030388
 10
10151.5152420167
 20
6310.3975271858
 10
10143.9963792818
 20
6309.8765319305
 10
10136.510825651
 20
6309.0998178552
 10
10129.0716993657
 20
6308.0687200697
 10
10121.6920414031
 20
6306.7850134892
 10
10114.3847942142
 20
6305.2509104613
 10
10107.1627785136
 20
6303.4690573688
 10
10100.0386724994
 20
6301.4425309986
 10
10093.0249905761
 20
6299.1748342769
 10
10086.13406226
 20
6296.6698914642
 10
10079.3780112653
 20
6293.9320428229
 10
10072.7687347661
 20
6290.9660387621
 10
10066.3178828194
 20
6287.7770334589
 10
10060.0368379294
 20
6284.3705779426
 10
10053.9366947305
 20
6280.7526126152
 10
10048.0282397629
 20
6276.9294591639
 10
10042.3219313212
 20
6272.907811801
 10
10036.8278793637
 20
6268.6947277449
 10
10031.5558254885
 20
6264.2976168348
 10
10026.5151230084
 20
6259.7242301486
 10
10021.7147171903
 20
6254.982647481
 10
10017.1631257732
 20
6250.0812635318
 10
10012.8684199281
 20
6245.0287726604
 10
10008.838205882
 20
6239.8341520875
 10
10005.0796074859
 20
6234.506643472
 10
10001.5992500534
 20
6229.0557328585
 10
9998.4032458294
 20
6223.4911290831
 10
9995.4971814503
 20
6217.8227408374
 10
9992.8861077302
 20
6212.060652706
 10
9990.5745320276
 20
6206.2151006139
 10
9988.566413337
 20
6200.2964472128
 10
9986.8651600893
 20
6194.3151577957
 10
9985.4736304709
 20
6188.2817773339
 10
9985.3566097408
 20
6187.6232424435
  0
LWPOLYLINE
  5
81
330
1F
100
AcDbEntity
  8
0
  6
Continuous
 62
     7
370
    25
100
AcDbPolyline
 90
       35
 70
   128
 43
0.0
 10
10340.6198223134
 20
6188.0538932666
 10
10339.8065371859
 20
6191.9337569417
 10
10338.228589294
 20
6197.9332044657
 10
10336.3431392467
 20
6203.8737409933
 10
10334.1534082616
 20
6209.7450119003
 10
10331.6631419424
 20
6215.5367575523
 10
10328.8766111507
 20
6221.2388302609
 10
10325.7986114805
 20
6226.8412130985
 10
10322.4344608291
 20
6232.3340402349
 10
10318.7899947156
 20
6237.707618339
 10
10314.871559169
 20
6242.9524485282
 10
10310.686001168
 20
6248.0592483456
 10
10306.2406567581
 20
6253.0189732911
 10
10301.5433370721
 20
6257.8228375151
 10
10296.6023125439
 20
6262.4623333788
 10
10291.4262956354
 20
6266.9292496893
 10
10286.0244223891
 20
6271.2156885097
 10
10280.4062330947
 20
6275.3140805261
 10
10274.5816523132
 20
6279.2171990115
 10
10268.5609684572
 20
6282.9181724689
 10
10262.3548130759
 20
6286.4104960588
 10
10255.9741399479
 20
6289.688041925
 10
10249.4302040505
 20
6292.7450685291
 10
10242.7345404412
 20
6295.5762290952
 10
10235.8989430674
 20
6298.1765792512
 10
10228.9354435062
 20
6300.5415839358
 10
10221.8562896271
 20
6302.6671236244
 10
10214.6739241682
 20
6304.5494999126
 10
10207.400963216
 20
6306.185440481
 10
10200.050174585
 20
6307.5721034562
 10
10192.6344560925
 20
6308.7070811731
 10
10185.1668137362
 20
6309.5884033394
 10
10177.6603399856
 20
6310.2145395846
 10
10170.1281920144
 20
6310.5844014427
 10
10163.0419922753
 20
6310.6978182423
  0
LINE
  5
82
330
1F
100
AcDbEntity
  8
0
  6
Continuous
 62
     7
370
    25
100
AcDbLine
 10
10150.5419922753
 20
6250.6097568138
 30
0.0
 11
10150.5419922753
 21
6245.3726732089
 31
0.0
  0
LINE
  5
83
330
1F
100
AcDbEntity
  8
0
  6
Continuous
 62
     7
370
    25
100
AcDbLine
 10
10175.5419922753
 20
6245.3726732089
 30
0.0
 11
10175.5419922753
 21
6250.6072817235
 31
0.0
  0
LWPOLYLINE
  5
84
330
1F
100
AcDbEntity
  8
0
  6
Continuous
 62
     7
370
    25
100
AcDbPolyline
 90
       36
 70
   128
 43
0.0
 10
10163.0419922753
 20
6022.6344885359
 10
10170.9830672473
 20
6022.7788937005
 10
10178.9081499512
 20
6023.2118183815
 10
10186.801280325
 20
6023.9323907262
 10
10194.6465626547
 20
6024.9391595978
 10
10202.4281975856
 20
6026.2300974978
 10
10210.1305139406
 20
6027.8026046491
 10
10217.7380002797
 20
6029.6535142315
 10
10225.2353361377
 20
6031.7790987594
 10
10232.607422878
 20
6034.1750775885
 10
10239.8394140991
 20
6036.8366255363
 10
10246.916745533
 20
6039.7583825995
 10
10253.8251643761
 20
6042.9344647481
 10
10260.5507579923
 20
6046.3584757753
 10
10267.0799819311
 20
6050.0235201787
 10
10273.3996872043
 20
6053.9222170466
 10
10279.4971467666
 20
6058.0467149223
 10
10285.360081146
 20
6062.388707616
 10
10290.9766831728
 20
6066.9394509322
 10
10296.3356417579
 20
6071.6897802796
 10
10301.4261646721
 20
6076.630129127
 10
10306.2380002797
 20
6081.7505482694
 10
10310.761458184
 20
6087.0407258639
 10
10314.9874287428
 20
6092.490008197
 10
10318.9074014139
 20
6098.0874211393
 10
10322.513481894
 20
6103.8216922459
 10
10325.7984080169
 20
6109.6812734581
 10
10328.7555643785
 20
6115.6543643591
 10
10331.3789956595
 20
6121.7289359387
 10
10333.6634186185
 20
6127.8927548181
 10
10335.6042327315
 20
6134.1334078865
 10
10337.1975294573
 20
6140.4383272991
 10
10338.4401001082
 20
6146.7948157872
 10
10339.3294423125
 20
6153.190072229
 10
10339.8637650531
 20
6159.6112174292
 10
10340.0419922753
 20
6166.0453200557
  0
LWPOLYLINE
  5
85
330
1F
100
AcDbEntity
  8
0
  6
Continuous
 62
     7
370
    25
100
AcDbPolyline
 90
        9
 70
   128
 43
0.0
 10
10340.0419922753
 20
6166.0453200557
 10
10340.6272632414
 20
6166.0115341738
 10
10341.1900425724
 20
6165.9114749004
 10
10341.7087029744
 20
6165.7489874574
 10
10342.1633126189
 20
6165.530316146
 10
10342.5364011122
 20
6165.2638643821
 10
10342.8136308728
 20
6164.9598717576
 10
10342.9843481165
 20
6164.6300205386
 10
10343.0419922753
 20
6164.2869867224
  0
ARC
  5
86
330
1F
100
AcDbEntity
  8
0
  6
Continuous
 62
     7
370
    25
100
AcDbCircle
 10
10224.1211211052
 20
6164.3228485322
 30
0.0
 40
118.9208765774005
100
AcDbArc
 50
348.7618598547
 51
359.9827218699
  0
LINE
  5
87
330
1F
100
AcDbEntity
  8
0
  6
Continuous
 62
     7
370
    25
100
AcDbLine
 10
10163.0419922753
 20
6022.6344885359
 30
0.0
 11
10163.0419922753
 21
6018.4454631429
 31
0.0
  0
LWPOLYLINE
  5
88
330
1F
100
AcDbEntity
  8
0
  6
Continuous
 62
     7
370
    25
100
AcDbPolyline
 90
       36
 70
   128
 43
0.0
 10
9986.0419922753
 20
6166.0453200557
 10
9986.2202194975
 20
6159.6112174292
 10
9986.7545422381
 20
6153.190072229
 10
9987.6438844424
 20
6146.7948157872
 10
9988.8864550933
 20
6140.4383272991
 10
9990.4797518191
 20
6134.1334078865
 10
9992.4205659321
 20
6127.8927548181
 10
9994.7049888911
 20
6121.7289359387
 10
9997.3284201721
 20
6115.6543643591
 10
10000.2855765337
 20
6109.6812734581
 10
10003.5705026566
 20
6103.8216922459
 10
10007.1765831367
 20
6098.0874211393
 10
10011.0965558078
 20
6092.490008197
 10
10015.3225263666
 20
6087.0407258639
 10
10019.8459842709
 20
6081.7505482694
 10
10024.6578198785
 20
6076.630129127
 10
10029.7483427927
 20
6071.6897802796
 10
10035.1073013779
 20
6066.9394509322
 10
10040.7239034046
 20
6062.388707616
 10
10046.586837784
 20
6058.0467149223
 10
10052.6842973463
 20
6053.9222170466
 10
10059.0040026195
 20
6050.0235201787
 10
10065.5332265583
 20
6046.3584757753
 10
10072.2588201745
 20
6042.9344647481
 10
10079.1672390176
 20
6039.7583825995
 10
10086.2445704515
 20
6036.8366255363
 10
10093.4765616726
 20
6034.1750775885
 10
10100.8486484129
 20
6031.7790987594
 10
10108.3459842709
 20
6029.6535142315
 10
10115.95347061
 20
6027.8026046491
 10
10123.655786965
 20
6026.2300974978
 10
10131.4374218959
 20
6024.9391595978
 10
10139.2827042256
 20
6023.9323907262
 10
10147.1758345994
 20
6023.2118183815
 10
10155.1009173033
 20
6022.7788937005
 10
10163.0419922753
 20
6022.6344885359
  0
ARC
  5
89
330
1F
100
AcDbEntity
  8
0
  6
Continuous
 62
     7
370
    25
100
AcDbCircle
 10
10101.9817701764
 20
6164.3239341331
 30
0.0
 40
118.9397836397191
100
AcDbArc
 50
180.0177983402
 51
191.4489057136
  0
LWPOLYLINE
  5
8A
330
1F
100
AcDbEntity
  8
0
  6
Continuous
 62
     7
370
    25
100
AcDbPolyline
 90
        9
 70
   128
 43
0.0
 10
9983.0419922753
 20
6164.2869867224
 10
9983.0996364341
 20
6164.6300205386
 10
9983.2703536778
 20
6164.9598717576
 10
9983.5475834384
 20
6165.2638643821
 10
9983.9206719317
 20
6165.530316146
 10
9984.3752815762
 20
6165.7489874574
 10
9984.8939419782
 20
6165.9114749004
 10
9985.4567213093
 20
6166.0115341738
 10
9986.0419922753
 20
6166.0453200557
  0
LWPOLYLINE
  5
8B
330
1F
100
AcDbEntity
  8
0
  6
Continuous
 62
     7
370
    25
100
AcDbPolyline
 90
       36
 70
   128
 43
0.0
 10
10163.0419922753
 20
6309.4561515756
 10
10155.1009173033
 20
6309.311746411
 10
10147.1758345994
 20
6308.87882173
 10
10139.2827042256
 20
6308.1582493853
 10
10131.4374218959
 20
6307.1514805137
 10
10123.655786965
 20
6305.8605426137
 10
10115.95347061
 20
6304.2880354624
 10
10108.3459842709
 20
6302.43712588
 10
10100.8486484129
 20
6300.3115413521
 10
10093.4765616726
 20
6297.915562523
 10
10086.2445704515
 20
6295.2540145751
 10
10079.1672390176
 20
6292.332257512
 10
10072.2588201745
 20
6289.1561753634
 10
10065.5332265583
 20
6285.7321643362
 10
10059.0040026195
 20
6282.0671199328
 10
10052.6842973463
 20
6278.1684230649
 10
10046.586837784
 20
6274.0439251892
 10
10040.7239034046
 20
6269.7019324955
 10
10035.1073013779
 20
6265.1511891793
 10
10029.7483427927
 20
6260.4008598319
 10
10024.6578198785
 20
6255.4605109845
 10
10019.8459842709
 20
6250.3400918421
 10
10015.3225263666
 20
6245.0499142476
 10
10011.0965558078
 20
6239.6006319145
 10
10007.1765831367
 20
6234.0032189722
 10
10003.5705026566
 20
6228.2689478655
 10
10000.2855765337
 20
6222.4093666533
 10
9997.3284201721
 20
6216.4362757524
 10
9994.7049888911
 20
6210.3617041728
 10
9992.4205659321
 20
6204.1978852934
 10
9990.4797518191
 20
6197.957232225
 10
9988.8864550933
 20
6191.6523128124
 10
9987.6438844424
 20
6185.2958243243
 10
9986.7545422381
 20
6178.9005678824
 10
9986.2202194975
 20
6172.4794226823
 10
9986.0419922753
 20
6166.0453200557
  0
LWPOLYLINE
  5
8C
330
1F
100
AcDbEntity
  8
0
  6
Continuous
 62
     7
370
    25
100
AcDbPolyline
 90
       36
 70
   128
 43
0.0
 10
10340.0419922753
 20
6166.0453200557
 10
10339.8637650531
 20
6172.4794226823
 10
10339.3294423125
 20
6178.9005678824
 10
10338.4401001082
 20
6185.2958243243
 10
10337.1975294573
 20
6191.6523128124
 10
10335.6042327315
 20
6197.957232225
 10
10333.6634186185
 20
6204.1978852934
 10
10331.3789956595
 20
6210.3617041728
 10
10328.7555643785
 20
6216.4362757524
 10
10325.7984080169
 20
6222.4093666533
 10
10322.513481894
 20
6228.2689478655
 10
10318.9074014139
 20
6234.0032189722
 10
10314.9874287428
 20
6239.6006319145
 10
10310.761458184
 20
6245.0499142476
 10
10306.2380002797
 20
6250.3400918421
 10
10301.4261646721
 20
6255.4605109845
 10
10296.3356417579
 20
6260.4008598319
 10
10290.9766831728
 20
6265.1511891793
 10
10285.360081146
 20
6269.7019324955
 10
10279.4971467666
 20
6274.0439251892
 10
10273.3996872043
 20
6278.1684230649
 10
10267.0799819311
 20
6282.0671199328
 10
10260.5507579923
 20
6285.7321643362
 10
10253.8251643761
 20
6289.1561753634
 10
10246.916745533
 20
6292.332257512
 10
10239.8394140991
 20
6295.2540145751
 10
10232.607422878
 20
6297.915562523
 10
10225.2353361377
 20
6300.3115413521
 10
10217.7380002797
 20
6302.43712588
 10
10210.1305139406
 20
6304.2880354624
 10
10202.4281975856
 20
6305.8605426137
 10
10194.6465626547
 20
6307.1514805137
 10
10186.801280325
 20
6308.1582493853
 10
10178.9081499512
 20
6308.87882173
 10
10170.9830672473
 20
6309.311746411
 10
10163.0419922753
 20
6309.4561515756
  0
LWPOLYLINE
  5
8D
330
1F
100
AcDbEntity
  8
0
  6
Continuous
 62
     7
370
    25
100
AcDbPolyline
 90
      130
 70
   128
 43
0.0
 10
10163.0419922753
 20
6285.9594616656
 10
10170.2477580779
 20
6285.8172501178
 10
10177.4364326
 20
6285.3909527845
 10
10184.5909651001
 20
6284.6815807959
 10
10191.6943858174
 20
6283.6908167039
 10
10198.7298462227
 20
6282.4210104915
 10
10205.6806589814
 20
6280.8751739988
 10
10212.5303375334
 20
6279.0569737792
 10
10219.262635198
 20
6276.9707224026
 10
10225.8615837089
 20
6274.6213682269
 10
10232.3115310894
 20
6272.0144836605
 10
10238.5971787768
 20
6269.1562519458
 10
10244.7036179093
 20
6266.0534524925
 10
10250.6163646879
 20
6262.7134447981
 10
10256.3213947305
 20
6259.1441509918
 10
10261.8051763362
 20
6255.3540370443
 10
10267.0547025808
 20
6251.3520926871
 10
10272.057522168
 20
6247.14781009
 10
10276.8017689625
 20
6242.7511613469
 10
10281.2761901351
 20
6238.1725748229
 10
10285.4701728531
 20
6233.4229104193
 10
10289.3737694528
 20
6228.5134338153
 10
10292.9777210344
 20
6223.455789747
 10
10296.2734794229
 20
6218.2619743875
 10
10299.2532274435
 20
6212.9443068929
 10
10301.9098974632
 20
6207.5154001829
 10
10304.2371881541
 20
6201.9881310246
 10
10306.2295794398
 20
6196.3756094897
 10
10307.8823455884
 20
6190.6911478592
 10
10309.1915664211
 20
6184.9482290481
 10
10310.1541366108
 20
6179.1604746252
 10
10310.7677730473
 20
6173.3416125047
 10
10311.0310202529
 20
6167.5054443846
 10
10310.9432538341
 20
6161.6658130109
 10
10310.5046819633
 20
6155.8365693441
 10
10309.7163448845
 20
6150.0315397061
 10
10308.5801124461
 20
6144.2644929858
 10
10307.0986796659
 20
6138.549107981
 10
10305.2755603389
 20
6132.8989409534
 10
10303.1150787026
 20
6127.3273934749
 10
10300.6223591809
 20
6121.8476806407
 10
10297.8033142289
 20
6116.4727997242
 10
10294.6646303099
 20
6111.215499349
 10
10291.2137520354
 20
6106.0882492508
 10
10287.4588645074
 20
6101.1032107005
 10
10283.4088739042
 20
6096.2722076586
 10
10279.0733863561
 20
6091.6066987306
 10
10274.4626851606
 20
6087.1177499884
 10
10269.5877063915
 20
6082.8160087223
 10
10264.4600129599
 20
6078.7116781874
 10
10259.091767188
 20
6074.8144934022
 10
10253.4957019618
 20
6071.1336980585
 10
10247.6850905297
 20
6067.6780225962
 10
10241.67371502
 20
6064.4556634957
 10
10235.4758337513
 20
6061.4742638368
 10
10229.1061474133
 20
6058.74089517
 10
10222.5797641982
 20
6056.2620407439
 10
10215.9121639659
 20
6054.0435801273
 10
10209.1191615275
 20
6052.0907752637
 10
10202.2168691343
 20
6050.4082579904
 10
10195.2216582614
 20
6049.0000190525
 10
10188.150120776
 20
6047.8693986373
 10
10181.0190295837
 20
6047.0190784515
 10
10173.8452988451
 20
6046.4510753604
 10
10166.6459438569
 20
6046.1667366049
 10
10159.4380406937
 20
6046.1667366049
 10
10152.2386857055
 20
6046.4510753604
 10
10145.0649549669
 20
6047.0190784515
 10
10137.9338637747
 20
6047.8693986373
 10
10130.8623262892
 20
6049.0000190525
 10
10123.8671154163
 20
6050.4082579904
 10
10116.9648230231
 20
6052.0907752637
 10
10110.1718205847
 20
6054.0435801273
 10
10103.5042203524
 20
6056.2620407439
 10
10096.9778371373
 20
6058.74089517
 10
10090.6081507993
 20
6061.4742638368
 10
10084.4102695306
 20
6064.4556634957
 10
10078.3988940209
 20
6067.6780225962
 10
10072.5882825888
 20
6071.1336980585
 10
10066.9922173626
 20
6074.8144934022
 10
10061.6239715907
 20
6078.7116781874
 10
10056.4962781591
 20
6082.8160087223
 10
10051.62129939
 20
6087.1177499884
 10
10047.0105981945
 20
6091.6066987306
 10
10042.6751106464
 20
6096.2722076586
 10
10038.6251200432
 20
6101.1032107005
 10
10034.8702325152
 20
6106.0882492508
 10
10031.4193542407
 20
6111.215499349
 10
10028.2806703217
 20
6116.4727997242
 10
10025.4616253697
 20
6121.8476806407
 10
10022.968905848
 20
6127.3273934749
 10
10020.8084242117
 20
6132.8989409534
 10
10018.9853048847
 20
6138.549107981
 10
10017.5038721045
 20
6144.2644929858
 10
10016.3676396661
 20
6150.0315397061
 10
10015.5793025873
 20
6155.8365693441
 10
10015.1407307165
 20
6161.6658130109
 10
10015.0529642977
 20
6167.5054443846
 10
10015.3162115033
 20
6173.3416125047
 10
10015.9298479398
 20
6179.1604746252
 10
10016.8924181295
 20
6184.9482290481
 10
10018.2016389622
 20
6190.6911478592
 10
10019.8544051108
 20
6196.3756094897
 10
10021.8467963965
 20
6201.9881310246
 10
10024.1740870874
 20
6207.5154001829
 10
10026.8307571071
 20
6212.9443068929
 10
10029.8105051277
 20
6218.2619743875
 10
10033.1062635162
 20
6223.455789747
 10
10036.7102150978
 20
6228.5134338153
 10
10040.6138116975
 20
6233.4229104193
 10
10044.8077944155
 20
6238.1725748229
 10
10049.2822155881
 20
6242.7511613469
 10
10054.0264623826
 20
6247.14781009
 10
10059.0292819698
 20
6251.3520926871
 10
10064.2788082144
 20
6255.3540370443
 10
10069.7625898201
 20
6259.1441509918
 10
10075.4676198627
 20
6262.7134447981
 10
10081.3803666413
 20
6266.0534524925
 10
10087.4868057738
 20
6269.1562519458
 10
10093.7724534612
 20
6272.0144836605
 10
10100.2224008417
 20
6274.6213682269
 10
10106.8213493526
 20
6276.9707224026
 10
10113.5536470172
 20
6279.0569737792
 10
10120.4033255693
 20
6280.8751739988
 10
10127.3541383279
 20
6282.4210104915
 10
10134.3895987333
 20
6283.6908167039
 10
10141.4930194505
 20
6284.6815807958
 10
10148.6475519506
 20
6285.3909527845
 10
10155.8362264728
 20
6285.8172501178
 10
10163.0419922753
 20
6285.9594616656
  0
ELLIPSE
  5
8E
330
1F
100
AcDbEntity
  8
0
  6
Continuous
 62
     7
370
    25
100
AcDbEllipse
 10
10163.0419922753
 20
6013.7721576879
 30
0.0
 11
0.0
 21
222.1589517496413
 31
0.0
210
0.0
220
0.0
230
1.0
 40
0.8102306866
 41
1.570796326794897
 42
3.141592653589793
  0
LINE
  5
8F
330
1F
100
AcDbEntity
  8
0
  6
Continuous
 62
     7
370
    25
100
AcDbLine
 10
9983.0419922753
 20
6013.7721576879
 30
0.0
 11
9983.0419922753
 21
6164.2869867224
 31
0.0
  0
LINE
  5
90
330
1F
100
AcDbEntity
  8
0
  6
Continuous
 62
     7
370
    25
100
AcDbLine
 10
10163.0419922753
 20
6018.4454631429
 30
0.0
 11
10163.0419922753
 21
5791.6132059383
 31
0.0
  0
ELLIPSE
  5
91
330
1F
100
AcDbEntity
  8
0
  6
Continuous
 62
     7
370
    25
100
AcDbEllipse
 10
10163.0419922753
 20
6013.7721576879
 30
0.0
 11
0.0
 21
222.1589517496413
 31
0.0
210
0.0
220
0.0
230
1.0
 40
0.8102306866
 41
3.141592653589793
 42
4.712388980384701
  0
LINE
  5
92
330
1F
100
AcDbEntity
  8
0
  6
Continuous
 62
     7
370
    25
100
AcDbLine
 10
10343.0419922753
 20
6164.2869867224
 30
0.0
 11
10343.0419922753
 21
6013.7721576879
 31
0.0
  0
ARC
  5
93
330
1F
100
AcDbEntity
  8
0
  6
Continuous
 62
     7
370
    25
100
AcDbCircle
 10
10113.5795704423
 20
6164.2868947674
 30
0.0
 40
95.53623072380019
100
AcDbArc
 50
169.7100475285
 51
190.3477238133
  0
ARC
  5
94
330
1F
100
AcDbEntity
  8
0
  6
Continuous
 62
     7
370
    25
100
AcDbCircle
 10
10212.4986420424
 20
6164.2868202016
 30
0.0
 40
95.54182239950678
100
AcDbArc
 50
349.7899550964
 51
10.0904633335
  0
LWPOLYLINE
  5
95
330
1F
100
AcDbEntity
  8
0
  6
Continuous
 62
     7
370
    25
100
AcDbPolyline
 90
       20
 70
   128
 43
0.0
 10
10150.5824521765
 20
6250.6090744276
 10
10150.6234937229
 20
6251.4478859843
 10
10151.0285421366
 20
6252.6645345528
 10
10151.7883202445
 20
6253.8789711489
 10
10152.8406999539
 20
6254.9871400218
 10
10154.214894425
 20
6256.0138011714
 10
10155.8018258229
 20
6256.8700368976
 10
10157.6433344292
 20
6257.5706836878
 10
10159.585157282
 20
6258.0515600226
 10
10161.6835138515
 20
6258.3221263691
 10
10163.754558598
 20
6258.3573446696
 10
10165.8648397846
 20
6258.159150827
 10
10167.8340507976
 20
6257.7467430854
 10
10169.7222355948
 20
6257.1119482525
 10
10171.3759600352
 20
6256.3105124403
 10
10172.8379165779
 20
6255.3268290525
 10
10173.9887610387
 20
6254.2460480851
 10
10174.8572814031
 20
6253.0451231555
 10
10175.3696510868
 20
6251.831315984
 10
10175.5369014049
 20
6250.6070405164
  0
ARC
  5
96
330
1F
100
AcDbEntity
  8
0
  6
Continuous
 62
     7
370
    25
100
AcDbCircle
 10
10101.9628634455
 20
6164.2511249126
 30
0.0
 40
118.9208765774931
100
AcDbArc
 50
168.7618598547
 51
179.9827218699
  0
ARC
  5
97
330
1F
100
AcDbEntity
  8
0
  6
Continuous
 62
     7
370
    25
100
AcDbCircle
 10
10224.1022143746
 20
6164.2500393117
 30
0.0
 40
118.9397836393756
100
AcDbArc
 50
0.0177983402
 51
11.4489057137
  0
LWPOLYLINE
  5
98
330
1F
100
AcDbEntity
  8
0
  6
Continuous
 62
     7
370
    25
100
AcDbPolyline
 90
       38
 70
   128
 43
0.0
 10
10163.0419922753
 20
6238.04628432
 10
10160.9294820213
 20
6238.1516677546
 10
10158.877744841
 20
6238.4647863688
 10
10156.9458054776
 20
6238.9766323103
 10
10155.1892423091
 20
6239.6724807033
 10
10153.6585884596
 20
6240.5323132562
 10
10152.3978780536
 20
6241.5313941522
 10
10151.4433794341
 20
6242.6409816529
 10
10150.8225517885
 20
6243.829154946
 10
10150.5532551977
 20
6245.0617324493
 10
10150.6432368346
 20
6246.3032551521
 10
10151.0899080911
 20
6247.5180067068
 10
10151.8804190484
 20
6248.6710409226
 10
10152.9920281457
 20
6249.7291871047
 10
10154.3927564131
 20
6250.6620043139
 10
10156.0423074486
 20
6251.4426570974
 10
10157.8932266723
 20
6252.0486874961
 10
10159.892266508
 20
6252.4626611187
 10
10161.9819182194
 20
6252.6726686978
 10
10164.1020663312
 20
6252.6726686978
 10
10166.1917180426
 20
6252.4626611187
 10
10168.1907578784
 20
6252.0486874961
 10
10170.041677102
 20
6251.4426570974
 10
10171.6912281375
 20
6250.6620043139
 10
10173.0919564049
 20
6249.7291871047
 10
10174.2035655022
 20
6248.6710409226
 10
10174.9940764595
 20
6247.5180067068
 10
10175.440747716
 20
6246.3032551521
 10
10175.5307293529
 20
6245.0617324493
 10
10175.2614327622
 20
6243.829154946
 10
10174.6406051165
 20
6242.6409816529
 10
10173.686106497
 20
6241.5313941522
 10
10172.425396091
 20
6240.5323132562
 10
10170.8947422415
 20
6239.6724807033
 10
10169.138179073
 20
6238.9766323103
 10
10167.2062397096
 20
6238.4647863688
 10
10165.1545025293
 20
6238.1516677546
 10
10163.0419922753
 20
6238.04628432
  0
LWPOLYLINE
  5
99
330
1F
100
AcDbEntity
  8
0
  6
Continuous
 62
     8
370
    25
100
AcDbPolyline
 90
       33
 70
   128
 43
0.0
 10
10340.7617662003
 20
6141.1466797866
 10
10340.1493182231
 20
6138.2459771393
 10
10338.529016468
 20
6131.8341946859
 10
10336.5553072006
 20
6125.4877678367
 10
10334.2321652084
 20
6119.2194774508
 10
10331.5642689905
 20
6113.0419470309
 10
10328.5569913346
 20
6106.9676173011
 10
10325.2163884977
 20
6101.0087211531
 10
10321.5491880095
 20
6095.1772590107
 10
10317.5627751236
 20
6089.4849746627
 10
10313.2651779451
 20
6083.9433316121
 10
10308.6650512628
 20
6078.5634899905
 10
10303.7716591195
 20
6073.356284083
 10
10298.594856156
 20
6068.3322005094
 10
10293.1450677642
 20
6063.5013571052
 10
10287.4332690929
 20
6058.8734825464
 10
10281.4709629445
 20
6054.4578967562
 10
10275.2701566099
 20
6050.2634921368
 10
10268.8433376879
 20
6046.298715661
 10
10262.2034489367
 20
6042.571551861
 10
10255.3638622084
 20
6039.0895067485
 10
10248.3383515204
 20
6035.8595926991
 10
10241.1410653165
 20
6032.8883143298
 10
10233.786497973
 20
6030.1816553998
 10
10226.2894606099
 20
6027.74506676
 10
10218.6650512628
 20
6025.5834553757
 10
10210.9286244773
 20
6023.7011744444
 10
10203.0957603874
 20
6022.1020146296
 10
10195.1822333391
 20
6020.7891964262
 10
10187.2039801225
 20
6019.7653636754
 10
10179.1770678779
 20
6019.0325782401
 10
10171.1176617384
 20
6018.5923158526
 10
10163.0419922753
 20
6018.4454631429
  0
LWPOLYLINE
  5
9A
330
1F
100
AcDbEntity
  8
0
  6
Continuous
 62
     8
370
    25
100
AcDbPolyline
 90
       33
 70
   128
 43
0.0
 10
10163.0419922753
 20
6018.4454631429
 10
10154.9663228122
 20
6018.5923158526
 10
10146.9069166727
 20
6019.0325782401
 10
10138.8800044281
 20
6019.7653636754
 10
10130.9017512115
 20
6020.7891964262
 10
10122.9882241632
 20
6022.1020146296
 10
10115.1553600733
 20
6023.7011744444
 10
10107.4189332878
 20
6025.5834553757
 10
10099.7945239407
 20
6027.74506676
 10
10092.2974865776
 20
6030.1816553998
 10
10084.9429192341
 20
6032.8883143298
 10
10077.7456330302
 20
6035.8595926991
 10
10070.7201223422
 20
6039.0895067485
 10
10063.8805356139
 20
6042.571551861
 10
10057.2406468627
 20
6046.298715661
 10
10050.8138279407
 20
6050.2634921368
 10
10044.6130216062
 20
6054.4578967562
 10
10038.6507154577
 20
6058.8734825464
 10
10032.9389167864
 20
6063.5013571052
 10
10027.4891283947
 20
6068.3322005094
 10
10022.3123254311
 20
6073.356284083
 10
10017.4189332878
 20
6078.5634899905
 10
10012.8188066055
 20
6083.9433316121
 10
10008.521209427
 20
6089.4849746627
 10
10004.5347965411
 20
6095.1772590107
 10
10000.8675960529
 20
6101.0087211531
 10
9997.526993216
 20
6106.9676173011
 10
9994.5197155602
 20
6113.0419470309
 10
9991.8518193422
 20
6119.2194774508
 10
9989.5286773501
 20
6125.4877678367
 10
9987.5549680826
 20
6131.8341946859
 10
9985.9346663276
 20
6138.2459771393
 10
9985.4086379805
 20
6140.7151014151
  0
LWPOLYLINE
  5
9B
330
1F
100
AcDbEntity
  8
0
  6
Continuous
 62
     8
370
    25
100
AcDbPolyline
 90
       30
 70
   128
 43
0.0
 10
10163.0419922753
 20
6281.7704362726
 10
10155.8712028865
 20
6281.6266854286
 10
10148.717961621
 20
6281.1957846791
 10
10141.5997736587
 20
6280.4787885105
 10
10134.5340583986
 20
6279.4774515324
 10
10127.5381068297
 20
6278.1942241843
 10
10120.629039218
 20
6276.6322467385
 10
10113.8237632096
 20
6274.7953416156
 10
10107.1389324552
 20
6272.6880040303
 10
10100.5909058561
 20
6270.3153909906
 10
10094.1957075304
 20
6267.6833086784
 10
10087.9689876002
 20
6264.7981982401
 10
10081.9259838924
 20
6261.6671200244
 10
10076.08148465
 20
6258.2977363044
 10
10070.4497923418
 20
6254.6982925266
 10
10065.0446886626
 20
6250.8775971331
 10
10059.879400807
 20
6246.8450000059
 10
10054.9665690997
 20
6242.6103695858
 10
10050.3182160634
 20
6238.1840687231
 10
10045.9457169967
 20
6233.5769293176
 10
10041.8597721376
 20
6228.8002258117
 10
10038.0703804779
 20
6223.865647599
 10
10034.5868152939
 20
6218.7852704196
 10
10031.4176014535
 20
6213.5715268075
 10
10028.5704945538
 20
6208.2371756672
 10
10026.0524619427
 20
6202.7952710498
 10
10023.8696656678
 20
6197.2591302077
 10
10022.0274473975
 20
6191.6423010053
 10
10020.5303153485
 20
6185.9585287649
 10
10019.5799083407
 20
6181.3525006957
  0
LWPOLYLINE
  5
9C
330
1F
100
AcDbEntity
  8
0
  6
Continuous
 62
     8
370
    25
100
AcDbPolyline
 90
       30
 70
   128
 43
0.0
 10
10306.562657495
 20
6181.0260204319
 10
10305.5536692021
 20
6185.9585287649
 10
10304.0565371531
 20
6191.6423010053
 10
10302.2143188828
 20
6197.2591302077
 10
10300.0315226079
 20
6202.7952710498
 10
10297.5134899968
 20
6208.2371756672
 10
10294.6663830971
 20
6213.5715268075
 10
10291.4971692567
 20
6218.7852704196
 10
10288.0136040727
 20
6223.865647599
 10
10284.224212413
 20
6228.8002258117
 10
10280.1382675539
 20
6233.5769293176
 10
10275.7657684872
 20
6238.1840687231
 10
10271.1174154509
 20
6242.6103695858
 10
10266.2045837436
 20
6246.8450000059
 10
10261.039295888
 20
6250.8775971332
 10
10255.6341922088
 20
6254.6982925266
 10
10250.0024999006
 20
6258.2977363044
 10
10244.1580006582
 20
6261.6671200244
 10
10238.1149969505
 20
6264.7981982401
 10
10231.8882770202
 20
6267.6833086784
 10
10225.4930786945
 20
6270.3153909906
 10
10218.9450520954
 20
6272.6880040303
 10
10212.2602213411
 20
6274.7953416156
 10
10205.4549453326
 20
6276.6322467385
 10
10198.5458777209
 20
6278.1942241843
 10
10191.549926152
 20
6279.4774515324
 10
10184.4842108919
 20
6280.4787885105
 10
10177.3660229296
 20
6281.1957846791
 10
10170.2127816641
 20
6281.6266854286
 10
10163.0419922753
 20
6281.7704362726
  0
LWPOLYLINE
  5
9D
330
1F
100
AcDbEntity
  8
0
  6
Continuous
 62
     8
370
    25
100
AcDbPolyline
 90
       35
 70
   128
 43
0.0
 10
10028.3468635253
 20
6121.1049017673
 10
10031.4627324786
 20
6129.3365590356
 10
10036.8235009423
 20
6140.7905227998
 10
10043.203171684
 20
6151.9812809735
 10
10050.5619806651
 20
6162.656390612
 10
10058.0235814999
 20
6171.7614653542
 10
10066.2317304745
 20
6180.326610161
 10
10075.2612637996
 20
6188.4039608172
 10
10084.9707418476
 20
6195.8322039666
 10
10094.8748930981
 20
6202.285111637
 10
10105.3224311472
 20
6208.0133851656
 10
10116.4265237254
 20
6212.9975030244
 10
10127.9935624929
 20
6217.0808383651
 10
10136.4747916901
 20
6219.3849878575
 10
10145.1284227641
 20
6221.1261867181
 10
10154.0247035119
 20
6222.240826348
 10
10163.0419922753
 20
6222.6266579952
 10
10173.3785148377
 20
6222.1205525948
 10
10183.7150374
 20
6220.6393733566
 10
10196.3211517842
 20
6217.6095495691
 10
10208.7041795833
 20
6213.3756836556
 10
10220.9799464208
 20
6207.9042616964
 10
10232.8081873551
 20
6201.3135744556
 10
10244.4788210148
 20
6193.3898816934
 10
10255.4631151457
 20
6184.4091247541
 10
10265.8258362219
 20
6174.2265766132
 10
10270.6637721215
 20
6168.7471315035
 10
10275.23763102
 20
6163.0313729523
 10
10279.6962977461
 20
6156.8479374637
 10
10283.8534518755
 20
6150.4088289392
 10
10287.6916250697
 20
6143.749660442
 10
10291.2568277628
 20
6136.7906641234
 10
10294.488146146
 20
6129.6512134801
 10
10297.4230268387
 20
6122.2486406673
 10
10297.7866873318
 20
6121.188963825
  0
LINE
  5
9E
330
1F
100
AcDbEntity
  8
0
  6
Continuous
 62
     8
370
    25
100
AcDbLine
 10
10163.0419922753
 20
6310.6978181999
 30
0.0
 11
10163.0419922753
 21
6309.4561515756
 31
0.0
  0
LWPOLYLINE
  5
9F
330
1F
100
AcDbEntity
  8
0
  6
Continuous
 62
     8
370
    25
100
AcDbPolyline
 90
       35
 70
   128
 43
0.0
 10
10279.173874875
 20
6094.3178428706
 10
10278.2525594012
 20
6098.8164758065
 10
10275.2943133992
 20
6109.0734624952
 10
10271.5759843022
 20
6119.1417223213
 10
10267.1008778035
 20
6128.9081857708
 10
10261.8722995965
 20
6138.2597833297
 10
10255.8935553744
 20
6147.0834454841
 10
10248.1124475142
 20
6156.7569250532
 10
10239.6200413995
 20
6165.8739507458
 10
10230.4858866865
 20
6174.3692441508
 10
10220.779533031
 20
6182.1775268573
 10
10211.2298977136
 20
6188.8641456937
 10
10201.2426910452
 20
6194.9419710605
 10
10190.8667019307
 20
6200.3006580846
 10
10180.1507192751
 20
6204.8298618927
 10
10174.5891089612
 20
6206.6594685515
 10
10168.8578595391
 20
6207.9160397984
 10
10163.0419922753
 20
6208.3830202902
 10
10156.6801577566
 20
6207.8271716171
 10
10150.4240197591
 20
6206.3475321936
 10
10144.3687131705
 20
6204.2259619133
 10
10134.036395214
 20
6199.5508479607
 10
10124.6792880804
 20
6194.6009017559
 10
10115.5666008224
 20
6189.169363154
 10
10106.7875375232
 20
6183.2297616988
 10
10098.4313022661
 20
6176.7556269341
 10
10088.1499081695
 20
6167.5109869217
 10
10078.6215316199
 20
6157.4923035099
 10
10069.9550861152
 20
6146.7669184238
 10
10063.9011750331
 20
6137.7999672881
 10
10058.6141250519
 20
6128.3084756122
 10
10054.1254733643
 20
6118.407452501
 10
10050.4667571631
 20
6108.2119070593
 10
10047.3634456949
 20
6096.945832955
 10
10046.8538118877
 20
6094.3990105246
  0
LINE
  5
A0
330
1F
100
AcDbEntity
  8
0
  6
Continuous
 62
     7
370
    25
100
AcDbLine
 10
10636.5227232323
 20
5791.6132059383
 30
0.0
 11
10636.5227232323
 21
6013.7721576879
 31
0.0
  0
LINE
  5
A1
330
1F
100
AcDbEntity
  8
0
  6
Continuous
 62
     7
370
    25
100
AcDbLine
 10
10636.5227232323
 20
6013.7721576879
 30
0.0
 11
10844.5920311727
 21
6164.2869867224
 31
0.0
  0
LINE
  5
A2
330
1F
100
AcDbEntity
  8
0
  6
Continuous
 62
     7
370
    25
100
AcDbLine
 10
10950.0920311727
 20
6018.4454631429
 30
0.0
 11
10844.5920311727
 21
6164.2869867224
 31
0.0
  0
LINE
  5
A3
330
1F
100
AcDbEntity
  8
0
  6
Continuous
 62
     7
370
    25
100
AcDbLine
 10
10950.0920311727
 20
6018.4454631429
 30
0.0
 11
10636.5227232323
 21
5791.6132059383
 31
0.0
  0
LINE
  5
A4
330
1F
100
AcDbEntity
  8
0
  6
Continuous
 62
     7
370
    25
100
AcDbLine
 10
10636.5227232323
 20
6013.7721576879
 30
0.0
 11
10636.5227232323
 21
6235.9311094375
 31
0.0
  0
LINE
  5
A5
330
1F
100
AcDbEntity
  8
0
  6
Continuous
 62
     7
370
    25
100
AcDbLine
 10
10739.0920311727
 20
6310.1285103019
 30
0.0
 11
10636.5227232323
 21
6235.9311094375
 31
0.0
  0
LINE
  5
A6
330
1F
100
AcDbEntity
  8
0
  6
Continuous
 62
     7
370
    25
100
AcDbLine
 10
10844.5920311727
 20
6164.2869867224
 30
0.0
 11
10739.0920311727
 21
6310.1285103019
 31
0.0
  0
ARC
  5
A7
330
1F
100
AcDbEntity
  8
0
  6
Continuous
 62
     7
370
    25
100
AcDbCircle
 10
10740.850364506
 20
6307.6978182423
 30
0.0
 40
3.000000000000099
100
AcDbArc
 50
35.8815237583
 51
125.8815237583
  0
LINE
  5
A8
330
1F
100
AcDbEntity
  8
0
  6
Continuous
 62
     7
370
    25
100
AcDbLine
 10
10743.2810565657
 20
6309.4561515756
 30
0.0
 11
10847.0227232323
 21
6166.0453200557
 31
0.0
  0
LINE
  5
A9
330
1F
100
AcDbEntity
  8
0
  6
Continuous
 62
     7
370
    25
100
AcDbLine
 10
10844.5920311727
 20
6164.2869867224
 30
0.0
 11
10847.0227232323
 21
6166.0453200557
 31
0.0
  0
LINE
  5
AA
330
1F
100
AcDbEntity
  8
0
  6
Continuous
 62
     7
370
    25
100
AcDbLine
 10
10847.0227232323
 20
6166.0453200557
 30
0.0
 11
10950.764389899
 21
6022.6344885359
 31
0.0
  0
ARC
  5
AB
330
1F
100
AcDbEntity
  8
0
  6
Continuous
 62
     7
370
    25
100
AcDbCircle
 10
10948.3336978393
 20
6020.8761552025
 30
0.0
 40
3.000000000000099
100
AcDbArc
 50
305.8815237583
 51
35.8815237583
  0
LWPOLYLINE
  5
AC
330
1F
100
AcDbEntity
  8
0
  6
Continuous
 62
     7
370
    25
100
AcDbPolyline
 90
       34
 70
   128
 43
0.0
 10
10018.5725904577
 20
5357.9164528886
 10
10018.848356056
 20
5359.840445454
 10
10019.7181741176
 20
5363.698381012
 10
10020.899491017
 20
5367.5278942989
 10
10022.3887155324
 20
5371.3200462239
 10
10024.1816057043
 20
5375.0665769956
 10
10026.2734913657
 20
5378.7598174438
 10
10028.659396232
 20
5382.3925202591
 10
10031.3340643545
 20
5385.9576823869
 10
10034.2919204378
 20
5389.4484041237
 10
10037.5269980573
 20
5392.8578021578
 10
10041.0328627299
 20
5396.1789741419
 10
10044.8025463772
 20
5399.4050030049
 10
10048.828500665
 20
5402.5289871988
 10
10053.102570563
 20
5405.5440849217
 10
10057.6159860771
 20
5408.4435635076
 10
10062.3593264394
 20
5411.2208246542
 10
10067.3225159825
 20
5413.8694489648
 10
10072.4950478624
 20
5416.3833407155
 10
10077.865878885
 20
5418.7566730417
 10
10083.4234619055
 20
5420.9839178445
 10
10089.1557804883
 20
5423.059870809
 10
10095.0503846798
 20
5424.9796721104
 10
10101.0944271865
 20
5426.7388234602
 10
10107.2746995251
 20
5428.3332021003
 10
10113.5776679099
 20
5429.7590722835
 10
10119.9895087678
 20
5431.0130946851
 10
10126.4961438514
 20
5432.0923341068
 10
10133.0832749658
 20
5432.9942657573
 10
10139.7364183498
 20
5433.7167803273
 10
10146.4409387592
 20
5434.2581880259
 10
10153.1820833036
 20
5434.6172216997
 10
10159.9450150797
 20
5434.7930391295
 10
10163.0419922753
 20
5434.8122613666
  0
LWPOLYLINE
  5
AD
330
1F
100
AcDbEntity
  8
0
  6
Continuous
 62
     7
370
    25
100
AcDbPolyline
 90
       34
 70
   128
 43
0.0
 10
10163.0419922753
 20
5434.8122613666
 10
10166.5964397082
 20
5434.7869399684
 10
10173.3580859889
 20
5434.5987333043
 10
10180.0974927111
 20
5434.2273312959
 10
10186.7993726589
 20
5433.6736032264
 10
10193.4489692293
 20
5432.9388376877
 10
10200.0316418095
 20
5432.0247470756
 10
10206.5328989623
 20
5430.9334650323
 10
10212.9384318045
 20
5429.6675431578
 10
10219.2341475545
 20
5428.2299469318
 10
10225.4062033189
 20
5426.6240507523
 10
10231.4410401948
 20
5424.8536319562
 10
10237.3254177715
 20
5422.9228636327
 10
10243.0464491119
 20
5420.8363059708
 10
10248.5916362753
 20
5418.5988957916
 10
10253.9489064018
 20
5416.2159338062
 10
10259.1066482964
 20
5413.6930690088
 10
10264.0537493174
 20
5411.0362794673
 10
10268.7796321573
 20
5408.2518486213
 10
10273.2742907857
 20
5405.3463360696
 10
10277.5283243739
 20
5402.326541768
 10
10281.5328378034
 20
5399.1995688879
 10
10285.2796815745
 20
5395.9726321248
 10
10288.7614164909
 20
5392.6530218732
 10
10291.9712902799
 20
5389.2480550372
 10
10294.9032243835
 20
5385.7650016341
 10
10297.5517777821
 20
5382.2110123578
 10
10299.9120841422
 20
5378.5930574605
 10
10301.9797622107
 20
5374.9178922019
 10
10303.7508063119
 20
5371.1920682584
 10
10305.221474366
 20
5367.4220111468
 10
10306.3882035606
 20
5363.6141767093
 10
10307.2475938437
 20
5359.7752807623
 10
10307.5369726075
 20
5357.7388816491
  0
LWPOLYLINE
  5
AE
330
1F
100
AcDbEntity
  8
0
  6
Continuous
 62
     7
370
    25
100
AcDbPolyline
 90
       37
 70
   128
 43
0.0
 10
10163.0419922753
 20
5244.3261502555
 10
10167.0151997565
 20
5244.352033544
 10
10174.5465469994
 20
5244.5433557377
 10
10182.0582296442
 20
5244.9206596797
 10
10189.5367855658
 20
5245.483311785
 10
10196.9692109053
 20
5246.230377737
 10
10204.3425820259
 20
5247.1606194673
 10
10211.6440773431
 20
5248.2724980094
 10
10218.8609988168
 20
5249.564177002
 10
10225.9807929393
 20
5251.0335267985
 10
10232.9910711092
 20
5252.6781291347
 10
10239.8796292745
 20
5254.495282279
 10
10246.6344667243
 20
5256.4820065698
 10
10253.2438039083
 20
5258.6350502117
 10
10259.6960991647
 20
5260.9508951604
 10
10265.98006425
 20
5263.4257628801
 10
10272.0846785868
 20
5266.0556196991
 10
10277.9992021894
 20
5268.8361814198
 10
10283.7131872954
 20
5271.7629167712
 10
10289.2164888415
 20
5274.8310492169
 10
10294.4992740758
 20
5278.0355565792
 10
10299.5520318192
 20
5281.3711679149
 10
10304.3655362686
 20
5284.832322666
 10
10308.9308690075
 20
5288.4131536066
 10
10313.2395409045
 20
5292.1075520571
 10
10317.283446434
 20
5295.9091093037
 10
10321.054893372
 20
5299.8111004086
 10
10324.5466420075
 20
5303.806470609
 10
10327.7519548617
 20
5307.8878286496
 10
10330.6646562782
 20
5312.0474525443
 10
10333.2791987245
 20
5316.277313706
 10
10335.5907294462
 20
5320.569124509
 10
10337.595147932
 20
5324.9144116065
 10
10339.2891425964
 20
5329.3046125857
 10
10340.6701955069
 20
5333.7311874324
 10
10341.7365478449
 20
5338.1857303385
 10
10342.3476235699
 20
5341.8284640575
  0
LWPOLYLINE
  5
AF
330
1F
100
AcDbEntity
  8
0
  6
Continuous
 62
     7
370
    25
100
AcDbPolyline
 90
       37
 70
   128
 43
0.0
 10
9983.7493083304
 20
5341.8458489525
 10
9984.0587611441
 20
5339.6941019118
 10
9985.015435211
 20
5335.2446732555
 10
9986.2845149432
 20
5330.8231555954
 10
9987.8642933106
 20
5326.4367155964
 10
9989.7526319459
 20
5322.0926995685
 10
9991.9468554826
 20
5317.7986449199
 10
9994.4436596694
 20
5313.562247528
 10
9997.2390482038
 20
5309.3912955368
 10
10000.3283049517
 20
5305.2935846083
 10
10003.7060001668
 20
5301.2768299238
 10
10007.3660235136
 20
5297.3485871398
 10
10011.3016340243
 20
5293.5161897051
 10
10015.5055172706
 20
5289.7867050923
 10
10019.9698420464
 20
5286.1669087487
 10
10024.6863115956
 20
5282.6632723483
 10
10029.6462070208
 20
5279.2819621371
 10
10034.8404224938
 20
5276.0288433668
 10
10040.2594644922
 20
5272.9095033806
 10
10045.8934478465
 20
5269.9292661583
 10
10051.7322712592
 20
5267.0931153111
 10
10057.7655289844
 20
5264.4057655428
 10
10063.9825237265
 20
5261.8716651725
 10
10070.3722793266
 20
5259.4949967042
 10
10076.9235538162
 20
5257.2796757408
 10
10083.6248532074
 20
5255.2293485932
 10
10090.4644462252
 20
5253.3473889366
 10
10097.4303800733
 20
5251.6368938358
 10
10104.5104972425
 20
5250.1006794235
 10
10111.6924533183
 20
5248.7412764672
 10
10118.9637357134
 20
5247.560926022
 10
10126.3116832306
 20
5246.5615753225
 10
10133.7235063522
 20
5245.7448740388
 10
10141.1863081517
 20
5245.1121709922
 10
10148.6871057202
 20
5244.6645114023
 10
10156.2128520048
 20
5244.4026347238
 10
10163.0419922753
 20
5244.3261502555
  0
LWPOLYLINE
  5
B0
330
1F
100
AcDbEntity
  8
0
  6
Continuous
 62
     7
370
    25
100
AcDbPolyline
 90
       36
 70
   128
 43
0.0
 10
10340.0419922753
 20
5348.6371248625
 10
10339.8637650531
 20
5353.2914771378
 10
10339.3294423125
 20
5357.936456167
 10
10338.4401001082
 20
5362.5627075805
 10
10337.1975294573
 20
5367.1609147237
 10
10335.6042327315
 20
5371.7218174193
 10
10333.6634186185
 20
5376.2362306163
 10
10331.3789956595
 20
5380.6950628873
 10
10328.7555643785
 20
5385.0893347374
 10
10325.7984080169
 20
5389.410196688
 10
10322.513481894
 20
5393.6489470981
 10
10318.9074014139
 20
5397.7970496885
 10
10314.9874287428
 20
5401.8461507327
 10
10310.761458184
 20
5405.78809588
 10
10306.2380002797
 20
5409.6149465774
 10
10301.4261646721
 20
5413.318996057
 10
10296.3356417579
 20
5416.892784856
 10
10290.9766831728
 20
5420.3291158395
 10
10285.360081146
 20
5423.6210686941
 10
10279.4971467666
 20
5426.7620138648
 10
10273.3996872043
 20
5429.7456259062
 10
10267.0799819311
 20
5432.5658962206
 10
10260.5507579923
 20
5435.217145159
 10
10253.8251643761
 20
5437.6940334587
 10
10246.916745533
 20
5439.9915729965
 10
10239.8394140991
 20
5442.1051368335
 10
10232.607422878
 20
5444.0304685333
 10
10225.2353361377
 20
5445.7636907341
 10
10217.7380002797
 20
5447.3013129571
 10
10210.1305139406
 20
5448.6402386359
 10
10202.4281975856
 20
5449.7777713521
 10
10194.6465626547
 20
5450.7116202664
 10
10186.801280325
 20
5451.4399047312
 10
10178.9081499512
 20
5451.9611580787
 10
10170.9830672473
 20
5452.2743305739
 10
10163.0419922753
 20
5452.3787915292
  0
LINE
  5
B1
330
1F
100
AcDbEntity
  8
0
  6
Continuous
 62
     7
370
    25
100
AcDbLine
 10
10163.0419922753
 20
5456.5678169222
 30
0.0
 11
10163.0419922753
 21
5452.3787915292
 31
0.0
  0
LWPOLYLINE
  5
B2
330
1F
100
AcDbEntity
  8
0
  6
Continuous
 62
     7
370
    25
100
AcDbPolyline
 90
        3
 70
   128
 43
0.0
 10
10342.3941285592
 20
5360.010789497
 10
10342.8607442527
 20
5355.8010565241
 10
10343.0419922753
 20
5351.0678169222
  0
ARC
  5
B3
330
1F
100
AcDbEntity
  8
0
  6
Continuous
 62
     7
370
    25
100
AcDbCircle
 10
10340.2996369512
 20
5351.3858062062
 30
0.0
 40
2.7607299593111
100
AcDbArc
 50
264.6450882735
 51
353.3858170682
  0
LWPOLYLINE
  5
B4
330
1F
100
AcDbEntity
  8
0
  6
Continuous
 62
     7
370
    25
100
AcDbPolyline
 90
        3
 70
   128
 43
0.0
 10
9983.0419922753
 20
5351.0678169222
 10
9983.2232402979
 20
5355.8010565241
 10
9983.6919768872
 20
5360.025389299
  0
LWPOLYLINE
  5
B5
330
1F
100
AcDbEntity
  8
0
  6
Continuous
 62
     7
370
    25
100
AcDbPolyline
 90
       36
 70
   128
 43
0.0
 10
10163.0419922753
 20
5452.3787915292
 10
10155.1009173033
 20
5452.2743305739
 10
10147.1758345994
 20
5451.9611580787
 10
10139.2827042256
 20
5451.4399047312
 10
10131.4374218959
 20
5450.7116202664
 10
10123.655786965
 20
5449.7777713521
 10
10115.95347061
 20
5448.6402386359
 10
10108.3459842709
 20
5447.3013129571
 10
10100.8486484129
 20
5445.7636907341
 10
10093.4765616726
 20
5444.0304685333
 10
10086.2445704515
 20
5442.1051368335
 10
10079.1672390176
 20
5439.9915729965
 10
10072.2588201745
 20
5437.6940334587
 10
10065.5332265583
 20
5435.217145159
 10
10059.0040026195
 20
5432.5658962206
 10
10052.6842973463
 20
5429.7456259062
 10
10046.586837784
 20
5426.7620138648
 10
10040.7239034046
 20
5423.6210686941
 10
10035.1073013779
 20
5420.3291158395
 10
10029.7483427927
 20
5416.892784856
 10
10024.6578198785
 20
5413.318996057
 10
10019.8459842709
 20
5409.6149465774
 10
10015.3225263666
 20
5405.78809588
 10
10011.0965558078
 20
5401.8461507327
 10
10007.1765831367
 20
5397.7970496885
 10
10003.5705026566
 20
5393.6489470981
 10
10000.2855765337
 20
5389.410196688
 10
9997.3284201721
 20
5385.0893347374
 10
9994.7049888911
 20
5380.6950628873
 10
9992.4205659321
 20
5376.2362306163
 10
9990.4797518191
 20
5371.7218174193
 10
9988.8864550933
 20
5367.1609147237
 10
9987.6438844424
 20
5362.5627075805
 10
9986.7545422381
 20
5357.936456167
 10
9986.2202194975
 20
5353.2914771378
 10
9986.0419922753
 20
5348.6371248625
  0
ARC
  5
B6
330
1F
100
AcDbEntity
  8
0
  6
Continuous
 62
     7
370
    25
100
AcDbCircle
 10
9985.7843475994
 20
5351.3858062062
 30
0.0
 40
2.760729959308445
100
AcDbArc
 50
186.6141829317
 51
275.3549117265
  0
LINE
  5
B7
330
1F
100
AcDbEntity
  8
0
  6
Continuous
 62
     7
370
    25
100
AcDbLine
 10
9983.0419922753
 20
5559.1371248625
 30
0.0
 11
10163.0419922753
 21
5559.1371248625
 31
0.0
  0
LINE
  5
B8
330
1F
100
AcDbEntity
  8
0
  6
Continuous
 62
     7
370
    25
100
AcDbLine
 10
10163.0419922753
 20
5456.5678169222
 30
0.0
 11
10163.0419922753
 21
5559.1371248625
 31
0.0
  0
LINE
  5
B9
330
1F
100
AcDbEntity
  8
0
  6
Continuous
 62
     7
370
    25
100
AcDbLine
 10
9983.0419922753
 20
5559.1371248625
 30
0.0
 11
9983.0419922753
 21
5351.0678169222
 31
0.0
  0
LINE
  5
BA
330
1F
100
AcDbEntity
  8
0
  6
Continuous
 62
     7
370
    25
100
AcDbLine
 10
10163.0419922753
 20
5559.1371248625
 30
0.0
 11
10343.0419922753
 21
5559.1371248625
 31
0.0
  0
LINE
  5
BB
330
1F
100
AcDbEntity
  8
0
  6
Continuous
 62
     7
370
    25
100
AcDbLine
 10
10343.0419922753
 20
5351.0678169222
 30
0.0
 11
10343.0419922753
 21
5559.1371248625
 31
0.0
  0
LWPOLYLINE
  5
BC
330
1F
100
AcDbEntity
  8
0
  6
Continuous
 62
     7
370
    25
100
AcDbPolyline
 90
       36
 70
   128
 43
0.0
 10
9986.0419922753
 20
5348.6371248625
 10
9986.2202194975
 20
5343.9827725872
 10
9986.7545422381
 20
5339.337793558
 10
9987.6438844424
 20
5334.7115421445
 10
9988.8864550933
 20
5330.1133350013
 10
9990.4797518191
 20
5325.5524323056
 10
9992.4205659321
 20
5321.0380191087
 10
9994.7049888911
 20
5316.5791868377
 10
9997.3284201721
 20
5312.1849149876
 10
10000.2855765337
 20
5307.864053037
 10
10003.5705026566
 20
5303.6253026269
 10
10007.1765831367
 20
5299.4772000364
 10
10011.0965558078
 20
5295.4280989923
 10
10015.3225263666
 20
5291.486153845
 10
10019.8459842709
 20
5287.6593031476
 10
10024.6578198785
 20
5283.955253668
 10
10029.7483427927
 20
5280.381464869
 10
10035.1073013779
 20
5276.9451338855
 10
10040.7239034046
 20
5273.6531810309
 10
10046.586837784
 20
5270.5122358602
 10
10052.6842973463
 20
5267.5286238188
 10
10059.0040026195
 20
5264.7083535044
 10
10065.5332265583
 20
5262.057104566
 10
10072.2588201745
 20
5259.5802162662
 10
10079.1672390176
 20
5257.2826767285
 10
10086.2445704515
 20
5255.1691128915
 10
10093.4765616726
 20
5253.2437811917
 10
10100.8486484129
 20
5251.5105589909
 10
10108.3459842709
 20
5249.9729367678
 10
10115.95347061
 20
5248.6340110891
 10
10123.655786965
 20
5247.4964783729
 10
10131.4374218959
 20
5246.5626294586
 10
10139.2827042256
 20
5245.8343449938
 10
10147.1758345994
 20
5245.3130916463
 10
10155.1009173033
 20
5244.9999191511
 10
10163.0419922753
 20
5244.8954581958
  0
LWPOLYLINE
  5
BD
330
1F
100
AcDbEntity
  8
0
  6
Continuous
 62
     7
370
    25
100
AcDbPolyline
 90
       36
 70
   128
 43
0.0
 10
10163.0419922753
 20
5244.8954581958
 10
10170.9830672473
 20
5244.9999191511
 10
10178.9081499512
 20
5245.3130916463
 10
10186.801280325
 20
5245.8343449938
 10
10194.6465626547
 20
5246.5626294586
 10
10202.4281975856
 20
5247.4964783729
 10
10210.1305139406
 20
5248.6340110891
 10
10217.7380002797
 20
5249.9729367678
 10
10225.2353361377
 20
5251.5105589909
 10
10232.607422878
 20
5253.2437811917
 10
10239.8394140991
 20
5255.1691128915
 10
10246.916745533
 20
5257.2826767285
 10
10253.8251643761
 20
5259.5802162662
 10
10260.5507579923
 20
5262.057104566
 10
10267.0799819311
 20
5264.7083535044
 10
10273.3996872043
 20
5267.5286238188
 10
10279.4971467666
 20
5270.5122358602
 10
10285.360081146
 20
5273.6531810309
 10
10290.9766831728
 20
5276.9451338855
 10
10296.3356417579
 20
5280.381464869
 10
10301.4261646721
 20
5283.955253668
 10
10306.2380002797
 20
5287.6593031476
 10
10310.761458184
 20
5291.486153845
 10
10314.9874287428
 20
5295.4280989923
 10
10318.9074014139
 20
5299.4772000364
 10
10322.513481894
 20
5303.6253026269
 10
10325.7984080169
 20
5307.864053037
 10
10328.7555643785
 20
5312.1849149876
 10
10331.3789956595
 20
5316.5791868377
 10
10333.6634186185
 20
5321.0380191087
 10
10335.6042327315
 20
5325.5524323056
 10
10337.1975294573
 20
5330.1133350013
 10
10338.4401001082
 20
5334.7115421445
 10
10339.3294423125
 20
5339.337793558
 10
10339.8637650531
 20
5343.9827725872
 10
10340.0419922753
 20
5348.6371248625
  0
LWPOLYLINE
  5
BE
330
1F
100
AcDbEntity
  8
0
  6
Continuous
 62
     7
370
    25
100
AcDbPolyline
 90
      130
 70
   128
 43
0.0
 10
10163.0419922753
 20
5435.3815693069
 10
10170.2477580779
 20
5435.2786951877
 10
10177.4364326
 20
5434.9703168359
 10
10184.5909651001
 20
5434.457165691
 10
10191.6943858174
 20
5433.7404588907
 10
10198.7298462227
 20
5432.8218963846
 10
10205.6806589814
 20
5431.7036569012
 10
10212.5303375334
 20
5430.3883927812
 10
10219.262635198
 20
5428.8792236857
 10
10225.8615837089
 20
5427.179729197
 10
10232.3115310894
 20
5425.2939403284
 10
10238.5971787768
 20
5423.2263299627
 10
10244.7036179093
 20
5420.9818022432
 10
10250.6163646879
 20
5418.5656809418
 10
10256.3213947305
 20
5415.9836968311
 10
10261.8051763362
 20
5413.2419740923
 10
10267.0547025808
 20
5410.3470157887
 10
10272.057522168
 20
5407.3056884417
 10
10276.8017689625
 20
5404.1252057437
 10
10281.2761901351
 20
5400.8131114483
 10
10285.4701728531
 20
5397.3772614771
 10
10289.3737694528
 20
5393.8258052868
 10
10292.9777210344
 20
5390.1671665391
 10
10296.2734794229
 20
5386.4100231208
 10
10299.2532274435
 20
5382.563286561
 10
10301.9098974632
 20
5378.6360808939
 10
10304.2371881541
 20
5374.6377210175
 10
10306.2295794398
 20
5370.5776905995
 10
10307.8823455884
 20
5366.4656195837
 10
10309.1915664211
 20
5362.3112613481
 10
10310.1541366108
 20
5358.1244695715
 10
10310.7677730473
 20
5353.9151748614
 10
10311.0310202529
 20
5349.6933611998
 10
10310.9432538341
 20
5345.4690422624
 10
10310.5046819633
 20
5341.2522376668
 10
10309.7163448845
 20
5337.0529492078
 10
10308.5801124461
 20
5332.8811371336
 10
10307.0986796659
 20
5328.7466965216
 10
10305.2755603389
 20
5324.6594338081
 10
10303.1150787026
 20
5320.6290435286
 10
10300.6223591809
 20
5316.6650853237
 10
10297.8033142289
 20
5312.7769612642
 10
10294.6646303099
 20
5308.9738935509
 10
10291.2137520354
 20
5305.2649026403
 10
10287.4588645074
 20
5301.6587858489
 10
10283.4088739042
 20
5298.1640964874
 10
10279.0733863561
 20
5294.7891235728
 10
10274.4626851606
 20
5291.5418721681
 10
10269.5877063915
 20
5288.4300443949
 10
10264.4600129599
 20
5285.4610211647
 10
10259.091767188
 20
5282.6418446726
 10
10253.4957019618
 20
5279.979201694
 10
10247.6850905297
 20
5277.4794077236
 10
10241.67371502
 20
5275.1483919967
 10
10235.4758337513
 20
5272.991683425
 10
10229.1061474133
 20
5271.0143974829
 10
10222.5797641982
 20
5269.2212240743
 10
10215.9121639659
 20
5267.6164164083
 10
10209.1191615275
 20
5266.2037809115
 10
10202.2168691343
 20
5264.9866681992
 10
10195.2216582614
 20
5263.9679651283
 10
10188.150120776
 20
5263.1500879498
 10
10181.0190295837
 20
5262.5349765782
 10
10173.8452988451
 20
5262.1240899896
 10
10166.6459438569
 20
5261.9184027616
 10
10159.4380406937
 20
5261.9184027616
 10
10152.2386857055
 20
5262.1240899896
 10
10145.0649549669
 20
5262.5349765782
 10
10137.9338637747
 20
5263.1500879498
 10
10130.8623262892
 20
5263.9679651283
 10
10123.8671154163
 20
5264.9866681992
 10
10116.9648230231
 20
5266.2037809115
 10
10110.1718205847
 20
5267.6164164083
 10
10103.5042203524
 20
5269.2212240743
 10
10096.9778371373
 20
5271.0143974829
 10
10090.6081507993
 20
5272.991683425
 10
10084.4102695306
 20
5275.1483919967
 10
10078.3988940209
 20
5277.4794077236
 10
10072.5882825888
 20
5279.979201694
 10
10066.9922173626
 20
5282.6418446726
 10
10061.6239715907
 20
5285.4610211647
 10
10056.4962781591
 20
5288.4300443949
 10
10051.62129939
 20
5291.5418721681
 10
10047.0105981945
 20
5294.7891235728
 10
10042.6751106464
 20
5298.1640964874
 10
10038.6251200432
 20
5301.6587858489
 10
10034.8702325152
 20
5305.2649026403
 10
10031.4193542407
 20
5308.9738935509
 10
10028.2806703217
 20
5312.7769612642
 10
10025.4616253697
 20
5316.6650853237
 10
10022.968905848
 20
5320.6290435286
 10
10020.8084242117
 20
5324.6594338081
 10
10018.9853048847
 20
5328.7466965216
 10
10017.5038721045
 20
5332.8811371336
 10
10016.3676396661
 20
5337.0529492078
 10
10015.5793025873
 20
5341.2522376668
 10
10015.1407307165
 20
5345.4690422624
 10
10015.0529642977
 20
5349.6933611998
 10
10015.3162115033
 20
5353.9151748614
 10
10015.9298479398
 20
5358.1244695715
 10
10016.8924181295
 20
5362.3112613481
 10
10018.2016389622
 20
5366.4656195837
 10
10019.8544051108
 20
5370.5776905995
 10
10021.8467963965
 20
5374.6377210175
 10
10024.1740870874
 20
5378.6360808939
 10
10026.8307571071
 20
5382.563286561
 10
10029.8105051277
 20
5386.4100231208
 10
10033.1062635162
 20
5390.1671665391
 10
10036.7102150978
 20
5393.8258052868
 10
10040.6138116975
 20
5397.3772614771
 10
10044.8077944155
 20
5400.8131114483
 10
10049.2822155881
 20
5404.1252057437
 10
10054.0264623826
 20
5407.3056884417
 10
10059.0292819698
 20
5410.3470157887
 10
10064.2788082144
 20
5413.2419740923
 10
10069.7625898201
 20
5415.9836968311
 10
10075.4676198627
 20
5418.5656809418
 10
10081.3803666413
 20
5420.9818022432
 10
10087.4868057738
 20
5423.2263299627
 10
10093.7724534612
 20
5425.2939403284
 10
10100.2224008417
 20
5427.179729197
 10
10106.8213493526
 20
5428.8792236857
 10
10113.5536470172
 20
5430.3883927812
 10
10120.4033255693
 20
5431.7036569012
 10
10127.3541383279
 20
5432.8218963846
 10
10134.3895987333
 20
5433.7404588907
 10
10141.4930194505
 20
5434.457165691
 10
10148.6475519506
 20
5434.9703168359
 10
10155.8362264728
 20
5435.2786951877
 10
10163.0419922753
 20
5435.3815693069
  0
ARC
  5
BF
330
1F
100
AcDbEntity
  8
0
  6
Continuous
 62
     7
370
    25
100
AcDbCircle
 10
10068.0540194885
 20
5351.0682535179
 30
0.0
 40
50.01162808024261
100
AcDbArc
 50
171.8050126464
 51
187.7706659415
  0
ARC
  5
C0
330
1F
100
AcDbEntity
  8
0
  6
Continuous
 62
     7
370
    25
100
AcDbCircle
 10
10258.0277565379
 20
5351.0677589289
 30
0.0
 40
50.01381948054317
100
AcDbArc
 50
351.9618623948
 51
7.9816575058
  0
ELLIPSE
  5
C1
330
1F
100
AcDbEntity
  8
0
  6
Continuous
 62
     7
370
    25
100
AcDbEllipse
 10
10163.0419922753
 20
5606.1263086558
 30
0.0
 11
0.0
 21
219.3921142706686
 31
0.0
210
0.0
220
0.0
230
1.0
 40
0.6609171003
 41
3.087775735368245
 42
3.195409571811376
  0
LWPOLYLINE
  5
C2
330
1F
100
AcDbEntity
  8
0
  6
Continuous
 62
     7
370
    25
100
AcDbPolyline
 90
        3
 70
   128
 43
0.0
 10
10343.0419922753
 20
5351.0678169222
 10
10342.8607442527
 20
5346.3345773202
 10
10342.3920076634
 20
5342.1102445453
  0
LWPOLYLINE
  5
C3
330
1F
100
AcDbEntity
  8
0
  6
Continuous
 62
     7
370
    25
100
AcDbPolyline
 90
        3
 70
   128
 43
0.0
 10
9983.6898559914
 20
5342.1248443473
 10
9983.2232402979
 20
5346.3345773202
 10
9983.0419922753
 20
5351.0678169222
  0
LINE
  5
C4
330
1F
100
AcDbEntity
  8
0
  6
Continuous
 62
     7
370
    25
100
AcDbLine
 10
10169.4969055568
 20
5401.6833898563
 30
0.0
 11
10170.8416791571
 21
5387.0518260898
 31
0.0
  0
LINE
  5
C5
330
1F
100
AcDbEntity
  8
0
  6
Continuous
 62
     7
370
    25
100
AcDbLine
 10
10156.5870789938
 20
5401.6833898563
 30
0.0
 11
10155.2423053935
 21
5387.0518260898
 31
0.0
  0
ELLIPSE
  5
C6
330
1F
100
AcDbEntity
  8
0
  6
Continuous
 62
     7
370
    25
100
AcDbEllipse
 10
10163.0419922753
 20
5606.1263086558
 30
0.0
 11
0.0
 21
-204.7393364928912
 31
0.0
210
0.0
220
0.0
230
1.0
 40
0.5861111111
 41
6.229368388958067
 42
6.337002225401145
  0
CIRCLE
  5
C7
330
1F
100
AcDbEntity
  8
0
  6
Continuous
 62
     7
370
    25
100
AcDbCircle
 10
10163.0419922753
 20
5430.6774418631
 30
0.0
 40
3.500000000000909
  0
ARC
  5
C8
330
1F
100
AcDbEntity
  8
0
  6
Continuous
 62
     7
370
    25
100
AcDbCircle
 10
10173.8673098226
 20
5436.9274418631
 30
0.0
 40
3.500000000000089
100
AcDbArc
 50
221.2096566109
 51
313.7354681083
  0
CIRCLE
  5
C9
330
1F
100
AcDbEntity
  8
0
  6
Continuous
 62
     7
370
    25
100
AcDbCircle
 10
10173.8673098226
 20
5424.4274418631
 30
0.0
 40
3.499999999999091
  0
CIRCLE
  5
CA
330
1F
100
AcDbEntity
  8
0
  6
Continuous
 62
     7
370
    25
100
AcDbCircle
 10
10163.0419922753
 20
5418.1774418631
 30
0.0
 40
3.5
  0
CIRCLE
  5
CB
330
1F
100
AcDbEntity
  8
0
  6
Continuous
 62
     7
370
    25
100
AcDbCircle
 10
10152.216674728
 20
5424.4274418631
 30
0.0
 40
3.499999999999091
  0
ARC
  5
CC
330
1F
100
AcDbEntity
  8
0
  6
Continuous
 62
     7
370
    25
100
AcDbCircle
 10
10152.216674728
 20
5436.9274418631
 30
0.0
 40
3.500000000000456
100
AcDbArc
 50
225.7069993453
 51
319.6414059263
  0
LWPOLYLINE
  5
CD
330
1F
100
AcDbEntity
  8
0
  6
Continuous
 62
     8
370
    25
100
AcDbPolyline
 90
       35
 70
   128
 43
0.0
 10
10163.0419922753
 20
5456.5678169222
 10
10171.1176617384
 20
5456.4615854423
 10
10179.1770678779
 20
5456.1431049387
 10
10187.2039801225
 20
5455.6130167887
 10
10195.1822333391
 20
5454.8723885193
 10
10203.0957603874
 20
5453.9227116573
 10
10210.9286244773
 20
5452.7658987256
 10
10218.6650512628
 20
5451.4042793913
 10
10226.2894606099
 20
5449.8405957746
 10
10233.786497973
 20
5448.0779969263
 10
10241.1410653165
 20
5446.1200324859
 10
10248.3383515204
 20
5443.970645533
 10
10255.3638622084
 20
5441.6341646472
 10
10262.2034489367
 20
5439.1152951898
 10
10268.8433376879
 20
5436.4191098287
 10
10275.2701566099
 20
5433.5510383225
 10
10281.4709629445
 20
5430.5168565855
 10
10287.4332690929
 20
5427.3226750559
 10
10293.1450677642
 20
5423.9749263903
 10
10298.594856156
 20
5420.4803525088
 10
10303.7716591195
 20
5416.8459910183
 10
10308.6650512628
 20
5413.079161039
 10
10313.2651779451
 20
5409.1874484654
 10
10317.5627751236
 20
5405.1786906885
 10
10321.5491880095
 20
5401.0609608131
 10
10325.2163884977
 20
5396.8425513991
 10
10328.5569913346
 20
5392.5319577616
 10
10331.5642689905
 20
5388.1378608627
 10
10334.2321652084
 20
5383.6691098287
 10
10336.5553072006
 20
5379.1347041294
 10
10338.529016468
 20
5374.5437754545
 10
10340.1493182231
 20
5369.9055693234
 10
10341.4129493935
 20
5365.2294264659
 10
10342.3173651944
 20
5360.5247640115
 10
10342.3941285592
 20
5360.010789497
  0
LWPOLYLINE
  5
CE
330
1F
100
AcDbEntity
  8
0
  6
Continuous
 62
     8
370
    25
100
AcDbPolyline
 90
       35
 70
   128
 43
0.0
 10
9983.6919768872
 20
5360.025389299
 10
9983.7666193562
 20
5360.5247640115
 10
9984.6710351571
 20
5365.2294264659
 10
9985.9346663276
 20
5369.9055693234
 10
9987.5549680826
 20
5374.5437754545
 10
9989.5286773501
 20
5379.1347041294
 10
9991.8518193422
 20
5383.6691098287
 10
9994.5197155602
 20
5388.1378608627
 10
9997.526993216
 20
5392.5319577616
 10
10000.8675960529
 20
5396.8425513991
 10
10004.5347965411
 20
5401.0609608131
 10
10008.521209427
 20
5405.1786906885
 10
10012.8188066055
 20
5409.1874484654
 10
10017.4189332878
 20
5413.079161039
 10
10022.3123254311
 20
5416.8459910183
 10
10027.4891283947
 20
5420.4803525088
 10
10032.9389167864
 20
5423.9749263903
 10
10038.6507154577
 20
5427.3226750559
 10
10044.6130216062
 20
5430.5168565855
 10
10050.8138279407
 20
5433.5510383225
 10
10057.2406468627
 20
5436.4191098287
 10
10063.8805356139
 20
5439.1152951898
 10
10070.7201223422
 20
5441.6341646472
 10
10077.7456330302
 20
5443.970645533
 10
10084.9429192341
 20
5446.1200324859
 10
10092.2974865776
 20
5448.0779969263
 10
10099.7945239407
 20
5449.8405957746
 10
10107.4189332878
 20
5451.4042793913
 10
10115.1553600733
 20
5452.7658987256
 10
10122.9882241632
 20
5453.9227116573
 10
10130.9017512115
 20
5454.8723885193
 10
10138.8800044281
 20
5455.6130167887
 10
10146.9069166727
 20
5456.1431049387
 10
10154.9663228122
 20
5456.4615854423
 10
10163.0419922753
 20
5456.5678169222
  0
LWPOLYLINE
  5
CF
330
1F
100
AcDbEntity
  8
0
  6
Continuous
 62
     8
370
    25
100
AcDbPolyline
 90
       62
 70
   128
 43
0.0
 10
10018.5016385005
 20
5344.3062655223
 10
10018.9394351932
 20
5341.6270051614
 10
10019.9123348206
 20
5337.4616901687
 10
10021.2354967042
 20
5333.3296716481
 10
10022.9056828452
 20
5329.2410613414
 10
10024.9188060183
 20
5325.2058647632
 10
10027.2699397736
 20
5321.2339567156
 10
10029.9533304929
 20
5317.3350571232
 10
10032.9624114694
 20
5313.5187072468
 10
10036.2898189779
 20
5309.7942463338
 10
10039.9274102944
 20
5306.1707887644
 10
10043.8662836235
 20
5302.6572017463
 10
10048.0967998821
 20
5299.2620836158
 10
10052.6086062881
 20
5295.9937427959
 10
10057.3906616951
 20
5292.8601774642
 10
10062.4312636121
 20
5289.8690559802
 10
10067.7180768417
 20
5287.0276981194
 10
10073.2381636659
 20
5284.3430571606
 10
10078.9780155073
 20
5281.8217028701
 10
10084.9235859865
 20
5279.4698054243
 10
10091.0603252964
 20
5277.2931203105
 10
10097.3732158074
 20
5275.2969742418
 10
10103.8468088186
 20
5273.4862521222
 10
10110.4652623632
 20
5271.8653850921
 10
10117.2123799763
 20
5270.4383396848
 10
10124.0716503304
 20
5269.2086081194
 10
10131.0262876415
 20
5268.1791997553
 10
10138.0592727468
 20
5267.3526337272
 10
10145.1533947532
 20
5266.7309327806
 10
10152.2912931553
 20
5266.3156183219
 10
10159.4555003197
 20
5266.1077066953
 10
10166.6284842309
 20
5266.1077066953
 10
10173.7926913953
 20
5266.3156183219
 10
10180.9305897974
 20
5266.7309327806
 10
10188.0247118038
 20
5267.3526337272
 10
10195.0576969091
 20
5268.1791997553
 10
10202.0123342202
 20
5269.2086081194
 10
10208.8716045743
 20
5270.4383396848
 10
10215.6187221874
 20
5271.8653850921
 10
10222.237175732
 20
5273.4862521222
 10
10228.7107687432
 20
5275.2969742418
 10
10235.0236592543
 20
5277.2931203105
 10
10241.1603985641
 20
5279.4698054243
 10
10247.1059690434
 20
5281.8217028701
 10
10252.8458208847
 20
5284.3430571606
 10
10258.3659077089
 20
5287.0276981194
 10
10263.6527209385
 20
5289.8690559802
 10
10268.6933228555
 20
5292.8601774642
 10
10273.4753782625
 20
5295.9937427959
 10
10277.9871846685
 20
5299.2620836158
 10
10282.2177009271
 20
5302.6572017463
 10
10286.1565742562
 20
5306.1707887644
 10
10289.7941655728
 20
5309.7942463338
 10
10293.1215730812
 20
5313.5187072468
 10
10296.1306540577
 20
5317.3350571232
 10
10298.814044777
 20
5321.2339567156
 10
10301.1651785323
 20
5325.2058647632
 10
10303.1783017054
 20
5329.2410613414
 10
10304.8484878464
 20
5333.3296716481
 10
10306.17164973
 20
5337.4616901687
 10
10307.1445493574
 20
5341.6270051614
 10
10307.5502008466
 20
5344.074215569
  0
ELLIPSE
  5
D0
330
1F
100
AcDbEntity
  8
0
  6
Continuous
 62
     8
370
    25
100
AcDbEllipse
 10
10163.0419922753
 20
5606.1263086558
 30
0.0
 11
0.0
 21
219.3921142706686
 31
0.0
210
0.0
220
0.0
230
1.0
 40
0.6609171003
 41
2.571978553612445
 42
3.087775735368245
  0
ELLIPSE
  5
D1
330
1F
100
AcDbEntity
  8
0
  6
Continuous
 62
     8
370
    25
100
AcDbEllipse
 10
10163.0419922753
 20
5606.1263086558
 30
0.0
 11
0.0
 21
219.3921142706686
 31
0.0
210
0.0
220
0.0
230
1.0
 40
0.6609171003
 41
3.195409571811376
 42
3.711325751554037
  0
LINE
  5
D2
330
1F
100
AcDbEntity
  8
0
  6
Continuous
 62
     8
370
    25
100
AcDbLine
 10
10163.0419922753
 20
5244.8954581958
 30
0.0
 11
10163.0419922753
 21
5244.3261502967
 31
0.0
  0
ELLIPSE
  5
D3
330
1F
100
AcDbEntity
  8
0
  6
Continuous
 62
     8
370
    25
100
AcDbEllipse
 10
10163.0419922753
 20
5606.1263086558
 30
0.0
 11
0.0
 21
-204.7393364928912
 31
0.0
210
0.0
220
0.0
230
1.0
 40
0.5861111111
 41
0.0538169182215586
 42
0.5102166230985758
  0
ELLIPSE
  5
D4
330
1F
100
AcDbEntity
  8
0
  6
Continuous
 62
     8
370
    25
100
AcDbEllipse
 10
10163.0419922753
 20
5606.1263086558
 30
0.0
 11
0.0
 21
-204.7393364928912
 31
0.0
210
0.0
220
0.0
230
1.0
 40
0.5861111111
 41
5.772467725608515
 42
6.229368388958067
  0
INSERT
  5
E0
330
1F
100
AcDbEntity
  8
SLD-0
100
AcDbBlockReference
  2
SW_CENTERMARKSYMBOL_0
 10
10163.0419922753
 20
5430.6774418631
 30
0.0
  0
INSERT
  5
EC
330
1F
100
AcDbEntity
  8
SLD-0
100
AcDbBlockReference
  2
SW_CENTERMARKSYMBOL_1
 10
10173.8673098226
 20
5424.4274418631
 30
0.0
  0
INSERT
  5
F8
330
1F
100
AcDbEntity
  8
SLD-0
100
AcDbBlockReference
  2
SW_CENTERMARKSYMBOL_2
 10
10163.0419922753
 20
5418.1774418631
 30
0.0
  0
INSERT
  5
104
330
1F
100
AcDbEntity
  8
SLD-0
100
AcDbBlockReference
  2
SW_CENTERMARKSYMBOL_3
 10
10152.216674728
 20
5424.4274418631
 30
0.0
  0
ENDSEC
  0
SECTION
  2
OBJECTS
  0
DICTIONARY
  5
C
330
0
100
AcDbDictionary
281
     1
  3
ACAD_GROUP
350
D
  3
ACAD_LAYOUT
350
1A
  3
ACAD_MLINESTYLE
350
17
  3
ACAD_PLOTSETTINGS
350
19
  3
ACAD_PLOTSTYLENAME
350
E
  3
ACAD_SCALELIST
350
47
  3
DWGPROPS
350
105
  0
DICTIONARY
  5
D
102
{ACAD_REACTORS
330
C
102
}
330
C
100
AcDbDictionary
281
     1
  0
DICTIONARY
  5
1A
102
{ACAD_REACTORS
330
C
102
}
330
C
100
AcDbDictionary
281
     1
  3
Layout1
350
1E
  3
Layout2
350
26
  3
Model
350
22
  0
DICTIONARY
  5
17
102
{ACAD_REACTORS
330
C
102
}
330
C
100
AcDbDictionary
281
     1
  3
Standard
350
18
  0
DICTIONARY
  5
19
102
{ACAD_REACTORS
330
C
102
}
330
C
100
AcDbDictionary
281
     1
  0
ACDBDICTIONARYWDFLT
  5
E
102
{ACAD_REACTORS
330
C
102
}
330
C
100
AcDbDictionary
281
     1
  3
Normal
350
F
100
AcDbDictionaryWithDefault
340
F
  0
DICTIONARY
  5
47
102
{ACAD_REACTORS
330
C
102
}
330
C
100
AcDbDictionary
281
     1
  3
A0
350
48
  3
A1
350
49
  3
A2
350
4A
  3
A3
350
4B
  3
A4
350
4C
  3
A5
350
4D
  3
A6
350
4E
  3
A7
350
4F
  3
A8
350
50
  3
A9
350
51
  3
B0
350
52
  3
B1
350
53
  3
B2
350
54
  3
B3
350
55
  3
B4
350
56
  3
B5
350
57
  3
B6
350
58
  3
B7
350
59
  3
B8
350
5A
  3
B9
350
5B
  3
C0
350
5C
  3
C1
350
5D
  3
C2
350
5E
  3
C3
350
5F
  3
C4
350
60
  3
C5
350
61
  3
C6
350
62
  3
C7
350
63
  3
C8
350
64
  3
C9
350
65
  3
D0
350
66
  3
D1
350
67
  3
D2
350
68
  0
XRECORD
  5
105
102
{ACAD_REACTORS
330
C
102
}
330
C
100
AcDbXrecord
280
     1
  1
DWGPROPS COOKIE
  2

  3

  4

  6

  7

  8
radek.stransky
  9

300
=
301
=
302
=
303
=
304
=
305
=
306
=
307
=
308
=
309
=
 40
0.0
 41
2459116.236132685
 42
2459116.236133125
  1

 90
        0
  0
LAYOUT
  5
1E
102
{ACAD_REACTORS
330
1A
102
}
330
1A
100
AcDbPlotSettings
  1

  2
none_device
  4

  6

 40
0.0
 41
0.0
 42
0.0
 43
0.0
 44
0.0
 45
0.0
 46
0.0
 47
0.0
 48
0.0
 49
0.0
140
0.0
141
0.0
142
1.0
143
1.0
 70
   688
 72
     1
 73
     0
 74
     5
  7

 75
    16
147
1.0
148
0.0
149
0.0
100
AcDbLayout
  1
Layout1
 70
     1
 71
     1
 10
0.0
 20
0.0
 11
420.0
 21
297.0
 12
0.0
 22
0.0
 32
0.0
 14
1.0000000000E+20
 24
1.0000000000E+20
 34
1.0000000000E+20
 15
-1.0000000000E+20
 25
-1.0000000000E+20
 35
-1.0000000000E+20
146
0.0
 13
0.0
 23
0.0
 33
0.0
 16
1.0
 26
0.0
 36
0.0
 17
0.0
 27
1.0
 37
0.0
 76
     0
330
1B
  0
LAYOUT
  5
26
102
{ACAD_REACTORS
330
1A
102
}
330
1A
100
AcDbPlotSettings
  1

  2
none_device
  4

  6

 40
0.0
 41
0.0
 42
0.0
 43
0.0
 44
0.0
 45
0.0
 46
0.0
 47
0.0
 48
0.0
 49
0.0
140
0.0
141
0.0
142
1.0
143
1.0
 70
   688
 72
     1
 73
     0
 74
     5
  7

 75
    16
147
1.0
148
0.0
149
0.0
100
AcDbLayout
  1
Layout2
 70
     1
 71
     2
 10
0.0
 20
0.0
 11
0.0
 21
0.0
 12
0.0
 22
0.0
 32
0.0
 14
0.0
 24
0.0
 34
0.0
 15
0.0
 25
0.0
 35
0.0
146
0.0
 13
0.0
 23
0.0
 33
0.0
 16
1.0
 26
0.0
 36
0.0
 17
0.0
 27
1.0
 37
0.0
 76
     0
330
23
  0
LAYOUT
  5
22
102
{ACAD_REACTORS
330
1A
102
}
330
1A
100
AcDbPlotSettings
  1

  2
none_device
  4
Letter_(8.50_x_11.00_Inches)
  6

 40
6.35
 41
6.35
 42
6.35000508
 43
6.35000508
 44
215.9
 45
279.4
 46
0.0
 47
0.0
 48
0.0
 49
0.0
140
0.0
141
0.0
142
1.0
143
1.0
 70
  1712
 72
     1
 73
     0
 74
     0
  7

 75
     0
147
1.0
148
0.0
149
0.0
100
AcDbLayout
  1
Model
 70
     1
 71
     0
 10
0.0
 20
0.0
 11
20000.0
 21
10000.0
 12
0.0
 22
0.0
 32
0.0
 14
0.0
 24
0.0
 34
0.0
 15
20000.0
 25
10000.0
 35
0.0
146
0.0
 13
0.0
 23
0.0
 33
0.0
 16
1.0
 26
0.0
 36
0.0
 17
0.0
 27
1.0
 37
0.0
 76
     0
330
1F
331
29
  0
MLINESTYLE
  5
18
102
{ACAD_REACTORS
330
17
102
}
330
17
100
AcDbMlineStyle
  2
Standard
 70
     0
  3

 62
   256
 51
90.0
 52
90.0
 71
     2
 49
0.5
 62
   256
  6
BYLAYER
 49
-0.5
 62
   256
  6
BYLAYER
  0
ACDBPLACEHOLDER
  5
F
102
{ACAD_REACTORS
330
E
102
}
330
E
  0
SCALE
  5
48
102
{ACAD_REACTORS
330
47
102
}
330
47
100
AcDbScale
 70
     0
300
1:1
140
1.0
141
1.0
290
     1
  0
SCALE
  5
49
102
{ACAD_REACTORS
330
47
102
}
330
47
100
AcDbScale
 70
     0
300
1:2
140
1.0
141
2.0
290
     0
  0
SCALE
  5
4A
102
{ACAD_REACTORS
330
47
102
}
330
47
100
AcDbScale
 70
     0
300
1:4
140
1.0
141
4.0
290
     0
  0
SCALE
  5
4B
102
{ACAD_REACTORS
330
47
102
}
330
47
100
AcDbScale
 70
     0
300
1:5
140
1.0
141
5.0
290
     0
  0
SCALE
  5
4C
102
{ACAD_REACTORS
330
47
102
}
330
47
100
AcDbScale
 70
     0
300
1:8
140
1.0
141
8.0
290
     0
  0
SCALE
  5
4D
102
{ACAD_REACTORS
330
47
102
}
330
47
100
AcDbScale
 70
     0
300
1:10
140
1.0
141
10.0
290
     0
  0
SCALE
  5
4E
102
{ACAD_REACTORS
330
47
102
}
330
47
100
AcDbScale
 70
     0
300
1:16
140
1.0
141
16.0
290
     0
  0
SCALE
  5
4F
102
{ACAD_REACTORS
330
47
102
}
330
47
100
AcDbScale
 70
     0
300
1:20
140
1.0
141
20.0
290
     0
  0
SCALE
  5
50
102
{ACAD_REACTORS
330
47
102
}
330
47
100
AcDbScale
 70
     0
300
1:30
140
1.0
141
30.0
290
     0
  0
SCALE
  5
51
102
{ACAD_REACTORS
330
47
102
}
330
47
100
AcDbScale
 70
     0
300
1:40
140
1.0
141
40.0
290
     0
  0
SCALE
  5
52
102
{ACAD_REACTORS
330
47
102
}
330
47
100
AcDbScale
 70
     0
300
1:50
140
1.0
141
50.0
290
     0
  0
SCALE
  5
53
102
{ACAD_REACTORS
330
47
102
}
330
47
100
AcDbScale
 70
     0
300
1:100
140
1.0
141
100.0
290
     0
  0
SCALE
  5
54
102
{ACAD_REACTORS
330
47
102
}
330
47
100
AcDbScale
 70
     0
300
2:1
140
2.0
141
1.0
290
     0
  0
SCALE
  5
55
102
{ACAD_REACTORS
330
47
102
}
330
47
100
AcDbScale
 70
     0
300
4:1
140
4.0
141
1.0
290
     0
  0
SCALE
  5
56
102
{ACAD_REACTORS
330
47
102
}
330
47
100
AcDbScale
 70
     0
300
8:1
140
8.0
141
1.0
290
     0
  0
SCALE
  5
57
102
{ACAD_REACTORS
330
47
102
}
330
47
100
AcDbScale
 70
     0
300
10:1
140
10.0
141
1.0
290
     0
  0
SCALE
  5
58
102
{ACAD_REACTORS
330
47
102
}
330
47
100
AcDbScale
 70
     0
300
100:1
140
100.0
141
1.0
290
     0
  0
SCALE
  5
59
102
{ACAD_REACTORS
330
47
102
}
330
47
100
AcDbScale
 70
     0
300
1/128" = 1'-0"
140
0.0078125
141
12.0
290
     0
  0
SCALE
  5
5A
102
{ACAD_REACTORS
330
47
102
}
330
47
100
AcDbScale
 70
     0
300
1/64" = 1'-0"
140
0.015625
141
12.0
290
     0
  0
SCALE
  5
5B
102
{ACAD_REACTORS
330
47
102
}
330
47
100
AcDbScale
 70
     0
300
1/32" = 1'-0"
140
0.03125
141
12.0
290
     0
  0
SCALE
  5
5C
102
{ACAD_REACTORS
330
47
102
}
330
47
100
AcDbScale
 70
     0
300
1/16" = 1'-0"
140
0.0625
141
12.0
290
     0
  0
SCALE
  5
5D
102
{ACAD_REACTORS
330
47
102
}
330
47
100
AcDbScale
 70
     0
300
3/32" = 1'-0"
140
0.09375
141
12.0
290
     0
  0
SCALE
  5
5E
102
{ACAD_REACTORS
330
47
102
}
330
47
100
AcDbScale
 70
     0
300
1/8" = 1'-0"
140
0.125
141
12.0
290
     0
  0
SCALE
  5
5F
102
{ACAD_REACTORS
330
47
102
}
330
47
100
AcDbScale
 70
     0
300
3/16" = 1'-0"
140
0.1875
141
12.0
290
     0
  0
SCALE
  5
60
102
{ACAD_REACTORS
330
47
102
}
330
47
100
AcDbScale
 70
     0
300
1/4" = 1'-0"
140
0.25
141
12.0
290
     0
  0
SCALE
  5
61
102
{ACAD_REACTORS
330
47
102
}
330
47
100
AcDbScale
 70
     0
300
3/8" = 1'-0"
140
0.375
141
12.0
290
     0
  0
SCALE
  5
62
102
{ACAD_REACTORS
330
47
102
}
330
47
100
AcDbScale
 70
     0
300
1/2" = 1'-0"
140
0.5
141
12.0
290
     0
  0
SCALE
  5
63
102
{ACAD_REACTORS
330
47
102
}
330
47
100
AcDbScale
 70
     0
300
3/4" = 1'-0"
140
0.75
141
12.0
290
     0
  0
SCALE
  5
64
102
{ACAD_REACTORS
330
47
102
}
330
47
100
AcDbScale
 70
     0
300
1" = 1'-0"
140
1.0
141
12.0
290
     0
  0
SCALE
  5
65
102
{ACAD_REACTORS
330
47
102
}
330
47
100
AcDbScale
 70
     0
300
1-1/2" = 1'-0"
140
1.5
141
12.0
290
     0
  0
SCALE
  5
66
102
{ACAD_REACTORS
330
47
102
}
330
47
100
AcDbScale
 70
     0
300
3" = 1'-0"
140
3.0
141
12.0
290
     0
  0
SCALE
  5
67
102
{ACAD_REACTORS
330
47
102
}
330
47
100
AcDbScale
 70
     0
300
6" = 1'-0"
140
6.0
141
12.0
290
     0
  0
SCALE
  5
68
102
{ACAD_REACTORS
330
47
102
}
330
47
100
AcDbScale
 70
     0
300
1'-0" = 1'-0"
140
12.0
141
12.0
290
     0
  0
ENDSEC
  0
EOF
