  0
SECTION
  2
HEADER
  9
$ACADVER
  1
AC1015
  9
$ACADMAINTVER
 70
     6
  9
$DWGCODEPAGE
  3
ANSI_1250
  9
$INSBASE
 10
0.0
 20
0.0
 30
0.0
  9
$EXTMIN
 10
0.0
 20
0.0
 30
0.0
  9
$EXTMAX
 10
20000.0
 20
10000.0
 30
0.0
  9
$LIMMIN
 10
0.0
 20
0.0
  9
$LIMMAX
 10
20000.0
 20
10000.0
  9
$ORTHOMODE
 70
     0
  9
$REGENMODE
 70
     1
  9
$FILLMODE
 70
     1
  9
$QTEXTMODE
 70
     0
  9
$MIRRTEXT
 70
     1
  9
$LTSCALE
 40
1.0
  9
$ATTMODE
 70
     1
  9
$TEXTSIZE
 40
2.0
  9
$TRACEWID
 40
1.0
  9
$TEXTSTYLE
  7
Standard
  9
$CLAYER
  8
0
  9
$CELTYPE
  6
ByLayer
  9
$CECOLOR
 62
   256
  9
$CELTSCALE
 40
1.0
  9
$DISPSILH
 70
     0
  9
$DIMSCALE
 40
1.0
  9
$DIMASZ
 40
2.0
  9
$DIMEXO
 40
1.0
  9
$DIMDLI
 40
3.75
  9
$DIMRND
 40
0.0
  9
$DIMDLE
 40
0.0
  9
$DIMEXE
 40
1.0
  9
$DIMTP
 40
0.0
  9
$DIMTM
 40
0.0
  9
$DIMTXT
 40
2.0
  9
$DIMCEN
 40
2.5
  9
$DIMTSZ
 40
0.0
  9
$DIMTOL
 70
     0
  9
$DIMLIM
 70
     0
  9
$DIMTIH
 70
     1
  9
$DIMTOH
 70
     1
  9
$DIMSE1
 70
     0
  9
$DIMSE2
 70
     0
  9
$DIMTAD
 70
     1
  9
$DIMZIN
 70
     0
  9
$DIMBLK
  1

  9
$DIMASO
 70
     1
  9
$DIMSHO
 70
     1
  9
$DIMPOST
  1

  9
$DIMAPOST
  1

  9
$DIMALT
 70
     0
  9
$DIMALTD
 70
     3
  9
$DIMALTF
 40
0.0393700787
  9
$DIMLFAC
 40
1.0
  9
$DIMTOFL
 70
     1
  9
$DIMTVP
 40
0.0
  9
$DIMTIX
 70
     0
  9
$DIMSOXD
 70
     0
  9
$DIMSAH
 70
     0
  9
$DIMBLK1
  1

  9
$DIMBLK2
  1

  9
$DIMSTYLE
  2
ISO-25
  9
$DIMCLRD
 70
     0
  9
$DIMCLRE
 70
     0
  9
$DIMCLRT
 70
     0
  9
$DIMTFAC
 40
1.0
  9
$DIMGAP
 40
1.524
  9
$DIMJUST
 70
     0
  9
$DIMSD1
 70
     0
  9
$DIMSD2
 70
     0
  9
$DIMTOLJ
 70
     0
  9
$DIMTZIN
 70
     0
  9
$DIMALTZ
 70
     0
  9
$DIMALTTZ
 70
     0
  9
$DIMUPT
 70
     0
  9
$DIMDEC
 70
     2
  9
$DIMTDEC
 70
     0
  9
$DIMALTU
 70
     2
  9
$DIMALTTD
 70
     3
  9
$DIMTXSTY
  7
Standard
  9
$DIMAUNIT
 70
     0
  9
$DIMADEC
 70
     2
  9
$DIMALTRND
 40
0.0
  9
$DIMAZIN
 70
     0
  9
$DIMDSEP
 70
    44
  9
$DIMATFIT
 70
     3
  9
$DIMFRAC
 70
     0
  9
$DIMLDRBLK
  1

  9
$DIMLUNIT
 70
     2
  9
$DIMLWD
 70
    -2
  9
$DIMLWE
 70
    -2
  9
$DIMTMOVE
 70
     0
  9
$LUNITS
 70
     2
  9
$LUPREC
 70
     3
  9
$SKETCHINC
 40
1.0
  9
$FILLETRAD
 40
10.0
  9
$AUNITS
 70
     0
  9
$AUPREC
 70
     2
  9
$MENU
  1
.
  9
$ELEVATION
 40
0.0
  9
$PELEVATION
 40
0.0
  9
$THICKNESS
 40
0.0
  9
$LIMCHECK
 70
     0
  9
$CHAMFERA
 40
0.0
  9
$CHAMFERB
 40
0.0
  9
$CHAMFERC
 40
0.0
  9
$CHAMFERD
 40
0.0
  9
$SKPOLY
 70
     0
  9
$TDCREATE
 40
2459115.543970891
  9
$TDUCREATE
 40
2459115.460637558
  9
$TDUPDATE
 40
2459115.543971123
  9
$TDUUPDATE
 40
2459115.460637789
  9
$TDINDWG
 40
0.0000000116
  9
$TDUSRTIMER
 40
0.0000000116
  9
$USRTIMER
 70
     1
  9
$ANGBASE
 50
0.0
  9
$ANGDIR
 70
     0
  9
$PDMODE
 70
     0
  9
$PDSIZE
 40
-1.0
  9
$PLINEWID
 40
0.0
  9
$SPLFRAME
 70
     0
  9
$SPLINETYPE
 70
     6
  9
$SPLINESEGS
 70
     8
  9
$HANDSEED
  5
270
  9
$SURFTAB1
 70
     6
  9
$SURFTAB2
 70
     6
  9
$SURFTYPE
 70
     6
  9
$SURFU
 70
     6
  9
$SURFV
 70
     6
  9
$UCSBASE
  2

  9
$UCSNAME
  2

  9
$UCSORG
 10
0.0
 20
0.0
 30
0.0
  9
$UCSXDIR
 10
1.0
 20
0.0
 30
0.0
  9
$UCSYDIR
 10
0.0
 20
1.0
 30
0.0
  9
$UCSORTHOREF
  2

  9
$UCSORTHOVIEW
 70
     0
  9
$UCSORGTOP
 10
0.0
 20
0.0
 30
0.0
  9
$UCSORGBOTTOM
 10
0.0
 20
0.0
 30
0.0
  9
$UCSORGLEFT
 10
0.0
 20
0.0
 30
0.0
  9
$UCSORGRIGHT
 10
0.0
 20
0.0
 30
0.0
  9
$UCSORGFRONT
 10
0.0
 20
0.0
 30
0.0
  9
$UCSORGBACK
 10
0.0
 20
0.0
 30
0.0
  9
$PUCSBASE
  2

  9
$PUCSNAME
  2

  9
$PUCSORG
 10
0.0
 20
0.0
 30
0.0
  9
$PUCSXDIR
 10
1.0
 20
0.0
 30
0.0
  9
$PUCSYDIR
 10
0.0
 20
1.0
 30
0.0
  9
$PUCSORTHOREF
  2

  9
$PUCSORTHOVIEW
 70
     0
  9
$PUCSORGTOP
 10
0.0
 20
0.0
 30
0.0
  9
$PUCSORGBOTTOM
 10
0.0
 20
0.0
 30
0.0
  9
$PUCSORGLEFT
 10
0.0
 20
0.0
 30
0.0
  9
$PUCSORGRIGHT
 10
0.0
 20
0.0
 30
0.0
  9
$PUCSORGFRONT
 10
0.0
 20
0.0
 30
0.0
  9
$PUCSORGBACK
 10
0.0
 20
0.0
 30
0.0
  9
$USERI1
 70
     0
  9
$USERI2
 70
     0
  9
$USERI3
 70
     0
  9
$USERI4
 70
     0
  9
$USERI5
 70
     0
  9
$USERR1
 40
0.0
  9
$USERR2
 40
0.0
  9
$USERR3
 40
0.0
  9
$USERR4
 40
0.0
  9
$USERR5
 40
0.0
  9
$WORLDVIEW
 70
     1
  9
$SHADEDGE
 70
     3
  9
$SHADEDIF
 70
    70
  9
$TILEMODE
 70
     1
  9
$MAXACTVP
 70
    64
  9
$PINSBASE
 10
0.0
 20
0.0
 30
0.0
  9
$PLIMCHECK
 70
     0
  9
$PEXTMIN
 10
1.0000000000E+20
 20
1.0000000000E+20
 30
1.0000000000E+20
  9
$PEXTMAX
 10
-1.0000000000E+20
 20
-1.0000000000E+20
 30
-1.0000000000E+20
  9
$PLIMMIN
 10
0.0
 20
0.0
  9
$PLIMMAX
 10
420.0
 20
297.0
  9
$UNITMODE
 70
     0
  9
$VISRETAIN
 70
     1
  9
$PLINEGEN
 70
     0
  9
$PSLTSCALE
 70
     1
  9
$TREEDEPTH
 70
  3020
  9
$CMLSTYLE
  2
Standard
  9
$CMLJUST
 70
     0
  9
$CMLSCALE
 40
20.0
  9
$PROXYGRAPHICS
 70
     1
  9
$MEASUREMENT
 70
     1
  9
$CELWEIGHT
370
    -1
  9
$ENDCAPS
280
     0
  9
$JOINSTYLE
280
     0
  9
$LWDISPLAY
290
     1
  9
$INSUNITS
 70
     4
  9
$HYPERLINKBASE
  1

  9
$STYLESHEET
  1

  9
$XEDIT
290
     1
  9
$CEPSNTYPE
380
     0
  9
$PSTYLEMODE
290
     1
  9
$FINGERPRINTGUID
  2
{6a6d6284-4091-4cf3-afb7-e18dc5a3b78d}
  9
$VERSIONGUID
  2
{FAEB1C32-E019-11D5-929B-00C0DF256EC4}
  9
$EXTNAMES
290
     1
  9
$PSVPSCALE
 40
0.0
  9
$OLESTARTUP
290
     0
  0
ENDSEC
  0
SECTION
  2
CLASSES
  0
CLASS
  1
ACDBDICTIONARYWDFLT
  2
AcDbDictionaryWithDefault
  3
ObjectDBX Classes
 90
        0
280
     0
281
     0
  0
CLASS
  1
VISUALSTYLE
  2
AcDbVisualStyle
  3
ObjectDBX Classes
 90
     4095
280
     0
281
     0
  0
CLASS
  1
MATERIAL
  2
AcDbMaterial
  3
ObjectDBX Classes
 90
     1153
280
     0
281
     0
  0
CLASS
  1
SCALE
  2
AcDbScale
  3
ObjectDBX Classes
 90
     1153
280
     0
281
     0
  0
CLASS
  1
TABLESTYLE
  2
AcDbTableStyle
  3
ObjectDBX Classes
 90
     4095
280
     0
281
     0
  0
CLASS
  1
MLEADERSTYLE
  2
AcDbMLeaderStyle
  3
ACDB_MLEADERSTYLE_CLASS
 90
     4095
280
     0
281
     0
  0
CLASS
  1
SUN
  2
AcDbSun
  3
SCENEOE
 90
     1153
280
     0
281
     0
  0
CLASS
  1
ACDBPLACEHOLDER
  2
AcDbPlaceHolder
  3
ObjectDBX Classes
 90
        0
280
     0
281
     0
  0
CLASS
  1
LAYOUT
  2
AcDbLayout
  3
ObjectDBX Classes
 90
        0
280
     0
281
     0
  0
ENDSEC
  0
SECTION
  2
TABLES
  0
TABLE
  2
VPORT
  5
8
330
0
100
AcDbSymbolTable
 70
     1
  0
VPORT
  5
29
330
8
100
AcDbSymbolTableRecord
100
AcDbViewportTableRecord
  2
*Active
 70
     0
 10
0.0
 20
0.0
 11
1.0
 21
1.0
 12
10000.0
 22
5000.0
 13
0.0
 23
0.0
 14
10.0
 24
10.0
 15
10.0
 25
10.0
 16
0.0
 26
0.0
 36
1.0
 17
0.0
 27
0.0
 37
0.0
 40
10000.0
 41
2.0
 42
50.0
 43
0.0
 44
0.0
 50
0.0
 51
0.0
 71
     0
 72
  2000
 73
     1
 74
     3
 75
     0
 76
     0
 77
     0
 78
     0
281
     0
 65
     1
110
0.0
120
0.0
130
0.0
111
1.0
121
0.0
131
0.0
112
0.0
122
1.0
132
0.0
 79
     0
146
0.0
  0
ENDTAB
  0
TABLE
  2
LTYPE
  5
5
330
0
100
AcDbSymbolTable
 70
     6
  0
LTYPE
  5
14
330
5
100
AcDbSymbolTableRecord
100
AcDbLinetypeTableRecord
  2
ByBlock
 70
     0
  3

 72
    65
 73
     0
 40
0.0
  0
LTYPE
  5
15
330
5
100
AcDbSymbolTableRecord
100
AcDbLinetypeTableRecord
  2
ByLayer
 70
     0
  3

 72
    65
 73
     0
 40
0.0
  0
LTYPE
  5
16
330
5
100
AcDbSymbolTableRecord
100
AcDbLinetypeTableRecord
  2
Continuous
 70
     0
  3
Solid line
 72
    65
 73
     0
 40
0.0
  0
LTYPE
  5
6E
330
5
100
AcDbSymbolTableRecord
100
AcDbLinetypeTableRecord
  2
HIDDEN
 70
     0
  3
Hidden __ __ __ __ __ __ __ __ __ __ __ __ __ __
 72
    65
 73
     2
 40
1.905
 49
1.27
 74
     0
 49
-0.635
 74
     0
  0
LTYPE
  5
6F
330
5
100
AcDbSymbolTableRecord
100
AcDbLinetypeTableRecord
  2
PHANTOM
 70
     0
  3
Phantom ______  __  __  ______  __  __  ______
 72
    65
 73
     6
 40
12.7
 49
6.35
 74
     0
 49
-1.27
 74
     0
 49
1.27
 74
     0
 49
-1.27
 74
     0
 49
1.27
 74
     0
 49
-1.27
 74
     0
  0
LTYPE
  5
70
330
5
100
AcDbSymbolTableRecord
100
AcDbLinetypeTableRecord
  2
CENTER
 70
     0
  3
Center ____ _ ____ _ ____ _ ____ _ ____ _ ____
 72
    65
 73
     4
 40
10.16
 49
6.35
 74
     0
 49
-1.27
 74
     0
 49
1.27
 74
     0
 49
-1.27
 74
     0
  0
LTYPE
  5
71
330
5
100
AcDbSymbolTableRecord
100
AcDbLinetypeTableRecord
  2
CENTERX2
 70
     0
  3
Center (2x) ________  __  ________  __  _____
 72
    65
 73
     4
 40
20.32
 49
12.7
 74
     0
 49
-2.54
 74
     0
 49
2.54
 74
     0
 49
-2.54
 74
     0
  0
LTYPE
  5
72
330
5
100
AcDbSymbolTableRecord
100
AcDbLinetypeTableRecord
  2
DOT2
 70
     0
  3
Dot (.5x) ........................................
 72
    65
 73
     2
 40
0.635
 49
0.0
 74
     0
 49
-0.635
 74
     0
  0
ENDTAB
  0
TABLE
  2
LAYER
  5
2
330
0
100
AcDbSymbolTable
 70
    13
  0
LAYER
  5
10
330
2
100
AcDbSymbolTableRecord
100
AcDbLayerTableRecord
  2
0
 70
     0
 62
     7
  6
Continuous
370
    -3
390
F
  0
LAYER
  5
73
330
2
100
AcDbSymbolTableRecord
100
AcDbLayerTableRecord
  2
FORMAT
 70
     0
 62
     7
  6
Continuous
370
    -3
390
F
  0
LAYER
  5
74
330
2
100
AcDbSymbolTableRecord
100
AcDbLayerTableRecord
  2
OSA
 70
     0
 62
     7
  6
CENTER
370
    -3
390
F
  0
LAYER
  5
75
330
2
100
AcDbSymbolTableRecord
100
AcDbLayerTableRecord
  2
0_35
 70
     0
 62
     7
  6
Continuous
370
    35
390
F
  0
LAYER
  5
76
330
2
100
AcDbSymbolTableRecord
100
AcDbLayerTableRecord
  2
0_5
 70
     0
 62
     7
  6
Continuous
370
    50
390
F
  0
LAYER
  5
77
330
2
100
AcDbSymbolTableRecord
100
AcDbLayerTableRecord
  2
0_25
 70
     0
 62
     7
  6
Continuous
370
    25
390
F
  0
LAYER
  5
78
330
2
100
AcDbSymbolTableRecord
100
AcDbLayerTableRecord
  2
0_18
 70
     0
 62
     7
  6
Continuous
370
    -3
390
F
  0
LAYER
  5
79
330
2
100
AcDbSymbolTableRecord
100
AcDbLayerTableRecord
  2
SLD-0
 70
     0
 62
   179
  6
Continuous
370
    -3
390
F
  0
LAYER
  5
7A
330
2
100
AcDbSymbolTableRecord
100
AcDbLayerTableRecord
  2
KOTY
 70
     0
 62
     7
  6
Continuous
370
    -3
390
F
  0
LAYER
  5
7B
330
2
100
AcDbSymbolTableRecord
100
AcDbLayerTableRecord
  2
SILNA
 70
     0
 62
   179
  6
Continuous
370
    -3
390
F
  0
LAYER
  5
7C
330
2
100
AcDbSymbolTableRecord
100
AcDbLayerTableRecord
  2
0_18_1
 70
     0
 62
   179
  6
Continuous
370
    -3
390
F
  0
LAYER
  5
7D
330
2
100
AcDbSymbolTableRecord
100
AcDbLayerTableRecord
  2
0_35_1
 70
     0
 62
   179
  6
Continuous
370
    35
390
F
  0
LAYER
  5
7E
330
2
100
AcDbSymbolTableRecord
100
AcDbLayerTableRecord
  2
0_5_1
 70
     0
 62
   179
  6
Continuous
370
    50
390
F
  0
ENDTAB
  0
TABLE
  2
STYLE
  5
3
330
0
100
AcDbSymbolTable
 70
     1
  0
STYLE
  5
11
330
3
100
AcDbSymbolTableRecord
100
AcDbTextStyleTableRecord
  2
Standard
 70
     0
 40
0.0
 41
1.0
 50
0.0
 71
     0
 42
2.0
  3
txt
  4

  0
ENDTAB
  0
TABLE
  2
VIEW
  5
6
330
0
100
AcDbSymbolTable
 70
     0
  0
ENDTAB
  0
TABLE
  2
UCS
  5
7
330
0
100
AcDbSymbolTable
 70
     0
  0
ENDTAB
  0
TABLE
  2
APPID
  5
9
330
0
100
AcDbSymbolTable
 70
     1
  0
APPID
  5
12
330
9
100
AcDbSymbolTableRecord
100
AcDbRegAppTableRecord
  2
ACAD
 70
     0
  0
ENDTAB
  0
TABLE
  2
DIMSTYLE
  5
A
330
0
100
AcDbSymbolTable
 70
     1
100
AcDbDimStyleTable
  0
DIMSTYLE
105
27
330
A
100
AcDbSymbolTableRecord
100
AcDbDimStyleTableRecord
  2
ISO-25
 70
     0
 41
2.5
 42
0.625
 43
3.75
 44
1.25
 73
     0
 74
     0
 77
     1
 78
     8
140
2.5
141
2.5
143
0.0393700787
147
0.625
171
     3
172
     1
178
     0
271
     2
272
     2
274
     3
278
    44
283
     0
284
     8
340
11
  0
ENDTAB
  0
TABLE
  2
BLOCK_RECORD
  5
1
330
0
100
AcDbSymbolTable
 70
     1
  0
BLOCK_RECORD
  5
1F
330
1
100
AcDbSymbolTableRecord
100
AcDbBlockTableRecord
  2
*Model_Space
340
22
  0
BLOCK_RECORD
  5
1B
330
1
100
AcDbSymbolTableRecord
100
AcDbBlockTableRecord
  2
*Paper_Space
340
1E
  0
BLOCK_RECORD
  5
23
330
1
100
AcDbSymbolTableRecord
100
AcDbBlockTableRecord
  2
*Paper_Space0
340
26
  0
ENDTAB
  0
ENDSEC
  0
SECTION
  2
BLOCKS
  0
BLOCK
  5
20
330
1F
100
AcDbEntity
  8
0
100
AcDbBlockBegin
  2
*Model_Space
 70
     0
 10
0.0
 20
0.0
 30
0.0
  3
*Model_Space
  1

  0
ENDBLK
  5
21
330
1F
100
AcDbEntity
  8
0
100
AcDbBlockEnd
  0
BLOCK
  5
1C
330
1B
100
AcDbEntity
 67
     1
  8
0
100
AcDbBlockBegin
  2
*Paper_Space
 70
     0
 10
0.0
 20
0.0
 30
0.0
  3
*Paper_Space
  1

  0
ENDBLK
  5
1D
330
1B
100
AcDbEntity
 67
     1
  8
0
100
AcDbBlockEnd
  0
BLOCK
  5
24
330
23
100
AcDbEntity
  8
0
100
AcDbBlockBegin
  2
*Paper_Space0
 70
     0
 10
0.0
 20
0.0
 30
0.0
  3
*Paper_Space0
  1

  0
ENDBLK
  5
25
330
23
100
AcDbEntity
  8
0
100
AcDbBlockEnd
  0
ENDSEC
  0
SECTION
  2
ENTITIES
  0
ARC
  5
7F
330
1F
100
AcDbEntity
  8
0
  6
Continuous
 62
     7
370
    25
100
AcDbCircle
 10
7211.8057477705
 20
6331.5627630374
 30
0.0
 40
9.650709579003177
100
AcDbArc
 50
220.434958317
 51
274.1253040748
  0
LINE
  5
80
330
1F
100
AcDbEntity
  8
0
  6
Continuous
 62
     7
370
    25
100
AcDbLine
 10
7212.5
 20
6321.9370573895
 30
0.0
 11
7212.5
 21
6322.3075502481
 31
0.0
  0
ARC
  5
81
330
1F
100
AcDbEntity
  8
0
  6
Continuous
 62
     7
370
    25
100
AcDbCircle
 10
7212.5
 20
6331.25
 30
0.0
 40
8.94244975192396
100
AcDbArc
 50
208.9510134908
 51
270.0
  0
ARC
  5
82
330
1F
100
AcDbEntity
  8
0
  6
Continuous
 62
     7
370
    25
100
AcDbCircle
 10
7212.5
 20
6331.25
 30
0.0
 40
9.999999999999991
100
AcDbArc
 50
216.4879481871
 51
261.3825052416
  0
CIRCLE
  5
83
330
1F
100
AcDbEntity
  8
0
  6
Continuous
 62
     7
370
    25
100
AcDbCircle
 10
7212.5
 20
6331.25
 30
0.0
 40
8.49999999999909
  0
LWPOLYLINE
  5
84
330
1F
100
AcDbEntity
  8
0
  6
Continuous
 62
     7
370
    25
100
AcDbPolyline
 90
       33
 70
   128
 43
0.0
 10
7211.0016275553
 20
6321.3628932434
 10
7212.269643196
 20
6321.277502152
 10
7213.5592448311
 20
6321.3564463317
 10
7215.1688830182
 20
6321.6987139627
 10
7216.742535781
 20
6322.32403163
 10
7218.148090984
 20
6323.1799023284
 10
7219.425291083
 20
6324.2923465289
 10
7220.4591545343
 20
6325.5608426223
 10
7221.2872640484
 20
6327.0278563475
 10
7221.8360910775
 20
6328.5574458385
 10
7222.1261389124
 20
6330.2049604275
 10
7222.1325624909
 20
6331.8176869085
 10
7221.8588602793
 20
6333.4549897015
 10
7221.3311898796
 20
6334.970274383
 10
7220.5308012524
 20
6336.4153958983
 10
7219.536646015
 20
6337.6550064739
 10
7218.3131385616
 20
6338.7401992717
 10
7216.9675695648
 20
6339.5759936443
 10
7215.4557839862
 20
6340.1883312418
 10
7213.9264742539
 20
6340.5220120617
 10
7212.317342904
 20
6340.5958739399
 10
7210.767057814
 20
6340.4022334419
 10
7209.227808196
 20
6339.9341811021
 10
7207.848901447
 20
6339.2422731422
 10
7206.5698188268
 20
6338.3018316172
 10
7205.5026496281
 20
6337.1933712225
 10
7204.6135656378
 20
6335.8820454813
 10
7203.9844049769
 20
6334.4959570956
 10
7203.5865470914
 20
6332.980725555
 10
7203.4560814717
 20
6331.4713637851
 10
7203.5870298205
 20
6329.9171241008
 10
7203.988197449
 20
6328.3946135713
 10
7204.6750534258
 20
6326.9213028893
  0
CIRCLE
  5
85
330
1F
100
AcDbEntity
  8
0
  6
Continuous
 62
     7
370
    25
100
AcDbCircle
 10
7212.5
 20
6331.25
 30
0.0
 40
8.0
  0
ARC
  5
86
330
1F
100
AcDbEntity
  8
0
  6
Continuous
 62
     7
370
    25
100
AcDbCircle
 10
7212.4729380966
 20
6331.2793295102
 30
0.0
 40
9.995762349649311
100
AcDbArc
 50
269.4463091285
 51
216.7153538814
  0
CIRCLE
  5
87
330
1F
100
AcDbEntity
  8
0
  6
Continuous
 62
     7
370
    25
100
AcDbCircle
 10
7212.5
 20
6331.25
 30
0.0
 40
10.20000000000073
  0
CIRCLE
  5
88
330
1F
100
AcDbEntity
  8
0
  6
Continuous
 62
     7
370
    25
100
AcDbCircle
 10
7212.5
 20
6331.25
 30
0.0
 40
28.12100405298861
  0
CIRCLE
  5
89
330
1F
100
AcDbEntity
  8
0
  6
Continuous
 62
     7
370
    25
100
AcDbCircle
 10
7212.5
 20
6331.25
 30
0.0
 40
27.62100405298861
  0
CIRCLE
  5
8A
330
1F
100
AcDbEntity
  8
0
  6
Continuous
 62
     7
370
    25
100
AcDbCircle
 10
7212.5
 20
6331.25
 30
0.0
 40
26.99255762056146
  0
CIRCLE
  5
8B
330
1F
100
AcDbEntity
  8
0
  6
Continuous
 62
     7
370
    25
100
AcDbCircle
 10
7212.5
 20
6331.25
 30
0.0
 40
16.33403426797759
  0
CIRCLE
  5
8C
330
1F
100
AcDbEntity
  8
0
  6
Continuous
 62
     7
370
    25
100
AcDbCircle
 10
7212.5
 20
6331.25
 30
0.0
 40
15.82100405298843
  0
CIRCLE
  5
8D
330
1F
100
AcDbEntity
  8
0
  6
Continuous
 62
     7
370
    25
100
AcDbCircle
 10
7212.5
 20
6331.25
 30
0.0
 40
6.700000000000728
  0
ARC
  5
8E
330
1F
100
AcDbEntity
  8
0
  6
Continuous
 62
     7
370
    25
100
AcDbCircle
 10
7403.6075020538
 20
6357.9158890505
 30
0.0
 40
1.455115002461753
100
AcDbArc
 50
90.0
 51
160.0
  0
ARC
  5
8F
330
1F
100
AcDbEntity
  8
0
  6
Continuous
 62
     7
370
    25
100
AcDbCircle
 10
7403.6075020538
 20
6304.5841109495
 30
0.0
 40
1.455115002461753
100
AcDbArc
 50
200.0000000001
 51
270.0
  0
LINE
  5
90
330
1F
100
AcDbEntity
  8
0
  6
Continuous
 62
     7
370
    25
100
AcDbLine
 10
7405.2401412235
 20
6359.371004053
 30
0.0
 11
7403.6075020538
 21
6359.371004053
 31
0.0
  0
LINE
  5
91
330
1F
100
AcDbEntity
  8
0
  6
Continuous
 62
     7
370
    25
100
AcDbLine
 10
7403.6075020538
 20
6303.128995947
 30
0.0
 11
7405.2401412235
 21
6303.128995947
 31
0.0
  0
LINE
  5
92
330
1F
100
AcDbEntity
  8
0
  6
Continuous
 62
     7
370
    25
100
AcDbLine
 10
7402.2401412235
 20
6358.4135676922
 30
0.0
 11
7398.4021418055
 21
6347.8687509553
 31
0.0
  0
LINE
  5
93
330
1F
100
AcDbEntity
  8
0
  6
Continuous
 62
     7
370
    25
100
AcDbLine
 10
7398.4021418055
 20
6314.6312490447
 30
0.0
 11
7402.2401412235
 21
6304.0864323078
 31
0.0
  0
ARC
  5
94
330
1F
100
AcDbEntity
  8
0
  6
Continuous
 62
     7
370
    25
100
AcDbCircle
 10
7400.2401412235
 20
6347.071004053
 30
0.0
 40
2.003657151520339
100
AcDbArc
 50
156.5377096797
 51
180.0
  0
ARC
  5
95
330
1F
100
AcDbEntity
  8
0
  6
Continuous
 62
     7
370
    25
100
AcDbCircle
 10
7400.2401412235
 20
6315.428995947
 30
0.0
 40
2.003657151520201
100
AcDbArc
 50
180.0
 51
203.4622903203
  0
LINE
  5
96
330
1F
100
AcDbEntity
  8
0
  6
Continuous
 62
     7
370
    25
100
AcDbLine
 10
7398.236484072
 20
6347.071004053
 30
0.0
 11
7398.236484072
 21
6315.428995947
 31
0.0
  0
LINE
  5
97
330
1F
100
AcDbEntity
  8
0
  6
Continuous
 62
     7
370
    25
100
AcDbLine
 10
7353.5953860435
 20
6342.75
 30
0.0
 11
7349.5953860435
 21
6342.75
 31
0.0
  0
LINE
  5
98
330
1F
100
AcDbEntity
  8
0
  6
Continuous
 62
     7
370
    25
100
AcDbLine
 10
7349.5953860435
 20
6319.75
 30
0.0
 11
7353.5953860435
 21
6319.75
 31
0.0
  0
LWPOLYLINE
  5
99
330
1F
100
AcDbEntity
  8
0
  6
Continuous
 62
     7
370
    25
100
AcDbPolyline
 90
        3
 70
   128
 43
0.0
 10
7415.148584056
 20
6341.2360141861
 10
7414.8421492855
 20
6340.7060335331
 10
7414.5360636163
 20
6340.1767564285
  0
LWPOLYLINE
  5
9A
330
1F
100
AcDbEntity
  8
0
  6
Continuous
 62
     7
370
    25
100
AcDbPolyline
 90
        3
 70
   128
 43
0.0
 10
7413.1947379022
 20
6341.2360141861
 10
7412.8881279334
 20
6340.7057247088
 10
7412.5822174625
 20
6340.1767564285
  0
LWPOLYLINE
  5
9B
330
1F
100
AcDbEntity
  8
0
  6
Continuous
 62
     7
370
    25
100
AcDbPolyline
 90
        3
 70
   128
 43
0.0
 10
7411.2408917483
 20
6341.2360141861
 10
7410.9341065419
 20
6340.7054127563
 10
7410.6283713086
 20
6340.1767564285
  0
LWPOLYLINE
  5
9C
330
1F
100
AcDbEntity
  8
0
  6
Continuous
 62
     7
370
    25
100
AcDbPolyline
 90
        3
 70
   128
 43
0.0
 10
7409.2870455945
 20
6341.2360141861
 10
7408.9800851112
 20
6340.705097675
 10
7408.6745251548
 20
6340.1767564285
  0
LWPOLYLINE
  5
9D
330
1F
100
AcDbEntity
  8
0
  6
Continuous
 62
     7
370
    25
100
AcDbPolyline
 90
        3
 70
   128
 43
0.0
 10
7413.5591405524
 20
6322.3232435489
 10
7413.8652262715
 20
6321.7939663566
 10
7414.1716610917
 20
6321.2639856189
  0
LWPOLYLINE
  5
9E
330
1F
100
AcDbEntity
  8
0
  6
Continuous
 62
     7
370
    25
100
AcDbPolyline
 90
        3
 70
   128
 43
0.0
 10
7411.6052943986
 20
6322.3232435489
 10
7411.9112049194
 20
6321.7942751798
 10
7412.2178149379
 20
6321.2639856189
  0
LWPOLYLINE
  5
9F
330
1F
100
AcDbEntity
  8
0
  6
Continuous
 62
     7
370
    25
100
AcDbPolyline
 90
        3
 70
   128
 43
0.0
 10
7409.6514482447
 20
6322.3232435489
 10
7409.9571835279
 20
6321.7945871312
 10
7410.263968784
 20
6321.2639856189
  0
LWPOLYLINE
  5
A0
330
1F
100
AcDbEntity
  8
0
  6
Continuous
 62
     7
370
    25
100
AcDbPolyline
 90
        3
 70
   128
 43
0.0
 10
7407.6976020909
 20
6322.3232435489
 10
7408.0031620972
 20
6321.7949022113
 10
7408.3101226302
 20
6321.2639856189
  0
LWPOLYLINE
  5
A1
330
1F
100
AcDbEntity
  8
0
  6
Continuous
 62
     7
370
    25
100
AcDbPolyline
 90
        3
 70
   128
 43
0.0
 10
7415.5129867063
 20
6322.3232435489
 10
7415.8192475842
 20
6321.793660661
 10
7416.1255072455
 20
6321.2639856189
  0
LINE
  5
A2
330
1F
100
AcDbEntity
  8
0
  6
Continuous
 62
     7
370
    25
100
AcDbLine
 10
7416.7182589012
 20
6340.571615194
 30
0.0
 11
7416.4899097702
 21
6340.1767564285
 31
0.0
  0
LWPOLYLINE
  5
A3
330
1F
100
AcDbEntity
  8
0
  6
Continuous
 62
     7
370
    25
100
AcDbPolyline
 90
        3
 70
   128
 43
0.0
 10
7414.0833600601
 20
6340.1770914511
 10
7413.7769468125
 20
6340.7069357803
 10
7413.4708848887
 20
6341.2362714659
  0
LWPOLYLINE
  5
A4
330
1F
100
AcDbEntity
  8
0
  6
Continuous
 62
     7
370
    25
100
AcDbPolyline
 90
        3
 70
   128
 43
0.0
 10
7412.1295139062
 20
6340.1770914511
 10
7411.822925618
 20
6340.7072321545
 10
7411.5170387348
 20
6341.2362714659
  0
LWPOLYLINE
  5
A5
330
1F
100
AcDbEntity
  8
0
  6
Continuous
 62
     7
370
    25
100
AcDbPolyline
 90
        3
 70
   128
 43
0.0
 10
7410.1756677524
 20
6340.1770914511
 10
7409.8689044632
 20
6340.7075254032
 10
7409.563192581
 20
6341.2362714659
  0
LWPOLYLINE
  5
A6
330
1F
100
AcDbEntity
  8
0
  6
Continuous
 62
     7
370
    25
100
AcDbPolyline
 90
        3
 70
   128
 43
0.0
 10
7408.2218215985
 20
6340.1770914511
 10
7407.9148833483
 20
6340.707815527
 10
7407.6093464271
 20
6341.2362714659
  0
LWPOLYLINE
  5
A7
330
1F
100
AcDbEntity
  8
0
  6
Continuous
 62
     7
370
    25
100
AcDbPolyline
 90
        3
 70
   128
 43
0.0
 10
7412.5449698838
 20
6321.483611587
 10
7412.8504852047
 20
6322.0015037337
 10
7413.1563664088
 20
6322.5214909216
  0
LWPOLYLINE
  5
A8
330
1F
100
AcDbEntity
  8
0
  6
Continuous
 62
     7
370
    25
100
AcDbPolyline
 90
        3
 70
   128
 43
0.0
 10
7410.59112373
 20
6321.483611587
 10
7410.8964561633
 20
6322.0003184438
 10
7411.202520255
 20
6322.5214909216
  0
LWPOLYLINE
  5
A9
330
1F
100
AcDbEntity
  8
0
  6
Continuous
 62
     7
370
    25
100
AcDbPolyline
 90
        3
 70
   128
 43
0.0
 10
7408.6372775762
 20
6321.483611587
 10
7408.9424271374
 20
6321.9991363123
 10
7409.2486741011
 20
6322.5214909216
  0
LWPOLYLINE
  5
AA
330
1F
100
AcDbEntity
  8
0
  6
Continuous
 62
     7
370
    25
100
AcDbPolyline
 90
        3
 70
   128
 43
0.0
 10
7406.6834314223
 20
6321.483611587
 10
7406.9883981272
 20
6321.9979573395
 10
7407.2948279473
 20
6322.5214909216
  0
LWPOLYLINE
  5
AB
330
1F
100
AcDbEntity
  8
0
  6
Continuous
 62
     7
370
    25
100
AcDbPolyline
 90
        3
 70
   128
 43
0.0
 10
7414.4988160377
 20
6321.483611587
 10
7414.8045142616
 20
6322.0026921817
 10
7415.1102125627
 20
6322.5214909216
  0
LWPOLYLINE
  5
AC
330
1F
100
AcDbEntity
  8
0
  6
Continuous
 62
     7
370
    25
100
AcDbPolyline
 90
        3
 70
   128
 43
0.0
 10
7416.0372062139
 20
6340.1770914511
 10
7415.7309680466
 20
6340.7066362802
 10
7415.4247310425
 20
6341.2362714659
  0
LINE
  5
AD
330
1F
100
AcDbEntity
  8
0
  6
Continuous
 62
     7
370
    25
100
AcDbLine
 10
7407.5935573315
 20
6341.25
 30
0.0
 11
7405.5953860435
 21
6341.25
 31
0.0
  0
LINE
  5
AE
330
1F
100
AcDbEntity
  8
0
  6
Continuous
 62
     7
370
    25
100
AcDbLine
 10
7409.5474034853
 20
6341.25
 30
0.0
 11
7409.3029875855
 21
6341.25
 31
0.0
  0
LINE
  5
AF
330
1F
100
AcDbEntity
  8
0
  6
Continuous
 62
     7
370
    25
100
AcDbLine
 10
7411.5012496392
 20
6341.25
 30
0.0
 11
7411.2568337393
 21
6341.25
 31
0.0
  0
LINE
  5
B0
330
1F
100
AcDbEntity
  8
0
  6
Continuous
 62
     7
370
    25
100
AcDbLine
 10
7413.455095793
 20
6341.25
 30
0.0
 11
7413.2106798932
 21
6341.25
 31
0.0
  0
LINE
  5
B1
330
1F
100
AcDbEntity
  8
0
  6
Continuous
 62
     7
370
    25
100
AcDbLine
 10
7415.4089419468
 20
6341.25
 30
0.0
 11
7415.164526047
 21
6341.25
 31
0.0
  0
LINE
  5
B2
330
1F
100
AcDbEntity
  8
0
  6
Continuous
 62
     7
370
    25
100
AcDbLine
 10
7414.1876357058
 20
6321.25
 30
0.0
 11
7414.4319308631
 21
6321.25
 31
0.0
  0
LINE
  5
B3
330
1F
100
AcDbEntity
  8
0
  6
Continuous
 62
     7
370
    25
100
AcDbLine
 10
7412.233789552
 20
6321.25
 30
0.0
 11
7412.4780847093
 21
6321.25
 31
0.0
  0
LINE
  5
B4
330
1F
100
AcDbEntity
  8
0
  6
Continuous
 62
     7
370
    25
100
AcDbLine
 10
7410.2799433982
 20
6321.25
 30
0.0
 11
7410.5242385554
 21
6321.25
 31
0.0
  0
LINE
  5
B5
330
1F
100
AcDbEntity
  8
0
  6
Continuous
 62
     7
370
    25
100
AcDbLine
 10
7408.3260972443
 20
6321.25
 30
0.0
 11
7408.5703924016
 21
6321.25
 31
0.0
  0
LINE
  5
B6
330
1F
100
AcDbEntity
  8
0
  6
Continuous
 62
     7
370
    25
100
AcDbLine
 10
7405.5953860435
 20
6321.25
 30
0.0
 11
7406.6165462478
 21
6321.25
 31
0.0
  0
LINE
  5
B7
330
1F
100
AcDbEntity
  8
0
  6
Continuous
 62
     7
370
    25
100
AcDbLine
 10
7382.5225463258
 20
6352.3228397177
 30
0.0
 11
7381.5953860435
 21
6353.25
 31
0.0
  0
LINE
  5
B8
330
1F
100
AcDbEntity
  8
0
  6
Continuous
 62
     7
370
    25
100
AcDbLine
 10
7383.0953860435
 20
6351.75
 30
0.0
 11
7382.9203987412
 21
6351.9249873023
 31
0.0
  0
LINE
  5
B9
330
1F
100
AcDbEntity
  8
0
  6
Continuous
 62
     7
370
    25
100
AcDbLine
 10
7363.5953860435
 20
6353.25
 30
0.0
 11
7362.398552463
 21
6352.0531664196
 31
0.0
  0
LWPOLYLINE
  5
BA
330
1F
100
AcDbEntity
  8
0
  6
Continuous
 62
     7
370
    25
100
AcDbPolyline
 90
        3
 70
   128
 43
0.0
 10
7362.0993526876
 20
6351.1580859759
 10
7362.3858070231
 20
6350.9926400717
 10
7362.6682257678
 20
6350.8295237276
  0
LWPOLYLINE
  5
BB
330
1F
100
AcDbEntity
  8
0
  6
Continuous
 62
     7
370
    25
100
AcDbPolyline
 90
        3
 70
   128
 43
0.0
 10
7362.0993526876
 20
6350.0997526426
 10
7362.3857277942
 20
6349.9343517153
 10
7362.6682257874
 20
6349.7711903716
  0
LWPOLYLINE
  5
BC
330
1F
100
AcDbEntity
  8
0
  6
Continuous
 62
     7
370
    25
100
AcDbPolyline
 90
        3
 70
   128
 43
0.0
 10
7362.0993526876
 20
6349.0414193092
 10
7362.3856493615
 20
6348.8760633518
 10
7362.6682258199
 20
6348.7128570146
  0
LWPOLYLINE
  5
BD
330
1F
100
AcDbEntity
  8
0
  6
Continuous
 62
     7
370
    25
100
AcDbPolyline
 90
        3
 70
   128
 43
0.0
 10
7362.0993526876
 20
6347.9830859759
 10
7362.3855717248
 20
6347.8177749812
 10
7362.6682258655
 20
6347.6545236568
  0
LWPOLYLINE
  5
BE
330
1F
100
AcDbEntity
  8
0
  6
Continuous
 62
     7
370
    25
100
AcDbPolyline
 90
        3
 70
   128
 43
0.0
 10
7362.0993526876
 20
6346.9247526426
 10
7362.385494884
 20
6346.7594866034
 10
7362.668225924
 20
6346.596190298
  0
LWPOLYLINE
  5
BF
330
1F
100
AcDbEntity
  8
0
  6
Continuous
 62
     7
370
    25
100
AcDbPolyline
 90
        3
 70
   128
 43
0.0
 10
7362.0993526876
 20
6345.8664193092
 10
7362.3854188391
 20
6345.7011982186
 10
7362.6682259956
 20
6345.5378569383
  0
LWPOLYLINE
  5
C0
330
1F
100
AcDbEntity
  8
0
  6
Continuous
 62
     7
370
    25
100
AcDbPolyline
 90
        3
 70
   128
 43
0.0
 10
7362.0993526876
 20
6344.8080859759
 10
7362.3853435898
 20
6344.6429098266
 10
7362.6682260802
 20
6344.4795235777
  0
LWPOLYLINE
  5
C1
330
1F
100
AcDbEntity
  8
0
  6
Continuous
 62
     7
370
    25
100
AcDbPolyline
 90
        3
 70
   128
 43
0.0
 10
7382.5165868877
 20
6350.3081763345
 10
7382.8025906919
 20
6350.4736515229
 10
7383.0719790578
 20
6350.6293245449
  0
LWPOLYLINE
  5
C2
330
1F
100
AcDbEntity
  8
0
  6
Continuous
 62
     7
370
    25
100
AcDbPolyline
 90
        3
 70
   128
 43
0.0
 10
7382.5165868877
 20
6349.2498430012
 10
7382.8024896494
 20
6349.4153633589
 10
7383.0719766518
 20
6349.5709959012
  0
LWPOLYLINE
  5
C3
330
1F
100
AcDbEntity
  8
0
  6
Continuous
 62
     7
370
    25
100
AcDbPolyline
 90
        3
 70
   128
 43
0.0
 10
7382.5165868877
 20
6348.1915096679
 10
7382.8023878075
 20
6348.3570752019
 10
7383.0719742443
 20
6348.5126672816
  0
LWPOLYLINE
  5
C4
330
1F
100
AcDbEntity
  8
0
  6
Continuous
 62
     7
370
    25
100
AcDbPolyline
 90
        3
 70
   128
 43
0.0
 10
7382.5165868877
 20
6347.1331763345
 10
7382.8022851663
 20
6347.2987870518
 10
7383.0719718351
 20
6347.4543386859
  0
LWPOLYLINE
  5
C5
330
1F
100
AcDbEntity
  8
0
  6
Continuous
 62
     7
370
    25
100
AcDbPolyline
 90
        3
 70
   128
 43
0.0
 10
7382.5165868877
 20
6346.0748430012
 10
7382.8021817255
 20
6346.2404989087
 10
7383.0719694245
 20
6346.3960101141
  0
LWPOLYLINE
  5
C6
330
1F
100
AcDbEntity
  8
0
  6
Continuous
 62
     7
370
    25
100
AcDbPolyline
 90
        3
 70
   128
 43
0.0
 10
7382.5165868877
 20
6345.0165096679
 10
7382.8020774851
 20
6345.1822107726
 10
7383.0719670123
 20
6345.3376815662
  0
LINE
  5
C7
330
1F
100
AcDbEntity
  8
0
  6
Continuous
 62
     7
370
    25
100
AcDbLine
 10
7382.9949593751
 20
6344.2350222998
 30
0.0
 11
7383.0719645986
 21
6344.2793530422
 31
0.0
  0
LWPOLYLINE
  5
C8
330
1F
100
AcDbEntity
  8
0
  6
Continuous
 62
     7
370
    25
100
AcDbPolyline
 90
        3
 70
   128
 43
0.0
 10
7382.5165868877
 20
6351.3665096679
 10
7382.8026909353
 20
6351.5319396939
 10
7383.0719814621
 20
6351.6876532126
  0
LINE
  5
C9
330
1F
100
AcDbEntity
  8
0
  6
Continuous
 62
     7
370
    25
100
AcDbLine
 10
7362.3978397487
 20
6352.0440248589
 30
0.0
 11
7362.6682257612
 21
6351.8878570829
 31
0.0
  0
LWPOLYLINE
  5
CA
330
1F
100
AcDbEntity
  8
0
  6
Continuous
 62
     7
370
    25
100
AcDbPolyline
 90
        3
 70
   128
 43
0.0
 10
7362.6722307488
 20
6350.5717498153
 10
7362.385783186
 20
6350.4063047793
 10
7362.0991715417
 20
6350.2407698489
  0
LWPOLYLINE
  5
CB
330
1F
100
AcDbEntity
  8
0
  6
Continuous
 62
     7
370
    25
100
AcDbPolyline
 90
        3
 70
   128
 43
0.0
 10
7362.6722307488
 20
6349.5134164819
 10
7362.3858629725
 20
6349.3480164279
 10
7362.0991715417
 20
6349.1824365156
  0
LWPOLYLINE
  5
CC
330
1F
100
AcDbEntity
  8
0
  6
Continuous
 62
     7
370
    25
100
AcDbPolyline
 90
        3
 70
   128
 43
0.0
 10
7362.6722307488
 20
6348.4550831486
 10
7362.3859435553
 20
6348.2897280835
 10
7362.0991715417
 20
6348.1241031822
  0
LWPOLYLINE
  5
CD
330
1F
100
AcDbEntity
  8
0
  6
Continuous
 62
     7
370
    25
100
AcDbPolyline
 90
        3
 70
   128
 43
0.0
 10
7362.6722307488
 20
6347.3967498153
 10
7362.3860249346
 20
6347.2314397463
 10
7362.0991715417
 20
6347.0657698489
  0
LWPOLYLINE
  5
CE
330
1F
100
AcDbEntity
  8
0
  6
Continuous
 62
     7
370
    25
100
AcDbPolyline
 90
        3
 70
   128
 43
0.0
 10
7362.6722307488
 20
6346.3384164819
 10
7362.3861071104
 20
6346.1731514161
 10
7362.0991715417
 20
6346.0074365156
  0
LWPOLYLINE
  5
CF
330
1F
100
AcDbEntity
  8
0
  6
Continuous
 62
     7
370
    25
100
AcDbPolyline
 90
        3
 70
   128
 43
0.0
 10
7362.6722307488
 20
6345.2800831486
 10
7362.386190083
 20
6345.114863093
 10
7362.0991715417
 20
6344.9491031822
  0
LWPOLYLINE
  5
D0
330
1F
100
AcDbEntity
  8
0
  6
Continuous
 62
     7
370
    25
100
AcDbPolyline
 90
        3
 70
   128
 43
0.0
 10
7382.8748202574
 20
6349.7412404278
 10
7382.5931649511
 20
6349.9067069737
 10
7382.3127372277
 20
6350.0720765417
  0
LWPOLYLINE
  5
D1
330
1F
100
AcDbEntity
  8
0
  6
Continuous
 62
     7
370
    25
100
AcDbPolyline
 90
        3
 70
   128
 43
0.0
 10
7382.8748202574
 20
6348.6829070945
 10
7382.5925682388
 20
6348.8484221356
 10
7382.3127372277
 20
6349.0137432084
  0
LWPOLYLINE
  5
D2
330
1F
100
AcDbEntity
  8
0
  6
Continuous
 62
     7
370
    25
100
AcDbPolyline
 90
        3
 70
   128
 43
0.0
 10
7382.8748202574
 20
6347.6245737612
 10
7382.5919706954
 20
6347.7901373014
 10
7382.3127372277
 20
6347.955409875
  0
LWPOLYLINE
  5
D3
330
1F
100
AcDbEntity
  8
0
  6
Continuous
 62
     7
370
    25
100
AcDbPolyline
 90
        3
 70
   128
 43
0.0
 10
7382.8748202574
 20
6346.5662404278
 10
7382.5913723211
 20
6346.7318524711
 10
7382.3127372277
 20
6346.8970765417
  0
LWPOLYLINE
  5
D4
330
1F
100
AcDbEntity
  8
0
  6
Continuous
 62
     7
370
    25
100
AcDbPolyline
 90
        3
 70
   128
 43
0.0
 10
7382.8748202574
 20
6345.5079070945
 10
7382.5907731159
 20
6345.6735676447
 10
7382.3127372277
 20
6345.8387432084
  0
LWPOLYLINE
  5
D5
330
1F
100
AcDbEntity
  8
0
  6
Continuous
 62
     7
370
    25
100
AcDbPolyline
 90
        3
 70
   128
 43
0.0
 10
7382.8748202574
 20
6344.4495737612
 10
7382.5901730796
 20
6344.6152828222
 10
7382.3127372277
 20
6344.780409875
  0
LWPOLYLINE
  5
D6
330
1F
100
AcDbEntity
  8
0
  6
Continuous
 62
     7
370
    25
100
AcDbPolyline
 90
        3
 70
   128
 43
0.0
 10
7382.8748202574
 20
6350.7995737612
 10
7382.5937608325
 20
6350.9649918157
 10
7382.3127372277
 20
6351.130409875
  0
LWPOLYLINE
  5
D7
330
1F
100
AcDbEntity
  8
0
  6
Continuous
 62
     7
370
    25
100
AcDbPolyline
 90
        3
 70
   128
 43
0.0
 10
7362.6722307488
 20
6351.6300831486
 10
7362.3857041958
 20
6351.4645931378
 10
7362.0991715417
 20
6351.2991031822
  0
LINE
  5
D8
330
1F
100
AcDbEntity
  8
0
  6
Continuous
 62
     7
370
    25
100
AcDbLine
 10
7383.0953860435
 20
6351.6917007426
 30
0.0
 11
7383.0953860435
 21
6351.75
 31
0.0
  0
LINE
  5
D9
330
1F
100
AcDbEntity
  8
0
  6
Continuous
 62
     7
370
    25
100
AcDbLine
 10
7383.0953860435
 20
6350.6333674093
 30
0.0
 11
7383.0953860435
 21
6350.7656788093
 31
0.0
  0
LINE
  5
DA
330
1F
100
AcDbEntity
  8
0
  6
Continuous
 62
     7
370
    25
100
AcDbLine
 10
7383.0953860435
 20
6349.5750340759
 30
0.0
 11
7383.0953860435
 21
6349.7073454759
 31
0.0
  0
LINE
  5
DB
330
1F
100
AcDbEntity
  8
0
  6
Continuous
 62
     7
370
    25
100
AcDbLine
 10
7383.0953860435
 20
6348.5167007426
 30
0.0
 11
7383.0953860435
 21
6348.6490121426
 31
0.0
  0
LINE
  5
DC
330
1F
100
AcDbEntity
  8
0
  6
Continuous
 62
     7
370
    25
100
AcDbLine
 10
7383.0953860435
 20
6347.4583674093
 30
0.0
 11
7383.0953860435
 21
6347.5906788093
 31
0.0
  0
LINE
  5
DD
330
1F
100
AcDbEntity
  8
0
  6
Continuous
 62
     7
370
    25
100
AcDbLine
 10
7383.0953860435
 20
6346.4000340759
 30
0.0
 11
7383.0953860435
 21
6346.5323454759
 31
0.0
  0
LINE
  5
DE
330
1F
100
AcDbEntity
  8
0
  6
Continuous
 62
     7
370
    25
100
AcDbLine
 10
7383.0953860435
 20
6345.3417007426
 30
0.0
 11
7383.0953860435
 21
6345.4740121426
 31
0.0
  0
LINE
  5
DF
330
1F
100
AcDbEntity
  8
0
  6
Continuous
 62
     7
370
    25
100
AcDbLine
 10
7383.0953860435
 20
6344.25
 30
0.0
 11
7383.0953860435
 21
6344.4156788093
 31
0.0
  0
LINE
  5
E0
330
1F
100
AcDbEntity
  8
0
  6
Continuous
 62
     7
370
    25
100
AcDbLine
 10
7362.0953860435
 20
6344.9447662579
 30
0.0
 11
7362.0953860435
 21
6344.8124455723
 31
0.0
  0
LINE
  5
E1
330
1F
100
AcDbEntity
  8
0
  6
Continuous
 62
     7
370
    25
100
AcDbLine
 10
7362.0953860435
 20
6346.0030995912
 30
0.0
 11
7362.0953860435
 21
6345.8707789057
 31
0.0
  0
LINE
  5
E2
330
1F
100
AcDbEntity
  8
0
  6
Continuous
 62
     7
370
    25
100
AcDbLine
 10
7362.0953860435
 20
6347.0614329245
 30
0.0
 11
7362.0953860435
 21
6346.929112239
 31
0.0
  0
LINE
  5
E3
330
1F
100
AcDbEntity
  8
0
  6
Continuous
 62
     7
370
    25
100
AcDbLine
 10
7362.0953860435
 20
6348.1197662579
 30
0.0
 11
7362.0953860435
 21
6347.9874455723
 31
0.0
  0
LINE
  5
E4
330
1F
100
AcDbEntity
  8
0
  6
Continuous
 62
     7
370
    25
100
AcDbLine
 10
7362.0953860435
 20
6349.1780995912
 30
0.0
 11
7362.0953860435
 21
6349.0457789057
 31
0.0
  0
LINE
  5
E5
330
1F
100
AcDbEntity
  8
0
  6
Continuous
 62
     7
370
    25
100
AcDbLine
 10
7362.0953860435
 20
6350.2364329245
 30
0.0
 11
7362.0953860435
 21
6350.104112239
 31
0.0
  0
LINE
  5
E6
330
1F
100
AcDbEntity
  8
0
  6
Continuous
 62
     7
370
    25
100
AcDbLine
 10
7362.0953860435
 20
6351.2947662579
 30
0.0
 11
7362.0953860435
 21
6351.1624455723
 31
0.0
  0
LINE
  5
E7
330
1F
100
AcDbEntity
  8
0
  6
Continuous
 62
     7
370
    25
100
AcDbLine
 10
7398.236484072
 20
6341.45
 30
0.0
 11
7386.5953860435
 21
6341.45
 31
0.0
  0
LINE
  5
E8
330
1F
100
AcDbEntity
  8
0
  6
Continuous
 62
     7
370
    25
100
AcDbLine
 10
7386.5953860435
 20
6321.05
 30
0.0
 11
7398.236484072
 21
6321.05
 31
0.0
  0
LINE
  5
E9
330
1F
100
AcDbEntity
  8
0
  6
Continuous
 62
     7
370
    25
100
AcDbLine
 10
7405.5953860435
 20
6341.45
 30
0.0
 11
7405.2401412235
 21
6341.45
 31
0.0
  0
LINE
  5
EA
330
1F
100
AcDbEntity
  8
0
  6
Continuous
 62
     7
370
    25
100
AcDbLine
 10
7405.2401412235
 20
6321.05
 30
0.0
 11
7405.5953860435
 21
6321.05
 31
0.0
  0
LWPOLYLINE
  5
EB
330
1F
100
AcDbEntity
  8
0
  6
Continuous
 62
     7
370
    25
100
AcDbPolyline
 90
        3
 70
   128
 43
0.0
 10
7382.5225463258
 20
6351.0963541681
 10
7382.5225459447
 20
6351.228690083
 10
7382.5225463258
 20
6351.3609375014
  0
LWPOLYLINE
  5
EC
330
1F
100
AcDbEntity
  8
0
  6
Continuous
 62
     7
370
    25
100
AcDbPolyline
 90
        3
 70
   128
 43
0.0
 10
7382.5225463258
 20
6350.0380208348
 10
7382.5225448015
 20
6350.1704010054
 10
7382.5225463258
 20
6350.3026041681
  0
LWPOLYLINE
  5
ED
330
1F
100
AcDbEntity
  8
0
  6
Continuous
 62
     7
370
    25
100
AcDbPolyline
 90
        3
 70
   128
 43
0.0
 10
7382.5225463258
 20
6348.9796875014
 10
7382.522542896
 20
6349.1121119352
 10
7382.5225463258
 20
6349.2442708348
  0
LWPOLYLINE
  5
EE
330
1F
100
AcDbEntity
  8
0
  6
Continuous
 62
     7
370
    25
100
AcDbPolyline
 90
        3
 70
   128
 43
0.0
 10
7382.5225463258
 20
6347.9213541681
 10
7382.522540228
 20
6348.0538228726
 10
7382.5225463258
 20
6348.1859375014
  0
LWPOLYLINE
  5
EF
330
1F
100
AcDbEntity
  8
0
  6
Continuous
 62
     7
370
    25
100
AcDbPolyline
 90
        3
 70
   128
 43
0.0
 10
7382.5225463258
 20
6346.8630208348
 10
7382.5225367975
 20
6346.9955338175
 10
7382.5225463258
 20
6347.1276041681
  0
LWPOLYLINE
  5
F0
330
1F
100
AcDbEntity
  8
0
  6
Continuous
 62
     7
370
    25
100
AcDbPolyline
 90
        3
 70
   128
 43
0.0
 10
7382.5225463258
 20
6345.8046875014
 10
7382.5225326043
 20
6345.9372447699
 10
7382.5225463258
 20
6346.0692708348
  0
LWPOLYLINE
  5
F1
330
1F
100
AcDbEntity
  8
0
  6
Continuous
 62
     7
370
    25
100
AcDbPolyline
 90
        3
 70
   128
 43
0.0
 10
7382.5225463258
 20
6344.7463541681
 10
7382.5225276482
 20
6344.8789557298
 10
7382.5225463258
 20
6345.0109375014
  0
LWPOLYLINE
  5
F2
330
1F
100
AcDbEntity
  8
0
  6
Continuous
 62
     7
370
    25
100
AcDbPolyline
 90
        3
 70
   128
 43
0.0
 10
7362.6682257612
 20
6350.8317712595
 10
7362.6682261496
 20
6350.6995238412
 10
7362.6682257678
 20
6350.5694366372
  0
LWPOLYLINE
  5
F3
330
1F
100
AcDbEntity
  8
0
  6
Continuous
 62
     7
370
    25
100
AcDbPolyline
 90
        3
 70
   128
 43
0.0
 10
7362.6682257612
 20
6349.7734379262
 10
7362.6682273001
 20
6349.6412347636
 10
7362.6682257874
 20
6349.5111032998
  0
LWPOLYLINE
  5
F4
330
1F
100
AcDbEntity
  8
0
  6
Continuous
 62
     7
370
    25
100
AcDbPolyline
 90
        3
 70
   128
 43
0.0
 10
7362.6682257612
 20
6348.7151045929
 10
7362.668229213
 20
6348.5829456936
 10
7362.6682258198
 20
6348.4527699634
  0
LWPOLYLINE
  5
F5
330
1F
100
AcDbEntity
  8
0
  6
Continuous
 62
     7
370
    25
100
AcDbPolyline
 90
        3
 70
   128
 43
0.0
 10
7362.6682257612
 20
6347.6567712596
 10
7362.6682318883
 20
6347.524656631
 10
7362.6682258652
 20
6347.3944366282
  0
LWPOLYLINE
  5
F6
330
1F
100
AcDbEntity
  8
0
  6
Continuous
 62
     7
370
    25
100
AcDbPolyline
 90
        3
 70
   128
 43
0.0
 10
7362.6682257612
 20
6346.5984379262
 10
7362.6682353261
 20
6346.466367576
 10
7362.6682259235
 20
6346.3361032941
  0
LWPOLYLINE
  5
F7
330
1F
100
AcDbEntity
  8
0
  6
Continuous
 62
     7
370
    25
100
AcDbPolyline
 90
        3
 70
   128
 43
0.0
 10
7362.6682257612
 20
6345.5401045929
 10
7362.6682395267
 20
6345.4080785284
 10
7362.6682259947
 20
6345.2777699611
  0
LWPOLYLINE
  5
F8
330
1F
100
AcDbEntity
  8
0
  6
Continuous
 62
     7
370
    25
100
AcDbPolyline
 90
        3
 70
   128
 43
0.0
 10
7362.6682257612
 20
6344.4817712596
 10
7362.66824449
 20
6344.3497894884
 10
7362.6682306967
 20
6344.2521312797
  0
LINE
  5
F9
330
1F
100
AcDbEntity
  8
0
  6
Continuous
 62
     7
370
    25
100
AcDbLine
 10
7362.6682257612
 20
6351.8901045929
 30
0.0
 11
7362.6682257612
 21
6351.6277699758
 31
0.0
  0
LINE
  5
FA
330
1F
100
AcDbEntity
  8
0
  6
Continuous
 62
     7
370
    25
100
AcDbLine
 10
7417.1529362916
 20
6322.3075502481
 30
0.0
 11
7417.5953860435
 21
6322.75
 31
0.0
  0
LINE
  5
FB
330
1F
100
AcDbEntity
  8
0
  6
Continuous
 62
     7
370
    25
100
AcDbLine
 10
7416.1308369205
 20
6321.2854508771
 30
0.0
 11
7416.782443433
 21
6321.9370573895
 31
0.0
  0
LINE
  5
FC
330
1F
100
AcDbEntity
  8
0
  6
Continuous
 62
     7
370
    25
100
AcDbLine
 10
7417.5953860435
 20
6339.75
 30
0.0
 11
7416.7509080149
 21
6340.5944780285
 31
0.0
  0
LWPOLYLINE
  5
FD
330
1F
100
AcDbEntity
  8
0
  6
Continuous
 62
     7
370
    25
100
AcDbPolyline
 90
        3
 70
   128
 43
0.0
 10
7415.0425014308
 20
6322.3075502481
 10
7415.2865612897
 20
6322.3075516926
 10
7415.5220622034
 20
6322.3075503007
  0
LWPOLYLINE
  5
FE
330
1F
100
AcDbEntity
  8
0
  6
Continuous
 62
     7
370
    25
100
AcDbPolyline
 90
        3
 70
   128
 43
0.0
 10
7413.0886552769
 20
6322.3075502481
 10
7413.3325441786
 20
6322.3075560266
 10
7413.5682160066
 20
6322.3075504584
  0
LWPOLYLINE
  5
FF
330
1F
100
AcDbEntity
  8
0
  6
Continuous
 62
     7
370
    25
100
AcDbPolyline
 90
        3
 70
   128
 43
0.0
 10
7411.1348091231
 20
6322.3075502481
 10
7411.3785270207
 20
6322.3075632508
 10
7411.6143698017
 20
6322.307550721
  0
LWPOLYLINE
  5
100
330
1F
100
AcDbEntity
  8
0
  6
Continuous
 62
     7
370
    25
100
AcDbPolyline
 90
        3
 70
   128
 43
0.0
 10
7409.1809629692
 20
6322.3075502481
 10
7409.4245098162
 20
6322.3075733661
 10
7409.6605235888
 20
6322.3075510883
  0
LWPOLYLINE
  5
101
330
1F
100
AcDbEntity
  8
0
  6
Continuous
 62
     7
370
    25
100
AcDbPolyline
 90
        3
 70
   128
 43
0.0
 10
7407.2271168154
 20
6322.3075502481
 10
7407.4704925649
 20
6322.3075863732
 10
7407.7066773683
 20
6322.3075515601
  0
LWPOLYLINE
  5
102
330
1F
100
AcDbEntity
  8
0
  6
Continuous
 62
     7
370
    25
100
AcDbPolyline
 90
        3
 70
   128
 43
0.0
 10
7414.5540389909
 20
6340.1924497519
 10
7414.3096373111
 20
6340.1924482922
 10
7414.0744782617
 20
6340.1924496986
  0
LWPOLYLINE
  5
103
330
1F
100
AcDbEntity
  8
0
  6
Continuous
 62
     7
370
    25
100
AcDbPolyline
 90
        3
 70
   128
 43
0.0
 10
7412.6001928371
 20
6340.1924497519
 10
7412.3556201998
 20
6340.1924439429
 10
7412.120632094
 20
6340.1924495399
  0
LWPOLYLINE
  5
104
330
1F
100
AcDbEntity
  8
0
  6
Continuous
 62
     7
370
    25
100
AcDbPolyline
 90
        3
 70
   128
 43
0.0
 10
7410.6463466832
 20
6340.1924497519
 10
7410.4016030417
 20
6340.1924367034
 10
7410.1667859365
 20
6340.1924492753
  0
LWPOLYLINE
  5
105
330
1F
100
AcDbEntity
  8
0
  6
Continuous
 62
     7
370
    25
100
AcDbPolyline
 90
        3
 70
   128
 43
0.0
 10
7408.6925005294
 20
6340.1924497519
 10
7408.4475858369
 20
6340.1924265729
 10
7408.2129397894
 20
6340.1924489048
  0
LINE
  5
106
330
1F
100
AcDbEntity
  8
0
  6
Continuous
 62
     7
370
    25
100
AcDbLine
 10
7416.5078851448
 20
6340.1924497519
 30
0.0
 11
7416.0283244392
 21
6340.1924497519
 31
0.0
  0
LINE
  5
107
330
1F
100
AcDbEntity
  8
0
  6
Continuous
 62
     7
370
    25
100
AcDbLine
 10
7357.5953860435
 20
6340.25
 30
0.0
 11
7353.5953860435
 21
6340.25
 31
0.0
  0
LINE
  5
108
330
1F
100
AcDbEntity
  8
0
  6
Continuous
 62
     7
370
    25
100
AcDbLine
 10
7353.5953860435
 20
6322.25
 30
0.0
 11
7357.5953860435
 21
6322.25
 31
0.0
  0
LINE
  5
109
330
1F
100
AcDbEntity
  8
0
  6
Continuous
 62
     7
370
    25
100
AcDbLine
 10
7364.607879968
 20
6339.45
 30
0.0
 11
7357.5953860435
 21
6339.45
 31
0.0
  0
LINE
  5
10A
330
1F
100
AcDbEntity
  8
0
  6
Continuous
 62
     7
370
    25
100
AcDbLine
 10
7386.5953860435
 20
6339.45
 30
0.0
 11
7380.5953860435
 21
6339.45
 31
0.0
  0
LINE
  5
10B
330
1F
100
AcDbEntity
  8
0
  6
Continuous
 62
     7
370
    25
100
AcDbLine
 10
7380.5895436548
 20
6323.05
 30
0.0
 11
7386.5953860435
 21
6323.05
 31
0.0
  0
LINE
  5
10C
330
1F
100
AcDbEntity
  8
0
  6
Continuous
 62
     7
370
    25
100
AcDbLine
 10
7357.5953860435
 20
6323.05
 30
0.0
 11
7380.3600919258
 21
6323.05
 31
0.0
  0
LINE
  5
10D
330
1F
100
AcDbEntity
  8
0
  6
Continuous
 62
     7
370
    25
100
AcDbLine
 10
7380.5953860435
 20
6339.45
 30
0.0
 11
7380.5953860435
 21
6344.25
 31
0.0
  0
LINE
  5
10E
330
1F
100
AcDbEntity
  8
0
  6
Continuous
 62
     7
370
    25
100
AcDbLine
 10
7364.5953860435
 20
6344.25
 30
0.0
 11
7364.5953860435
 21
6339.4378123071
 31
0.0
  0
LINE
  5
10F
330
1F
100
AcDbEntity
  8
0
  6
Continuous
 62
     7
370
    25
100
AcDbLine
 10
7349.5953860435
 20
6342.7860549415
 30
0.0
 11
7334.2908636065
 21
6342.7860549415
 31
0.0
  0
LINE
  5
110
330
1F
100
AcDbEntity
  8
0
  6
Continuous
 62
     7
370
    25
100
AcDbLine
 10
7334.2858738997
 20
6319.7139450585
 30
0.0
 11
7349.5953860435
 21
6319.7139450585
 31
0.0
  0
LINE
  5
111
330
1F
100
AcDbEntity
  8
0
  6
Continuous
 62
     7
370
    25
100
AcDbLine
 10
7334.5953860435
 20
6344.75
 30
0.0
 11
7332.5953860435
 21
6342.75
 31
0.0
  0
LINE
  5
112
330
1F
100
AcDbEntity
  8
0
  6
Continuous
 62
     7
370
    25
100
AcDbLine
 10
7332.5953860435
 20
6319.75
 30
0.0
 11
7334.5953860435
 21
6317.75
 31
0.0
  0
LINE
  5
113
330
1F
100
AcDbEntity
  8
0
  6
Continuous
 62
     7
370
    25
100
AcDbLine
 10
7349.5953860435
 20
6344.75
 30
0.0
 11
7334.5953860435
 21
6344.75
 31
0.0
  0
LINE
  5
114
330
1F
100
AcDbEntity
  8
0
  6
Continuous
 62
     7
370
    25
100
AcDbLine
 10
7334.5953860435
 20
6317.75
 30
0.0
 11
7349.5953860435
 21
6317.75
 31
0.0
  0
LINE
  5
115
330
1F
100
AcDbEntity
  8
0
  6
Continuous
 62
     7
370
    25
100
AcDbLine
 10
7405.2401412235
 20
6359.371004053
 30
0.0
 11
7405.2401412235
 21
6303.128995947
 31
0.0
  0
LINE
  5
116
330
1F
100
AcDbEntity
  8
0
  6
Continuous
 62
     7
370
    25
100
AcDbLine
 10
7398.4021418055
 20
6347.8687509553
 30
0.0
 11
7398.4021418055
 21
6314.6312490447
 31
0.0
  0
LINE
  5
117
330
1F
100
AcDbEntity
  8
0
  6
Continuous
 62
     7
370
    25
100
AcDbLine
 10
7332.5953860435
 20
6338.0095304014
 30
0.0
 11
7332.5953860435
 21
6331.25
 31
0.0
  0
ARC
  5
118
330
1F
100
AcDbEntity
  8
0
  6
Continuous
 62
     7
370
    25
100
AcDbCircle
 10
7333.4102924832
 20
6337.9983757448
 30
0.0
 40
0.8149827801207021
100
AcDbArc
 50
179.215769072
 51
274.5401379233
  0
ARC
  5
119
330
1F
100
AcDbEntity
  8
0
  6
Continuous
 62
     7
370
    25
100
AcDbCircle
 10
7333.4176642769
 20
6336.0023553202
 30
0.0
 40
1.184973427553329
100
AcDbArc
 50
353.6580356263
 51
87.2360893699
  0
LINE
  5
11A
330
1F
100
AcDbEntity
  8
0
  6
Continuous
 62
     7
370
    25
100
AcDbLine
 10
7334.5953860435
 20
6335.8714604596
 30
0.0
 11
7334.5953860435
 21
6334.9668191779
 31
0.0
  0
ARC
  5
11B
330
1F
100
AcDbEntity
  8
0
  6
Continuous
 62
     7
370
    25
100
AcDbCircle
 10
7331.915424125
 20
6335.013152885
 30
0.0
 40
2.680362418929087
100
AcDbArc
 50
305.5758116379
 51
359.009515251
  0
ARC
  5
11C
330
1F
100
AcDbEntity
  8
0
  6
Continuous
 62
     7
370
    25
100
AcDbCircle
 10
7334.5348989301
 20
6331.208392412
 30
0.0
 40
1.939959130642925
100
AcDbArc
 50
123.1239419453
 51
178.771045246
  0
LINE
  5
11D
330
1F
100
AcDbEntity
  8
0
  6
Continuous
 62
     7
370
    25
100
AcDbLine
 10
7334.5953860435
 20
6334.9668191779
 30
0.0
 11
7349.5953860435
 21
6334.9668191779
 31
0.0
  0
LINE
  5
11E
330
1F
100
AcDbEntity
  8
0
  6
Continuous
 62
     7
370
    25
100
AcDbLine
 10
7349.5953860435
 20
6334.9668191779
 30
0.0
 11
7349.5953860435
 21
6332.8330896499
 31
0.0
  0
LINE
  5
11F
330
1F
100
AcDbEntity
  8
0
  6
Continuous
 62
     7
370
    25
100
AcDbLine
 10
7349.5953860435
 20
6332.8330896499
 30
0.0
 11
7333.4748044466
 21
6332.8330896499
 31
0.0
  0
LINE
  5
120
330
1F
100
AcDbEntity
  8
0
  6
Continuous
 62
     7
370
    25
100
AcDbLine
 10
7332.5953860435
 20
6331.25
 30
0.0
 11
7332.5953860435
 21
6324.4904695986
 31
0.0
  0
ARC
  5
121
330
1F
100
AcDbEntity
  8
0
  6
Continuous
 62
     7
370
    25
100
AcDbCircle
 10
7334.5543540307
 20
6331.3024150451
 30
0.0
 40
1.959669082210361
100
AcDbArc
 50
181.532666452
 51
236.5723463568
  0
ARC
  5
122
330
1F
100
AcDbEntity
  8
0
  6
Continuous
 62
     7
370
    25
100
AcDbCircle
 10
7331.9055527968
 20
6327.4816629393
 30
0.0
 40
2.690326557729912
100
AcDbArc
 50
1.0972414017
 51
54.3174317094
  0
LINE
  5
123
330
1F
100
AcDbEntity
  8
0
  6
Continuous
 62
     7
370
    25
100
AcDbLine
 10
7334.5953860435
 20
6327.5331808221
 30
0.0
 11
7334.5953860435
 21
6326.6285395404
 31
0.0
  0
ARC
  5
124
330
1F
100
AcDbEntity
  8
0
  6
Continuous
 62
     7
370
    25
100
AcDbCircle
 10
7333.4059539582
 20
6326.5076275397
 30
0.0
 40
1.195561958828619
100
AcDbArc
 50
273.3013982215
 51
5.8044767824
  0
LWPOLYLINE
  5
125
330
1F
100
AcDbEntity
  8
0
  6
Continuous
 62
     7
370
    25
100
AcDbPolyline
 90
        5
 70
   128
 43
0.0
 10
7332.5953860435
 20
6324.4904695986
 10
7332.6057822492
 20
6324.6373949063
 10
7332.7061827299
 20
6324.9270670035
 10
7332.9728663619
 20
6325.1847859534
 10
7333.4748044466
 20
6325.3140497217
  0
LINE
  5
126
330
1F
100
AcDbEntity
  8
0
  6
Continuous
 62
     7
370
    25
100
AcDbLine
 10
7349.5953860435
 20
6327.5331808221
 30
0.0
 11
7334.5953860435
 21
6327.5331808221
 31
0.0
  0
LINE
  5
127
330
1F
100
AcDbEntity
  8
0
  6
Continuous
 62
     7
370
    25
100
AcDbLine
 10
7333.4748044466
 20
6329.6669103501
 30
0.0
 11
7349.5953860435
 21
6329.6669103501
 31
0.0
  0
LINE
  5
128
330
1F
100
AcDbEntity
  8
0
  6
Continuous
 62
     7
370
    25
100
AcDbLine
 10
7349.5953860435
 20
6329.6669103501
 30
0.0
 11
7349.5953860435
 21
6327.5331808221
 31
0.0
  0
LINE
  5
129
330
1F
100
AcDbEntity
  8
0
  6
Continuous
 62
     7
370
    25
100
AcDbLine
 10
7349.5953860435
 20
6335.8714604596
 30
0.0
 11
7334.5953860435
 21
6335.8714604596
 31
0.0
  0
LINE
  5
12A
330
1F
100
AcDbEntity
  8
0
  6
Continuous
 62
     7
370
    25
100
AcDbLine
 10
7349.5953860435
 20
6335.8714604596
 30
0.0
 11
7349.5953860435
 21
6334.9668191779
 31
0.0
  0
LINE
  5
12B
330
1F
100
AcDbEntity
  8
0
  6
Continuous
 62
     7
370
    25
100
AcDbLine
 10
7334.5953860435
 20
6326.6285395404
 30
0.0
 11
7349.5953860435
 21
6326.6285395404
 31
0.0
  0
LINE
  5
12C
330
1F
100
AcDbEntity
  8
0
  6
Continuous
 62
     7
370
    25
100
AcDbLine
 10
7349.5953860435
 20
6327.5331808221
 30
0.0
 11
7349.5953860435
 21
6326.6285395404
 31
0.0
  0
LINE
  5
12D
330
1F
100
AcDbEntity
  8
0
  6
Continuous
 62
     7
370
    25
100
AcDbLine
 10
7333.4748044466
 20
6337.1859502783
 30
0.0
 11
7349.5953860435
 21
6337.1859502783
 31
0.0
  0
LINE
  5
12E
330
1F
100
AcDbEntity
  8
0
  6
Continuous
 62
     7
370
    25
100
AcDbLine
 10
7349.5953860435
 20
6337.1859502783
 30
0.0
 11
7349.5953860435
 21
6335.8714604596
 31
0.0
  0
LINE
  5
12F
330
1F
100
AcDbEntity
  8
0
  6
Continuous
 62
     7
370
    25
100
AcDbLine
 10
7349.5953860435
 20
6325.3140497217
 30
0.0
 11
7333.4748044466
 21
6325.3140497217
 31
0.0
  0
LINE
  5
130
330
1F
100
AcDbEntity
  8
0
  6
Continuous
 62
     7
370
    25
100
AcDbLine
 10
7349.5953860435
 20
6326.6285395404
 30
0.0
 11
7349.5953860435
 21
6325.3140497217
 31
0.0
  0
LINE
  5
131
330
1F
100
AcDbEntity
  8
0
  6
Continuous
 62
     7
370
    25
100
AcDbLine
 10
7349.5953860435
 20
6331.25
 30
0.0
 11
7349.5953860435
 21
6329.6669103501
 31
0.0
  0
LINE
  5
132
330
1F
100
AcDbEntity
  8
0
  6
Continuous
 62
     7
370
    25
100
AcDbLine
 10
7349.5953860435
 20
6332.8330896499
 30
0.0
 11
7349.5953860435
 21
6331.25
 31
0.0
  0
LINE
  5
133
330
1F
100
AcDbEntity
  8
0
  6
Continuous
 62
     7
370
    25
100
AcDbLine
 10
7353.5953860435
 20
6342.75
 30
0.0
 11
7353.5953860435
 21
6319.75
 31
0.0
  0
ARC
  5
134
330
1F
100
AcDbEntity
  8
0
  6
Continuous
 62
     7
370
    25
100
AcDbCircle
 10
7335.2854528637
 20
6337.7397610675
 30
0.0
 40
2.703559688731229
100
AcDbArc
 50
132.0460407616
 51
174.273324409
  0
LINE
  5
135
330
1F
100
AcDbEntity
  8
0
  6
Continuous
 62
     7
370
    25
100
AcDbLine
 10
7349.5953860435
 20
6339.7474431391
 30
0.0
 11
7333.4748044466
 21
6339.7474431391
 31
0.0
  0
LINE
  5
136
330
1F
100
AcDbEntity
  8
0
  6
Continuous
 62
     7
370
    25
100
AcDbLine
 10
7349.5953860435
 20
6339.7474431391
 30
0.0
 11
7349.5953860435
 21
6338.0095304014
 31
0.0
  0
LINE
  5
137
330
1F
100
AcDbEntity
  8
0
  6
Continuous
 62
     7
370
    25
100
AcDbLine
 10
7349.5953860435
 20
6338.0095304014
 30
0.0
 11
7349.5953860435
 21
6337.1859502783
 31
0.0
  0
LINE
  5
138
330
1F
100
AcDbEntity
  8
0
  6
Continuous
 62
     7
370
    25
100
AcDbLine
 10
7349.5953860435
 20
6324.4904695986
 30
0.0
 11
7349.5953860435
 21
6322.7525568609
 31
0.0
  0
LINE
  5
139
330
1F
100
AcDbEntity
  8
0
  6
Continuous
 62
     7
370
    25
100
AcDbLine
 10
7333.4748044466
 20
6322.7525568609
 30
0.0
 11
7349.5953860435
 21
6322.7525568609
 31
0.0
  0
ARC
  5
13A
330
1F
100
AcDbEntity
  8
0
  6
Continuous
 62
     7
370
    25
100
AcDbCircle
 10
7335.4145548407
 20
6324.8255671
 30
0.0
 40
2.839014449141089
100
AcDbArc
 50
186.7785971942
 51
226.9020376352
  0
LINE
  5
13B
330
1F
100
AcDbEntity
  8
0
  6
Continuous
 62
     7
370
    25
100
AcDbLine
 10
7349.5953860435
 20
6325.3140497217
 30
0.0
 11
7349.5953860435
 21
6324.4904695986
 31
0.0
  0
LWPOLYLINE
  5
13C
330
1F
100
AcDbEntity
  8
0
  6
Continuous
 62
     7
370
    25
100
AcDbPolyline
 90
        3
 70
   128
 43
0.0
 10
7416.0953860435
 20
6321.3628932434
 10
7416.1202280204
 20
6321.277502152
 10
7416.1246998336
 20
6321.291587964
  0
LWPOLYLINE
  5
13D
330
1F
100
AcDbEntity
  8
0
  6
Continuous
 62
     7
370
    25
100
AcDbPolyline
 90
       14
 70
   128
 43
0.0
 10
7416.7439409789
 20
6340.5875109925
 10
7416.7477273358
 20
6340.5958739399
 10
7416.7805341608
 20
6340.4022334419
 10
7416.815179116
 20
6339.9341811021
 10
7416.8482703997
 20
6339.2422731422
 10
7416.881517263
 20
6338.3018316172
 10
7416.9146140871
 20
6337.1933712225
 10
7416.9492561357
 20
6335.8820454813
 10
7416.9821212024
 20
6334.4959570956
 10
7417.0154601792
 20
6332.980725555
 10
7417.0487588116
 20
6331.4713637851
 10
7417.0833055077
 20
6329.9171241008
 10
7417.1174122006
 20
6328.3946135713
 10
7417.1529362916
 20
6326.9213028893
  0
ARC
  5
13E
330
1F
100
AcDbEntity
  8
0
  6
Continuous
 62
     7
370
    25
100
AcDbCircle
 10
7221.1446770111
 20
6324.0190925799
 30
0.0
 40
196.0297439951802
100
AcDbArc
 50
0.8482920691
 51
4.7259272093
  0
LWPOLYLINE
  5
13F
330
1F
100
AcDbEntity
  8
0
  6
Continuous
 62
     7
370
    25
100
AcDbPolyline
 90
       21
 70
   128
 43
0.0
 10
7415.5129320706
 20
6322.3370988044
 10
7415.5063908048
 20
6322.3366926635
 10
7415.4539819877
 20
6322.5824581719
 10
7415.4006996404
 20
6323.075186158
 10
7415.348786029
 20
6323.7930207452
 10
7415.2981727817
 20
6324.7106023866
 10
7415.2487417191
 20
6325.7484360688
 10
7415.1990901377
 20
6326.9213028893
 10
7415.1504605524
 20
6328.1994070643
 10
7415.1028424539
 20
6329.5431664394
 10
7415.0531781994
 20
6330.9479920762
 10
7415.0031142658
 20
6332.3641232195
 10
7414.9545125708
 20
6333.7388928191
 10
7414.9068759492
 20
6335.04393766
 10
7414.8540271888
 20
6336.3468456966
 10
7414.800886335
 20
6337.5076836806
 10
7414.7496761307
 20
6338.4801930149
 10
7414.6984961743
 20
6339.2524503963
 10
7414.6453639556
 20
6339.80871422
 10
7414.5925009263
 20
6340.1219096669
 10
7414.554102549
 20
6340.1698984802
  0
LWPOLYLINE
  5
140
330
1F
100
AcDbEntity
  8
0
  6
Continuous
 62
     7
370
    25
100
AcDbPolyline
 90
       21
 70
   128
 43
0.0
 10
7413.5590816917
 20
6322.3370985421
 10
7413.5525446509
 20
6322.3366926635
 10
7413.5001358339
 20
6322.5824581719
 10
7413.4468534866
 20
6323.075186158
 10
7413.3949398751
 20
6323.7930207452
 10
7413.3443266279
 20
6324.7106023866
 10
7413.2948955652
 20
6325.7484360688
 10
7413.2452439839
 20
6326.9213028893
 10
7413.1966143986
 20
6328.1994070643
 10
7413.1489963
 20
6329.5431664394
 10
7413.0993320456
 20
6330.9479920762
 10
7413.049268112
 20
6332.3641232195
 10
7413.000666417
 20
6333.7388928191
 10
7412.9530297953
 20
6335.04393766
 10
7412.900181035
 20
6336.3468456966
 10
7412.8470401812
 20
6337.5076836806
 10
7412.7958299768
 20
6338.4801930149
 10
7412.7446500204
 20
6339.2524503963
 10
7412.6915178017
 20
6339.80871422
 10
7412.6386547724
 20
6340.1219096669
 10
7412.6002447528
 20
6340.1699130304
  0
LWPOLYLINE
  5
141
330
1F
100
AcDbEntity
  8
0
  6
Continuous
 62
     7
370
    25
100
AcDbPolyline
 90
       21
 70
   128
 43
0.0
 10
7411.6052313086
 20
6322.3370982795
 10
7411.5986984971
 20
6322.3366926635
 10
7411.54628968
 20
6322.5824581719
 10
7411.4930073327
 20
6323.075186158
 10
7411.4410937213
 20
6323.7930207452
 10
7411.390480474
 20
6324.7106023866
 10
7411.3410494114
 20
6325.7484360688
 10
7411.29139783
 20
6326.9213028893
 10
7411.2427682447
 20
6328.1994070643
 10
7411.1951501462
 20
6329.5431664394
 10
7411.1454858918
 20
6330.9479920762
 10
7411.0954219581
 20
6332.3641232195
 10
7411.0468202631
 20
6333.7388928191
 10
7410.9991836415
 20
6335.04393766
 10
7410.9463348811
 20
6336.3468456966
 10
7410.8931940273
 20
6337.5076836806
 10
7410.841983823
 20
6338.4801930149
 10
7410.7908038666
 20
6339.2524503963
 10
7410.7376716479
 20
6339.80871422
 10
7410.6848086186
 20
6340.1219096669
 10
7410.6463869407
 20
6340.1699276005
  0
LWPOLYLINE
  5
142
330
1F
100
AcDbEntity
  8
0
  6
Continuous
 62
     7
370
    25
100
AcDbPolyline
 90
       21
 70
   128
 43
0.0
 10
7409.651380921
 20
6322.3370980167
 10
7409.6448523432
 20
6322.3366926635
 10
7409.5924435262
 20
6322.5824581719
 10
7409.5391611789
 20
6323.075186158
 10
7409.4872475675
 20
6323.7930207452
 10
7409.4366343202
 20
6324.7106023866
 10
7409.3872032575
 20
6325.7484360688
 10
7409.3375516762
 20
6326.9213028893
 10
7409.2889220909
 20
6328.1994070643
 10
7409.2413039923
 20
6329.5431664394
 10
7409.1916397379
 20
6330.9479920762
 10
7409.1415758043
 20
6332.3641232195
 10
7409.0929741093
 20
6333.7388928191
 10
7409.0453374876
 20
6335.04393766
 10
7408.9924887273
 20
6336.3468456966
 10
7408.9393478735
 20
6337.5076836806
 10
7408.8881376692
 20
6338.4801930149
 10
7408.8369577128
 20
6339.2524503963
 10
7408.783825494
 20
6339.80871422
 10
7408.7309624647
 20
6340.1219096669
 10
7408.6925291123
 20
6340.1699421908
  0
ARC
  5
143
330
1F
100
AcDbEntity
  8
0
  6
Continuous
 62
     7
370
    25
100
AcDbCircle
 10
7415.3230642818
 20
6323.9526928398
 30
0.0
 40
7.794800350026559
100
AcDbArc
 50
180.5375928316
 51
191.9621657431
  0
LWPOLYLINE
  5
144
330
1F
100
AcDbEntity
  8
0
  6
Continuous
 62
     7
370
    25
100
AcDbPolyline
 90
       20
 70
   128
 43
0.0
 10
7416.0953860435
 20
6321.3628932434
 10
7416.0479013231
 20
6321.7005925473
 10
7416.0002787386
 20
6322.2560586879
 10
7415.9541218216
 20
6323.0075694852
 10
7415.9087497021
 20
6323.9372414217
 10
7415.8559154385
 20
6325.183068016
 10
7415.8027661816
 20
6326.6032825631
 10
7415.7515258322
 20
6328.1359621489
 10
7415.7003756156
 20
6329.7539089717
 10
7415.6472522639
 20
6331.4342888171
 10
7415.5943751936
 20
6333.1068783721
 10
7415.5437159972
 20
6334.7047135817
 10
7415.4918780655
 20
6336.2185929836
 10
7415.4386044959
 20
6337.6056314691
 10
7415.3861363414
 20
6338.8064949413
 10
7415.3356894498
 20
6339.7835455953
 10
7415.2832907162
 20
6340.534506987
 10
7415.2300071108
 20
6341.026532586
 10
7415.1780810734
 20
6341.2401115823
 10
7415.164526047
 20
6341.2230342645
  0
LWPOLYLINE
  5
145
330
1F
100
AcDbEntity
  8
0
  6
Continuous
 62
     7
370
    25
100
AcDbPolyline
 90
       21
 70
   128
 43
0.0
 10
7414.1713514632
 20
6321.2959475855
 10
7414.1415398896
 20
6321.3628932434
 10
7414.0940551693
 20
6321.7005925473
 10
7414.0464325847
 20
6322.2560586879
 10
7414.0002756677
 20
6323.0075694852
 10
7413.9549035483
 20
6323.9372414217
 10
7413.9020692847
 20
6325.183068016
 10
7413.8489200278
 20
6326.6032825631
 10
7413.7976796783
 20
6328.1359621489
 10
7413.7465294618
 20
6329.7539089717
 10
7413.69340611
 20
6331.4342888171
 10
7413.6405290397
 20
6333.1068783721
 10
7413.5898698433
 20
6334.7047135817
 10
7413.5380319117
 20
6336.2185929836
 10
7413.4847583421
 20
6337.6056314691
 10
7413.4322901876
 20
6338.8064949413
 10
7413.3818432959
 20
6339.7835455953
 10
7413.3294445624
 20
6340.534506987
 10
7413.276160957
 20
6341.026532586
 10
7413.2242349195
 20
6341.2401115823
 10
7413.2106798932
 20
6341.2230342645
  0
LWPOLYLINE
  5
146
330
1F
100
AcDbEntity
  8
0
  6
Continuous
 62
     7
370
    25
100
AcDbPolyline
 90
       21
 70
   128
 43
0.0
 10
7412.2174977386
 20
6321.2959645866
 10
7412.1876937358
 20
6321.3628932434
 10
7412.1402090154
 20
6321.7005925473
 10
7412.0925864309
 20
6322.2560586879
 10
7412.0464295139
 20
6323.0075694852
 10
7412.0010573945
 20
6323.9372414217
 10
7411.9482231308
 20
6325.183068016
 10
7411.895073874
 20
6326.6032825631
 10
7411.8438335245
 20
6328.1359621489
 10
7411.7926833079
 20
6329.7539089717
 10
7411.7395599562
 20
6331.4342888171
 10
7411.6866828859
 20
6333.1068783721
 10
7411.6360236895
 20
6334.7047135817
 10
7411.5841857578
 20
6336.2185929836
 10
7411.5309121882
 20
6337.6056314691
 10
7411.4784440338
 20
6338.8064949413
 10
7411.4279971421
 20
6339.7835455953
 10
7411.3755984085
 20
6340.534506987
 10
7411.3223148031
 20
6341.026532586
 10
7411.2703887657
 20
6341.2401115823
 10
7411.2568337393
 20
6341.2230342645
  0
LWPOLYLINE
  5
147
330
1F
100
AcDbEntity
  8
0
  6
Continuous
 62
     7
370
    25
100
AcDbPolyline
 90
       21
 70
   128
 43
0.0
 10
7410.2636440129
 20
6321.2959815902
 10
7410.2338475819
 20
6321.3628932434
 10
7410.1863628616
 20
6321.7005925473
 10
7410.138740277
 20
6322.2560586879
 10
7410.0925833601
 20
6323.0075694852
 10
7410.0472112406
 20
6323.9372414217
 10
7409.994376977
 20
6325.183068016
 10
7409.9412277201
 20
6326.6032825631
 10
7409.8899873706
 20
6328.1359621489
 10
7409.8388371541
 20
6329.7539089717
 10
7409.7857138023
 20
6331.4342888171
 10
7409.732836732
 20
6333.1068783721
 10
7409.6821775357
 20
6334.7047135817
 10
7409.630339604
 20
6336.2185929836
 10
7409.5770660344
 20
6337.6056314691
 10
7409.5245978799
 20
6338.8064949413
 10
7409.4741509882
 20
6339.7835455953
 10
7409.4217522547
 20
6340.534506987
 10
7409.3684686493
 20
6341.026532586
 10
7409.3165426118
 20
6341.2401115823
 10
7409.3029875855
 20
6341.2230342645
  0
ARC
  5
148
330
1F
100
AcDbEntity
  8
0
  6
Continuous
 62
     7
370
    25
100
AcDbCircle
 10
7423.6501607288
 20
6323.8660457726
 30
0.0
 40
15.55416689528113
100
AcDbArc
 50
179.950247337
 51
189.5107160854
  0
LWPOLYLINE
  5
149
330
1F
100
AcDbEntity
  8
0
  6
Continuous
 62
     7
370
    25
100
AcDbPolyline
 90
        8
 70
   128
 43
0.0
 10
7416.782443433
 20
6321.9370573895
 10
7416.6836212669
 20
6321.9259404867
 10
7416.5834298312
 20
6322.0856857026
 10
7416.4600564085
 20
6322.5179038097
 10
7416.3932076247
 20
6322.8649033694
 10
7416.3280728919
 20
6323.284808166
 10
7416.2123868016
 20
6324.2005334154
 10
7416.0953860435
 20
6325.3034631273
  0
ARC
  5
14A
330
1F
100
AcDbEntity
  8
0
  6
Continuous
 62
     7
370
    25
100
AcDbCircle
 10
7063.4071664143
 20
6318.0727821953
 30
0.0
 40
352.7623321897818
100
AcDbArc
 50
1.1744919394
 51
3.7630533277
  0
LWPOLYLINE
  5
14B
330
1F
100
AcDbEntity
  8
0
  6
Continuous
 62
     7
370
    25
100
AcDbPolyline
 90
       23
 70
   128
 43
0.0
 10
7414.498921637
 20
6321.5071219743
 10
7414.4577988007
 20
6321.2860915143
 10
7414.4073523747
 20
6321.2825887744
 10
7414.3549435596
 20
6321.5574187913
 10
7414.3016612129
 20
6322.1084175137
 10
7414.2497476008
 20
6322.9111443635
 10
7414.1991343552
 20
6323.9372407117
 10
7414.1704448886
 20
6324.592987228
 10
7414.1415398896
 20
6325.3034631273
 10
7414.1189472104
 20
6325.8930660727
 10
7414.0665084756
 20
6327.3792928529
 10
7414.0160625148
 20
6328.9535558829
 10
7413.9636336978
 20
6330.6119664405
 10
7413.9103540431
 20
6332.2972904061
 10
7413.8584654447
 20
6333.9386129514
 10
7413.8078374995
 20
6335.4926153061
 10
7413.7549887402
 20
6336.9496076009
 10
7413.701847887
 20
6338.2477283984
 10
7413.6506376828
 20
6339.3352484753
 10
7413.5994577279
 20
6340.1988344463
 10
7413.5463255101
 20
6340.8208830883
 10
7413.4934624812
 20
6341.1711176612
 10
7413.455095793
 20
6341.2247374879
  0
LWPOLYLINE
  5
14C
330
1F
100
AcDbEntity
  8
0
  6
Continuous
 62
     7
370
    25
100
AcDbPolyline
 90
       23
 70
   128
 43
0.0
 10
7412.5450696478
 20
6321.5070906095
 10
7412.5039526468
 20
6321.2860915143
 10
7412.4535062209
 20
6321.2825887744
 10
7412.4010974057
 20
6321.5574187913
 10
7412.3478150591
 20
6322.1084175137
 10
7412.2959014469
 20
6322.9111443635
 10
7412.2452882013
 20
6323.9372407117
 10
7412.2165987347
 20
6324.592987228
 10
7412.1876937358
 20
6325.3034631273
 10
7412.1651010565
 20
6325.8930660727
 10
7412.1126623218
 20
6327.3792928529
 10
7412.0622163609
 20
6328.9535558829
 10
7412.0097875439
 20
6330.6119664405
 10
7411.9565078893
 20
6332.2972904061
 10
7411.9046192909
 20
6333.9386129514
 10
7411.8539913457
 20
6335.4926153061
 10
7411.8011425864
 20
6336.9496076009
 10
7411.7480017332
 20
6338.2477283984
 10
7411.696791529
 20
6339.3352484753
 10
7411.645611574
 20
6340.1988344463
 10
7411.5924793563
 20
6340.8208830883
 10
7411.5396163274
 20
6341.1711176612
 10
7411.5012496392
 20
6341.2247374879
  0
LWPOLYLINE
  5
14D
330
1F
100
AcDbEntity
  8
0
  6
Continuous
 62
     7
370
    25
100
AcDbPolyline
 90
       23
 70
   128
 43
0.0
 10
7410.5912176554
 20
6321.507059228
 10
7410.550106493
 20
6321.2860915143
 10
7410.4996600671
 20
6321.2825887744
 10
7410.4472512519
 20
6321.5574187913
 10
7410.3939689053
 20
6322.1084175137
 10
7410.3420552931
 20
6322.9111443635
 10
7410.2914420475
 20
6323.9372407117
 10
7410.2627525809
 20
6324.592987228
 10
7410.2338475819
 20
6325.3034631273
 10
7410.2112549027
 20
6325.8930660727
 10
7410.1588161679
 20
6327.3792928529
 10
7410.1083702071
 20
6328.9535558829
 10
7410.0559413901
 20
6330.6119664405
 10
7410.0026617354
 20
6332.2972904061
 10
7409.950773137
 20
6333.9386129514
 10
7409.9001451918
 20
6335.4926153061
 10
7409.8472964325
 20
6336.9496076009
 10
7409.7941555794
 20
6338.2477283984
 10
7409.7429453751
 20
6339.3352484753
 10
7409.6917654202
 20
6340.1988344463
 10
7409.6386332025
 20
6340.8208830883
 10
7409.5857701735
 20
6341.1711176612
 10
7409.5474034853
 20
6341.2247374879
  0
LWPOLYLINE
  5
14E
330
1F
100
AcDbEntity
  8
0
  6
Continuous
 62
     7
370
    25
100
AcDbPolyline
 90
       23
 70
   128
 43
0.0
 10
7408.6373656599
 20
6321.5070278299
 10
7408.5962603391
 20
6321.2860915143
 10
7408.5458139132
 20
6321.2825887744
 10
7408.493405098
 20
6321.5574187913
 10
7408.4401227514
 20
6322.1084175137
 10
7408.3882091393
 20
6322.9111443635
 10
7408.3375958936
 20
6323.9372407117
 10
7408.308906427
 20
6324.592987228
 10
7408.2800014281
 20
6325.3034631273
 10
7408.2574087489
 20
6325.8930660727
 10
7408.2049700141
 20
6327.3792928529
 10
7408.1545240532
 20
6328.9535558829
 10
7408.1020952362
 20
6330.6119664405
 10
7408.0488155816
 20
6332.2972904061
 10
7407.9969269832
 20
6333.9386129514
 10
7407.946299038
 20
6335.4926153061
 10
7407.8934502787
 20
6336.9496076009
 10
7407.8403094255
 20
6338.2477283984
 10
7407.7890992213
 20
6339.3352484753
 10
7407.7379192663
 20
6340.1988344463
 10
7407.6847870486
 20
6340.8208830883
 10
7407.6319240197
 20
6341.1711176612
 10
7407.5935573315
 20
6341.2247374879
  0
LWPOLYLINE
  5
14F
330
1F
100
AcDbEntity
  8
0
  6
Continuous
 62
     7
370
    25
100
AcDbPolyline
 90
        7
 70
   128
 43
0.0
 10
7406.6835136614
 20
6321.5069964158
 10
7406.6424141853
 20
6321.2860915143
 10
7406.5919677594
 20
6321.2825887744
 10
7406.5395589442
 20
6321.5574187913
 10
7406.4862765976
 20
6322.1084175137
 10
7406.4343629854
 20
6322.9111443635
 10
7406.3863839138
 20
6323.8795610239
  0
LWPOLYLINE
  5
150
330
1F
100
AcDbEntity
  8
0
  6
Continuous
 62
     7
370
    25
100
AcDbPolyline
 90
       20
 70
   128
 43
0.0
 10
7416.9963475846
 20
6322.3075502481
 10
7416.9451525304
 20
6322.4312836173
 10
7416.8920159659
 20
6322.8051348075
 10
7416.8391600433
 20
6323.4172356856
 10
7416.7885245167
 20
6324.2375238686
 10
7416.7366485055
 20
6325.2593118558
 10
7416.6833702846
 20
6326.459588753
 10
7416.6309315499
 20
6327.7886395832
 10
7416.580485589
 20
6329.1964163875
 10
7416.528056772
 20
6330.6794416954
 10
7416.4747771174
 20
6332.1865341832
 10
7416.422888519
 20
6333.654278622
 10
7416.3722605738
 20
6335.0439374192
 10
7416.3194118145
 20
6336.3468454577
 10
7416.2662709613
 20
6337.5076834581
 10
7416.2150607571
 20
6338.4801928223
 10
7416.1638808021
 20
6339.2524502374
 10
7416.1107485844
 20
6339.8087141098
 10
7416.0578855555
 20
6340.1219096168
 10
7416.037412257
 20
6340.1474963842
  0
LWPOLYLINE
  5
151
330
1F
100
AcDbEntity
  8
0
  6
Continuous
 62
     7
370
    25
100
AcDbPolyline
 90
       20
 70
   128
 43
0.0
 10
7415.0425014308
 20
6322.3075502481
 10
7414.9913063765
 20
6322.4312836173
 10
7414.9381698121
 20
6322.8051348075
 10
7414.8853138895
 20
6323.4172356856
 10
7414.8346783629
 20
6324.2375238686
 10
7414.7828023517
 20
6325.2593118558
 10
7414.7295241308
 20
6326.459588753
 10
7414.677085396
 20
6327.7886395832
 10
7414.6266394352
 20
6329.1964163875
 10
7414.5742106182
 20
6330.6794416954
 10
7414.5209309635
 20
6332.1865341832
 10
7414.4690423651
 20
6333.654278622
 10
7414.4184144199
 20
6335.0439374192
 10
7414.3655656606
 20
6336.3468454577
 10
7414.3124248075
 20
6337.5076834581
 10
7414.2612146032
 20
6338.4801928223
 10
7414.2100346483
 20
6339.2524502374
 10
7414.1569024306
 20
6339.8087141098
 10
7414.1040394016
 20
6340.1219096168
 10
7414.0835642693
 20
6340.1474986761
  0
LWPOLYLINE
  5
152
330
1F
100
AcDbEntity
  8
0
  6
Continuous
 62
     7
370
    25
100
AcDbPolyline
 90
       20
 70
   128
 43
0.0
 10
7413.0886552769
 20
6322.3075502481
 10
7413.0374602227
 20
6322.4312836173
 10
7412.9843236582
 20
6322.8051348075
 10
7412.9314677356
 20
6323.4172356856
 10
7412.880832209
 20
6324.2375238686
 10
7412.8289561978
 20
6325.2593118558
 10
7412.775677977
 20
6326.459588753
 10
7412.7232392422
 20
6327.7886395832
 10
7412.6727932813
 20
6329.1964163875
 10
7412.6203644643
 20
6330.6794416954
 10
7412.5670848097
 20
6332.1865341832
 10
7412.5151962113
 20
6333.654278622
 10
7412.4645682661
 20
6335.0439374192
 10
7412.4117195068
 20
6336.3468454577
 10
7412.3585786536
 20
6337.5076834581
 10
7412.3073684494
 20
6338.4801928223
 10
7412.2561884944
 20
6339.2524502374
 10
7412.2030562767
 20
6339.8087141098
 10
7412.1501932478
 20
6340.1219096168
 10
7412.129716282
 20
6340.1475009674
  0
LWPOLYLINE
  5
153
330
1F
100
AcDbEntity
  8
0
  6
Continuous
 62
     7
370
    25
100
AcDbPolyline
 90
       20
 70
   128
 43
0.0
 10
7411.1348091231
 20
6322.3075502481
 10
7411.0836140688
 20
6322.4312836173
 10
7411.0304775044
 20
6322.8051348075
 10
7410.9776215818
 20
6323.4172356856
 10
7410.9269860552
 20
6324.2375238686
 10
7410.875110044
 20
6325.2593118558
 10
7410.8218318231
 20
6326.459588753
 10
7410.7693930883
 20
6327.7886395832
 10
7410.7189471275
 20
6329.1964163875
 10
7410.6665183105
 20
6330.6794416954
 10
7410.6132386558
 20
6332.1865341832
 10
7410.5613500574
 20
6333.654278622
 10
7410.5107221123
 20
6335.0439374192
 10
7410.4578733529
 20
6336.3468454577
 10
7410.4047324998
 20
6337.5076834581
 10
7410.3535222955
 20
6338.4801928223
 10
7410.3023423406
 20
6339.2524502374
 10
7410.2492101229
 20
6339.8087141098
 10
7410.196347094
 20
6340.1219096168
 10
7410.1758682953
 20
6340.1475032581
  0
LWPOLYLINE
  5
154
330
1F
100
AcDbEntity
  8
0
  6
Continuous
 62
     7
370
    25
100
AcDbPolyline
 90
       20
 70
   128
 43
0.0
 10
7409.1809629692
 20
6322.3075502481
 10
7409.129767915
 20
6322.4312836173
 10
7409.0766313505
 20
6322.8051348075
 10
7409.0237754279
 20
6323.4172356856
 10
7408.9731399013
 20
6324.2375238686
 10
7408.9212638902
 20
6325.2593118558
 10
7408.8679856693
 20
6326.459588753
 10
7408.8155469345
 20
6327.7886395832
 10
7408.7651009736
 20
6329.1964163875
 10
7408.7126721566
 20
6330.6794416954
 10
7408.659392502
 20
6332.1865341832
 10
7408.6075039036
 20
6333.654278622
 10
7408.5568759584
 20
6335.0439374192
 10
7408.5040271991
 20
6336.3468454577
 10
7408.4508863459
 20
6337.5076834581
 10
7408.3996761417
 20
6338.4801928223
 10
7408.3484961867
 20
6339.2524502374
 10
7408.295363969
 20
6339.8087141098
 10
7408.2425009401
 20
6340.1219096168
 10
7408.2220203089
 20
6340.1475055483
  0
ARC
  5
155
330
1F
100
AcDbEntity
  8
0
  6
Continuous
 62
     7
370
    25
100
AcDbCircle
 10
7413.2765425721
 20
6323.8192381652
 30
0.0
 40
6.235443235606939
100
AcDbArc
 50
179.445792936
 51
194.0302840125
  0
LINE
  5
156
330
1F
100
AcDbEntity
  8
0
  6
Continuous
 62
     7
370
    25
100
AcDbLine
 10
7416.782443433
 20
6321.9370573895
 30
0.0
 11
7416.9963475846
 21
6322.3075502481
 31
0.0
  0
LINE
  5
157
330
1F
100
AcDbEntity
  8
0
  6
Continuous
 62
     7
370
    25
100
AcDbLine
 10
7416.0953860435
 20
6321.3628932434
 30
0.0
 11
7416.0953860435
 21
6325.3034631273
 31
0.0
  0
LINE
  5
158
330
1F
100
AcDbEntity
  8
0
  6
Continuous
 62
     7
370
    25
100
AcDbLine
 10
7406.3863842084
 20
6323.8795428327
 30
0.0
 11
7408.0959996973
 21
6323.8795642373
 31
0.0
  0
ARC
  5
159
330
1F
100
AcDbEntity
  8
0
  6
Continuous
 62
     7
370
    25
100
AcDbCircle
 10
7382.1835621592
 20
6353.3710094083
 30
0.0
 40
1.622931939238363
100
AcDbArc
 50
267.2108811092
 51
297.0016205614
  0
LINE
  5
15A
330
1F
100
AcDbEntity
  8
0
  6
Continuous
 62
     7
370
    25
100
AcDbLine
 10
7382.9203987412
 20
6351.9249873023
 30
0.0
 11
7382.5225463258
 21
6352.3228397177
 31
0.0
  0
LINE
  5
15B
330
1F
100
AcDbEntity
  8
0
  6
Continuous
 62
     7
370
    25
100
AcDbLine
 10
7380.9593755908
 20
6352.3228397177
 30
0.0
 11
7382.5225463258
 21
6352.3228397177
 31
0.0
  0
LWPOLYLINE
  5
15C
330
1F
100
AcDbEntity
  8
0
  6
Continuous
 62
     7
370
    25
100
AcDbPolyline
 90
       25
 70
   128
 43
0.0
 10
7362.4032160522
 20
6352.0485028304
 10
7362.4108614448
 20
6352.0534593056
 10
7362.4957914
 20
6352.062156106
 10
7362.8839147419
 20
6352.0804286384
 10
7363.1895948094
 20
6352.0898903577
 10
7363.5479778865
 20
6352.0989631086
 10
7364.4653872319
 20
6352.1172107533
 10
7365.0225149868
 20
6352.1262517329
 10
7365.6127234138
 20
6352.1347543442
 10
7366.957930921
 20
6352.1525686623
 10
7367.7070165846
 20
6352.1619257356
 10
7368.4582449236
 20
6352.170984074
 10
7370.0677753644
 20
6352.1894550116
 10
7370.9167426189
 20
6352.1987386993
 10
7371.7456564997
 20
6352.2075188698
 10
7373.4430265943
 20
6352.2249456755
 10
7374.2998667182
 20
6352.2340758096
 10
7375.1102765249
 20
6352.2430242321
 10
7376.6985826401
 20
6352.2615256211
 10
7377.463812326
 20
6352.2709558059
 10
7378.164088469
 20
6352.2799328942
 10
7379.4647009288
 20
6352.2977043967
 10
7380.0528618857
 20
6352.3065252073
 10
7380.5285118861
 20
6352.3145735423
 10
7380.9593755908
 20
6352.3228397177
  0
LINE
  5
15D
330
1F
100
AcDbEntity
  8
0
  6
Continuous
 62
     7
370
    25
100
AcDbLine
 10
7383.0953860435
 20
6351.75
 30
0.0
 11
7382.104590154
 21
6351.75
 31
0.0
  0
LINE
  5
15E
330
1F
100
AcDbEntity
  8
0
  6
Continuous
 62
     7
370
    25
100
AcDbLine
 10
7363.5953860435
 20
6353.25
 30
0.0
 11
7381.5953860435
 21
6353.25
 31
0.0
  0
LWPOLYLINE
  5
15F
330
1F
100
AcDbEntity
  8
0
  6
Continuous
 62
     7
370
    25
100
AcDbPolyline
 90
       24
 70
   128
 43
0.0
 10
7383.0763181336
 20
6351.6917007426
 10
7383.0859052448
 20
6351.684822362
 10
7382.9404941164
 20
6351.6633630665
 10
7382.5630947162
 20
6351.6381140817
 10
7381.9645608802
 20
6351.6124526678
 10
7381.1645565153
 20
6351.5872191358
 10
7380.1952274166
 20
6351.5632080979
 10
7379.0739835405
 20
6351.5397056312
 10
7377.7925595154
 20
6351.5147960121
 10
7376.3854493538
 20
6351.489184268
 10
7374.8975436761
 20
6351.4637053584
 10
7373.3786514894
 20
6351.4391799909
 10
7371.8682450889
 20
6351.4158657457
 10
7370.3491726446
 20
6351.391390329
 10
7368.8592200691
 20
6351.3659324456
 10
7367.4482757515
 20
6351.3403105553
 10
7366.1615031749
 20
6351.3153607097
 10
7365.0341361299
 20
6351.2918140683
 10
7364.0592858409
 20
6351.2678620644
 10
7363.2523793844
 20
6351.2426601556
 10
7362.6459568913
 20
6351.2169996129
 10
7362.2601952083
 20
6351.1917206534
 10
7362.1007193343
 20
6351.1676226978
 10
7362.1141622597
 20
6351.1624455723
  0
LWPOLYLINE
  5
160
330
1F
100
AcDbEntity
  8
0
  6
Continuous
 62
     7
370
    25
100
AcDbPolyline
 90
       24
 70
   128
 43
0.0
 10
7383.0763181336
 20
6350.6333674093
 10
7383.0859052448
 20
6350.6264890286
 10
7382.9404941164
 20
6350.6050297332
 10
7382.5630947162
 20
6350.5797807484
 10
7381.9645608802
 20
6350.5541193345
 10
7381.1645565153
 20
6350.5288858024
 10
7380.1952274166
 20
6350.5048747646
 10
7379.0739835405
 20
6350.4813722979
 10
7377.7925595154
 20
6350.4564626788
 10
7376.3854493538
 20
6350.4308509347
 10
7374.8975436761
 20
6350.4053720251
 10
7373.3786514894
 20
6350.3808466576
 10
7371.8682450889
 20
6350.3575324124
 10
7370.3491726446
 20
6350.3330569957
 10
7368.8592200691
 20
6350.3075991123
 10
7367.4482757515
 20
6350.2819772219
 10
7366.1615031749
 20
6350.2570273764
 10
7365.0341361299
 20
6350.233480735
 10
7364.0592858409
 20
6350.2095287311
 10
7363.2523793844
 20
6350.1843268223
 10
7362.6459568913
 20
6350.1586662796
 10
7362.2601952083
 20
6350.1333873201
 10
7362.1007193343
 20
6350.1092893645
 10
7362.1141622597
 20
6350.104112239
  0
LWPOLYLINE
  5
161
330
1F
100
AcDbEntity
  8
0
  6
Continuous
 62
     7
370
    25
100
AcDbPolyline
 90
       24
 70
   128
 43
0.0
 10
7383.0763181336
 20
6349.5750340759
 10
7383.0859052448
 20
6349.5681556953
 10
7382.9404941164
 20
6349.5466963998
 10
7382.5630947162
 20
6349.5214474151
 10
7381.9645608802
 20
6349.4957860011
 10
7381.1645565153
 20
6349.4705524691
 10
7380.1952274166
 20
6349.4465414312
 10
7379.0739835405
 20
6349.4230389646
 10
7377.7925595154
 20
6349.3981293455
 10
7376.3854493538
 20
6349.3725176014
 10
7374.8975436761
 20
6349.3470386917
 10
7373.3786514894
 20
6349.3225133243
 10
7371.8682450889
 20
6349.2991990791
 10
7370.3491726446
 20
6349.2747236624
 10
7368.8592200691
 20
6349.2492657789
 10
7367.4482757515
 20
6349.2236438886
 10
7366.1615031749
 20
6349.198694043
 10
7365.0341361299
 20
6349.1751474016
 10
7364.0592858409
 20
6349.1511953978
 10
7363.2523793844
 20
6349.125993489
 10
7362.6459568913
 20
6349.1003329462
 10
7362.2601952083
 20
6349.0750539867
 10
7362.1007193343
 20
6349.0509560312
 10
7362.1141622597
 20
6349.0457789057
  0
LWPOLYLINE
  5
162
330
1F
100
AcDbEntity
  8
0
  6
Continuous
 62
     7
370
    25
100
AcDbPolyline
 90
       24
 70
   128
 43
0.0
 10
7383.0763181336
 20
6348.5167007426
 10
7383.0859052448
 20
6348.509822362
 10
7382.9404941164
 20
6348.4883630665
 10
7382.5630947162
 20
6348.4631140818
 10
7381.9645608802
 20
6348.4374526678
 10
7381.1645565153
 20
6348.4122191358
 10
7380.1952274166
 20
6348.3882080979
 10
7379.0739835405
 20
6348.3647056312
 10
7377.7925595154
 20
6348.3397960121
 10
7376.3854493538
 20
6348.314184268
 10
7374.8975436761
 20
6348.2887053584
 10
7373.3786514894
 20
6348.2641799909
 10
7371.8682450889
 20
6348.2408657457
 10
7370.3491726446
 20
6348.216390329
 10
7368.8592200691
 20
6348.1909324456
 10
7367.4482757515
 20
6348.1653105553
 10
7366.1615031749
 20
6348.1403607097
 10
7365.0341361299
 20
6348.1168140683
 10
7364.0592858409
 20
6348.0928620644
 10
7363.2523793844
 20
6348.0676601556
 10
7362.6459568913
 20
6348.0419996129
 10
7362.2601952083
 20
6348.0167206534
 10
7362.1007193343
 20
6347.9926226978
 10
7362.1141622597
 20
6347.9874455723
  0
LWPOLYLINE
  5
163
330
1F
100
AcDbEntity
  8
0
  6
Continuous
 62
     7
370
    25
100
AcDbPolyline
 90
       24
 70
   128
 43
0.0
 10
7383.0763181336
 20
6347.4583674093
 10
7383.0859052448
 20
6347.4514890286
 10
7382.9404941164
 20
6347.4300297332
 10
7382.5630947162
 20
6347.4047807484
 10
7381.9645608802
 20
6347.3791193345
 10
7381.1645565153
 20
6347.3538858024
 10
7380.1952274166
 20
6347.3298747646
 10
7379.0739835405
 20
6347.3063722979
 10
7377.7925595154
 20
6347.2814626788
 10
7376.3854493538
 20
6347.2558509347
 10
7374.8975436761
 20
6347.2303720251
 10
7373.3786514894
 20
6347.2058466576
 10
7371.8682450889
 20
6347.1825324124
 10
7370.3491726446
 20
6347.1580569957
 10
7368.8592200691
 20
6347.1325991123
 10
7367.4482757515
 20
6347.1069772219
 10
7366.1615031749
 20
6347.0820273764
 10
7365.0341361299
 20
6347.058480735
 10
7364.0592858409
 20
6347.0345287311
 10
7363.2523793844
 20
6347.0093268223
 10
7362.6459568913
 20
6346.9836662796
 10
7362.2601952083
 20
6346.9583873201
 10
7362.1007193343
 20
6346.9342893645
 10
7362.1141622597
 20
6346.929112239
  0
LWPOLYLINE
  5
164
330
1F
100
AcDbEntity
  8
0
  6
Continuous
 62
     7
370
    25
100
AcDbPolyline
 90
       24
 70
   128
 43
0.0
 10
7383.0763181336
 20
6346.4000340759
 10
7383.0859052448
 20
6346.3931556953
 10
7382.9404941164
 20
6346.3716963998
 10
7382.5630947162
 20
6346.3464474151
 10
7381.9645608802
 20
6346.3207860011
 10
7381.1645565153
 20
6346.2955524691
 10
7380.1952274166
 20
6346.2715414312
 10
7379.0739835405
 20
6346.2480389646
 10
7377.7925595154
 20
6346.2231293455
 10
7376.3854493538
 20
6346.1975176013
 10
7374.8975436761
 20
6346.1720386917
 10
7373.3786514894
 20
6346.1475133243
 10
7371.8682450889
 20
6346.1241990791
 10
7370.3491726446
 20
6346.0997236624
 10
7368.8592200691
 20
6346.0742657789
 10
7367.4482757515
 20
6346.0486438886
 10
7366.1615031749
 20
6346.023694043
 10
7365.0341361299
 20
6346.0001474016
 10
7364.0592858409
 20
6345.9761953978
 10
7363.2523793844
 20
6345.950993489
 10
7362.6459568913
 20
6345.9253329462
 10
7362.2601952083
 20
6345.9000539867
 10
7362.1007193343
 20
6345.8759560312
 10
7362.1141622597
 20
6345.8707789057
  0
LWPOLYLINE
  5
165
330
1F
100
AcDbEntity
  8
0
  6
Continuous
 62
     7
370
    25
100
AcDbPolyline
 90
       24
 70
   128
 43
0.0
 10
7383.0763181336
 20
6345.3417007426
 10
7383.0859052448
 20
6345.334822362
 10
7382.9404941164
 20
6345.3133630665
 10
7382.5630947162
 20
6345.2881140817
 10
7381.9645608802
 20
6345.2624526678
 10
7381.1645565153
 20
6345.2372191358
 10
7380.1952274166
 20
6345.2132080979
 10
7379.0739835405
 20
6345.1897056312
 10
7377.7925595154
 20
6345.1647960121
 10
7376.3854493538
 20
6345.139184268
 10
7374.8975436761
 20
6345.1137053584
 10
7373.3786514894
 20
6345.0891799909
 10
7371.8682450889
 20
6345.0658657457
 10
7370.3491726446
 20
6345.041390329
 10
7368.8592200691
 20
6345.0159324456
 10
7367.4482757515
 20
6344.9903105553
 10
7366.1615031749
 20
6344.9653607097
 10
7365.0341361299
 20
6344.9418140683
 10
7364.0592858409
 20
6344.9178620644
 10
7363.2523793844
 20
6344.8926601556
 10
7362.6459568913
 20
6344.8669996129
 10
7362.2601952083
 20
6344.8417206534
 10
7362.1007193343
 20
6344.8176226978
 10
7362.1141622597
 20
6344.8124455723
  0
LWPOLYLINE
  5
166
330
1F
100
AcDbEntity
  8
0
  6
Continuous
 62
     7
370
    25
100
AcDbPolyline
 90
        4
 70
   128
 43
0.0
 10
7383.0763181336
 20
6344.2833674093
 10
7383.0859052448
 20
6344.2764890286
 10
7382.9404941164
 20
6344.2550297332
 10
7382.8825136798
 20
6344.25
  0
LWPOLYLINE
  5
167
330
1F
100
AcDbEntity
  8
0
  6
Continuous
 62
     7
370
    25
100
AcDbPolyline
 90
       20
 70
   128
 43
0.0
 10
7380.9593755908
 20
6352.3228397177
 10
7380.8502555441
 20
6352.3194268163
 10
7379.9607375887
 20
6352.2951342269
 10
7378.9290198057
 20
6352.2717832446
 10
7377.7435041732
 20
6352.2470906875
 10
7376.4321836885
 20
6352.2215470431
 10
7375.0361172679
 20
6352.1959799533
 10
7373.6019141646
 20
6352.1712195768
 10
7372.1731439231
 20
6352.1478353745
 10
7370.7370551612
 20
6352.1236247459
 10
7369.3196805424
 20
6352.0982890581
 10
7367.9684556155
 20
6352.0726337508
 10
7366.7272771247
 20
6352.0474984765
 10
7365.6318519355
 20
6352.0236674822
 10
7364.6847702333
 20
6352.0000184423
 10
7363.889863154
 20
6351.9749911863
 10
7363.2795919999
 20
6351.949352443
 10
7362.875415402
 20
6351.9239400795
 10
7362.6852567228
 20
6351.8995676966
 10
7362.6930502675
 20
6351.8900791876
  0
LWPOLYLINE
  5
168
330
1F
100
AcDbEntity
  8
0
  6
Continuous
 62
     7
370
    25
100
AcDbPolyline
 90
       25
 70
   128
 43
0.0
 10
7382.5070477456
 20
6351.3609926046
 10
7382.5190465314
 20
6351.3566742035
 10
7382.3761046353
 20
6351.3326338941
 10
7382.0680275778
 20
6351.31014202
 10
7381.5923921428
 20
6351.2872498425
 10
7380.9593755908
 20
6351.2645063844
 10
7380.8502555441
 20
6351.261093483
 10
7379.9607375887
 20
6351.2368008936
 10
7378.9290198057
 20
6351.2134499112
 10
7377.7435041732
 20
6351.1887573542
 10
7376.4321836885
 20
6351.1632137097
 10
7375.0361172679
 20
6351.1376466199
 10
7373.6019141646
 20
6351.1128862435
 10
7372.1731439231
 20
6351.0895020412
 10
7370.7370551612
 20
6351.0652914126
 10
7369.3196805424
 20
6351.0399557247
 10
7367.9684556155
 20
6351.0143004174
 10
7366.7272771247
 20
6350.9891651432
 10
7365.6318519355
 20
6350.9653341489
 10
7364.6847702333
 20
6350.9416851089
 10
7363.889863154
 20
6350.916657853
 10
7363.2795919999
 20
6350.8910191097
 10
7362.875415402
 20
6350.8656067462
 10
7362.6852567228
 20
6350.8412343633
 10
7362.69305026
 20
6350.8317458634
  0
LWPOLYLINE
  5
169
330
1F
100
AcDbEntity
  8
0
  6
Continuous
 62
     7
370
    25
100
AcDbPolyline
 90
       25
 70
   128
 43
0.0
 10
7382.5070304311
 20
6350.3026655028
 10
7382.5190465314
 20
6350.2983408702
 10
7382.3761046353
 20
6350.2743005607
 10
7382.0680275778
 20
6350.2518086867
 10
7381.5923921428
 20
6350.2289165091
 10
7380.9593755908
 20
6350.206173051
 10
7380.8502555441
 20
6350.2027601497
 10
7379.9607375887
 20
6350.1784675603
 10
7378.9290198057
 20
6350.1551165779
 10
7377.7435041732
 20
6350.1304240209
 10
7376.4321836885
 20
6350.1048803764
 10
7375.0361172679
 20
6350.0793132866
 10
7373.6019141646
 20
6350.0545529102
 10
7372.1731439231
 20
6350.0311687078
 10
7370.7370551612
 20
6350.0069580793
 10
7369.3196805424
 20
6349.9816223914
 10
7367.9684556155
 20
6349.9559670841
 10
7366.7272771247
 20
6349.9308318098
 10
7365.6318519355
 20
6349.9070008155
 10
7364.6847702333
 20
6349.8833517756
 10
7363.889863154
 20
6349.8583245196
 10
7363.2795919999
 20
6349.8326857764
 10
7362.875415402
 20
6349.8072734128
 10
7362.6852567228
 20
6349.7829010299
 10
7362.6930502485
 20
6349.773412544
  0
LWPOLYLINE
  5
16A
330
1F
100
AcDbEntity
  8
0
  6
Continuous
 62
     7
370
    25
100
AcDbPolyline
 90
       25
 70
   128
 43
0.0
 10
7382.5070131293
 20
6349.2443383964
 10
7382.5190465314
 20
6349.2400075368
 10
7382.3761046353
 20
6349.2159672274
 10
7382.0680275778
 20
6349.1934753533
 10
7381.5923921428
 20
6349.1705831758
 10
7380.9593755908
 20
6349.1478397177
 10
7380.8502555441
 20
6349.1444268163
 10
7379.9607375887
 20
6349.120134227
 10
7378.9290198057
 20
6349.0967832446
 10
7377.7435041732
 20
6349.0720906875
 10
7376.4321836885
 20
6349.0465470431
 10
7375.0361172679
 20
6349.0209799533
 10
7373.6019141646
 20
6348.9962195768
 10
7372.1731439231
 20
6348.9728353745
 10
7370.7370551612
 20
6348.9486247459
 10
7369.3196805424
 20
6348.9232890581
 10
7367.9684556155
 20
6348.8976337508
 10
7366.7272771247
 20
6348.8724984765
 10
7365.6318519355
 20
6348.8486674822
 10
7364.6847702333
 20
6348.8250184423
 10
7363.889863154
 20
6348.7999911863
 10
7363.2795919999
 20
6348.774352443
 10
7362.875415402
 20
6348.7489400795
 10
7362.6852567228
 20
6348.7245676966
 10
7362.693050233
 20
6348.7150792296
  0
LWPOLYLINE
  5
16B
330
1F
100
AcDbEntity
  8
0
  6
Continuous
 62
     7
370
    25
100
AcDbPolyline
 90
       25
 70
   128
 43
0.0
 10
7382.5069958403
 20
6348.1860112855
 10
7382.5190465314
 20
6348.1816742035
 10
7382.3761046353
 20
6348.1576338941
 10
7382.0680275778
 20
6348.13514202
 10
7381.5923921428
 20
6348.1122498425
 10
7380.9593755908
 20
6348.0895063844
 10
7380.8502555441
 20
6348.086093483
 10
7379.9607375887
 20
6348.0618008936
 10
7378.9290198057
 20
6348.0384499112
 10
7377.7435041732
 20
6348.0137573542
 10
7376.4321836885
 20
6347.9882137097
 10
7375.0361172679
 20
6347.9626466199
 10
7373.6019141646
 20
6347.9378862435
 10
7372.1731439231
 20
6347.9145020412
 10
7370.7370551612
 20
6347.8902914126
 10
7369.3196805424
 20
6347.8649557247
 10
7367.9684556155
 20
6347.8393004174
 10
7366.7272771247
 20
6347.8141651432
 10
7365.6318519355
 20
6347.7903341489
 10
7364.6847702333
 20
6347.7666851089
 10
7363.889863154
 20
6347.741657853
 10
7363.2795919999
 20
6347.7160191097
 10
7362.875415402
 20
6347.6906067462
 10
7362.6852567228
 20
6347.6662343633
 10
7362.6930502132
 20
6347.6567459203
  0
LWPOLYLINE
  5
16C
330
1F
100
AcDbEntity
  8
0
  6
Continuous
 62
     7
370
    25
100
AcDbPolyline
 90
       25
 70
   128
 43
0.0
 10
7382.5069785639
 20
6347.12768417
 10
7382.5190465314
 20
6347.1233408702
 10
7382.3761046353
 20
6347.0993005607
 10
7382.0680275778
 20
6347.0768086867
 10
7381.5923921428
 20
6347.0539165091
 10
7380.9593755908
 20
6347.031173051
 10
7380.8502555441
 20
6347.0277601497
 10
7379.9607375887
 20
6347.0034675603
 10
7378.9290198057
 20
6346.9801165779
 10
7377.7435041732
 20
6346.9554240209
 10
7376.4321836885
 20
6346.9298803764
 10
7375.0361172679
 20
6346.9043132866
 10
7373.6019141646
 20
6346.8795529102
 10
7372.1731439231
 20
6346.8561687078
 10
7370.7370551612
 20
6346.8319580793
 10
7369.3196805424
 20
6346.8066223914
 10
7367.9684556155
 20
6346.7809670841
 10
7366.7272771247
 20
6346.7558318098
 10
7365.6318519355
 20
6346.7320008155
 10
7364.6847702333
 20
6346.7083517756
 10
7363.889863154
 20
6346.6833245196
 10
7363.2795919999
 20
6346.6576857764
 10
7362.875415402
 20
6346.6322734128
 10
7362.6852567228
 20
6346.6079010299
 10
7362.6930501892
 20
6346.5984126162
  0
LWPOLYLINE
  5
16D
330
1F
100
AcDbEntity
  8
0
  6
Continuous
 62
     7
370
    25
100
AcDbPolyline
 90
       25
 70
   128
 43
0.0
 10
7382.5069613
 20
6346.06935705
 10
7382.5190465314
 20
6346.0650075368
 10
7382.3761046353
 20
6346.0409672274
 10
7382.0680275778
 20
6346.0184753533
 10
7381.5923921428
 20
6345.9955831758
 10
7380.9593755908
 20
6345.9728397177
 10
7380.8502555441
 20
6345.9694268163
 10
7379.9607375887
 20
6345.945134227
 10
7378.9290198057
 20
6345.9217832446
 10
7377.7435041732
 20
6345.8970906875
 10
7376.4321836885
 20
6345.8715470431
 10
7375.0361172679
 20
6345.8459799533
 10
7373.6019141646
 20
6345.8212195768
 10
7372.1731439231
 20
6345.7978353745
 10
7370.7370551612
 20
6345.7736247459
 10
7369.3196805424
 20
6345.7482890581
 10
7367.9684556155
 20
6345.7226337508
 10
7366.7272771247
 20
6345.6974984765
 10
7365.6318519355
 20
6345.6736674822
 10
7364.6847702333
 20
6345.6500184423
 10
7363.889863154
 20
6345.6249911863
 10
7363.2795919999
 20
6345.599352443
 10
7362.875415402
 20
6345.5739400795
 10
7362.6852567228
 20
6345.5495676966
 10
7362.6930501607
 20
6345.5400793176
  0
LWPOLYLINE
  5
16E
330
1F
100
AcDbEntity
  8
0
  6
Continuous
 62
     7
370
    25
100
AcDbPolyline
 90
       25
 70
   128
 43
0.0
 10
7382.5069440486
 20
6345.0110299255
 10
7382.5190465314
 20
6345.0066742035
 10
7382.3761046353
 20
6344.9826338941
 10
7382.0680275778
 20
6344.96014202
 10
7381.5923921428
 20
6344.9372498425
 10
7380.9593755908
 20
6344.9145063844
 10
7380.8502555441
 20
6344.911093483
 10
7379.9607375887
 20
6344.8868008936
 10
7378.9290198057
 20
6344.8634499112
 10
7377.7435041732
 20
6344.8387573542
 10
7376.4321836885
 20
6344.8132137097
 10
7375.0361172679
 20
6344.7876466199
 10
7373.6019141646
 20
6344.7628862435
 10
7372.1731439231
 20
6344.7395020412
 10
7370.7370551612
 20
6344.7152914126
 10
7369.3196805424
 20
6344.6899557247
 10
7367.9684556155
 20
6344.6643004174
 10
7366.7272771247
 20
6344.6391651432
 10
7365.6318519355
 20
6344.6153341489
 10
7364.6847702333
 20
6344.5916851089
 10
7363.889863154
 20
6344.566657853
 10
7363.2795919999
 20
6344.5410191097
 10
7362.875415402
 20
6344.5156067462
 10
7362.6852567228
 20
6344.4912343633
 10
7362.6930501277
 20
6344.4817460244
  0
LINE
  5
16F
330
1F
100
AcDbEntity
  8
0
  6
Continuous
 62
     7
370
    25
100
AcDbLine
 10
7382.8825136798
 20
6344.25
 30
0.0
 11
7383.0328486609
 21
6344.25
 31
0.0
  0
LWPOLYLINE
  5
170
330
1F
100
AcDbEntity
  8
0
  6
Continuous
 62
     7
370
    25
100
AcDbPolyline
 90
       23
 70
   128
 43
0.0
 10
7382.5225463258
 20
6352.1546875014
 10
7382.418628438
 20
6352.1309495769
 10
7382.1014866131
 20
6352.1058671005
 10
7381.5733211706
 20
6352.0802187693
 10
7380.8502555634
 20
6352.0548434836
 10
7379.9607376171
 20
6352.0305508943
 10
7378.9290198452
 20
6352.0071999121
 10
7377.7435042252
 20
6351.9825073552
 10
7376.432183753
 20
6351.9569637109
 10
7375.0361173437
 20
6351.9313966213
 10
7373.6019142497
 20
6351.9066362449
 10
7372.1731440162
 20
6351.8832520427
 10
7370.7370552631
 20
6351.8590414144
 10
7369.3196806495
 20
6351.8337057267
 10
7367.9684557235
 20
6351.8080504195
 10
7366.7272772288
 20
6351.7829151454
 10
7365.6318520314
 20
6351.759084151
 10
7364.6847703215
 20
6351.7354351114
 10
7363.8898632293
 20
6351.7104078557
 10
7363.2795920572
 20
6351.6847691126
 10
7362.8754154372
 20
6351.6593567491
 10
7362.6852567333
 20
6351.6349843662
 10
7362.6892684531
 20
6351.6301001584
  0
LWPOLYLINE
  5
171
330
1F
100
AcDbEntity
  8
0
  6
Continuous
 62
     7
370
    25
100
AcDbPolyline
 90
       23
 70
   128
 43
0.0
 10
7382.5225463258
 20
6351.0963541681
 10
7382.418628438
 20
6351.0726162435
 10
7382.1014866131
 20
6351.0475337671
 10
7381.5733211706
 20
6351.0218854359
 10
7380.8502555634
 20
6350.9965101503
 10
7379.9607376171
 20
6350.972217561
 10
7378.9290198452
 20
6350.9488665788
 10
7377.7435042252
 20
6350.9241740219
 10
7376.432183753
 20
6350.8986303776
 10
7375.0361173437
 20
6350.8730632879
 10
7373.6019142497
 20
6350.8483029116
 10
7372.1731440162
 20
6350.8249187094
 10
7370.7370552631
 20
6350.800708081
 10
7369.3196806495
 20
6350.7753723934
 10
7367.9684557235
 20
6350.7497170862
 10
7366.7272772288
 20
6350.724581812
 10
7365.6318520314
 20
6350.7007508177
 10
7364.6847703215
 20
6350.6771017781
 10
7363.8898632293
 20
6350.6520745223
 10
7363.2795920572
 20
6350.6264357793
 10
7362.8754154372
 20
6350.6010234158
 10
7362.6852567333
 20
6350.5766510329
 10
7362.6892670572
 20
6350.5717685246
  0
LWPOLYLINE
  5
172
330
1F
100
AcDbEntity
  8
0
  6
Continuous
 62
     7
370
    25
100
AcDbPolyline
 90
       23
 70
   128
 43
0.0
 10
7382.5225463258
 20
6350.0380208348
 10
7382.418628438
 20
6350.0142829102
 10
7382.1014866131
 20
6349.9892004338
 10
7381.5733211706
 20
6349.9635521026
 10
7380.8502555634
 20
6349.9381768169
 10
7379.9607376171
 20
6349.9138842276
 10
7378.9290198452
 20
6349.8905332454
 10
7377.7435042252
 20
6349.8658406886
 10
7376.432183753
 20
6349.8402970443
 10
7375.0361173437
 20
6349.8147299546
 10
7373.6019142497
 20
6349.7899695783
 10
7372.1731440162
 20
6349.766585376
 10
7370.7370552631
 20
6349.7423747477
 10
7369.3196806495
 20
6349.71703906
 10
7367.9684557235
 20
6349.6913837529
 10
7366.7272772288
 20
6349.6662484787
 10
7365.6318520314
 20
6349.6424174844
 10
7364.6847703215
 20
6349.6187684447
 10
7363.8898632293
 20
6349.593741189
 10
7363.2795920572
 20
6349.5681024459
 10
7362.8754154372
 20
6349.5426900825
 10
7362.6852567333
 20
6349.5183176995
 10
7362.6892656602
 20
6349.513436892
  0
LWPOLYLINE
  5
173
330
1F
100
AcDbEntity
  8
0
  6
Continuous
 62
     7
370
    25
100
AcDbPolyline
 90
       23
 70
   128
 43
0.0
 10
7382.5225463258
 20
6348.9796875014
 10
7382.418628438
 20
6348.9559495769
 10
7382.1014866131
 20
6348.9308671005
 10
7381.5733211706
 20
6348.9052187693
 10
7380.8502555634
 20
6348.8798434836
 10
7379.9607376171
 20
6348.8555508943
 10
7378.9290198452
 20
6348.8321999121
 10
7377.7435042252
 20
6348.8075073552
 10
7376.432183753
 20
6348.7819637109
 10
7375.0361173437
 20
6348.7563966213
 10
7373.6019142497
 20
6348.7316362449
 10
7372.1731440162
 20
6348.7082520427
 10
7370.7370552631
 20
6348.6840414144
 10
7369.3196806495
 20
6348.6587057267
 10
7367.9684557235
 20
6348.6330504195
 10
7366.7272772288
 20
6348.6079151454
 10
7365.6318520314
 20
6348.584084151
 10
7364.6847703215
 20
6348.5604351114
 10
7363.8898632293
 20
6348.5354078557
 10
7363.2795920572
 20
6348.5097691126
 10
7362.8754154372
 20
6348.4843567491
 10
7362.6852567333
 20
6348.4599843662
 10
7362.6892642623
 20
6348.4551052606
  0
LWPOLYLINE
  5
174
330
1F
100
AcDbEntity
  8
0
  6
Continuous
 62
     7
370
    25
100
AcDbPolyline
 90
       23
 70
   128
 43
0.0
 10
7382.5225463258
 20
6347.9213541681
 10
7382.418628438
 20
6347.8976162435
 10
7382.1014866131
 20
6347.8725337671
 10
7381.5733211706
 20
6347.8468854359
 10
7380.8502555634
 20
6347.8215101503
 10
7379.9607376171
 20
6347.797217561
 10
7378.9290198452
 20
6347.7738665788
 10
7377.7435042252
 20
6347.7491740219
 10
7376.432183753
 20
6347.7236303776
 10
7375.0361173437
 20
6347.6980632879
 10
7373.6019142497
 20
6347.6733029116
 10
7372.1731440162
 20
6347.6499187094
 10
7370.7370552631
 20
6347.625708081
 10
7369.3196806495
 20
6347.6003723934
 10
7367.9684557235
 20
6347.5747170862
 10
7366.7272772288
 20
6347.549581812
 10
7365.6318520314
 20
6347.5257508177
 10
7364.6847703215
 20
6347.5021017781
 10
7363.8898632293
 20
6347.4770745223
 10
7363.2795920572
 20
6347.4514357793
 10
7362.8754154372
 20
6347.4260234158
 10
7362.6852567333
 20
6347.4016510329
 10
7362.6892628633
 20
6347.3967736305
  0
LWPOLYLINE
  5
175
330
1F
100
AcDbEntity
  8
0
  6
Continuous
 62
     7
370
    25
100
AcDbPolyline
 90
       23
 70
   128
 43
0.0
 10
7382.5225463258
 20
6346.8630208348
 10
7382.418628438
 20
6346.8392829102
 10
7382.1014866131
 20
6346.8142004338
 10
7381.5733211706
 20
6346.7885521026
 10
7380.8502555634
 20
6346.7631768169
 10
7379.9607376171
 20
6346.7388842276
 10
7378.9290198452
 20
6346.7155332454
 10
7377.7435042252
 20
6346.6908406886
 10
7376.432183753
 20
6346.6652970443
 10
7375.0361173437
 20
6346.6397299546
 10
7373.6019142497
 20
6346.6149695783
 10
7372.1731440162
 20
6346.591585376
 10
7370.7370552631
 20
6346.5673747477
 10
7369.3196806495
 20
6346.54203906
 10
7367.9684557235
 20
6346.5163837529
 10
7366.7272772288
 20
6346.4912484787
 10
7365.6318520314
 20
6346.4674174844
 10
7364.6847703215
 20
6346.4437684447
 10
7363.8898632293
 20
6346.418741189
 10
7363.2795920572
 20
6346.3931024459
 10
7362.8754154372
 20
6346.3676900825
 10
7362.6852567333
 20
6346.3433176995
 10
7362.6892614632
 20
6346.3384420017
  0
LWPOLYLINE
  5
176
330
1F
100
AcDbEntity
  8
0
  6
Continuous
 62
     7
370
    25
100
AcDbPolyline
 90
       23
 70
   128
 43
0.0
 10
7382.5225463258
 20
6345.8046875014
 10
7382.418628438
 20
6345.7809495769
 10
7382.1014866131
 20
6345.7558671005
 10
7381.5733211706
 20
6345.7302187693
 10
7380.8502555634
 20
6345.7048434836
 10
7379.9607376171
 20
6345.6805508943
 10
7378.9290198452
 20
6345.6571999121
 10
7377.7435042252
 20
6345.6325073552
 10
7376.432183753
 20
6345.6069637109
 10
7375.0361173437
 20
6345.5813966213
 10
7373.6019142497
 20
6345.5566362449
 10
7372.1731440162
 20
6345.5332520427
 10
7370.7370552631
 20
6345.5090414144
 10
7369.3196806495
 20
6345.4837057267
 10
7367.9684557235
 20
6345.4580504195
 10
7366.7272772288
 20
6345.4329151454
 10
7365.6318520314
 20
6345.409084151
 10
7364.6847703215
 20
6345.3854351114
 10
7363.8898632293
 20
6345.3604078557
 10
7363.2795920572
 20
6345.3347691126
 10
7362.8754154372
 20
6345.3093567491
 10
7362.6852567333
 20
6345.2849843662
 10
7362.6892600621
 20
6345.2801103742
  0
LWPOLYLINE
  5
177
330
1F
100
AcDbEntity
  8
0
  6
Continuous
 62
     7
370
    25
100
AcDbPolyline
 90
       22
 70
   128
 43
0.0
 10
7382.5225463258
 20
6344.7463541681
 10
7382.418628438
 20
6344.7226162435
 10
7382.1014866131
 20
6344.6975337671
 10
7381.5733211706
 20
6344.6718854359
 10
7380.8502555634
 20
6344.6465101503
 10
7379.9607376171
 20
6344.622217561
 10
7378.9290198452
 20
6344.5988665788
 10
7377.7435042252
 20
6344.5741740219
 10
7376.432183753
 20
6344.5486303776
 10
7375.0361173437
 20
6344.5230632879
 10
7373.6019142497
 20
6344.4983029116
 10
7372.1731440162
 20
6344.4749187094
 10
7370.7370552631
 20
6344.450708081
 10
7369.3196806495
 20
6344.4253723934
 10
7367.9684557235
 20
6344.3997170862
 10
7366.7272772288
 20
6344.374581812
 10
7365.6318520314
 20
6344.3507508177
 10
7364.6847703215
 20
6344.3271017781
 10
7363.8898632293
 20
6344.3020745223
 10
7363.2795920572
 20
6344.2764357793
 10
7362.8754154372
 20
6344.2510234158
 10
7362.8634248546
 20
6344.25
  0
LINE
  5
178
330
1F
100
AcDbEntity
  8
0
  6
Continuous
 62
     7
370
    25
100
AcDbLine
 10
7382.9203987412
 20
6351.9249873023
 30
0.0
 11
7382.5225463258
 21
6352.1546875014
 31
0.0
  0
LWPOLYLINE
  5
179
330
1F
100
AcDbEntity
  8
0
  6
Continuous
 62
     7
370
    25
100
AcDbPolyline
 90
       20
 70
   128
 43
0.0
 10
7382.104590154
 20
6351.75
 10
7381.3265969398
 20
6351.7241143186
 10
7380.3857499969
 20
6351.6998217293
 10
7379.2944976892
 20
6351.6764707472
 10
7378.0405727386
 20
6351.6517781904
 10
7376.6535834564
 20
6351.6262345461
 10
7375.1769580327
 20
6351.6006674565
 10
7373.6599952733
 20
6351.5759070802
 10
7372.1487788734
 20
6351.552522878
 10
7370.6298216442
 20
6351.5283122497
 10
7369.1306584393
 20
6351.5029765621
 10
7367.701462041
 20
6351.477321255
 10
7366.3886622234
 20
6351.4521859809
 10
7365.2300262919
 20
6351.4283549865
 10
7364.2282939033
 20
6351.404705947
 10
7363.3875172587
 20
6351.3796786914
 10
7362.7420308166
 20
6351.3540399483
 10
7362.3145314647
 20
6351.3286275849
 10
7362.1133997794
 20
6351.304255202
 10
7362.1216434079
 20
6351.2947662579
  0
LWPOLYLINE
  5
17A
330
1F
100
AcDbEntity
  8
0
  6
Continuous
 62
     7
370
    25
100
AcDbPolyline
 90
       24
 70
   128
 43
0.0
 10
7383.0789969632
 20
6350.7656788093
 10
7383.0916843095
 20
6350.7613617128
 10
7382.9404941311
 20
6350.7373214041
 10
7382.6126310406
 20
6350.7147195291
 10
7382.104590154
 20
6350.6916666667
 10
7381.3265969398
 20
6350.6657809852
 10
7380.3857499969
 20
6350.641488396
 10
7379.2944976892
 20
6350.6181374138
 10
7378.0405727386
 20
6350.593444857
 10
7376.6535834564
 20
6350.5679012128
 10
7375.1769580327
 20
6350.5423341232
 10
7373.6599952733
 20
6350.5175737469
 10
7372.1487788734
 20
6350.4941895447
 10
7370.6298216442
 20
6350.4699789164
 10
7369.1306584393
 20
6350.4446432288
 10
7367.701462041
 20
6350.4189879217
 10
7366.3886622234
 20
6350.3938526475
 10
7365.2300262919
 20
6350.3700216532
 10
7364.2282939033
 20
6350.3463726137
 10
7363.3875172587
 20
6350.321345358
 10
7362.7420308166
 20
6350.295706615
 10
7362.3145314647
 20
6350.2702942516
 10
7362.1133997794
 20
6350.2459218686
 10
7362.1216434079
 20
6350.2364329245
  0
LWPOLYLINE
  5
17B
330
1F
100
AcDbEntity
  8
0
  6
Continuous
 62
     7
370
    25
100
AcDbPolyline
 90
       24
 70
   128
 43
0.0
 10
7383.0789969632
 20
6349.7073454759
 10
7383.0916843095
 20
6349.7030283795
 10
7382.9404941311
 20
6349.6789880708
 10
7382.6126310406
 20
6349.6563861957
 10
7382.104590154
 20
6349.6333333333
 10
7381.3265969398
 20
6349.6074476519
 10
7380.3857499969
 20
6349.5831550627
 10
7379.2944976892
 20
6349.5598040805
 10
7378.0405727386
 20
6349.5351115237
 10
7376.6535834564
 20
6349.5095678795
 10
7375.1769580327
 20
6349.4840007898
 10
7373.6599952733
 20
6349.4592404135
 10
7372.1487788734
 20
6349.4358562113
 10
7370.6298216442
 20
6349.4116455831
 10
7369.1306584393
 20
6349.3863098955
 10
7367.701462041
 20
6349.3606545884
 10
7366.3886622234
 20
6349.3355193142
 10
7365.2300262919
 20
6349.3116883199
 10
7364.2282939033
 20
6349.2880392803
 10
7363.3875172587
 20
6349.2630120247
 10
7362.7420308166
 20
6349.2373732817
 10
7362.3145314647
 20
6349.2119609182
 10
7362.1133997794
 20
6349.1875885353
 10
7362.1216434079
 20
6349.1780995912
  0
LWPOLYLINE
  5
17C
330
1F
100
AcDbEntity
  8
0
  6
Continuous
 62
     7
370
    25
100
AcDbPolyline
 90
       24
 70
   128
 43
0.0
 10
7383.0789969632
 20
6348.6490121426
 10
7383.0916843095
 20
6348.6446950461
 10
7382.9404941311
 20
6348.6206547375
 10
7382.6126310406
 20
6348.5980528624
 10
7382.104590154
 20
6348.575
 10
7381.3265969398
 20
6348.5491143186
 10
7380.3857499969
 20
6348.5248217293
 10
7379.2944976892
 20
6348.5014707472
 10
7378.0405727386
 20
6348.4767781904
 10
7376.6535834564
 20
6348.4512345461
 10
7375.1769580327
 20
6348.4256674565
 10
7373.6599952733
 20
6348.4009070802
 10
7372.1487788734
 20
6348.377522878
 10
7370.6298216442
 20
6348.3533122497
 10
7369.1306584393
 20
6348.3279765621
 10
7367.701462041
 20
6348.302321255
 10
7366.3886622234
 20
6348.2771859809
 10
7365.2300262919
 20
6348.2533549865
 10
7364.2282939033
 20
6348.229705947
 10
7363.3875172587
 20
6348.2046786914
 10
7362.7420308166
 20
6348.1790399483
 10
7362.3145314647
 20
6348.1536275849
 10
7362.1133997794
 20
6348.129255202
 10
7362.1216434079
 20
6348.1197662579
  0
LWPOLYLINE
  5
17D
330
1F
100
AcDbEntity
  8
0
  6
Continuous
 62
     7
370
    25
100
AcDbPolyline
 90
       24
 70
   128
 43
0.0
 10
7383.0789969632
 20
6347.5906788093
 10
7383.0916843095
 20
6347.5863617128
 10
7382.9404941311
 20
6347.5623214041
 10
7382.6126310406
 20
6347.5397195291
 10
7382.104590154
 20
6347.5166666667
 10
7381.3265969398
 20
6347.4907809852
 10
7380.3857499969
 20
6347.466488396
 10
7379.2944976892
 20
6347.4431374138
 10
7378.0405727386
 20
6347.418444857
 10
7376.6535834564
 20
6347.3929012128
 10
7375.1769580327
 20
6347.3673341232
 10
7373.6599952733
 20
6347.3425737469
 10
7372.1487788734
 20
6347.3191895447
 10
7370.6298216442
 20
6347.2949789164
 10
7369.1306584393
 20
6347.2696432288
 10
7367.701462041
 20
6347.2439879217
 10
7366.3886622234
 20
6347.2188526475
 10
7365.2300262919
 20
6347.1950216532
 10
7364.2282939033
 20
6347.1713726137
 10
7363.3875172587
 20
6347.146345358
 10
7362.7420308166
 20
6347.120706615
 10
7362.3145314647
 20
6347.0952942516
 10
7362.1133997794
 20
6347.0709218686
 10
7362.1216434079
 20
6347.0614329245
  0
LWPOLYLINE
  5
17E
330
1F
100
AcDbEntity
  8
0
  6
Continuous
 62
     7
370
    25
100
AcDbPolyline
 90
       24
 70
   128
 43
0.0
 10
7383.0789969632
 20
6346.5323454759
 10
7383.0916843095
 20
6346.5280283795
 10
7382.9404941311
 20
6346.5039880708
 10
7382.6126310406
 20
6346.4813861957
 10
7382.104590154
 20
6346.4583333333
 10
7381.3265969398
 20
6346.4324476519
 10
7380.3857499969
 20
6346.4081550627
 10
7379.2944976892
 20
6346.3848040805
 10
7378.0405727386
 20
6346.3601115237
 10
7376.6535834564
 20
6346.3345678795
 10
7375.1769580327
 20
6346.3090007898
 10
7373.6599952733
 20
6346.2842404135
 10
7372.1487788734
 20
6346.2608562113
 10
7370.6298216442
 20
6346.2366455831
 10
7369.1306584393
 20
6346.2113098955
 10
7367.701462041
 20
6346.1856545884
 10
7366.3886622234
 20
6346.1605193142
 10
7365.2300262919
 20
6346.1366883199
 10
7364.2282939033
 20
6346.1130392803
 10
7363.3875172587
 20
6346.0880120247
 10
7362.7420308166
 20
6346.0623732817
 10
7362.3145314647
 20
6346.0369609182
 10
7362.1133997794
 20
6346.0125885353
 10
7362.1216434079
 20
6346.0030995912
  0
LWPOLYLINE
  5
17F
330
1F
100
AcDbEntity
  8
0
  6
Continuous
 62
     7
370
    25
100
AcDbPolyline
 90
       24
 70
   128
 43
0.0
 10
7383.0789969632
 20
6345.4740121426
 10
7383.0916843095
 20
6345.4696950461
 10
7382.9404941311
 20
6345.4456547375
 10
7382.6126310406
 20
6345.4230528624
 10
7382.104590154
 20
6345.4
 10
7381.3265969398
 20
6345.3741143186
 10
7380.3857499969
 20
6345.3498217293
 10
7379.2944976892
 20
6345.3264707472
 10
7378.0405727386
 20
6345.3017781904
 10
7376.6535834564
 20
6345.2762345461
 10
7375.1769580327
 20
6345.2506674565
 10
7373.6599952733
 20
6345.2259070802
 10
7372.1487788734
 20
6345.202522878
 10
7370.6298216442
 20
6345.1783122497
 10
7369.1306584393
 20
6345.1529765621
 10
7367.701462041
 20
6345.127321255
 10
7366.3886622234
 20
6345.1021859809
 10
7365.2300262919
 20
6345.0783549865
 10
7364.2282939033
 20
6345.054705947
 10
7363.3875172587
 20
6345.0296786914
 10
7362.7420308166
 20
6345.0040399483
 10
7362.3145314647
 20
6344.9786275849
 10
7362.1133997794
 20
6344.954255202
 10
7362.1216434079
 20
6344.9447662579
  0
LWPOLYLINE
  5
180
330
1F
100
AcDbEntity
  8
0
  6
Continuous
 62
     7
370
    25
100
AcDbPolyline
 90
        9
 70
   128
 43
0.0
 10
7383.0789969632
 20
6344.4156788093
 10
7383.0916843095
 20
6344.4113617128
 10
7382.9404941311
 20
6344.3873214041
 10
7382.6126310406
 20
6344.3647195291
 10
7382.104590154
 20
6344.3416666667
 10
7381.3265969398
 20
6344.3157809852
 10
7380.3857499969
 20
6344.291488396
 10
7379.2944976892
 20
6344.2681374138
 10
7378.3820352873
 20
6344.25
  0
LINE
  5
181
330
1F
100
AcDbEntity
  8
0
  6
Continuous
 62
     7
370
    25
100
AcDbLine
 10
7362.8634248546
 20
6344.25
 30
0.0
 11
7378.3820352873
 21
6344.25
 31
0.0
  0
LINE
  5
182
330
1F
100
AcDbEntity
  8
0
  6
Continuous
 62
     7
370
    25
100
AcDbLine
 10
7378.3820352873
 20
6344.25
 30
0.0
 11
7382.8825136798
 21
6344.25
 31
0.0
  0
LINE
  5
183
330
1F
100
AcDbEntity
  8
0
  6
Continuous
 62
     7
370
    25
100
AcDbLine
 10
7386.5953860435
 20
6341.45
 30
0.0
 11
7386.5953860435
 21
6321.05
 31
0.0
  0
LINE
  5
184
330
1F
100
AcDbEntity
  8
0
  6
Continuous
 62
     7
370
    25
100
AcDbLine
 10
7405.5953860435
 20
6341.45
 30
0.0
 11
7405.5953860435
 21
6321.05
 31
0.0
  0
LINE
  5
185
330
1F
100
AcDbEntity
  8
0
  6
Continuous
 62
     7
370
    25
100
AcDbLine
 10
7382.5225463258
 20
6352.1546875014
 30
0.0
 11
7382.5225463258
 21
6352.3228397177
 31
0.0
  0
LINE
  5
186
330
1F
100
AcDbEntity
  8
0
  6
Continuous
 62
     7
370
    25
100
AcDbLine
 10
7362.8634248546
 20
6344.25
 30
0.0
 11
7362.6815669981
 21
6344.25
 31
0.0
  0
LINE
  5
187
330
1F
100
AcDbEntity
  8
0
  6
Continuous
 62
     7
370
    25
100
AcDbLine
 10
7416.782443433
 20
6321.9370573895
 30
0.0
 11
7417.1529362916
 21
6322.3075502481
 31
0.0
  0
LINE
  5
188
330
1F
100
AcDbEntity
  8
0
  6
Continuous
 62
     7
370
    25
100
AcDbLine
 10
7417.1529362916
 20
6326.9213028893
 30
0.0
 11
7417.1529362916
 21
6322.3075502481
 31
0.0
  0
LINE
  5
189
330
1F
100
AcDbEntity
  8
0
  6
Continuous
 62
     7
370
    25
100
AcDbLine
 10
7417.5953860435
 20
6331.25
 30
0.0
 11
7417.5953860435
 21
6322.75
 31
0.0
  0
LINE
  5
18A
330
1F
100
AcDbEntity
  8
0
  6
Continuous
 62
     7
370
    25
100
AcDbLine
 10
7417.5953860435
 20
6339.75
 30
0.0
 11
7417.5953860435
 21
6331.25
 31
0.0
  0
LWPOLYLINE
  5
18B
330
1F
100
AcDbEntity
  8
0
  6
Continuous
 62
     7
370
    25
100
AcDbPolyline
 90
        5
 70
   128
 43
0.0
 10
7333.4748044466
 20
6342.4376589558
 10
7333.090462568
 20
6342.2136880059
 10
7332.7718041344
 20
6342.0952639228
 10
7332.6235341781
 20
6342.1145099744
 10
7332.5953860435
 20
6342.1871499374
  0
LWPOLYLINE
  5
18C
330
1F
100
AcDbEntity
  8
0
  6
Continuous
 62
     7
370
    25
100
AcDbPolyline
 90
        5
 70
   128
 43
0.0
 10
7334.5953860435
 20
6342.4444992792
 10
7334.5307008981
 20
6342.6864213155
 10
7334.3523276894
 20
6342.7830465005
 10
7333.9923922987
 20
6342.7162975872
 10
7333.4748044466
 20
6342.4376589558
  0
LINE
  5
18D
330
1F
100
AcDbEntity
  8
0
  6
Continuous
 62
     7
370
    25
100
AcDbLine
 10
7334.5953860435
 20
6342.4444992792
 30
0.0
 11
7334.5953860435
 21
6341.8854002195
 31
0.0
  0
ARC
  5
18E
330
1F
100
AcDbEntity
  8
0
  6
Continuous
 62
     7
370
    25
100
AcDbCircle
 10
7330.8443955067
 20
6342.4887842541
 30
0.0
 40
3.799210746958349
100
AcDbArc
 50
313.8169512571
 51
350.8616896167
  0
LINE
  5
18F
330
1F
100
AcDbEntity
  8
0
  6
Continuous
 62
     7
370
    25
100
AcDbLine
 10
7332.5953860435
 20
6342.1871499374
 30
0.0
 11
7332.5953860435
 21
6338.0095304014
 31
0.0
  0
ARC
  5
190
330
1F
100
AcDbEntity
  8
0
  6
Continuous
 62
     7
370
    25
100
AcDbCircle
 10
7330.8292100474
 20
6320.0032564906
 30
0.0
 40
3.815471432433033
100
AcDbArc
 50
9.2200989572
 51
46.101260169
  0
LINE
  5
191
330
1F
100
AcDbEntity
  8
0
  6
Continuous
 62
     7
370
    25
100
AcDbLine
 10
7334.5953860435
 20
6320.6145997805
 30
0.0
 11
7334.5953860435
 21
6320.0555007208
 31
0.0
  0
LWPOLYLINE
  5
192
330
1F
100
AcDbEntity
  8
0
  6
Continuous
 62
     7
370
    25
100
AcDbPolyline
 90
        6
 70
   128
 43
0.0
 10
7333.4748044466
 20
6320.0623410442
 10
7333.796690421
 20
6319.8728493867
 10
7334.0873609403
 20
6319.7506465573
 10
7334.3974291968
 20
6319.7256083599
 10
7334.5571488741
 20
6319.8573352222
 10
7334.5953860435
 20
6320.0555007208
  0
LWPOLYLINE
  5
193
330
1F
100
AcDbEntity
  8
0
  6
Continuous
 62
     7
370
    25
100
AcDbPolyline
 90
        5
 70
   128
 43
0.0
 10
7332.5953860435
 20
6320.3128500626
 10
7332.6057822492
 20
6320.3625333477
 10
7332.7061827299
 20
6320.4107122995
 10
7332.9728663619
 20
6320.3405959532
 10
7333.4748044466
 20
6320.0623410442
  0
LINE
  5
194
330
1F
100
AcDbEntity
  8
0
  6
Continuous
 62
     7
370
    25
100
AcDbLine
 10
7332.5953860435
 20
6324.4904695986
 30
0.0
 11
7332.5953860435
 21
6320.3128500626
 31
0.0
  0
LINE
  5
195
330
1F
100
AcDbEntity
  8
0
  6
Continuous
 62
     7
370
    25
100
AcDbLine
 10
7416.9963475846
 20
6322.3075502481
 30
0.0
 11
7417.1529362916
 21
6322.3075502481
 31
0.0
  0
LINE
  5
196
330
1F
100
AcDbEntity
  8
0
  6
Continuous
 62
     7
370
    25
100
AcDbLine
 10
7334.5953860435
 20
6341.8854002195
 30
0.0
 11
7349.5953860435
 21
6341.8854002195
 31
0.0
  0
LINE
  5
197
330
1F
100
AcDbEntity
  8
0
  6
Continuous
 62
     7
370
    25
100
AcDbLine
 10
7349.5953860435
 20
6341.8854002195
 30
0.0
 11
7349.5953860435
 21
6339.7474431391
 31
0.0
  0
LINE
  5
198
330
1F
100
AcDbEntity
  8
0
  6
Continuous
 62
     7
370
    25
100
AcDbLine
 10
7349.5953860435
 20
6320.6145997805
 30
0.0
 11
7334.5953860435
 21
6320.6145997805
 31
0.0
  0
LINE
  5
199
330
1F
100
AcDbEntity
  8
0
  6
Continuous
 62
     7
370
    25
100
AcDbLine
 10
7349.5953860435
 20
6322.7525568609
 30
0.0
 11
7349.5953860435
 21
6320.6145997805
 31
0.0
  0
LINE
  5
19A
330
1F
100
AcDbEntity
  8
0
  6
Continuous
 62
     7
370
    25
100
AcDbLine
 10
7357.5953860435
 20
6340.25
 30
0.0
 11
7357.5953860435
 21
6322.25
 31
0.0
  0
LINE
  5
19B
330
1F
100
AcDbEntity
  8
0
  6
Continuous
 62
     7
370
    25
100
AcDbLine
 10
7368.0953860435
 20
6338.25
 30
0.0
 11
7368.0953860435
 21
6324.25
 31
0.0
  0
LINE
  5
19C
330
1F
100
AcDbEntity
  8
0
  6
Continuous
 62
     7
370
    25
100
AcDbLine
 10
7377.0953860435
 20
6338.25
 30
0.0
 11
7368.0953860435
 21
6338.25
 31
0.0
  0
LINE
  5
19D
330
1F
100
AcDbEntity
  8
0
  6
Continuous
 62
     7
370
    25
100
AcDbLine
 10
7377.0953860435
 20
6324.25
 30
0.0
 11
7377.0953860435
 21
6338.25
 31
0.0
  0
LINE
  5
19E
330
1F
100
AcDbEntity
  8
0
  6
Continuous
 62
     7
370
    25
100
AcDbLine
 10
7368.0953860435
 20
6324.25
 30
0.0
 11
7377.0953860435
 21
6324.25
 31
0.0
  0
LINE
  5
19F
330
1F
100
AcDbEntity
  8
0
  6
Continuous
 62
     7
370
    25
100
AcDbLine
 10
7349.5953860435
 20
6342.4444992792
 30
0.0
 11
7334.5953860435
 21
6342.4444992792
 31
0.0
  0
LINE
  5
1A0
330
1F
100
AcDbEntity
  8
0
  6
Continuous
 62
     7
370
    25
100
AcDbLine
 10
7349.5953860435
 20
6342.4444992792
 30
0.0
 11
7349.5953860435
 21
6341.8854002195
 31
0.0
  0
LINE
  5
1A1
330
1F
100
AcDbEntity
  8
0
  6
Continuous
 62
     7
370
    25
100
AcDbLine
 10
7334.5953860435
 20
6320.0555007208
 30
0.0
 11
7349.5953860435
 21
6320.0555007208
 31
0.0
  0
LINE
  5
1A2
330
1F
100
AcDbEntity
  8
0
  6
Continuous
 62
     7
370
    25
100
AcDbLine
 10
7349.5953860435
 20
6320.6145997805
 30
0.0
 11
7349.5953860435
 21
6320.0555007208
 31
0.0
  0
ARC
  5
1A3
330
1F
100
AcDbEntity
  8
0
  6
Continuous
 62
     7
370
    25
100
AcDbCircle
 10
7216.2657769277
 20
6507.4628429776
 30
0.0
 40
235.0160331499996
100
AcDbArc
 50
313.1833016876
 51
314.3650371342
  0
LWPOLYLINE
  5
1A4
330
1F
100
AcDbEntity
  8
0
  6
Continuous
 62
     7
370
    25
100
AcDbPolyline
 90
        9
 70
   128
 43
0.0
 10
7364.607879968
 20
6339.4378117863
 10
7364.5999003775
 20
6339.4455958316
 10
7364.7025267629
 20
6339.3455066317
 10
7364.9096218119
 20
6339.1437299057
 10
7365.2211810678
 20
6338.8407113648
 10
7365.7686594559
 20
6338.3100422025
 10
7366.4550802924
 20
6337.6486994551
 10
7367.2317150244
 20
6336.9076467547
 10
7368.0953860435
 20
6336.0966483264
  0
LINE
  5
1A5
330
1F
100
AcDbEntity
  8
0
  6
Continuous
 62
     7
370
    25
100
AcDbLine
 10
7380.3600919258
 20
6323.05
 30
0.0
 11
7380.3600919258
 21
6323.279387888
 31
0.0
  0
LWPOLYLINE
  5
1A6
330
1F
100
AcDbEntity
  8
0
  6
Continuous
 62
     7
370
    25
100
AcDbPolyline
 90
        4
 70
   128
 43
0.0
 10
7380.5895436548
 20
6323.0556990172
 10
7380.5947731382
 20
6323.0505979553
 10
7380.530890892
 20
6323.112909783
 10
7380.3600919258
 20
6323.279387888
  0
LINE
  5
1A7
330
1F
100
AcDbEntity
  8
0
  6
Continuous
 62
     7
370
    25
100
AcDbLine
 10
7349.5953860435
 20
6342.7860549415
 30
0.0
 11
7349.5953860435
 21
6342.4444992792
 31
0.0
  0
LINE
  5
1A8
330
1F
100
AcDbEntity
  8
0
  6
Continuous
 62
     7
370
    25
100
AcDbLine
 10
7349.5953860435
 20
6320.0555007208
 30
0.0
 11
7349.5953860435
 21
6319.7139450585
 31
0.0
  0
ARC
  5
1A9
330
1F
100
AcDbEntity
  8
0
  6
Continuous
 62
     7
370
    25
100
AcDbCircle
 10
7335.1625528418
 20
6341.2791821408
 30
0.0
 40
2.723004019485022
100
AcDbArc
 50
128.3023487765
 51
160.5220885841
  0
LINE
  5
1AA
330
1F
100
AcDbEntity
  8
0
  6
Continuous
 62
     7
370
    25
100
AcDbLine
 10
7349.5953860435
 20
6343.4160621666
 30
0.0
 11
7333.4748044466
 21
6343.4160621666
 31
0.0
  0
LINE
  5
1AB
330
1F
100
AcDbEntity
  8
0
  6
Continuous
 62
     7
370
    25
100
AcDbLine
 10
7349.5953860435
 20
6343.4160621666
 30
0.0
 11
7349.5953860435
 21
6342.7860549415
 31
0.0
  0
LINE
  5
1AC
330
1F
100
AcDbEntity
  8
0
  6
Continuous
 62
     7
370
    25
100
AcDbLine
 10
7349.5953860435
 20
6319.7139450585
 30
0.0
 11
7349.5953860435
 21
6319.0839378334
 31
0.0
  0
LINE
  5
1AD
330
1F
100
AcDbEntity
  8
0
  6
Continuous
 62
     7
370
    25
100
AcDbLine
 10
7333.4748044466
 20
6319.0839378334
 30
0.0
 11
7349.5953860435
 21
6319.0839378334
 31
0.0
  0
ARC
  5
1AE
330
1F
100
AcDbEntity
  8
0
  6
Continuous
 62
     7
370
    25
100
AcDbCircle
 10
7335.5078781179
 20
6321.4679351029
 30
0.0
 40
3.133182333297058
100
AcDbArc
 50
201.6331185749
 51
229.5424440645
  0
LINE
  5
1AF
330
1F
100
AcDbEntity
  8
0
  6
Continuous
 62
     7
370
    25
100
AcDbLine
 10
7334.5953860435
 20
6344.75
 30
0.0
 11
7334.5953860435
 21
6344.7416198612
 31
0.0
  0
ARC
  5
1B0
330
1F
100
AcDbEntity
  8
0
  6
Continuous
 62
     7
370
    25
100
AcDbCircle
 10
7324.2644408787
 20
6352.3386214195
 30
0.0
 40
12.82352762208325
100
AcDbArc
 50
315.9093177222
 51
323.6705882323
  0
LINE
  5
1B1
330
1F
100
AcDbEntity
  8
0
  6
Continuous
 62
     7
370
    25
100
AcDbLine
 10
7332.5953860435
 20
6342.75
 30
0.0
 11
7332.5953860435
 21
6342.1871499374
 31
0.0
  0
ARC
  5
1B2
330
1F
100
AcDbEntity
  8
0
  6
Continuous
 62
     7
370
    25
100
AcDbCircle
 10
7324.033526129
 20
6309.9661710689
 30
0.0
 40
13.12522026638483
100
AcDbArc
 50
36.4187429236
 51
44.001351122
  0
LINE
  5
1B3
330
1F
100
AcDbEntity
  8
0
  6
Continuous
 62
     7
370
    25
100
AcDbLine
 10
7334.5953860435
 20
6317.7583801388
 30
0.0
 11
7334.5953860435
 21
6317.75
 31
0.0
  0
LINE
  5
1B4
330
1F
100
AcDbEntity
  8
0
  6
Continuous
 62
     7
370
    25
100
AcDbLine
 10
7332.5953860435
 20
6320.3128500626
 30
0.0
 11
7332.5953860435
 21
6319.75
 31
0.0
  0
LINE
  5
1B5
330
1F
100
AcDbEntity
  8
0
  6
Continuous
 62
     7
370
    25
100
AcDbLine
 10
7334.5953860435
 20
6344.7416198612
 30
0.0
 11
7349.5953860435
 21
6344.7416198612
 31
0.0
  0
LINE
  5
1B6
330
1F
100
AcDbEntity
  8
0
  6
Continuous
 62
     7
370
    25
100
AcDbLine
 10
7349.5953860435
 20
6344.7416198612
 30
0.0
 11
7349.5953860435
 21
6343.4160621666
 31
0.0
  0
LINE
  5
1B7
330
1F
100
AcDbEntity
  8
0
  6
Continuous
 62
     7
370
    25
100
AcDbLine
 10
7349.5953860435
 20
6317.7583801388
 30
0.0
 11
7334.5953860435
 21
6317.7583801388
 31
0.0
  0
LINE
  5
1B8
330
1F
100
AcDbEntity
  8
0
  6
Continuous
 62
     7
370
    25
100
AcDbLine
 10
7349.5953860435
 20
6319.0839378334
 30
0.0
 11
7349.5953860435
 21
6317.7583801388
 31
0.0
  0
LINE
  5
1B9
330
1F
100
AcDbEntity
  8
0
  6
Continuous
 62
     7
370
    25
100
AcDbLine
 10
7349.5953860435
 20
6344.75
 30
0.0
 11
7349.5953860435
 21
6344.7416198612
 31
0.0
  0
LINE
  5
1BA
330
1F
100
AcDbEntity
  8
0
  6
Continuous
 62
     7
370
    25
100
AcDbLine
 10
7349.5953860435
 20
6317.7583801388
 30
0.0
 11
7349.5953860435
 21
6317.75
 31
0.0
  0
LINE
  5
1BB
330
1F
100
AcDbEntity
  8
0
  6
Continuous
 62
     8
370
    25
100
AcDbLine
 10
7402.2401412235
 20
6358.4135676922
 30
0.0
 11
7402.2401412235
 21
6304.0864323078
 31
0.0
  0
LINE
  5
1BC
330
1F
100
AcDbEntity
  8
0
  6
Continuous
 62
     8
370
    25
100
AcDbLine
 10
7403.6075020538
 20
6359.371004053
 30
0.0
 11
7403.6075020538
 21
6303.128995947
 31
0.0
  0
ARC
  5
1BD
330
1F
100
AcDbEntity
  8
0
  6
Continuous
 62
     7
370
    25
100
AcDbCircle
 10
7239.1658890505
 20
6144.5317043788
 30
0.0
 40
1.455115002461753
100
AcDbArc
 50
0.0
 51
70.0
  0
ARC
  5
1BE
330
1F
100
AcDbEntity
  8
0
  6
Continuous
 62
     7
370
    25
100
AcDbCircle
 10
7185.8341109495
 20
6144.5317043788
 30
0.0
 40
1.455115002461753
100
AcDbArc
 50
110.0
 51
180.0
  0
LINE
  5
1BF
330
1F
100
AcDbEntity
  8
0
  6
Continuous
 62
     7
370
    25
100
AcDbLine
 10
7240.621004053
 20
6142.899065209
 30
0.0
 11
7240.621004053
 21
6144.5317043788
 31
0.0
  0
LINE
  5
1C0
330
1F
100
AcDbEntity
  8
0
  6
Continuous
 62
     7
370
    25
100
AcDbLine
 10
7184.378995947
 20
6144.5317043788
 30
0.0
 11
7184.378995947
 21
6142.899065209
 31
0.0
  0
LINE
  5
1C1
330
1F
100
AcDbEntity
  8
0
  6
Continuous
 62
     7
370
    25
100
AcDbLine
 10
7239.6635676922
 20
6145.899065209
 30
0.0
 11
7229.1187509553
 21
6149.7370646271
 31
0.0
  0
LINE
  5
1C2
330
1F
100
AcDbEntity
  8
0
  6
Continuous
 62
     7
370
    25
100
AcDbLine
 10
7195.8812490447
 20
6149.7370646271
 30
0.0
 11
7185.3364323078
 21
6145.899065209
 31
0.0
  0
ARC
  5
1C3
330
1F
100
AcDbEntity
  8
0
  6
Continuous
 62
     7
370
    25
100
AcDbCircle
 10
7228.321004053
 20
6147.899065209
 30
0.0
 40
2.003657151520339
100
AcDbArc
 50
66.5377096797
 51
90.0
  0
ARC
  5
1C4
330
1F
100
AcDbEntity
  8
0
  6
Continuous
 62
     7
370
    25
100
AcDbCircle
 10
7196.678995947
 20
6147.899065209
 30
0.0
 40
2.003657151520339
100
AcDbArc
 50
90.0
 51
113.4622903203
  0
LINE
  5
1C5
330
1F
100
AcDbEntity
  8
0
  6
Continuous
 62
     7
370
    25
100
AcDbLine
 10
7228.321004053
 20
6149.9027223606
 30
0.0
 11
7196.678995947
 21
6149.9027223606
 31
0.0
  0
LINE
  5
1C6
330
1F
100
AcDbEntity
  8
0
  6
Continuous
 62
     7
370
    25
100
AcDbLine
 10
7224.0
 20
6194.5438203891
 30
0.0
 11
7224.0
 21
6198.5438203891
 31
0.0
  0
LINE
  5
1C7
330
1F
100
AcDbEntity
  8
0
  6
Continuous
 62
     7
370
    25
100
AcDbLine
 10
7201.0
 20
6198.5438203891
 30
0.0
 11
7201.0
 21
6194.5438203891
 31
0.0
  0
LINE
  5
1C8
330
1F
100
AcDbEntity
  8
0
  6
Continuous
 62
     7
370
    25
100
AcDbLine
 10
7221.5830988282
 20
6198.5438203891
 30
0.0
 11
7221.5830988282
 21
6214.222672047
 31
0.0
  0
LINE
  5
1C9
330
1F
100
AcDbEntity
  8
0
  6
Continuous
 62
     7
370
    25
100
AcDbLine
 10
7203.4169011718
 20
6214.2219040006
 30
0.0
 11
7203.4169011718
 21
6198.5438203891
 31
0.0
  0
LINE
  5
1CA
330
1F
100
AcDbEntity
  8
0
  6
Continuous
 62
     7
370
    25
100
AcDbLine
 10
7222.7
 20
6149.9027223606
 30
0.0
 11
7222.7
 21
6161.5438203891
 31
0.0
  0
LINE
  5
1CB
330
1F
100
AcDbEntity
  8
0
  6
Continuous
 62
     7
370
    25
100
AcDbLine
 10
7202.3
 20
6161.5438203891
 30
0.0
 11
7202.3
 21
6149.9027223606
 31
0.0
  0
LINE
  5
1CC
330
1F
100
AcDbEntity
  8
0
  6
Continuous
 62
     7
370
    25
100
AcDbLine
 10
7222.7
 20
6142.5438203891
 30
0.0
 11
7222.7
 21
6142.899065209
 31
0.0
  0
LINE
  5
1CD
330
1F
100
AcDbEntity
  8
0
  6
Continuous
 62
     7
370
    25
100
AcDbLine
 10
7202.3
 20
6142.899065209
 30
0.0
 11
7202.3
 21
6142.5438203891
 31
0.0
  0
LWPOLYLINE
  5
1CE
330
1F
100
AcDbEntity
  8
0
  6
Continuous
 62
     7
370
    25
100
AcDbPolyline
 90
        3
 70
   128
 43
0.0
 10
7222.4858226271
 20
6133.4798793287
 10
7221.9557669018
 20
6133.786394263
 10
7221.4424496924
 20
6134.0832775085
  0
LWPOLYLINE
  5
1CF
330
1F
100
AcDbEntity
  8
0
  6
Continuous
 62
     7
370
    25
100
AcDbPolyline
 90
        3
 70
   128
 43
0.0
 10
7222.4858226271
 20
6135.4337254826
 10
7221.9554504208
 20
6135.7404241501
 10
7221.4424495133
 20
6136.037123787
  0
LWPOLYLINE
  5
1D0
330
1F
100
AcDbEntity
  8
0
  6
Continuous
 62
     7
370
    25
100
AcDbPolyline
 90
        3
 70
   128
 43
0.0
 10
7222.4858226271
 20
6137.3875716364
 10
7221.9551307409
 20
6137.6944540279
 10
7221.4424492147
 20
6137.9909700781
  0
LWPOLYLINE
  5
1D1
330
1F
100
AcDbEntity
  8
0
  6
Continuous
 62
     7
370
    25
100
AcDbPolyline
 90
        3
 70
   128
 43
0.0
 10
7222.4858226271
 20
6139.3414177902
 10
7221.9548078624
 20
6139.6484838964
 10
7221.442448797
 20
6139.9448163818
  0
LWPOLYLINE
  5
1D2
330
1F
100
AcDbEntity
  8
0
  6
Continuous
 62
     7
370
    25
100
AcDbPolyline
 90
        3
 70
   128
 43
0.0
 10
7203.5735730396
 20
6133.1156214334
 10
7203.0442382242
 20
6132.809474177
 10
7202.5141822493
 20
6132.5029591436
  0
LWPOLYLINE
  5
1D3
330
1F
100
AcDbEntity
  8
0
  6
Continuous
 62
     7
370
    25
100
AcDbPolyline
 90
        3
 70
   128
 43
0.0
 10
7203.5735730396
 20
6135.0694675872
 10
7203.0445547573
 20
6134.7635040639
 10
7202.5141822493
 20
6134.4568052974
  0
LWPOLYLINE
  5
1D4
330
1F
100
AcDbEntity
  8
0
  6
Continuous
 62
     7
370
    25
100
AcDbPolyline
 90
        3
 70
   128
 43
0.0
 10
7203.5735730396
 20
6137.0233137411
 10
7203.0448744893
 20
6136.7175339416
 10
7202.5141822493
 20
6136.4106514512
  0
LWPOLYLINE
  5
1D5
330
1F
100
AcDbEntity
  8
0
  6
Continuous
 62
     7
370
    25
100
AcDbPolyline
 90
        3
 70
   128
 43
0.0
 10
7203.5735730396
 20
6138.9771598949
 10
7203.0451974199
 20
6138.6715638099
 10
7202.5141822493
 20
6138.3644976051
  0
LINE
  5
1D6
330
1F
100
AcDbEntity
  8
0
  6
Continuous
 62
     7
370
    25
100
AcDbLine
 10
7203.5735730396
 20
6131.1617752795
 30
0.0
 11
7203.4779249315
 21
6131.1064555724
 31
0.0
  0
LWPOLYLINE
  5
1D7
330
1F
100
AcDbEntity
  8
0
  6
Continuous
 62
     7
370
    25
100
AcDbPolyline
 90
        3
 70
   128
 43
0.0
 10
7222.1354988476
 20
6131.7286129422
 10
7221.9560801836
 20
6131.8323643668
 10
7221.4424497519
 20
6132.1294312431
  0
LWPOLYLINE
  5
1D8
330
1F
100
AcDbEntity
  8
0
  6
Continuous
 62
     7
370
    25
100
AcDbPolyline
 90
        3
 70
   128
 43
0.0
 10
7221.424778602
 20
6134.542224895
 10
7221.9547453632
 20
6134.8487369096
 10
7222.4841637721
 20
6135.1548818244
  0
LWPOLYLINE
  5
1D9
330
1F
100
AcDbEntity
  8
0
  6
Continuous
 62
     7
370
    25
100
AcDbPolyline
 90
        3
 70
   128
 43
0.0
 10
7221.424778602
 20
6136.4960710489
 10
7221.9550688569
 20
6136.8027667761
 10
7222.4841637721
 20
6137.1087279782
  0
LWPOLYLINE
  5
1DA
330
1F
100
AcDbEntity
  8
0
  6
Continuous
 62
     7
370
    25
100
AcDbPolyline
 90
        3
 70
   128
 43
0.0
 10
7221.424778602
 20
6138.4499172027
 10
7221.9553891521
 20
6138.7567966519
 10
7222.4841637721
 20
6139.0625741321
  0
LWPOLYLINE
  5
1DB
330
1F
100
AcDbEntity
  8
0
  6
Continuous
 62
     7
370
    25
100
AcDbPolyline
 90
        3
 70
   128
 43
0.0
 10
7221.424778602
 20
6140.4037633566
 10
7221.9557062484
 20
6140.7108265371
 10
7222.4841637721
 20
6141.0164202859
  0
LWPOLYLINE
  5
1DC
330
1F
100
AcDbEntity
  8
0
  6
Continuous
 62
     7
370
    25
100
AcDbPolyline
 90
        3
 70
   128
 43
0.0
 10
7202.5158326279
 20
6134.1779607675
 10
7203.0452512605
 20
6133.8718157407
 10
7203.5575503079
 20
6133.5755220309
  0
LWPOLYLINE
  5
1DD
330
1F
100
AcDbEntity
  8
0
  6
Continuous
 62
     7
370
    25
100
AcDbPolyline
 90
        3
 70
   128
 43
0.0
 10
7202.5158326279
 20
6136.1318069213
 10
7203.0449278
 20
6135.8258456073
 10
7203.5575504879
 20
6135.5293679685
  0
LWPOLYLINE
  5
1DE
330
1F
100
AcDbEntity
  8
0
  6
Continuous
 62
     7
370
    25
100
AcDbPolyline
 90
        3
 70
   128
 43
0.0
 10
7202.5158326279
 20
6138.0856530752
 10
7203.044607538
 20
6137.7798754832
 10
7203.5575507883
 20
6137.4832138986
  0
LWPOLYLINE
  5
1DF
330
1F
100
AcDbEntity
  8
0
  6
Continuous
 62
     7
370
    25
100
AcDbPolyline
 90
        3
 70
   128
 43
0.0
 10
7202.5158326279
 20
6140.039499229
 10
7203.0442904749
 20
6139.7339053685
 10
7203.5575512094
 20
6139.4370598208
  0
LWPOLYLINE
  5
1E0
330
1F
100
AcDbEntity
  8
0
  6
Continuous
 62
     7
370
    25
100
AcDbPolyline
 90
        3
 70
   128
 43
0.0
 10
7202.5158326279
 20
6132.2241146136
 10
7203.0455779192
 20
6131.9177858836
 10
7203.5575502481
 20
6131.6216760859
  0
LWPOLYLINE
  5
1E1
330
1F
100
AcDbEntity
  8
0
  6
Continuous
 62
     7
370
    25
100
AcDbPolyline
 90
        3
 70
   128
 43
0.0
 10
7221.424778602
 20
6132.5883787412
 10
7221.9544186713
 20
6132.8947070526
 10
7222.4841637721
 20
6133.2010356705
  0
LINE
  5
1E2
330
1F
100
AcDbEntity
  8
0
  6
Continuous
 62
     7
370
    25
100
AcDbLine
 10
7222.5
 20
6141.0341727756
 30
0.0
 11
7222.5
 21
6142.5438203891
 31
0.0
  0
LINE
  5
1E3
330
1F
100
AcDbEntity
  8
0
  6
Continuous
 62
     7
370
    25
100
AcDbLine
 10
7222.5
 20
6139.0803266218
 30
0.0
 11
7222.5
 21
6139.3246151158
 31
0.0
  0
LINE
  5
1E4
330
1F
100
AcDbEntity
  8
0
  6
Continuous
 62
     7
370
    25
100
AcDbLine
 10
7222.5
 20
6137.1264804679
 30
0.0
 11
7222.5
 21
6137.3707689619
 31
0.0
  0
LINE
  5
1E5
330
1F
100
AcDbEntity
  8
0
  6
Continuous
 62
     7
370
    25
100
AcDbLine
 10
7222.5
 20
6135.1726343141
 30
0.0
 11
7222.5
 21
6135.4169228081
 31
0.0
  0
LINE
  5
1E6
330
1F
100
AcDbEntity
  8
0
  6
Continuous
 62
     7
370
    25
100
AcDbLine
 10
7222.5
 20
6133.2187881602
 30
0.0
 11
7222.5
 21
6133.4630766542
 31
0.0
  0
LINE
  5
1E7
330
1F
100
AcDbEntity
  8
0
  6
Continuous
 62
     7
370
    25
100
AcDbLine
 10
7202.5
 20
6132.4861568509
 30
0.0
 11
7202.5
 21
6132.2418755752
 31
0.0
  0
LINE
  5
1E8
330
1F
100
AcDbEntity
  8
0
  6
Continuous
 62
     7
370
    25
100
AcDbLine
 10
7202.5
 20
6134.4400030048
 30
0.0
 11
7202.5
 21
6134.1957217291
 31
0.0
  0
LINE
  5
1E9
330
1F
100
AcDbEntity
  8
0
  6
Continuous
 62
     7
370
    25
100
AcDbLine
 10
7202.5
 20
6136.3938491586
 30
0.0
 11
7202.5
 21
6136.1495678829
 31
0.0
  0
LINE
  5
1EA
330
1F
100
AcDbEntity
  8
0
  6
Continuous
 62
     7
370
    25
100
AcDbLine
 10
7202.5
 20
6138.3476953124
 30
0.0
 11
7202.5
 21
6138.1034140368
 31
0.0
  0
LINE
  5
1EB
330
1F
100
AcDbEntity
  8
0
  6
Continuous
 62
     7
370
    25
100
AcDbLine
 10
7202.5
 20
6142.5438203891
 30
0.0
 11
7202.5
 21
6140.0572601906
 31
0.0
  0
LINE
  5
1EC
330
1F
100
AcDbEntity
  8
0
  6
Continuous
 62
     7
370
    25
100
AcDbLine
 10
7203.4664854096
 20
6131.0773349795
 30
0.0
 11
7204.0
 21
6130.5438203891
 31
0.0
  0
LINE
  5
1ED
330
1F
100
AcDbEntity
  8
0
  6
Continuous
 62
     7
370
    25
100
AcDbLine
 10
7221.0
 20
6130.5438203891
 30
0.0
 11
7222.14566803
 21
6131.6894884191
 31
0.0
  0
LINE
  5
1EE
330
1F
100
AcDbEntity
  8
0
  6
Continuous
 62
     7
370
    25
100
AcDbLine
 10
7221.5
 20
6190.5438203891
 30
0.0
 11
7221.5
 21
6194.5438203891
 31
0.0
  0
LINE
  5
1EF
330
1F
100
AcDbEntity
  8
0
  6
Continuous
 62
     7
370
    25
100
AcDbLine
 10
7203.5
 20
6194.5438203891
 30
0.0
 11
7203.5
 21
6190.5438203891
 31
0.0
  0
LWPOLYLINE
  5
1F0
330
1F
100
AcDbEntity
  8
0
  6
Continuous
 62
     7
370
    25
100
AcDbPolyline
 90
        3
 70
   128
 43
0.0
 10
7221.4424497519
 20
6134.0736274035
 10
7221.4424482453
 20
6134.3180423612
 10
7221.4424496924
 20
6134.5524451615
  0
LWPOLYLINE
  5
1F1
330
1F
100
AcDbEntity
  8
0
  6
Continuous
 62
     7
370
    25
100
AcDbPolyline
 90
        3
 70
   128
 43
0.0
 10
7221.4424497519
 20
6136.0274735573
 10
7221.4424437032
 20
6136.2720727034
 10
7221.4424495127
 20
6136.5062910986
  0
LWPOLYLINE
  5
1F2
330
1F
100
AcDbEntity
  8
0
  6
Continuous
 62
     7
370
    25
100
AcDbPolyline
 90
        3
 70
   128
 43
0.0
 10
7221.4424497519
 20
6137.9813197111
 10
7221.4424361257
 20
6138.2261030455
 10
7221.4424492126
 20
6138.4601370282
  0
LWPOLYLINE
  5
1F3
330
1F
100
AcDbEntity
  8
0
  6
Continuous
 62
     7
370
    25
100
AcDbPolyline
 90
        3
 70
   128
 43
0.0
 10
7221.4424497519
 20
6139.935165865
 10
7221.4424255127
 20
6140.1801333873
 10
7221.4424487918
 20
6140.41398295
  0
LWPOLYLINE
  5
1F4
330
1F
100
AcDbEntity
  8
0
  6
Continuous
 62
     7
370
    25
100
AcDbPolyline
 90
        3
 70
   128
 43
0.0
 10
7203.5575502481
 20
6133.5851663152
 10
7203.5575517621
 20
6133.3411197345
 10
7203.5575503079
 20
6133.1063544907
  0
LWPOLYLINE
  5
1F5
330
1F
100
AcDbEntity
  8
0
  6
Continuous
 62
     7
370
    25
100
AcDbPolyline
 90
        3
 70
   128
 43
0.0
 10
7203.5575502481
 20
6135.539012469
 10
7203.5575563116
 20
6135.2951500767
 10
7203.5575504873
 20
6135.0602007684
  0
LWPOLYLINE
  5
1F6
330
1F
100
AcDbEntity
  8
0
  6
Continuous
 62
     7
370
    25
100
AcDbPolyline
 90
        3
 70
   128
 43
0.0
 10
7203.5575502481
 20
6137.4928586229
 10
7203.5575638965
 20
6137.2491804188
 10
7203.5575507861
 20
6137.0140470589
  0
LWPOLYLINE
  5
1F7
330
1F
100
AcDbEntity
  8
0
  6
Continuous
 62
     7
370
    25
100
AcDbPolyline
 90
        3
 70
   128
 43
0.0
 10
7203.5575502481
 20
6139.4467047767
 10
7203.5575745169
 20
6139.2032107606
 10
7203.5575512041
 20
6138.9678933618
  0
LINE
  5
1F8
330
1F
100
AcDbEntity
  8
0
  6
Continuous
 62
     7
370
    25
100
AcDbLine
 10
7203.5575502481
 20
6131.6313201613
 30
0.0
 11
7203.5575502481
 21
6131.152508226
 31
0.0
  0
LINE
  5
1F9
330
1F
100
AcDbEntity
  8
0
  6
Continuous
 62
     7
370
    25
100
AcDbLine
 10
7221.4424497519
 20
6132.1197812496
 30
0.0
 11
7221.4424497519
 21
6132.598599217
 31
0.0
  0
LINE
  5
1FA
330
1F
100
AcDbEntity
  8
0
  6
Continuous
 62
     7
370
    25
100
AcDbLine
 10
7220.7
 20
6182.0577874799
 30
0.0
 11
7220.7
 21
6190.5438203891
 31
0.0
  0
LINE
  5
1FB
330
1F
100
AcDbEntity
  8
0
  6
Continuous
 62
     7
370
    25
100
AcDbLine
 10
7220.7
 20
6161.5438203891
 30
0.0
 11
7220.7
 21
6169.0249329476
 31
0.0
  0
LINE
  5
1FC
330
1F
100
AcDbEntity
  8
0
  6
Continuous
 62
     7
370
    25
100
AcDbLine
 10
7204.3
 20
6169.0058800758
 30
0.0
 11
7204.3
 21
6161.5438203891
 31
0.0
  0
LINE
  5
1FD
330
1F
100
AcDbEntity
  8
0
  6
Continuous
 62
     7
370
    25
100
AcDbLine
 10
7204.3
 20
6190.5438203891
 30
0.0
 11
7204.3
 21
6182.0669073395
 31
0.0
  0
LINE
  5
1FE
330
1F
100
AcDbEntity
  8
0
  6
Continuous
 62
     7
370
    25
100
AcDbLine
 10
7225.5555555556
 20
6198.5438203891
 30
0.0
 11
7225.5555555556
 21
6213.6104098433
 31
0.0
  0
LINE
  5
1FF
330
1F
100
AcDbEntity
  8
0
  6
Continuous
 62
     7
370
    25
100
AcDbLine
 10
7199.4444444444
 20
6213.6210624529
 30
0.0
 11
7199.4444444444
 21
6198.5438203891
 31
0.0
  0
LINE
  5
200
330
1F
100
AcDbEntity
  8
0
  6
Continuous
 62
     7
370
    25
100
AcDbLine
 10
7212.5
 20
6142.899065209
 30
0.0
 11
7184.378995947
 21
6142.899065209
 31
0.0
  0
LINE
  5
201
330
1F
100
AcDbEntity
  8
0
  6
Continuous
 62
     7
370
    25
100
AcDbLine
 10
7240.621004053
 20
6142.899065209
 30
0.0
 11
7212.5
 21
6142.899065209
 31
0.0
  0
LINE
  5
202
330
1F
100
AcDbEntity
  8
0
  6
Continuous
 62
     7
370
    25
100
AcDbLine
 10
7212.5
 20
6149.7370646271
 30
0.0
 11
7195.8812490447
 21
6149.7370646271
 31
0.0
  0
LINE
  5
203
330
1F
100
AcDbEntity
  8
0
  6
Continuous
 62
     7
370
    25
100
AcDbLine
 10
7229.1187509553
 20
6149.7370646271
 30
0.0
 11
7212.5
 21
6149.7370646271
 31
0.0
  0
ARC
  5
204
330
1F
100
AcDbEntity
  8
0
  6
Continuous
 62
     7
370
    25
100
AcDbCircle
 10
7212.1168187734
 20
6175.6859246746
 30
0.0
 40
10.47412840246333
100
AcDbArc
 50
247.1379038145
 51
272.096553182
  0
LINE
  5
205
330
1F
100
AcDbEntity
  8
0
  6
Continuous
 62
     7
370
    25
100
AcDbLine
 10
7212.5
 20
6165.2188076914
 30
0.0
 11
7212.5
 21
6165.6166601068
 31
0.0
  0
ARC
  5
206
330
1F
100
AcDbEntity
  8
0
  6
Continuous
 62
     7
370
    25
100
AcDbCircle
 10
7212.5
 20
6175.5438203891
 30
0.0
 40
9.92716028229188
100
AcDbArc
 50
237.4088879239
 51
270.0
  0
LWPOLYLINE
  5
207
330
1F
100
AcDbEntity
  8
0
  6
Continuous
 62
     7
370
    25
100
AcDbPolyline
 90
       54
 70
   128
 43
0.0
 10
7216.0756076246
 20
6165.6713824878
 10
7216.7255188139
 20
6165.9396067116
 10
7217.3588163879
 20
6166.252249326
 10
7218.1071796853
 20
6166.6944104185
 10
7218.8211641611
 20
6167.2006818368
 10
7219.5045156262
 20
6167.7775784802
 10
7220.1406867948
 20
6168.4154565394
 10
7220.6996743422
 20
6169.0802212647
 10
7221.2046277196
 20
6169.7944097702
 10
7221.656919441
 20
6170.5655352825
 10
7222.043997046
 20
6171.378773294
 10
7222.3473882105
 20
6172.1859158874
 10
7222.584338083
 20
6173.021225149
 10
7222.7536892604
 20
6173.8920613425
 10
7222.848701472
 20
6174.7806731087
 10
7222.8678029332
 20
6175.6427464345
 10
7222.814524177
 20
6176.5094268958
 10
7222.6850367471
 20
6177.387379173
 10
7222.4788405082
 20
6178.2573648846
 10
7222.2113165648
 20
6179.0714002513
 10
7221.4633909409
 20
6180.6457272054
 10
7220.983336175
 20
6181.3930021865
 10
7220.4619876415
 20
6182.0710838756
 10
7219.236741383
 20
6183.3063042383
 10
7218.5370150886
 20
6183.8508946266
 10
7217.8225585739
 20
6184.3153745755
 10
7216.2616774255
 20
6185.0696036927
 10
7215.4236710159
 20
6185.3494128114
 10
7214.5991371059
 20
6185.5491754605
 10
7212.8843233703
 20
6185.7419271553
 10
7212.005125439
 20
6185.7283449878
 10
7211.1619599238
 20
6185.6434150326
 10
7209.4821353847
 20
6185.2552916907
 10
7208.65826612
 20
6184.9496116231
 10
7207.8969623496
 20
6184.5912285461
 10
7206.4521460631
 20
6183.6738192007
 10
7205.7812275724
 20
6183.1166914458
 10
7205.1814880422
 20
6182.5264830188
 10
7204.1228155468
 20
6181.1812755115
 10
7203.6754271267
 20
6180.432189848
 10
7203.3092097516
 20
6179.680961509
 10
7202.7621486087
 20
6178.0714310682
 10
7202.5899036338
 20
6177.2224638137
 10
7202.4935327437
 20
6176.3935499328
 10
7202.5108448953
 20
6174.6961798383
 10
7202.6301731009
 20
6173.8393397144
 10
7202.8141913148
 20
6173.0289299077
 10
7203.3932224081
 20
6171.4406237925
 10
7203.7891017364
 20
6170.6753941066
 10
7204.2300670262
 20
6169.9751179636
 10
7205.2985625892
 20
6168.6745055037
 10
7205.9228619434
 20
6168.0863445469
 10
7206.5185107822
 20
6167.6106945465
 10
7207.1528334491
 20
6167.1798308418
  0
ARC
  5
208
330
1F
100
AcDbEntity
  8
0
  6
Continuous
 62
     7
370
    25
100
AcDbCircle
 10
7212.5
 20
6175.5438203891
 30
0.0
 40
10.50000000000079
100
AcDbArc
 50
244.909414232
 51
289.9094151912
  0
CIRCLE
  5
209
330
1F
100
AcDbEntity
  8
0
  6
Continuous
 62
     7
370
    25
100
AcDbCircle
 10
7212.5
 20
6175.5438203891
 30
0.0
 40
9.0
  0
CIRCLE
  5
20A
330
1F
100
AcDbEntity
  8
0
  6
Continuous
 62
     7
370
    25
100
AcDbCircle
 10
7212.5
 20
6175.5438203891
 30
0.0
 40
6.0
  0
ARC
  5
20B
330
1F
100
AcDbEntity
  8
0
  6
Continuous
 62
     7
370
    25
100
AcDbCircle
 10
7212.4710599498
 20
6175.5548926247
 30
0.0
 40
10.49780088608575
100
AcDbArc
 50
299.3675250603
 51
245.0780871698
  0
LINE
  5
20C
330
1F
100
AcDbEntity
  8
0
  6
Continuous
 62
     7
370
    25
100
AcDbLine
 10
7203.6438675684
 20
6169.9277621978
 30
0.0
 11
7203.7384538734
 21
6169.7571711453
 31
0.0
  0
LINE
  5
20D
330
1F
100
AcDbEntity
  8
0
  6
Continuous
 62
     7
370
    25
100
AcDbLine
 10
7216.0536954353
 20
6215.5438203891
 30
0.0
 11
7208.9463045647
 21
6215.5438203891
 31
0.0
  0
ARC
  5
20E
330
1F
100
AcDbEntity
  8
0
  6
Continuous
 62
     7
370
    25
100
AcDbCircle
 10
7216.0412046515
 20
6214.2118864907
 30
0.0
 40
1.331992465981989
100
AcDbArc
 50
89.4626998989
 51
160.1396803584
  0
ARC
  5
20F
330
1F
100
AcDbEntity
  8
0
  6
Continuous
 62
     7
370
    25
100
AcDbCircle
 10
7213.0602306277
 20
6215.4335659679
 30
0.0
 40
1.891639770907177
100
AcDbArc
 50
267.4357127617
 51
336.007798851
  0
LINE
  5
210
330
1F
100
AcDbEntity
  8
0
  6
Continuous
 62
     7
370
    25
100
AcDbLine
 10
7212.9755980671
 20
6213.5438203891
 30
0.0
 11
7212.0244019329
 21
6213.5438203891
 31
0.0
  0
ARC
  5
211
330
1F
100
AcDbEntity
  8
0
  6
Continuous
 62
     7
370
    25
100
AcDbCircle
 10
7211.9405596763
 20
6215.4348444929
 30
0.0
 40
1.892881846565784
100
AcDbArc
 50
204.0178304032
 51
272.5386579841
  0
ARC
  5
212
330
1F
100
AcDbEntity
  8
0
  6
Continuous
 62
     7
370
    25
100
AcDbCircle
 10
7208.9596519387
 20
6214.2131189078
 30
0.0
 40
1.330768418877361
100
AcDbArc
 50
19.8229434795
 51
90.5746762632
  0
LINE
  5
213
330
1F
100
AcDbEntity
  8
0
  6
Continuous
 62
     7
370
    25
100
AcDbLine
 10
7212.9755980671
 20
6198.5438203891
 30
0.0
 11
7212.9755980671
 21
6213.5438203891
 31
0.0
  0
LINE
  5
214
330
1F
100
AcDbEntity
  8
0
  6
Continuous
 62
     7
370
    25
100
AcDbLine
 10
7212.9755980671
 20
6198.5438203891
 30
0.0
 11
7212.0244019329
 21
6198.5438203891
 31
0.0
  0
LINE
  5
215
330
1F
100
AcDbEntity
  8
0
  6
Continuous
 62
     7
370
    25
100
AcDbLine
 10
7212.0244019329
 20
6213.5438203891
 30
0.0
 11
7212.0244019329
 21
6198.5438203891
 31
0.0
  0
LINE
  5
216
330
1F
100
AcDbEntity
  8
0
  6
Continuous
 62
     7
370
    25
100
AcDbLine
 10
7214.7884342591
 20
6214.664401986
 30
0.0
 11
7214.7884342591
 21
6198.5438203891
 31
0.0
  0
LINE
  5
217
330
1F
100
AcDbEntity
  8
0
  6
Continuous
 62
     7
370
    25
100
AcDbLine
 10
7214.7884342591
 20
6198.5438203891
 30
0.0
 11
7212.9755980671
 21
6198.5438203891
 31
0.0
  0
LINE
  5
218
330
1F
100
AcDbEntity
  8
0
  6
Continuous
 62
     7
370
    25
100
AcDbLine
 10
7210.2115657409
 20
6198.5438203891
 30
0.0
 11
7210.2115657409
 21
6214.664401986
 31
0.0
  0
LINE
  5
219
330
1F
100
AcDbEntity
  8
0
  6
Continuous
 62
     7
370
    25
100
AcDbLine
 10
7212.0244019329
 20
6198.5438203891
 30
0.0
 11
7210.2115657409
 21
6198.5438203891
 31
0.0
  0
LINE
  5
21A
330
1F
100
AcDbEntity
  8
0
  6
Continuous
 62
     7
370
    25
100
AcDbLine
 10
7208.9463045647
 20
6198.5438203891
 30
0.0
 11
7207.2003502861
 21
6198.5438203891
 31
0.0
  0
LINE
  5
21B
330
1F
100
AcDbEntity
  8
0
  6
Continuous
 62
     7
370
    25
100
AcDbLine
 10
7207.2003502861
 20
6214.664401986
 30
0.0
 11
7207.2003502861
 21
6198.5438203891
 31
0.0
  0
ARC
  5
21C
330
1F
100
AcDbEntity
  8
0
  6
Continuous
 62
     7
370
    25
100
AcDbCircle
 10
7209.1147117473
 20
6213.0365976968
 30
0.0
 40
2.512872182998087
100
AcDbArc
 50
93.8427176767
 51
139.6250909793
  0
LINE
  5
21D
330
1F
100
AcDbEntity
  8
0
  6
Continuous
 62
     7
370
    25
100
AcDbLine
 10
7210.2115657409
 20
6198.5438203891
 30
0.0
 11
7208.9463045647
 21
6198.5438203891
 31
0.0
  0
ARC
  5
21E
330
1F
100
AcDbEntity
  8
0
  6
Continuous
 62
     7
370
    25
100
AcDbCircle
 10
7215.9174286918
 20
6213.1004077525
 30
0.0
 40
2.447209418508
100
AcDbArc
 50
39.7242146555
 51
86.8079766885
  0
LINE
  5
21F
330
1F
100
AcDbEntity
  8
0
  6
Continuous
 62
     7
370
    25
100
AcDbLine
 10
7217.7996497139
 20
6198.5438203891
 30
0.0
 11
7217.7996497139
 21
6214.664401986
 31
0.0
  0
LINE
  5
220
330
1F
100
AcDbEntity
  8
0
  6
Continuous
 62
     7
370
    25
100
AcDbLine
 10
7217.7996497139
 20
6198.5438203891
 30
0.0
 11
7216.0536954353
 21
6198.5438203891
 31
0.0
  0
LINE
  5
221
330
1F
100
AcDbEntity
  8
0
  6
Continuous
 62
     7
370
    25
100
AcDbLine
 10
7216.0536954353
 20
6198.5438203891
 30
0.0
 11
7214.7884342591
 21
6198.5438203891
 31
0.0
  0
LINE
  5
222
330
1F
100
AcDbEntity
  8
0
  6
Continuous
 62
     7
370
    25
100
AcDbLine
 10
7221.8036954353
 20
6215.5438203891
 30
0.0
 11
7216.0536954353
 21
6215.5438203891
 31
0.0
  0
LWPOLYLINE
  5
223
330
1F
100
AcDbEntity
  8
0
  6
Continuous
 62
     7
370
    25
100
AcDbPolyline
 90
        5
 70
   128
 43
0.0
 10
7221.5024141261
 20
6214.664401986
 10
7221.423364181
 20
6215.0487438646
 10
7221.4774830555
 20
6215.3674022981
 10
7221.6415186292
 20
6215.5156722544
 10
7221.8036954353
 20
6215.5438203891
  0
LWPOLYLINE
  5
224
330
1F
100
AcDbEntity
  8
0
  6
Continuous
 62
     7
370
    25
100
AcDbPolyline
 90
        5
 70
   128
 43
0.0
 10
7220.8149421027
 20
6213.5438203891
 10
7221.1978183932
 20
6213.6085055344
 10
7221.4484647082
 20
6213.7868787432
 10
7221.580671852
 20
6214.1468141339
 10
7221.5024141261
 20
6214.664401986
  0
LINE
  5
225
330
1F
100
AcDbEntity
  8
0
  6
Continuous
 62
     7
370
    25
100
AcDbLine
 10
7220.8149421027
 20
6213.5438203891
 30
0.0
 11
7220.0454082652
 21
6213.5438203891
 31
0.0
  0
ARC
  5
226
330
1F
100
AcDbEntity
  8
0
  6
Continuous
 62
     7
370
    25
100
AcDbCircle
 10
7220.3100109544
 20
6216.8847649982
 30
0.0
 40
3.351406490421172
100
AcDbArc
 50
221.4920998169
 51
265.471628872
  0
LINE
  5
227
330
1F
100
AcDbEntity
  8
0
  6
Continuous
 62
     7
370
    25
100
AcDbLine
 10
7220.0454082652
 20
6213.5438203891
 30
0.0
 11
7220.0454082652
 21
6198.5438203891
 31
0.0
  0
LINE
  5
228
330
1F
100
AcDbEntity
  8
0
  6
Continuous
 62
     7
370
    25
100
AcDbLine
 10
7220.0454082652
 20
6198.5438203891
 30
0.0
 11
7217.7996497139
 21
6198.5438203891
 31
0.0
  0
LINE
  5
229
330
1F
100
AcDbEntity
  8
0
  6
Continuous
 62
     7
370
    25
100
AcDbLine
 10
7208.9463045647
 20
6215.5438203891
 30
0.0
 11
7203.1963045647
 21
6215.5438203891
 31
0.0
  0
ARC
  5
22A
330
1F
100
AcDbEntity
  8
0
  6
Continuous
 62
     7
370
    25
100
AcDbCircle
 10
7204.6813955059
 20
6216.9019873184
 30
0.0
 40
3.369261240199425
100
AcDbArc
 50
274.6509288449
 51
318.3853424662
  0
LINE
  5
22B
330
1F
100
AcDbEntity
  8
0
  6
Continuous
 62
     7
370
    25
100
AcDbLine
 10
7204.9545917348
 20
6213.5438203891
 30
0.0
 11
7204.1850578973
 21
6213.5438203891
 31
0.0
  0
LWPOLYLINE
  5
22C
330
1F
100
AcDbEntity
  8
0
  6
Continuous
 62
     7
370
    25
100
AcDbPolyline
 90
        6
 70
   128
 43
0.0
 10
7203.4975858739
 20
6214.664401986
 10
7203.4250547882
 20
6214.3474458297
 10
7203.4318370786
 20
6214.0518454923
 10
7203.5925288895
 20
6213.7417772358
 10
7203.8809575755
 20
6213.5820575585
 10
7204.1850578973
 20
6213.5438203891
  0
LWPOLYLINE
  5
22D
330
1F
100
AcDbEntity
  8
0
  6
Continuous
 62
     7
370
    25
100
AcDbPolyline
 90
        5
 70
   128
 43
0.0
 10
7203.1963045647
 20
6215.5438203891
 10
7203.2996678188
 20
6215.5334241834
 10
7203.4772866265
 20
6215.4330237027
 10
7203.575915152
 20
6215.1663400707
 10
7203.4975858739
 20
6214.664401986
  0
LINE
  5
22E
330
1F
100
AcDbEntity
  8
0
  6
Continuous
 62
     7
370
    25
100
AcDbLine
 10
7204.9545917348
 20
6198.5438203891
 30
0.0
 11
7204.9545917348
 21
6213.5438203891
 31
0.0
  0
LINE
  5
22F
330
1F
100
AcDbEntity
  8
0
  6
Continuous
 62
     7
370
    25
100
AcDbLine
 10
7207.2003502861
 20
6198.5438203891
 30
0.0
 11
7204.9545917348
 21
6198.5438203891
 31
0.0
  0
LINE
  5
230
330
1F
100
AcDbEntity
  8
0
  6
Continuous
 62
     7
370
    25
100
AcDbLine
 10
7224.0
 20
6194.5438203891
 30
0.0
 11
7201.0
 21
6194.5438203891
 31
0.0
  0
LINE
  5
231
330
1F
100
AcDbEntity
  8
0
  6
Continuous
 62
     7
370
    25
100
AcDbLine
 10
7220.8149421027
 20
6198.5438203891
 30
0.0
 11
7220.8149421027
 21
6213.5438203891
 31
0.0
  0
LINE
  5
232
330
1F
100
AcDbEntity
  8
0
  6
Continuous
 62
     7
370
    25
100
AcDbLine
 10
7220.8149421027
 20
6198.5438203891
 30
0.0
 11
7220.0454082652
 21
6198.5438203891
 31
0.0
  0
LINE
  5
233
330
1F
100
AcDbEntity
  8
0
  6
Continuous
 62
     7
370
    25
100
AcDbLine
 10
7204.1850578973
 20
6213.5438203891
 30
0.0
 11
7204.1850578973
 21
6198.5438203891
 31
0.0
  0
LINE
  5
234
330
1F
100
AcDbEntity
  8
0
  6
Continuous
 62
     7
370
    25
100
AcDbLine
 10
7204.9545917348
 20
6198.5438203891
 30
0.0
 11
7204.1850578973
 21
6198.5438203891
 31
0.0
  0
LINE
  5
235
330
1F
100
AcDbEntity
  8
0
  6
Continuous
 62
     7
370
    25
100
AcDbLine
 10
7221.5830988282
 20
6198.5438203891
 30
0.0
 11
7220.8149421027
 21
6198.5438203891
 31
0.0
  0
LINE
  5
236
330
1F
100
AcDbEntity
  8
0
  6
Continuous
 62
     7
370
    25
100
AcDbLine
 10
7204.1850578973
 20
6198.5438203891
 30
0.0
 11
7203.4169011718
 21
6198.5438203891
 31
0.0
  0
LINE
  5
237
330
1F
100
AcDbEntity
  8
0
  6
Continuous
 62
     7
370
    25
100
AcDbLine
 10
7222.7
 20
6161.5438203891
 30
0.0
 11
7202.3
 21
6161.5438203891
 31
0.0
  0
LINE
  5
238
330
1F
100
AcDbEntity
  8
0
  6
Continuous
 62
     7
370
    25
100
AcDbLine
 10
7222.7
 20
6142.5438203891
 30
0.0
 11
7202.3
 21
6142.5438203891
 31
0.0
  0
LWPOLYLINE
  5
239
330
1F
100
AcDbEntity
  8
0
  6
Continuous
 62
     7
370
    25
100
AcDbPolyline
 90
       21
 70
   128
 43
0.0
 10
7222.1303028748
 20
6131.7048535744
 10
7222.1325624909
 20
6131.6930964536
 10
7221.8588602793
 20
6131.6589254489
 10
7221.3311898796
 20
6131.6266360596
 10
7220.5308012524
 20
6131.5923848646
 10
7219.536646015
 20
6131.5589922252
 10
7218.3131385616
 20
6131.5251528411
 10
7216.9675695648
 20
6131.4927011684
 10
7215.4557839862
 20
6131.4581936747
 10
7213.9264742539
 20
6131.4249203496
 10
7212.317342904
 20
6131.3914790967
 10
7210.767057814
 20
6131.3586722718
 10
7209.227808196
 20
6131.3240273166
 10
7207.848901447
 20
6131.2909360329
 10
7206.5698188268
 20
6131.2576891696
 10
7205.5026496281
 20
6131.2245923455
 10
7204.6135656378
 20
6131.1899502968
 10
7203.9844049769
 20
6131.1570852302
 10
7203.5865470914
 20
6131.1237462534
 10
7203.4560814717
 20
6131.0904476209
 10
7203.4746890212
 20
6131.0855385911
  0
LWPOLYLINE
  5
23A
330
1F
100
AcDbEntity
  8
0
  6
Continuous
 62
     7
370
    25
100
AcDbPolyline
 90
       21
 70
   128
 43
0.0
 10
7203.600745953
 20
6131.1617167983
 10
7203.627224954
 20
6131.1822460129
 10
7203.9108894465
 20
6131.2308477079
 10
7204.4022568207
 20
6131.2784843296
 10
7205.1522403747
 20
6131.3313330899
 10
7206.1118232241
 20
6131.3844739437
 10
7207.2377080532
 20
6131.435684148
 10
7208.5089856903
 20
6131.4868641044
 10
7209.9085103771
 20
6131.5399963232
 10
7211.3790064993
 20
6131.5928593525
 10
7212.8599704764
 20
6131.6435026151
 10
7214.3425092638
 20
6131.6953659872
 10
7215.7861238397
 20
6131.7486427167
 10
7217.129647301
 20
6131.8010913139
 10
7218.3284434368
 20
6131.8515374305
 10
7219.3795951312
 20
6131.9039562758
 10
7220.2414643533
 20
6131.9572373064
 10
7220.8787798847
 20
6132.0091384383
 10
7221.2797925648
 20
6132.0597589578
 10
7221.4401422185
 20
6132.1126004982
 10
7221.4276314121
 20
6132.1197720343
  0
LWPOLYLINE
  5
23B
330
1F
100
AcDbEntity
  8
0
  6
Continuous
 62
     7
370
    25
100
AcDbPolyline
 90
       21
 70
   128
 43
0.0
 10
7203.6007489819
 20
6133.1155653005
 10
7203.627224954
 20
6133.1360921667
 10
7203.9108894465
 20
6133.1846938618
 10
7204.4022568207
 20
6133.2323304834
 10
7205.1522403747
 20
6133.2851792438
 10
7206.1118232241
 20
6133.3383200976
 10
7207.2377080532
 20
6133.3895303019
 10
7208.5089856903
 20
6133.4407102583
 10
7209.9085103771
 20
6133.493842477
 10
7211.3790064993
 20
6133.5467055063
 10
7212.8599704764
 20
6133.597348769
 10
7214.3425092638
 20
6133.649212141
 10
7215.7861238397
 20
6133.7024888705
 10
7217.129647301
 20
6133.7549374678
 10
7218.3284434368
 20
6133.8053835844
 10
7219.3795951312
 20
6133.8578024296
 10
7220.2414643533
 20
6133.9110834602
 10
7220.8787798847
 20
6133.9629845921
 10
7221.2797925648
 20
6134.0136051116
 10
7221.4401422185
 20
6134.0664466521
 10
7221.4276072402
 20
6134.0736320441
  0
LWPOLYLINE
  5
23C
330
1F
100
AcDbEntity
  8
0
  6
Continuous
 62
     7
370
    25
100
AcDbPolyline
 90
       21
 70
   128
 43
0.0
 10
7203.6007520113
 20
6135.069413803
 10
7203.627224954
 20
6135.0899383206
 10
7203.9108894465
 20
6135.1385400156
 10
7204.4022568207
 20
6135.1861766373
 10
7205.1522403747
 20
6135.2390253976
 10
7206.1118232241
 20
6135.2921662514
 10
7207.2377080532
 20
6135.3433764557
 10
7208.5089856903
 20
6135.3945564121
 10
7209.9085103771
 20
6135.4476886309
 10
7211.3790064993
 20
6135.5005516602
 10
7212.8599704764
 20
6135.5511949228
 10
7214.3425092638
 20
6135.6030582949
 10
7215.7861238397
 20
6135.6563350244
 10
7217.129647301
 20
6135.7087836216
 10
7218.3284434368
 20
6135.7592297382
 10
7219.3795951312
 20
6135.8116485835
 10
7220.2414643533
 20
6135.8649296141
 10
7220.8787798847
 20
6135.9168307459
 10
7221.2797925648
 20
6135.9674512655
 10
7221.4401422185
 20
6136.0202928059
 10
7221.4275830927
 20
6136.02749204
  0
LWPOLYLINE
  5
23D
330
1F
100
AcDbEntity
  8
0
  6
Continuous
 62
     7
370
    25
100
AcDbPolyline
 90
       21
 70
   128
 43
0.0
 10
7203.6007550412
 20
6137.023262306
 10
7203.627224954
 20
6137.0437844744
 10
7203.9108894465
 20
6137.0923861695
 10
7204.4022568207
 20
6137.1400227911
 10
7205.1522403747
 20
6137.1928715515
 10
7206.1118232241
 20
6137.2460124053
 10
7207.2377080532
 20
6137.2972226096
 10
7208.5089856903
 20
6137.348402566
 10
7209.9085103771
 20
6137.4015347847
 10
7211.3790064993
 20
6137.454397814
 10
7212.8599704764
 20
6137.5050410767
 10
7214.3425092638
 20
6137.5569044487
 10
7215.7861238397
 20
6137.6101811782
 10
7217.129647301
 20
6137.6626297755
 10
7218.3284434368
 20
6137.7130758921
 10
7219.3795951312
 20
6137.7654947373
 10
7220.2414643533
 20
6137.8187757679
 10
7220.8787798847
 20
6137.8706768998
 10
7221.2797925648
 20
6137.9212974193
 10
7221.4401422185
 20
6137.9741389598
 10
7221.4275589694
 20
6137.981352022
  0
LWPOLYLINE
  5
23E
330
1F
100
AcDbEntity
  8
0
  6
Continuous
 62
     7
370
    25
100
AcDbPolyline
 90
       21
 70
   128
 43
0.0
 10
7203.6007580717
 20
6138.9771108093
 10
7203.627224954
 20
6138.9976306283
 10
7203.9108894465
 20
6139.0462323233
 10
7204.4022568207
 20
6139.0938689449
 10
7205.1522403747
 20
6139.1467177053
 10
7206.1118232241
 20
6139.1998585591
 10
7207.2377080532
 20
6139.2510687634
 10
7208.5089856903
 20
6139.3022487198
 10
7209.9085103771
 20
6139.3553809385
 10
7211.3790064993
 20
6139.4082439679
 10
7212.8599704764
 20
6139.4588872305
 10
7214.3425092638
 20
6139.5107506026
 10
7215.7861238397
 20
6139.5640273321
 10
7217.129647301
 20
6139.6164759293
 10
7218.3284434368
 20
6139.6669220459
 10
7219.3795951312
 20
6139.7193408912
 10
7220.2414643533
 20
6139.7726219218
 10
7220.8787798847
 20
6139.8245230536
 10
7221.2797925648
 20
6139.8751435732
 10
7221.4401422185
 20
6139.9279851136
 10
7221.4275348699
 20
6139.9352119903
  0
LWPOLYLINE
  5
23F
330
1F
100
AcDbEntity
  8
0
  6
Continuous
 62
     7
370
    25
100
AcDbPolyline
 90
       20
 70
   128
 43
0.0
 10
7202.5375401341
 20
6132.5029591657
 10
7202.673912136
 20
6132.544831239
 10
7203.1157070555
 20
6132.5954904354
 10
7203.8216888876
 20
6132.647328367
 10
7204.7795111146
 20
6132.7006019367
 10
7205.9502378515
 20
6132.7530700911
 10
7207.2866901518
 20
6132.8035169828
 10
7208.7854434978
 20
6132.8559157163
 10
7210.397760576
 20
6132.9091993218
 10
7212.0553984117
 20
6132.9611253592
 10
7213.7113912653
 20
6133.0117314886
 10
7215.3568974421
 20
6133.0645584185
 10
7216.9247861328
 20
6133.1177117899
 10
7218.350735771
 20
6133.1689671351
 10
7219.6137452768
 20
6133.2201027105
 10
7220.6922029181
 20
6133.2732215419
 10
7221.5372809461
 20
6133.3261055472
 10
7222.1203890826
 20
6133.3767729418
 10
7222.4404385146
 20
6133.4285980732
 10
7222.4675106566
 20
6133.4630766542
  0
LWPOLYLINE
  5
240
330
1F
100
AcDbEntity
  8
0
  6
Continuous
 62
     7
370
    25
100
AcDbPolyline
 90
       20
 70
   128
 43
0.0
 10
7202.5375588186
 20
6134.4568110565
 10
7202.673912136
 20
6134.4986773929
 10
7203.1157070555
 20
6134.5493365892
 10
7203.8216888876
 20
6134.6011745209
 10
7204.7795111146
 20
6134.6544480905
 10
7205.9502378515
 20
6134.706916245
 10
7207.2866901518
 20
6134.7573631366
 10
7208.7854434978
 20
6134.8097618702
 10
7210.397760576
 20
6134.8630454756
 10
7212.0553984117
 20
6134.9149715131
 10
7213.7113912653
 20
6134.9655776424
 10
7215.3568974421
 20
6135.0184045724
 10
7216.9247861328
 20
6135.0715579437
 10
7218.350735771
 20
6135.122813289
 10
7219.6137452768
 20
6135.1739488644
 10
7220.6922029181
 20
6135.2270676957
 10
7221.5372809461
 20
6135.279951701
 10
7222.1203890826
 20
6135.3306190956
 10
7222.4404385146
 20
6135.3824442271
 10
7222.4675106566
 20
6135.4169228081
  0
LWPOLYLINE
  5
241
330
1F
100
AcDbEntity
  8
0
  6
Continuous
 62
     7
370
    25
100
AcDbPolyline
 90
       20
 70
   128
 43
0.0
 10
7202.5375775105
 20
6136.4106629495
 10
7202.673912136
 20
6136.4525235467
 10
7203.1157070555
 20
6136.5031827431
 10
7203.8216888876
 20
6136.5550206747
 10
7204.7795111146
 20
6136.6082942444
 10
7205.9502378515
 20
6136.6607623988
 10
7207.2866901518
 20
6136.7112092905
 10
7208.7854434978
 20
6136.763608024
 10
7210.397760576
 20
6136.8168916295
 10
7212.0553984117
 20
6136.8688176669
 10
7213.7113912653
 20
6136.9194237963
 10
7215.3568974421
 20
6136.9722507262
 10
7216.9247861328
 20
6137.0254040976
 10
7218.350735771
 20
6137.0766594428
 10
7219.6137452768
 20
6137.1277950182
 10
7220.6922029181
 20
6137.1809138496
 10
7221.5372809461
 20
6137.2337978549
 10
7222.1203890826
 20
6137.2844652495
 10
7222.4404385146
 20
6137.3362903809
 10
7222.4675106566
 20
6137.3707689619
  0
LWPOLYLINE
  5
242
330
1F
100
AcDbEntity
  8
0
  6
Continuous
 62
     7
370
    25
100
AcDbPolyline
 90
       20
 70
   128
 43
0.0
 10
7202.5375962096
 20
6138.3645148448
 10
7202.673912136
 20
6138.4063697006
 10
7203.1157070555
 20
6138.4570288969
 10
7203.8216888876
 20
6138.5088668286
 10
7204.7795111146
 20
6138.5621403982
 10
7205.9502378515
 20
6138.6146085527
 10
7207.2866901518
 20
6138.6650554443
 10
7208.7854434978
 20
6138.7174541779
 10
7210.397760576
 20
6138.7707377833
 10
7212.0553984117
 20
6138.8226638207
 10
7213.7113912653
 20
6138.8732699501
 10
7215.3568974421
 20
6138.92609688
 10
7216.9247861328
 20
6138.9792502514
 10
7218.350735771
 20
6139.0305055967
 10
7219.6137452768
 20
6139.0816411721
 10
7220.6922029181
 20
6139.1347600034
 10
7221.5372809461
 20
6139.1876440087
 10
7222.1203890826
 20
6139.2383114033
 10
7222.4404385146
 20
6139.2901365348
 10
7222.4675106566
 20
6139.3246151158
  0
LWPOLYLINE
  5
243
330
1F
100
AcDbEntity
  8
0
  6
Continuous
 62
     7
370
    25
100
AcDbPolyline
 90
       21
 70
   128
 43
0.0
 10
7202.5334663447
 20
6132.2418755752
 10
7202.5549920661
 20
6132.2750062356
 10
7202.8682109451
 20
6132.326894834
 10
7203.4446029704
 20
6132.3775227792
 10
7204.283280874
 20
6132.4303715385
 10
7205.3563456647
 20
6132.4835123917
 10
7206.6153796136
 20
6132.5347225959
 10
7208.0370007783
 20
6132.5859025509
 10
7209.6020357299
 20
6132.6390347686
 10
7211.2464353419
 20
6132.6918977975
 10
7212.9025407686
 20
6132.7425410598
 10
7214.5604072468
 20
6132.7944044304
 10
7216.1747462881
 20
6132.847681159
 10
7217.6771572823
 20
6132.9001297561
 10
7219.017725247
 20
6132.950575872
 10
7220.1931880854
 20
6133.0029947157
 10
7221.1569835883
 20
6133.0562757456
 10
7221.8696692938
 20
6133.1081768777
 10
7222.3181065533
 20
6133.1587973959
 10
7222.4974195576
 20
6133.211638935
 10
7222.4834727411
 20
6133.2187881602
  0
LWPOLYLINE
  5
244
330
1F
100
AcDbEntity
  8
0
  6
Continuous
 62
     7
370
    25
100
AcDbPolyline
 90
       21
 70
   128
 43
0.0
 10
7202.5334663447
 20
6134.1957217291
 10
7202.5549920661
 20
6134.2288523895
 10
7202.8682109451
 20
6134.2807409878
 10
7203.4446029704
 20
6134.331368933
 10
7204.283280874
 20
6134.3842176924
 10
7205.3563456647
 20
6134.4373585455
 10
7206.6153796136
 20
6134.4885687497
 10
7208.0370007783
 20
6134.5397487047
 10
7209.6020357299
 20
6134.5928809224
 10
7211.2464353419
 20
6134.6457439513
 10
7212.9025407686
 20
6134.6963872137
 10
7214.5604072468
 20
6134.7482505842
 10
7216.1747462881
 20
6134.8015273128
 10
7217.6771572823
 20
6134.8539759099
 10
7219.017725247
 20
6134.9044220258
 10
7220.1931880854
 20
6134.9568408696
 10
7221.1569835883
 20
6135.0101218995
 10
7221.8696692938
 20
6135.0620230315
 10
7222.3181065533
 20
6135.1126435497
 10
7222.4974195576
 20
6135.1654850888
 10
7222.4834727411
 20
6135.1726343141
  0
LWPOLYLINE
  5
245
330
1F
100
AcDbEntity
  8
0
  6
Continuous
 62
     7
370
    25
100
AcDbPolyline
 90
       21
 70
   128
 43
0.0
 10
7202.5334663447
 20
6136.1495678829
 10
7202.5549920661
 20
6136.1826985433
 10
7202.8682109451
 20
6136.2345871417
 10
7203.4446029704
 20
6136.2852150869
 10
7204.283280874
 20
6136.3380638462
 10
7205.3563456647
 20
6136.3912046994
 10
7206.6153796136
 20
6136.4424149036
 10
7208.0370007783
 20
6136.4935948586
 10
7209.6020357299
 20
6136.5467270763
 10
7211.2464353419
 20
6136.5995901052
 10
7212.9025407686
 20
6136.6502333675
 10
7214.5604072468
 20
6136.7020967381
 10
7216.1747462881
 20
6136.7553734667
 10
7217.6771572823
 20
6136.8078220638
 10
7219.017725247
 20
6136.8582681796
 10
7220.1931880854
 20
6136.9106870234
 10
7221.1569835883
 20
6136.9639680533
 10
7221.8696692938
 20
6137.0158691854
 10
7222.3181065533
 20
6137.0664897036
 10
7222.4974195576
 20
6137.1193312427
 10
7222.4834727411
 20
6137.1264804679
  0
LWPOLYLINE
  5
246
330
1F
100
AcDbEntity
  8
0
  6
Continuous
 62
     7
370
    25
100
AcDbPolyline
 90
       21
 70
   128
 43
0.0
 10
7202.5334663447
 20
6138.1034140368
 10
7202.5549920661
 20
6138.1365446972
 10
7202.8682109451
 20
6138.1884332955
 10
7203.4446029704
 20
6138.2390612407
 10
7204.283280874
 20
6138.29191
 10
7205.3563456647
 20
6138.3450508532
 10
7206.6153796136
 20
6138.3962610574
 10
7208.0370007783
 20
6138.4474410124
 10
7209.6020357299
 20
6138.5005732301
 10
7211.2464353419
 20
6138.553436259
 10
7212.9025407686
 20
6138.6040795213
 10
7214.5604072468
 20
6138.6559428919
 10
7216.1747462881
 20
6138.7092196205
 10
7217.6771572823
 20
6138.7616682176
 10
7219.017725247
 20
6138.8121143335
 10
7220.1931880854
 20
6138.8645331773
 10
7221.1569835883
 20
6138.9178142072
 10
7221.8696692938
 20
6138.9697153392
 10
7222.3181065533
 20
6139.0203358574
 10
7222.4974195576
 20
6139.0731773965
 10
7222.4834727411
 20
6139.0803266218
  0
LWPOLYLINE
  5
247
330
1F
100
AcDbEntity
  8
0
  6
Continuous
 62
     7
370
    25
100
AcDbPolyline
 90
       21
 70
   128
 43
0.0
 10
7202.5334663447
 20
6140.0572601906
 10
7202.5549920661
 20
6140.090390851
 10
7202.8682109451
 20
6140.1422794494
 10
7203.4446029704
 20
6140.1929073946
 10
7204.283280874
 20
6140.2457561539
 10
7205.3563456647
 20
6140.2988970071
 10
7206.6153796136
 20
6140.3501072113
 10
7208.0370007783
 20
6140.4012871663
 10
7209.6020357299
 20
6140.454419384
 10
7211.2464353419
 20
6140.5072824129
 10
7212.9025407686
 20
6140.5579256752
 10
7214.5604072468
 20
6140.6097890457
 10
7216.1747462881
 20
6140.6630657744
 10
7217.6771572823
 20
6140.7155143715
 10
7219.017725247
 20
6140.7659604873
 10
7220.1931880854
 20
6140.8183793311
 10
7221.1569835883
 20
6140.871660361
 10
7221.8696692938
 20
6140.9235614931
 10
7222.3181065533
 20
6140.9741820113
 10
7222.4974195576
 20
6141.0270235503
 10
7222.4834727411
 20
6141.0341727756
  0
LWPOLYLINE
  5
248
330
1F
100
AcDbEntity
  8
0
  6
Continuous
 62
     7
370
    25
100
AcDbPolyline
 90
       20
 70
   128
 43
0.0
 10
7203.5874772279
 20
6131.6312984298
 10
7203.6067266269
 20
6131.6644293152
 10
7203.8868210356
 20
6131.7163179136
 10
7204.4022567079
 20
6131.7669458588
 10
7205.152240209
 20
6131.8197946181
 10
7206.1118230062
 20
6131.8729354713
 10
7207.2377077886
 20
6131.9241456755
 10
7208.5089853717
 20
6131.9753256305
 10
7209.9085100132
 20
6132.0284578482
 10
7211.3790061034
 20
6132.0813208771
 10
7212.8599700597
 20
6132.1319641394
 10
7214.3425088273
 20
6132.18382751
 10
7215.7861234032
 20
6132.2371042386
 10
7217.1296468855
 20
6132.2895528357
 10
7218.3284430518
 20
6132.3399989515
 10
7219.3795947886
 20
6132.3924177953
 10
7220.2414640741
 20
6132.4456988252
 10
7220.8787796852
 20
6132.4975999573
 10
7221.2797924512
 20
6132.5482204755
 10
7221.402026152
 20
6132.5885012789
  0
LWPOLYLINE
  5
249
330
1F
100
AcDbEntity
  8
0
  6
Continuous
 62
     7
370
    25
100
AcDbPolyline
 90
       20
 70
   128
 43
0.0
 10
7203.5874772412
 20
6133.5851446064
 10
7203.6067266269
 20
6133.6182754691
 10
7203.8868210356
 20
6133.6701640674
 10
7204.4022567079
 20
6133.7207920126
 10
7205.152240209
 20
6133.7736407719
 10
7206.1118230062
 20
6133.8267816251
 10
7207.2377077886
 20
6133.8779918293
 10
7208.5089853717
 20
6133.9291717843
 10
7209.9085100132
 20
6133.982304002
 10
7211.3790061034
 20
6134.0351670309
 10
7212.8599700597
 20
6134.0858102932
 10
7214.3425088273
 20
6134.1376736638
 10
7215.7861234032
 20
6134.1909503924
 10
7217.1296468855
 20
6134.2433989895
 10
7218.3284430518
 20
6134.2938451054
 10
7219.3795947886
 20
6134.3462639492
 10
7220.2414640741
 20
6134.3995449791
 10
7220.8787796852
 20
6134.4514461111
 10
7221.2797924512
 20
6134.5020666293
 10
7221.4020354269
 20
6134.5423504892
  0
LWPOLYLINE
  5
24A
330
1F
100
AcDbEntity
  8
0
  6
Continuous
 62
     7
370
    25
100
AcDbPolyline
 90
       20
 70
   128
 43
0.0
 10
7203.5874792259
 20
6135.5389941763
 10
7203.6067266269
 20
6135.5721216229
 10
7203.8868210356
 20
6135.6240102213
 10
7204.4022567079
 20
6135.6746381665
 10
7205.152240209
 20
6135.7274869258
 10
7206.1118230062
 20
6135.780627779
 10
7207.2377077886
 20
6135.8318379832
 10
7208.5089853717
 20
6135.8830179382
 10
7209.9085100132
 20
6135.9361501559
 10
7211.3790061034
 20
6135.9890131848
 10
7212.8599700597
 20
6136.0396564471
 10
7214.3425088273
 20
6136.0915198176
 10
7215.7861234032
 20
6136.1447965463
 10
7217.1296468855
 20
6136.1972451434
 10
7218.3284430518
 20
6136.2476912592
 10
7219.3795947886
 20
6136.300110103
 10
7220.2414640741
 20
6136.3533911329
 10
7220.8787796852
 20
6136.405292265
 10
7221.2797924512
 20
6136.4559127832
 10
7221.4020447106
 20
6136.4961997023
  0
LWPOLYLINE
  5
24B
330
1F
100
AcDbEntity
  8
0
  6
Continuous
 62
     7
370
    25
100
AcDbPolyline
 90
       20
 70
   128
 43
0.0
 10
7203.5874849702
 20
6137.4928502169
 10
7203.6067266269
 20
6137.5259677768
 10
7203.8868210356
 20
6137.5778563751
 10
7204.4022567079
 20
6137.6284843203
 10
7205.152240209
 20
6137.6813330796
 10
7206.1118230062
 20
6137.7344739328
 10
7207.2377077886
 20
6137.785684137
 10
7208.5089853717
 20
6137.836864092
 10
7209.9085100132
 20
6137.8899963097
 10
7211.3790061034
 20
6137.9428593386
 10
7212.8599700597
 20
6137.9935026009
 10
7214.3425088273
 20
6138.0453659715
 10
7215.7861234032
 20
6138.0986427001
 10
7217.1296468855
 20
6138.1510912972
 10
7218.3284430518
 20
6138.2015374131
 10
7219.3795947886
 20
6138.2539562569
 10
7220.2414640741
 20
6138.3072372868
 10
7220.8787796852
 20
6138.3591384188
 10
7221.2797924512
 20
6138.409758937
 10
7221.4020540032
 20
6138.4500489185
  0
LWPOLYLINE
  5
24C
330
1F
100
AcDbEntity
  8
0
  6
Continuous
 62
     7
370
    25
100
AcDbPolyline
 90
       20
 70
   128
 43
0.0
 10
7203.5874907094
 20
6139.4467062487
 10
7203.6067266269
 20
6139.4798139306
 10
7203.8868210356
 20
6139.531702529
 10
7204.4022567079
 20
6139.5823304742
 10
7205.152240209
 20
6139.6351792335
 10
7206.1118230062
 20
6139.6883200867
 10
7207.2377077886
 20
6139.7395302909
 10
7208.5089853717
 20
6139.7907102458
 10
7209.9085100132
 20
6139.8438424636
 10
7211.3790061034
 20
6139.8967054925
 10
7212.8599700597
 20
6139.9473487548
 10
7214.3425088273
 20
6139.9992121253
 10
7215.7861234032
 20
6140.052488854
 10
7217.1296468855
 20
6140.104937451
 10
7218.3284430518
 20
6140.1553835669
 10
7219.3795947886
 20
6140.2078024107
 10
7220.2414640741
 20
6140.2610834406
 10
7220.8787796852
 20
6140.3129845727
 10
7221.2797924512
 20
6140.3636050909
 10
7221.4020633049
 20
6140.4038981376
  0
LINE
  5
24D
330
1F
100
AcDbEntity
  8
0
  6
Continuous
 62
     7
370
    25
100
AcDbLine
 10
7221.0
 20
6130.5438203891
 30
0.0
 11
7204.0
 21
6130.5438203891
 31
0.0
  0
LINE
  5
24E
330
1F
100
AcDbEntity
  8
0
  6
Continuous
 62
     7
370
    25
100
AcDbLine
 10
7221.5
 20
6190.5438203891
 30
0.0
 11
7203.5
 21
6190.5438203891
 31
0.0
  0
ARC
  5
24F
330
1F
100
AcDbEntity
  8
0
  6
Continuous
 62
     7
370
    25
100
AcDbCircle
 10
7221.3364088943
 20
6212.8921212581
 30
0.0
 40
2.692557333206973
100
AcDbArc
 50
41.1638548533
 51
80.0058584791
  0
LINE
  5
250
330
1F
100
AcDbEntity
  8
0
  6
Continuous
 62
     7
370
    25
100
AcDbLine
 10
7223.3634476246
 20
6198.5438203891
 30
0.0
 11
7223.3634476246
 21
6214.664401986
 31
0.0
  0
LINE
  5
251
330
1F
100
AcDbEntity
  8
0
  6
Continuous
 62
     7
370
    25
100
AcDbLine
 10
7223.3634476246
 20
6198.5438203891
 30
0.0
 11
7221.8036954353
 21
6198.5438203891
 31
0.0
  0
LINE
  5
252
330
1F
100
AcDbEntity
  8
0
  6
Continuous
 62
     7
370
    25
100
AcDbLine
 10
7221.8036954353
 20
6198.5438203891
 30
0.0
 11
7221.5830988282
 21
6198.5438203891
 31
0.0
  0
LINE
  5
253
330
1F
100
AcDbEntity
  8
0
  6
Continuous
 62
     7
370
    25
100
AcDbLine
 10
7203.1963045647
 20
6198.5438203891
 30
0.0
 11
7201.6365523754
 21
6198.5438203891
 31
0.0
  0
LINE
  5
254
330
1F
100
AcDbEntity
  8
0
  6
Continuous
 62
     7
370
    25
100
AcDbLine
 10
7201.6365523754
 20
6214.664401986
 30
0.0
 11
7201.6365523754
 21
6198.5438203891
 31
0.0
  0
ARC
  5
255
330
1F
100
AcDbEntity
  8
0
  6
Continuous
 62
     7
370
    25
100
AcDbCircle
 10
7203.7821062676
 20
6212.68192065
 30
0.0
 40
2.921238393551969
100
AcDbArc
 50
101.5680691667
 51
137.2622175008
  0
LINE
  5
256
330
1F
100
AcDbEntity
  8
0
  6
Continuous
 62
     7
370
    25
100
AcDbLine
 10
7203.4169011718
 20
6198.5438203891
 30
0.0
 11
7203.1963045647
 21
6198.5438203891
 31
0.0
  0
ARC
  5
257
330
1F
100
AcDbEntity
  8
0
  6
Continuous
 62
     7
370
    25
100
AcDbCircle
 10
7248.2639242725
 20
6236.2197393103
 30
0.0
 40
31.87838835853922
100
AcDbArc
 50
220.4351774049
 51
222.5453844206
  0
LWPOLYLINE
  5
258
330
1F
100
AcDbEntity
  8
0
  6
Continuous
 62
     7
370
    25
100
AcDbPolyline
 90
        5
 70
   128
 43
0.0
 10
7225.4782608696
 20
6213.5438203891
 10
7225.5555476371
 20
6213.6085055344
 10
7225.4886933458
 20
6213.7868787432
 10
7225.2295222241
 20
6214.1468141339
 10
7224.7777777778
 20
6214.664401986
  0
LINE
  5
259
330
1F
100
AcDbEntity
  8
0
  6
Continuous
 62
     7
370
    25
100
AcDbLine
 10
7225.4782608696
 20
6213.5438203891
 30
0.0
 11
7225.1843250991
 21
6213.5438203891
 31
0.0
  0
ARC
  5
25A
330
1F
100
AcDbEntity
  8
0
  6
Continuous
 62
     7
370
    25
100
AcDbCircle
 10
7226.4570544075
 20
6217.6516275205
 30
0.0
 40
4.300455710907275
100
AcDbArc
 50
223.9977400274
 51
252.7853560535
  0
LINE
  5
25B
330
1F
100
AcDbEntity
  8
0
  6
Continuous
 62
     7
370
    25
100
AcDbLine
 10
7224.0
 20
6215.5438203891
 30
0.0
 11
7221.8036954353
 21
6215.5438203891
 31
0.0
  0
ARC
  5
25C
330
1F
100
AcDbEntity
  8
0
  6
Continuous
 62
     7
370
    25
100
AcDbCircle
 10
7198.5423682984
 20
6217.6525655886
 30
0.0
 40
4.30152261622803
100
AcDbArc
 50
287.2182910584
 51
315.9986128608
  0
LINE
  5
25D
330
1F
100
AcDbEntity
  8
0
  6
Continuous
 62
     7
370
    25
100
AcDbLine
 10
7199.8156749009
 20
6213.5438203891
 30
0.0
 11
7199.5217391304
 21
6213.5438203891
 31
0.0
  0
LWPOLYLINE
  5
25E
330
1F
100
AcDbEntity
  8
0
  6
Continuous
 62
     7
370
    25
100
AcDbPolyline
 90
        6
 70
   128
 43
0.0
 10
7200.2222222222
 20
6214.664401986
 10
7199.9390495596
 20
6214.3474458297
 10
7199.6950928717
 20
6214.0518454923
 10
7199.4867755792
 20
6213.7417772358
 10
7199.4489062746
 20
6213.5820575585
 10
7199.5217391304
 20
6213.5438203891
  0
ARC
  5
25F
330
1F
100
AcDbEntity
  8
0
  6
Continuous
 62
     7
370
    25
100
AcDbCircle
 10
7176.7949860587
 20
6236.1676376641
 30
0.0
 40
31.79975689983903
100
AcDbArc
 50
317.4520063222
 51
319.5674318522
  0
LINE
  5
260
330
1F
100
AcDbEntity
  8
0
  6
Continuous
 62
     7
370
    25
100
AcDbLine
 10
7203.1963045647
 20
6215.5438203891
 30
0.0
 11
7201.0
 21
6215.5438203891
 31
0.0
  0
LINE
  5
261
330
1F
100
AcDbEntity
  8
0
  6
Continuous
 62
     7
370
    25
100
AcDbLine
 10
7225.1843250991
 20
6213.5438203891
 30
0.0
 11
7225.1843250991
 21
6198.5438203891
 31
0.0
  0
LINE
  5
262
330
1F
100
AcDbEntity
  8
0
  6
Continuous
 62
     7
370
    25
100
AcDbLine
 10
7225.1843250991
 20
6198.5438203891
 30
0.0
 11
7223.3634476246
 21
6198.5438203891
 31
0.0
  0
LINE
  5
263
330
1F
100
AcDbEntity
  8
0
  6
Continuous
 62
     7
370
    25
100
AcDbLine
 10
7199.8156749009
 20
6198.5438203891
 30
0.0
 11
7199.8156749009
 21
6213.5438203891
 31
0.0
  0
LINE
  5
264
330
1F
100
AcDbEntity
  8
0
  6
Continuous
 62
     7
370
    25
100
AcDbLine
 10
7201.6365523754
 20
6198.5438203891
 30
0.0
 11
7199.8156749009
 21
6198.5438203891
 31
0.0
  0
LINE
  5
265
330
1F
100
AcDbEntity
  8
0
  6
Continuous
 62
     7
370
    25
100
AcDbLine
 10
7225.4782608696
 20
6198.5438203891
 30
0.0
 11
7225.4782608696
 21
6213.5438203891
 31
0.0
  0
LINE
  5
266
330
1F
100
AcDbEntity
  8
0
  6
Continuous
 62
     7
370
    25
100
AcDbLine
 10
7225.4782608696
 20
6198.5438203891
 30
0.0
 11
7225.1843250991
 21
6198.5438203891
 31
0.0
  0
LINE
  5
267
330
1F
100
AcDbEntity
  8
0
  6
Continuous
 62
     7
370
    25
100
AcDbLine
 10
7199.5217391304
 20
6213.5438203891
 30
0.0
 11
7199.5217391304
 21
6198.5438203891
 31
0.0
  0
LINE
  5
268
330
1F
100
AcDbEntity
  8
0
  6
Continuous
 62
     7
370
    25
100
AcDbLine
 10
7199.8156749009
 20
6198.5438203891
 30
0.0
 11
7199.5217391304
 21
6198.5438203891
 31
0.0
  0
LINE
  5
269
330
1F
100
AcDbEntity
  8
0
  6
Continuous
 62
     7
370
    25
100
AcDbLine
 10
7225.5555555556
 20
6198.5438203891
 30
0.0
 11
7225.4782608696
 21
6198.5438203891
 31
0.0
  0
LINE
  5
26A
330
1F
100
AcDbEntity
  8
0
  6
Continuous
 62
     7
370
    25
100
AcDbLine
 10
7199.5217391304
 20
6198.5438203891
 30
0.0
 11
7199.4444444444
 21
6198.5438203891
 31
0.0
  0
LINE
  5
26B
330
1F
100
AcDbEntity
  8
0
  6
Continuous
 62
     8
370
    25
100
AcDbLine
 10
7212.5
 20
6145.899065209
 30
0.0
 11
7185.3364323078
 21
6145.899065209
 31
0.0
  0
LINE
  5
26C
330
1F
100
AcDbEntity
  8
0
  6
Continuous
 62
     8
370
    25
100
AcDbLine
 10
7239.6635676922
 20
6145.899065209
 30
0.0
 11
7212.5
 21
6145.899065209
 31
0.0
  0
LINE
  5
26D
330
1F
100
AcDbEntity
  8
0
  6
Continuous
 62
     8
370
    25
100
AcDbLine
 10
7212.5
 20
6144.5317043788
 30
0.0
 11
7184.378995947
 21
6144.5317043788
 31
0.0
  0
LINE
  5
26E
330
1F
100
AcDbEntity
  8
0
  6
Continuous
 62
     8
370
    25
100
AcDbLine
 10
7240.621004053
 20
6144.5317043788
 30
0.0
 11
7212.5
 21
6144.5317043788
 31
0.0
  0
ENDSEC
  0
SECTION
  2
OBJECTS
  0
DICTIONARY
  5
C
330
0
100
AcDbDictionary
281
     1
  3
ACAD_GROUP
350
D
  3
ACAD_LAYOUT
350
1A
  3
ACAD_MLINESTYLE
350
17
  3
ACAD_PLOTSETTINGS
350
19
  3
ACAD_PLOTSTYLENAME
350
E
  3
ACAD_SCALELIST
350
47
  3
DWGPROPS
350
26F
  0
DICTIONARY
  5
D
102
{ACAD_REACTORS
330
C
102
}
330
C
100
AcDbDictionary
281
     1
  0
DICTIONARY
  5
1A
102
{ACAD_REACTORS
330
C
102
}
330
C
100
AcDbDictionary
281
     1
  3
Layout1
350
1E
  3
Layout2
350
26
  3
Model
350
22
  0
DICTIONARY
  5
17
102
{ACAD_REACTORS
330
C
102
}
330
C
100
AcDbDictionary
281
     1
  3
Standard
350
18
  0
DICTIONARY
  5
19
102
{ACAD_REACTORS
330
C
102
}
330
C
100
AcDbDictionary
281
     1
  0
ACDBDICTIONARYWDFLT
  5
E
102
{ACAD_REACTORS
330
C
102
}
330
C
100
AcDbDictionary
281
     1
  3
Normal
350
F
100
AcDbDictionaryWithDefault
340
F
  0
DICTIONARY
  5
47
102
{ACAD_REACTORS
330
C
102
}
330
C
100
AcDbDictionary
281
     1
  3
A0
350
48
  3
A1
350
49
  3
A2
350
4A
  3
A3
350
4B
  3
A4
350
4C
  3
A5
350
4D
  3
A6
350
4E
  3
A7
350
4F
  3
A8
350
50
  3
A9
350
51
  3
B0
350
52
  3
B1
350
53
  3
B2
350
54
  3
B3
350
55
  3
B4
350
56
  3
B5
350
57
  3
B6
350
58
  3
B7
350
59
  3
B8
350
5A
  3
B9
350
5B
  3
C0
350
5C
  3
C1
350
5D
  3
C2
350
5E
  3
C3
350
5F
  3
C4
350
60
  3
C5
350
61
  3
C6
350
62
  3
C7
350
63
  3
C8
350
64
  3
C9
350
65
  3
D0
350
66
  3
D1
350
67
  3
D2
350
68
  0
XRECORD
  5
26F
102
{ACAD_REACTORS
330
C
102
}
330
C
100
AcDbXrecord
280
     1
  1
DWGPROPS COOKIE
  2

  3

  4

  6

  7

  8
radek.stransky
  9

300
=
301
=
302
=
303
=
304
=
305
=
306
=
307
=
308
=
309
=
 40
0.0
 41
2459115.460637558
 42
2459115.460637789
  1

 90
        0
  0
LAYOUT
  5
1E
102
{ACAD_REACTORS
330
1A
102
}
330
1A
100
AcDbPlotSettings
  1

  2
none_device
  4

  6

 40
0.0
 41
0.0
 42
0.0
 43
0.0
 44
0.0
 45
0.0
 46
0.0
 47
0.0
 48
0.0
 49
0.0
140
0.0
141
0.0
142
1.0
143
1.0
 70
   688
 72
     1
 73
     0
 74
     5
  7

 75
    16
147
1.0
148
0.0
149
0.0
100
AcDbLayout
  1
Layout1
 70
     1
 71
     1
 10
0.0
 20
0.0
 11
420.0
 21
297.0
 12
0.0
 22
0.0
 32
0.0
 14
1.0000000000E+20
 24
1.0000000000E+20
 34
1.0000000000E+20
 15
-1.0000000000E+20
 25
-1.0000000000E+20
 35
-1.0000000000E+20
146
0.0
 13
0.0
 23
0.0
 33
0.0
 16
1.0
 26
0.0
 36
0.0
 17
0.0
 27
1.0
 37
0.0
 76
     0
330
1B
  0
LAYOUT
  5
26
102
{ACAD_REACTORS
330
1A
102
}
330
1A
100
AcDbPlotSettings
  1

  2
none_device
  4

  6

 40
0.0
 41
0.0
 42
0.0
 43
0.0
 44
0.0
 45
0.0
 46
0.0
 47
0.0
 48
0.0
 49
0.0
140
0.0
141
0.0
142
1.0
143
1.0
 70
   688
 72
     1
 73
     0
 74
     5
  7

 75
    16
147
1.0
148
0.0
149
0.0
100
AcDbLayout
  1
Layout2
 70
     1
 71
     2
 10
0.0
 20
0.0
 11
0.0
 21
0.0
 12
0.0
 22
0.0
 32
0.0
 14
0.0
 24
0.0
 34
0.0
 15
0.0
 25
0.0
 35
0.0
146
0.0
 13
0.0
 23
0.0
 33
0.0
 16
1.0
 26
0.0
 36
0.0
 17
0.0
 27
1.0
 37
0.0
 76
     0
330
23
  0
LAYOUT
  5
22
102
{ACAD_REACTORS
330
1A
102
}
330
1A
100
AcDbPlotSettings
  1

  2
none_device
  4
Letter_(8.50_x_11.00_Inches)
  6

 40
6.35
 41
6.35
 42
6.35000508
 43
6.35000508
 44
215.9
 45
279.4
 46
0.0
 47
0.0
 48
0.0
 49
0.0
140
0.0
141
0.0
142
1.0
143
1.0
 70
  1712
 72
     1
 73
     0
 74
     0
  7

 75
     0
147
1.0
148
0.0
149
0.0
100
AcDbLayout
  1
Model
 70
     1
 71
     0
 10
0.0
 20
0.0
 11
20000.0
 21
10000.0
 12
0.0
 22
0.0
 32
0.0
 14
0.0
 24
0.0
 34
0.0
 15
20000.0
 25
10000.0
 35
0.0
146
0.0
 13
0.0
 23
0.0
 33
0.0
 16
1.0
 26
0.0
 36
0.0
 17
0.0
 27
1.0
 37
0.0
 76
     0
330
1F
331
29
  0
MLINESTYLE
  5
18
102
{ACAD_REACTORS
330
17
102
}
330
17
100
AcDbMlineStyle
  2
Standard
 70
     0
  3

 62
   256
 51
90.0
 52
90.0
 71
     2
 49
0.5
 62
   256
  6
BYLAYER
 49
-0.5
 62
   256
  6
BYLAYER
  0
ACDBPLACEHOLDER
  5
F
102
{ACAD_REACTORS
330
E
102
}
330
E
  0
SCALE
  5
48
102
{ACAD_REACTORS
330
47
102
}
330
47
100
AcDbScale
 70
     0
300
1:1
140
1.0
141
1.0
290
     1
  0
SCALE
  5
49
102
{ACAD_REACTORS
330
47
102
}
330
47
100
AcDbScale
 70
     0
300
1:2
140
1.0
141
2.0
290
     0
  0
SCALE
  5
4A
102
{ACAD_REACTORS
330
47
102
}
330
47
100
AcDbScale
 70
     0
300
1:4
140
1.0
141
4.0
290
     0
  0
SCALE
  5
4B
102
{ACAD_REACTORS
330
47
102
}
330
47
100
AcDbScale
 70
     0
300
1:5
140
1.0
141
5.0
290
     0
  0
SCALE
  5
4C
102
{ACAD_REACTORS
330
47
102
}
330
47
100
AcDbScale
 70
     0
300
1:8
140
1.0
141
8.0
290
     0
  0
SCALE
  5
4D
102
{ACAD_REACTORS
330
47
102
}
330
47
100
AcDbScale
 70
     0
300
1:10
140
1.0
141
10.0
290
     0
  0
SCALE
  5
4E
102
{ACAD_REACTORS
330
47
102
}
330
47
100
AcDbScale
 70
     0
300
1:16
140
1.0
141
16.0
290
     0
  0
SCALE
  5
4F
102
{ACAD_REACTORS
330
47
102
}
330
47
100
AcDbScale
 70
     0
300
1:20
140
1.0
141
20.0
290
     0
  0
SCALE
  5
50
102
{ACAD_REACTORS
330
47
102
}
330
47
100
AcDbScale
 70
     0
300
1:30
140
1.0
141
30.0
290
     0
  0
SCALE
  5
51
102
{ACAD_REACTORS
330
47
102
}
330
47
100
AcDbScale
 70
     0
300
1:40
140
1.0
141
40.0
290
     0
  0
SCALE
  5
52
102
{ACAD_REACTORS
330
47
102
}
330
47
100
AcDbScale
 70
     0
300
1:50
140
1.0
141
50.0
290
     0
  0
SCALE
  5
53
102
{ACAD_REACTORS
330
47
102
}
330
47
100
AcDbScale
 70
     0
300
1:100
140
1.0
141
100.0
290
     0
  0
SCALE
  5
54
102
{ACAD_REACTORS
330
47
102
}
330
47
100
AcDbScale
 70
     0
300
2:1
140
2.0
141
1.0
290
     0
  0
SCALE
  5
55
102
{ACAD_REACTORS
330
47
102
}
330
47
100
AcDbScale
 70
     0
300
4:1
140
4.0
141
1.0
290
     0
  0
SCALE
  5
56
102
{ACAD_REACTORS
330
47
102
}
330
47
100
AcDbScale
 70
     0
300
8:1
140
8.0
141
1.0
290
     0
  0
SCALE
  5
57
102
{ACAD_REACTORS
330
47
102
}
330
47
100
AcDbScale
 70
     0
300
10:1
140
10.0
141
1.0
290
     0
  0
SCALE
  5
58
102
{ACAD_REACTORS
330
47
102
}
330
47
100
AcDbScale
 70
     0
300
100:1
140
100.0
141
1.0
290
     0
  0
SCALE
  5
59
102
{ACAD_REACTORS
330
47
102
}
330
47
100
AcDbScale
 70
     0
300
1/128" = 1'-0"
140
0.0078125
141
12.0
290
     0
  0
SCALE
  5
5A
102
{ACAD_REACTORS
330
47
102
}
330
47
100
AcDbScale
 70
     0
300
1/64" = 1'-0"
140
0.015625
141
12.0
290
     0
  0
SCALE
  5
5B
102
{ACAD_REACTORS
330
47
102
}
330
47
100
AcDbScale
 70
     0
300
1/32" = 1'-0"
140
0.03125
141
12.0
290
     0
  0
SCALE
  5
5C
102
{ACAD_REACTORS
330
47
102
}
330
47
100
AcDbScale
 70
     0
300
1/16" = 1'-0"
140
0.0625
141
12.0
290
     0
  0
SCALE
  5
5D
102
{ACAD_REACTORS
330
47
102
}
330
47
100
AcDbScale
 70
     0
300
3/32" = 1'-0"
140
0.09375
141
12.0
290
     0
  0
SCALE
  5
5E
102
{ACAD_REACTORS
330
47
102
}
330
47
100
AcDbScale
 70
     0
300
1/8" = 1'-0"
140
0.125
141
12.0
290
     0
  0
SCALE
  5
5F
102
{ACAD_REACTORS
330
47
102
}
330
47
100
AcDbScale
 70
     0
300
3/16" = 1'-0"
140
0.1875
141
12.0
290
     0
  0
SCALE
  5
60
102
{ACAD_REACTORS
330
47
102
}
330
47
100
AcDbScale
 70
     0
300
1/4" = 1'-0"
140
0.25
141
12.0
290
     0
  0
SCALE
  5
61
102
{ACAD_REACTORS
330
47
102
}
330
47
100
AcDbScale
 70
     0
300
3/8" = 1'-0"
140
0.375
141
12.0
290
     0
  0
SCALE
  5
62
102
{ACAD_REACTORS
330
47
102
}
330
47
100
AcDbScale
 70
     0
300
1/2" = 1'-0"
140
0.5
141
12.0
290
     0
  0
SCALE
  5
63
102
{ACAD_REACTORS
330
47
102
}
330
47
100
AcDbScale
 70
     0
300
3/4" = 1'-0"
140
0.75
141
12.0
290
     0
  0
SCALE
  5
64
102
{ACAD_REACTORS
330
47
102
}
330
47
100
AcDbScale
 70
     0
300
1" = 1'-0"
140
1.0
141
12.0
290
     0
  0
SCALE
  5
65
102
{ACAD_REACTORS
330
47
102
}
330
47
100
AcDbScale
 70
     0
300
1-1/2" = 1'-0"
140
1.5
141
12.0
290
     0
  0
SCALE
  5
66
102
{ACAD_REACTORS
330
47
102
}
330
47
100
AcDbScale
 70
     0
300
3" = 1'-0"
140
3.0
141
12.0
290
     0
  0
SCALE
  5
67
102
{ACAD_REACTORS
330
47
102
}
330
47
100
AcDbScale
 70
     0
300
6" = 1'-0"
140
6.0
141
12.0
290
     0
  0
SCALE
  5
68
102
{ACAD_REACTORS
330
47
102
}
330
47
100
AcDbScale
 70
     0
300
1'-0" = 1'-0"
140
12.0
141
12.0
290
     0
  0
ENDSEC
  0
EOF
