  0
SECTION
  2
HEADER
  9
$ACADVER
  1
AC1015
  9
$ACADMAINTVER
 70
     6
  9
$DWGCODEPAGE
  3
ANSI_1250
  9
$INSBASE
 10
0.0
 20
0.0
 30
0.0
  9
$EXTMIN
 10
0.0
 20
0.0
 30
0.0
  9
$EXTMAX
 10
20000.0
 20
10000.0
 30
0.0
  9
$LIMMIN
 10
0.0
 20
0.0
  9
$LIMMAX
 10
20000.0
 20
10000.0
  9
$ORTHOMODE
 70
     0
  9
$REGENMODE
 70
     1
  9
$FILLMODE
 70
     1
  9
$QTEXTMODE
 70
     0
  9
$MIRRTEXT
 70
     1
  9
$LTSCALE
 40
1.0
  9
$ATTMODE
 70
     1
  9
$TEXTSIZE
 40
2.0
  9
$TRACEWID
 40
1.0
  9
$TEXTSTYLE
  7
Standard
  9
$CLAYER
  8
0
  9
$CELTYPE
  6
ByLayer
  9
$CECOLOR
 62
   256
  9
$CELTSCALE
 40
1.0
  9
$DISPSILH
 70
     0
  9
$DIMSCALE
 40
1.0
  9
$DIMASZ
 40
2.0
  9
$DIMEXO
 40
1.0
  9
$DIMDLI
 40
3.75
  9
$DIMRND
 40
0.0
  9
$DIMDLE
 40
0.0
  9
$DIMEXE
 40
1.0
  9
$DIMTP
 40
0.0
  9
$DIMTM
 40
0.0
  9
$DIMTXT
 40
2.0
  9
$DIMCEN
 40
2.5
  9
$DIMTSZ
 40
0.0
  9
$DIMTOL
 70
     0
  9
$DIMLIM
 70
     0
  9
$DIMTIH
 70
     1
  9
$DIMTOH
 70
     1
  9
$DIMSE1
 70
     0
  9
$DIMSE2
 70
     0
  9
$DIMTAD
 70
     1
  9
$DIMZIN
 70
     0
  9
$DIMBLK
  1

  9
$DIMASO
 70
     1
  9
$DIMSHO
 70
     1
  9
$DIMPOST
  1

  9
$DIMAPOST
  1

  9
$DIMALT
 70
     0
  9
$DIMALTD
 70
     3
  9
$DIMALTF
 40
0.0393700787
  9
$DIMLFAC
 40
1.0
  9
$DIMTOFL
 70
     1
  9
$DIMTVP
 40
0.0
  9
$DIMTIX
 70
     0
  9
$DIMSOXD
 70
     0
  9
$DIMSAH
 70
     0
  9
$DIMBLK1
  1

  9
$DIMBLK2
  1

  9
$DIMSTYLE
  2
ISO-25
  9
$DIMCLRD
 70
     0
  9
$DIMCLRE
 70
     0
  9
$DIMCLRT
 70
     0
  9
$DIMTFAC
 40
1.0
  9
$DIMGAP
 40
1.524
  9
$DIMJUST
 70
     0
  9
$DIMSD1
 70
     0
  9
$DIMSD2
 70
     0
  9
$DIMTOLJ
 70
     0
  9
$DIMTZIN
 70
     0
  9
$DIMALTZ
 70
     0
  9
$DIMALTTZ
 70
     0
  9
$DIMUPT
 70
     0
  9
$DIMDEC
 70
     2
  9
$DIMTDEC
 70
     0
  9
$DIMALTU
 70
     2
  9
$DIMALTTD
 70
     3
  9
$DIMTXSTY
  7
Standard
  9
$DIMAUNIT
 70
     0
  9
$DIMADEC
 70
     2
  9
$DIMALTRND
 40
0.0
  9
$DIMAZIN
 70
     0
  9
$DIMDSEP
 70
    44
  9
$DIMATFIT
 70
     3
  9
$DIMFRAC
 70
     0
  9
$DIMLDRBLK
  1

  9
$DIMLUNIT
 70
     2
  9
$DIMLWD
 70
    -2
  9
$DIMLWE
 70
    -2
  9
$DIMTMOVE
 70
     0
  9
$LUNITS
 70
     2
  9
$LUPREC
 70
     3
  9
$SKETCHINC
 40
1.0
  9
$FILLETRAD
 40
10.0
  9
$AUNITS
 70
     0
  9
$AUPREC
 70
     2
  9
$MENU
  1
.
  9
$ELEVATION
 40
0.0
  9
$PELEVATION
 40
0.0
  9
$THICKNESS
 40
0.0
  9
$LIMCHECK
 70
     0
  9
$CHAMFERA
 40
0.0
  9
$CHAMFERB
 40
0.0
  9
$CHAMFERC
 40
0.0
  9
$CHAMFERD
 40
0.0
  9
$SKPOLY
 70
     0
  9
$TDCREATE
 40
2459104.516677037
  9
$TDUCREATE
 40
2459104.433343704
  9
$TDUPDATE
 40
2459104.516677222
  9
$TDUUPDATE
 40
2459104.433343889
  9
$TDINDWG
 40
0.0000000116
  9
$TDUSRTIMER
 40
0.0000000116
  9
$USRTIMER
 70
     1
  9
$ANGBASE
 50
0.0
  9
$ANGDIR
 70
     0
  9
$PDMODE
 70
     0
  9
$PDSIZE
 40
-1.0
  9
$PLINEWID
 40
0.0
  9
$SPLFRAME
 70
     0
  9
$SPLINETYPE
 70
     6
  9
$SPLINESEGS
 70
     8
  9
$HANDSEED
  5
23A
  9
$SURFTAB1
 70
     6
  9
$SURFTAB2
 70
     6
  9
$SURFTYPE
 70
     6
  9
$SURFU
 70
     6
  9
$SURFV
 70
     6
  9
$UCSBASE
  2

  9
$UCSNAME
  2

  9
$UCSORG
 10
0.0
 20
0.0
 30
0.0
  9
$UCSXDIR
 10
1.0
 20
0.0
 30
0.0
  9
$UCSYDIR
 10
0.0
 20
1.0
 30
0.0
  9
$UCSORTHOREF
  2

  9
$UCSORTHOVIEW
 70
     0
  9
$UCSORGTOP
 10
0.0
 20
0.0
 30
0.0
  9
$UCSORGBOTTOM
 10
0.0
 20
0.0
 30
0.0
  9
$UCSORGLEFT
 10
0.0
 20
0.0
 30
0.0
  9
$UCSORGRIGHT
 10
0.0
 20
0.0
 30
0.0
  9
$UCSORGFRONT
 10
0.0
 20
0.0
 30
0.0
  9
$UCSORGBACK
 10
0.0
 20
0.0
 30
0.0
  9
$PUCSBASE
  2

  9
$PUCSNAME
  2

  9
$PUCSORG
 10
0.0
 20
0.0
 30
0.0
  9
$PUCSXDIR
 10
1.0
 20
0.0
 30
0.0
  9
$PUCSYDIR
 10
0.0
 20
1.0
 30
0.0
  9
$PUCSORTHOREF
  2

  9
$PUCSORTHOVIEW
 70
     0
  9
$PUCSORGTOP
 10
0.0
 20
0.0
 30
0.0
  9
$PUCSORGBOTTOM
 10
0.0
 20
0.0
 30
0.0
  9
$PUCSORGLEFT
 10
0.0
 20
0.0
 30
0.0
  9
$PUCSORGRIGHT
 10
0.0
 20
0.0
 30
0.0
  9
$PUCSORGFRONT
 10
0.0
 20
0.0
 30
0.0
  9
$PUCSORGBACK
 10
0.0
 20
0.0
 30
0.0
  9
$USERI1
 70
     0
  9
$USERI2
 70
     0
  9
$USERI3
 70
     0
  9
$USERI4
 70
     0
  9
$USERI5
 70
     0
  9
$USERR1
 40
0.0
  9
$USERR2
 40
0.0
  9
$USERR3
 40
0.0
  9
$USERR4
 40
0.0
  9
$USERR5
 40
0.0
  9
$WORLDVIEW
 70
     1
  9
$SHADEDGE
 70
     3
  9
$SHADEDIF
 70
    70
  9
$TILEMODE
 70
     1
  9
$MAXACTVP
 70
    64
  9
$PINSBASE
 10
0.0
 20
0.0
 30
0.0
  9
$PLIMCHECK
 70
     0
  9
$PEXTMIN
 10
1.0000000000E+20
 20
1.0000000000E+20
 30
1.0000000000E+20
  9
$PEXTMAX
 10
-1.0000000000E+20
 20
-1.0000000000E+20
 30
-1.0000000000E+20
  9
$PLIMMIN
 10
0.0
 20
0.0
  9
$PLIMMAX
 10
420.0
 20
297.0
  9
$UNITMODE
 70
     0
  9
$VISRETAIN
 70
     1
  9
$PLINEGEN
 70
     0
  9
$PSLTSCALE
 70
     1
  9
$TREEDEPTH
 70
  3020
  9
$CMLSTYLE
  2
Standard
  9
$CMLJUST
 70
     0
  9
$CMLSCALE
 40
20.0
  9
$PROXYGRAPHICS
 70
     1
  9
$MEASUREMENT
 70
     1
  9
$CELWEIGHT
370
    -1
  9
$ENDCAPS
280
     0
  9
$JOINSTYLE
280
     0
  9
$LWDISPLAY
290
     1
  9
$INSUNITS
 70
     4
  9
$HYPERLINKBASE
  1

  9
$STYLESHEET
  1

  9
$XEDIT
290
     1
  9
$CEPSNTYPE
380
     0
  9
$PSTYLEMODE
290
     1
  9
$FINGERPRINTGUID
  2
{966999d1-5bf6-4344-b045-4e625076495a}
  9
$VERSIONGUID
  2
{FAEB1C32-E019-11D5-929B-00C0DF256EC4}
  9
$EXTNAMES
290
     1
  9
$PSVPSCALE
 40
0.0
  9
$OLESTARTUP
290
     0
  0
ENDSEC
  0
SECTION
  2
CLASSES
  0
CLASS
  1
ACDBDICTIONARYWDFLT
  2
AcDbDictionaryWithDefault
  3
ObjectDBX Classes
 90
        0
280
     0
281
     0
  0
CLASS
  1
VISUALSTYLE
  2
AcDbVisualStyle
  3
ObjectDBX Classes
 90
     4095
280
     0
281
     0
  0
CLASS
  1
MATERIAL
  2
AcDbMaterial
  3
ObjectDBX Classes
 90
     1153
280
     0
281
     0
  0
CLASS
  1
SCALE
  2
AcDbScale
  3
ObjectDBX Classes
 90
     1153
280
     0
281
     0
  0
CLASS
  1
TABLESTYLE
  2
AcDbTableStyle
  3
ObjectDBX Classes
 90
     4095
280
     0
281
     0
  0
CLASS
  1
MLEADERSTYLE
  2
AcDbMLeaderStyle
  3
ACDB_MLEADERSTYLE_CLASS
 90
     4095
280
     0
281
     0
  0
CLASS
  1
SUN
  2
AcDbSun
  3
SCENEOE
 90
     1153
280
     0
281
     0
  0
CLASS
  1
ACDBPLACEHOLDER
  2
AcDbPlaceHolder
  3
ObjectDBX Classes
 90
        0
280
     0
281
     0
  0
CLASS
  1
LAYOUT
  2
AcDbLayout
  3
ObjectDBX Classes
 90
        0
280
     0
281
     0
  0
ENDSEC
  0
SECTION
  2
TABLES
  0
TABLE
  2
VPORT
  5
8
330
0
100
AcDbSymbolTable
 70
     1
  0
VPORT
  5
29
330
8
100
AcDbSymbolTableRecord
100
AcDbViewportTableRecord
  2
*Active
 70
     0
 10
0.0
 20
0.0
 11
1.0
 21
1.0
 12
10000.0
 22
5000.0
 13
0.0
 23
0.0
 14
10.0
 24
10.0
 15
10.0
 25
10.0
 16
0.0
 26
0.0
 36
1.0
 17
0.0
 27
0.0
 37
0.0
 40
10000.0
 41
2.0
 42
50.0
 43
0.0
 44
0.0
 50
0.0
 51
0.0
 71
     0
 72
  2000
 73
     1
 74
     3
 75
     0
 76
     0
 77
     0
 78
     0
281
     0
 65
     1
110
0.0
120
0.0
130
0.0
111
1.0
121
0.0
131
0.0
112
0.0
122
1.0
132
0.0
 79
     0
146
0.0
  0
ENDTAB
  0
TABLE
  2
LTYPE
  5
5
330
0
100
AcDbSymbolTable
 70
     6
  0
LTYPE
  5
14
330
5
100
AcDbSymbolTableRecord
100
AcDbLinetypeTableRecord
  2
ByBlock
 70
     0
  3

 72
    65
 73
     0
 40
0.0
  0
LTYPE
  5
15
330
5
100
AcDbSymbolTableRecord
100
AcDbLinetypeTableRecord
  2
ByLayer
 70
     0
  3

 72
    65
 73
     0
 40
0.0
  0
LTYPE
  5
16
330
5
100
AcDbSymbolTableRecord
100
AcDbLinetypeTableRecord
  2
Continuous
 70
     0
  3
Solid line
 72
    65
 73
     0
 40
0.0
  0
LTYPE
  5
6E
330
5
100
AcDbSymbolTableRecord
100
AcDbLinetypeTableRecord
  2
HIDDEN
 70
     0
  3
Hidden __ __ __ __ __ __ __ __ __ __ __ __ __ __
 72
    65
 73
     2
 40
1.905
 49
1.27
 74
     0
 49
-0.635
 74
     0
  0
LTYPE
  5
6F
330
5
100
AcDbSymbolTableRecord
100
AcDbLinetypeTableRecord
  2
PHANTOM
 70
     0
  3
Phantom ______  __  __  ______  __  __  ______
 72
    65
 73
     6
 40
12.7
 49
6.35
 74
     0
 49
-1.27
 74
     0
 49
1.27
 74
     0
 49
-1.27
 74
     0
 49
1.27
 74
     0
 49
-1.27
 74
     0
  0
LTYPE
  5
70
330
5
100
AcDbSymbolTableRecord
100
AcDbLinetypeTableRecord
  2
CENTER
 70
     0
  3
Center ____ _ ____ _ ____ _ ____ _ ____ _ ____
 72
    65
 73
     4
 40
10.16
 49
6.35
 74
     0
 49
-1.27
 74
     0
 49
1.27
 74
     0
 49
-1.27
 74
     0
  0
LTYPE
  5
71
330
5
100
AcDbSymbolTableRecord
100
AcDbLinetypeTableRecord
  2
CENTERX2
 70
     0
  3
Center (2x) ________  __  ________  __  _____
 72
    65
 73
     4
 40
20.32
 49
12.7
 74
     0
 49
-2.54
 74
     0
 49
2.54
 74
     0
 49
-2.54
 74
     0
  0
LTYPE
  5
72
330
5
100
AcDbSymbolTableRecord
100
AcDbLinetypeTableRecord
  2
DOT2
 70
     0
  3
Dot (.5x) ........................................
 72
    65
 73
     2
 40
0.635
 49
0.0
 74
     0
 49
-0.635
 74
     0
  0
ENDTAB
  0
TABLE
  2
LAYER
  5
2
330
0
100
AcDbSymbolTable
 70
    13
  0
LAYER
  5
10
330
2
100
AcDbSymbolTableRecord
100
AcDbLayerTableRecord
  2
0
 70
     0
 62
     7
  6
Continuous
370
    -3
390
F
  0
LAYER
  5
73
330
2
100
AcDbSymbolTableRecord
100
AcDbLayerTableRecord
  2
FORMAT
 70
     0
 62
     7
  6
Continuous
370
    -3
390
F
  0
LAYER
  5
74
330
2
100
AcDbSymbolTableRecord
100
AcDbLayerTableRecord
  2
OSA
 70
     0
 62
     7
  6
CENTER
370
    -3
390
F
  0
LAYER
  5
75
330
2
100
AcDbSymbolTableRecord
100
AcDbLayerTableRecord
  2
0_35
 70
     0
 62
     7
  6
Continuous
370
    35
390
F
  0
LAYER
  5
76
330
2
100
AcDbSymbolTableRecord
100
AcDbLayerTableRecord
  2
0_5
 70
     0
 62
     7
  6
Continuous
370
    50
390
F
  0
LAYER
  5
77
330
2
100
AcDbSymbolTableRecord
100
AcDbLayerTableRecord
  2
0_25
 70
     0
 62
     7
  6
Continuous
370
    25
390
F
  0
LAYER
  5
78
330
2
100
AcDbSymbolTableRecord
100
AcDbLayerTableRecord
  2
0_18
 70
     0
 62
     7
  6
Continuous
370
    -3
390
F
  0
LAYER
  5
79
330
2
100
AcDbSymbolTableRecord
100
AcDbLayerTableRecord
  2
SLD-0
 70
     0
 62
   179
  6
Continuous
370
    -3
390
F
  0
LAYER
  5
7A
330
2
100
AcDbSymbolTableRecord
100
AcDbLayerTableRecord
  2
KOTY
 70
     0
 62
     7
  6
Continuous
370
    -3
390
F
  0
LAYER
  5
7B
330
2
100
AcDbSymbolTableRecord
100
AcDbLayerTableRecord
  2
SILNA
 70
     0
 62
   179
  6
Continuous
370
    -3
390
F
  0
LAYER
  5
7C
330
2
100
AcDbSymbolTableRecord
100
AcDbLayerTableRecord
  2
0_18_1
 70
     0
 62
   179
  6
Continuous
370
    -3
390
F
  0
LAYER
  5
7D
330
2
100
AcDbSymbolTableRecord
100
AcDbLayerTableRecord
  2
0_35_1
 70
     0
 62
   179
  6
Continuous
370
    35
390
F
  0
LAYER
  5
7E
330
2
100
AcDbSymbolTableRecord
100
AcDbLayerTableRecord
  2
0_5_1
 70
     0
 62
   179
  6
Continuous
370
    50
390
F
  0
ENDTAB
  0
TABLE
  2
STYLE
  5
3
330
0
100
AcDbSymbolTable
 70
     1
  0
STYLE
  5
11
330
3
100
AcDbSymbolTableRecord
100
AcDbTextStyleTableRecord
  2
Standard
 70
     0
 40
0.0
 41
1.0
 50
0.0
 71
     0
 42
2.0
  3
txt
  4

  0
ENDTAB
  0
TABLE
  2
VIEW
  5
6
330
0
100
AcDbSymbolTable
 70
     0
  0
ENDTAB
  0
TABLE
  2
UCS
  5
7
330
0
100
AcDbSymbolTable
 70
     0
  0
ENDTAB
  0
TABLE
  2
APPID
  5
9
330
0
100
AcDbSymbolTable
 70
     1
  0
APPID
  5
12
330
9
100
AcDbSymbolTableRecord
100
AcDbRegAppTableRecord
  2
ACAD
 70
     0
  0
ENDTAB
  0
TABLE
  2
DIMSTYLE
  5
A
330
0
100
AcDbSymbolTable
 70
     1
100
AcDbDimStyleTable
  0
DIMSTYLE
105
27
330
A
100
AcDbSymbolTableRecord
100
AcDbDimStyleTableRecord
  2
ISO-25
 70
     0
 41
2.5
 42
0.625
 43
3.75
 44
1.25
 73
     0
 74
     0
 77
     1
 78
     8
140
2.5
141
2.5
143
0.0393700787
147
0.625
171
     3
172
     1
178
     0
271
     2
272
     2
274
     3
278
    44
283
     0
284
     8
340
11
  0
ENDTAB
  0
TABLE
  2
BLOCK_RECORD
  5
1
330
0
100
AcDbSymbolTable
 70
     1
  0
BLOCK_RECORD
  5
1F
330
1
100
AcDbSymbolTableRecord
100
AcDbBlockTableRecord
  2
*Model_Space
340
22
  0
BLOCK_RECORD
  5
1B
330
1
100
AcDbSymbolTableRecord
100
AcDbBlockTableRecord
  2
*Paper_Space
340
1E
  0
BLOCK_RECORD
  5
23
330
1
100
AcDbSymbolTableRecord
100
AcDbBlockTableRecord
  2
*Paper_Space0
340
26
  0
ENDTAB
  0
ENDSEC
  0
SECTION
  2
BLOCKS
  0
BLOCK
  5
20
330
1F
100
AcDbEntity
  8
0
100
AcDbBlockBegin
  2
*Model_Space
 70
     0
 10
0.0
 20
0.0
 30
0.0
  3
*Model_Space
  1

  0
ENDBLK
  5
21
330
1F
100
AcDbEntity
  8
0
100
AcDbBlockEnd
  0
BLOCK
  5
1C
330
1B
100
AcDbEntity
 67
     1
  8
0
100
AcDbBlockBegin
  2
*Paper_Space
 70
     0
 10
0.0
 20
0.0
 30
0.0
  3
*Paper_Space
  1

  0
ENDBLK
  5
1D
330
1B
100
AcDbEntity
 67
     1
  8
0
100
AcDbBlockEnd
  0
BLOCK
  5
24
330
23
100
AcDbEntity
  8
0
100
AcDbBlockBegin
  2
*Paper_Space0
 70
     0
 10
0.0
 20
0.0
 30
0.0
  3
*Paper_Space0
  1

  0
ENDBLK
  5
25
330
23
100
AcDbEntity
  8
0
100
AcDbBlockEnd
  0
ENDSEC
  0
SECTION
  2
ENTITIES
  0
ARC
  5
7F
330
1F
100
AcDbEntity
  8
0
  6
Continuous
 62
     7
370
    25
100
AcDbCircle
 10
6150.6041816383
 20
5175.2517140025
 30
0.0
 40
5.41788089007788
100
AcDbArc
 50
223.1152285563
 51
267.6963935247
  0
ARC
  5
80
330
1F
100
AcDbEntity
  8
0
  6
Continuous
 62
     7
370
    25
100
AcDbCircle
 10
6150.6041816383
 20
5175.2517140025
 30
0.0
 40
5.417880890078122
100
AcDbArc
 50
116.2974050911
 51
160.8785700595
  0
ARC
  5
81
330
1F
100
AcDbEntity
  8
0
  6
Continuous
 62
     7
370
    25
100
AcDbCircle
 10
6354.0187553361
 20
5410.711197017
 30
0.0
 40
5.417880890078722
100
AcDbArc
 50
121.1183292484
 51
165.6994942168
  0
ARC
  5
82
330
1F
100
AcDbEntity
  8
0
  6
Continuous
 62
     7
370
    25
100
AcDbCircle
 10
6354.0187553361
 20
5410.711197017
 30
0.0
 40
5.41788089007844
100
AcDbArc
 50
14.3005057832
 51
58.8816707516
  0
ARC
  5
83
330
1F
100
AcDbEntity
  8
0
  6
Continuous
 62
     7
370
    25
100
AcDbCircle
 10
6112.1503118116
 20
5356.2111014223
 30
0.0
 40
5.417880890078502
100
AcDbArc
 50
223.1152285563
 51
267.6963935247
  0
ARC
  5
84
330
1F
100
AcDbEntity
  8
0
  6
Continuous
 62
     7
370
    25
100
AcDbCircle
 10
6112.1503118116
 20
5356.2111014223
 30
0.0
 40
5.417880890078981
100
AcDbArc
 50
116.2974050911
 51
160.8785700595
  0
ARC
  5
85
330
1F
100
AcDbEntity
  8
0
  6
Continuous
 62
     7
370
    25
100
AcDbCircle
 10
6194.0187553361
 20
5410.711197017
 30
0.0
 40
5.417880890079218
100
AcDbArc
 50
121.1183292484
 51
165.6994942168
  0
ARC
  5
86
330
1F
100
AcDbEntity
  8
0
  6
Continuous
 62
     7
370
    25
100
AcDbCircle
 10
6194.0187553361
 20
5410.711197017
 30
0.0
 40
5.417880890078748
100
AcDbArc
 50
14.3005057832
 51
58.8816707516
  0
LINE
  5
87
330
1F
100
AcDbEntity
  8
0
  6
Continuous
 62
     7
370
    25
100
AcDbLine
 10
6150.3344469248
 20
5170.0827511932
 30
0.0
 11
6150.3864116138
 21
5169.8382114805
 31
0.0
  0
LINE
  5
88
330
1F
100
AcDbEntity
  8
0
  6
Continuous
 62
     7
370
    25
100
AcDbLine
 10
6146.3333505199
 20
5173.0352746964
 30
0.0
 11
6146.6485434743
 21
5171.5520137343
 31
0.0
  0
LINE
  5
89
330
1F
100
AcDbEntity
  8
0
  6
Continuous
 62
     7
370
    25
100
AcDbLine
 10
6145.7520359833
 20
5175.7708725157
 30
0.0
 11
6146.3333505199
 21
5173.0352746964
 31
0.0
  0
LINE
  5
8A
330
1F
100
AcDbEntity
  8
0
  6
Continuous
 62
     7
370
    25
100
AcDbLine
 10
6145.4859144011
 20
5177.0232093729
 30
0.0
 11
6145.7520359833
 21
5175.7708725157
 31
0.0
  0
LINE
  5
8B
330
1F
100
AcDbEntity
  8
0
  6
Continuous
 62
     7
370
    25
100
AcDbLine
 10
6146.6485434743
 20
5171.5520137343
 30
0.0
 11
6146.6486654861
 21
5171.551439561
 31
0.0
  0
LINE
  5
8C
330
1F
100
AcDbEntity
  8
0
  6
Continuous
 62
     7
370
    25
100
AcDbLine
 10
6352.4406319688
 20
5415.3494545927
 30
0.0
 11
6351.2187553361
 21
5415.3494545927
 31
0.0
  0
LINE
  5
8D
330
1F
100
AcDbEntity
  8
0
  6
Continuous
 62
     7
370
    25
100
AcDbLine
 10
6355.2327275958
 20
5415.3494545927
 30
0.0
 11
6352.4406319688
 21
5415.3494545927
 31
0.0
  0
LINE
  5
8E
330
1F
100
AcDbEntity
  8
0
  6
Continuous
 62
     7
370
    25
100
AcDbLine
 10
6356.8108509631
 20
5415.3494545927
 30
0.0
 11
6355.2327275958
 21
5415.3494545927
 31
0.0
  0
LINE
  5
8F
330
1F
100
AcDbEntity
  8
0
  6
Continuous
 62
     7
370
    25
100
AcDbLine
 10
6356.8187553361
 20
5415.3494545927
 30
0.0
 11
6356.8108509631
 21
5415.3494545927
 31
0.0
  0
LINE
  5
90
330
1F
100
AcDbEntity
  8
0
  6
Continuous
 62
     7
370
    25
100
AcDbLine
 10
6107.8794806932
 20
5353.9946621162
 30
0.0
 11
6108.1946736476
 21
5352.5114011541
 31
0.0
  0
LINE
  5
91
330
1F
100
AcDbEntity
  8
0
  6
Continuous
 62
     7
370
    25
100
AcDbLine
 10
6107.2981661566
 20
5356.7302599355
 30
0.0
 11
6107.8794806932
 21
5353.9946621162
 31
0.0
  0
LINE
  5
92
330
1F
100
AcDbEntity
  8
0
  6
Continuous
 62
     7
370
    25
100
AcDbLine
 10
6107.0320445744
 20
5357.9825967927
 30
0.0
 11
6107.2981661566
 21
5356.7302599355
 31
0.0
  0
LINE
  5
93
330
1F
100
AcDbEntity
  8
0
  6
Continuous
 62
     7
370
    25
100
AcDbLine
 10
6109.750024851
 20
5361.068266835
 30
0.0
 11
6109.8019895399
 21
5360.8237271222
 31
0.0
  0
LINE
  5
94
330
1F
100
AcDbEntity
  8
0
  6
Continuous
 62
     7
370
    25
100
AcDbLine
 10
6108.1946736476
 20
5352.5114011541
 30
0.0
 11
6108.1947956594
 21
5352.5108269808
 31
0.0
  0
LINE
  5
95
330
1F
100
AcDbEntity
  8
0
  6
Continuous
 62
     7
370
    25
100
AcDbLine
 10
6191.5464534649
 20
5415.3494545927
 30
0.0
 11
6191.2187553361
 21
5415.3494545927
 31
0.0
  0
LINE
  5
96
330
1F
100
AcDbEntity
  8
0
  6
Continuous
 62
     7
370
    25
100
AcDbLine
 10
6193.9209332604
 20
5415.3494545927
 30
0.0
 11
6191.5464534649
 21
5415.3494545927
 31
0.0
  0
LINE
  5
97
330
1F
100
AcDbEntity
  8
0
  6
Continuous
 62
     7
370
    25
100
AcDbLine
 10
6196.3932351316
 20
5415.3494545927
 30
0.0
 11
6193.9209332604
 21
5415.3494545927
 31
0.0
  0
LINE
  5
98
330
1F
100
AcDbEntity
  8
0
  6
Continuous
 62
     7
370
    25
100
AcDbLine
 10
6196.8187553361
 20
5415.3494545927
 30
0.0
 11
6196.3932351316
 21
5415.3494545927
 31
0.0
  0
LINE
  5
99
330
1F
100
AcDbEntity
  8
0
  6
Continuous
 62
     7
370
    25
100
AcDbLine
 10
6150.3344469248
 20
5170.0827511932
 30
0.0
 11
6109.8019895399
 21
5360.8237271222
 31
0.0
  0
LINE
  5
9A
330
1F
100
AcDbEntity
  8
0
  6
Continuous
 62
     7
370
    25
100
AcDbLine
 10
6150.3344469248
 20
5170.0827511932
 30
0.0
 11
6150.4322628099
 21
5170.1035370688
 31
0.0
  0
LINE
  5
9B
330
1F
100
AcDbEntity
  8
0
  6
Continuous
 62
     7
370
    25
100
AcDbLine
 10
6109.8019895399
 20
5360.8237271222
 30
0.0
 11
6109.899805425
 21
5360.8445129978
 31
0.0
  0
LINE
  5
9C
330
1F
100
AcDbEntity
  8
0
  6
Continuous
 62
     7
370
    25
100
AcDbLine
 10
6111.3670437014
 20
5412.0494545927
 30
0.0
 11
6436.6704669708
 21
5412.0494545927
 31
0.0
  0
ARC
  5
9D
330
1F
100
AcDbEntity
  8
0
  6
Continuous
 62
     7
370
    25
100
AcDbCircle
 10
6436.6704669708
 20
5402.0494545927
 30
0.0
 40
10.00000000000091
100
AcDbArc
 50
348.0031006921
 51
90.0
  0
LINE
  5
9E
330
1F
100
AcDbEntity
  8
0
  6
Continuous
 62
     7
370
    25
100
AcDbLine
 10
6446.45205548
 20
5399.9708670345
 30
0.0
 11
6101.5854551922
 21
5399.9708670345
 31
0.0
  0
ARC
  5
9F
330
1F
100
AcDbEntity
  8
0
  6
Continuous
 62
     7
370
    25
100
AcDbCircle
 10
6111.3670437014
 20
5402.0494545927
 30
0.0
 40
10.00000000000091
100
AcDbArc
 50
90.0
 51
191.9968993079
  0
LINE
  5
A0
330
1F
100
AcDbEntity
  8
0
  6
Continuous
 62
     7
370
    25
100
AcDbLine
 10
6446.45205548
 20
5399.9708670345
 30
0.0
 11
6364.3554153649
 21
5013.6337370811
 31
0.0
  0
LINE
  5
A1
330
1F
100
AcDbEntity
  8
0
  6
Continuous
 62
     7
370
    25
100
AcDbLine
 10
6183.6820953073
 20
5013.6337370811
 30
0.0
 11
6364.3554153649
 21
5013.6337370811
 31
0.0
  0
LINE
  5
A2
330
1F
100
AcDbEntity
  8
0
  6
Continuous
 62
     7
370
    25
100
AcDbLine
 10
6183.6820953073
 20
5013.6337370811
 30
0.0
 11
6101.5854551922
 21
5399.9708670345
 31
0.0
  0
ARC
  5
A3
330
1F
100
AcDbEntity
  8
0
  6
Continuous
 62
     7
370
    25
100
AcDbCircle
 10
6362.399097663
 20
5014.0494545927
 30
0.0
 40
2.0
100
AcDbArc
 50
270.0
 51
348.0031006921
  0
LINE
  5
A4
330
1F
100
AcDbEntity
  8
0
  6
Continuous
 62
     7
370
    25
100
AcDbLine
 10
6362.399097663
 20
5012.0494545927
 30
0.0
 11
6185.6384130092
 21
5012.0494545927
 31
0.0
  0
ARC
  5
A5
330
1F
100
AcDbEntity
  8
0
  6
Continuous
 62
     7
370
    25
100
AcDbCircle
 10
6185.6384130092
 20
5014.0494545927
 30
0.0
 40
1.999999999999392
100
AcDbArc
 50
191.9968993079
 51
270.0
  0
LINE
  5
A6
330
1F
100
AcDbEntity
  8
0
  6
Continuous
 62
     7
370
    25
100
AcDbLine
 10
6695.9509577144
 20
5172.8835672796
 30
0.0
 11
6696.0676829639
 21
5172.8835672796
 31
0.0
  0
LINE
  5
A7
330
1F
100
AcDbEntity
  8
0
  6
Continuous
 62
     7
370
    25
100
AcDbLine
 10
6696.0676829639
 20
5253.283039896
 30
0.0
 11
6695.9509577144
 21
5253.283039896
 31
0.0
  0
LINE
  5
A8
330
1F
100
AcDbEntity
  8
0
  6
Continuous
 62
     7
370
    25
100
AcDbLine
 10
6915.560091711
 20
5174.6633723691
 30
0.0
 11
6915.560091711
 21
5174.4347277377
 31
0.0
  0
LINE
  5
A9
330
1F
100
AcDbEntity
  8
0
  6
Continuous
 62
     7
370
    25
100
AcDbLine
 10
6911.5752742168
 20
5174.1404953696
 30
0.0
 11
6911.5752742168
 21
5174.369140001
 31
0.0
  0
LINE
  5
AA
330
1F
100
AcDbEntity
  8
0
  6
Continuous
 62
     7
370
    25
100
AcDbLine
 10
6915.560091711
 20
5355.6227597889
 30
0.0
 11
6915.560091711
 21
5355.3941151575
 31
0.0
  0
LINE
  5
AB
330
1F
100
AcDbEntity
  8
0
  6
Continuous
 62
     7
370
    25
100
AcDbLine
 10
6911.5752742168
 20
5355.0998827894
 30
0.0
 11
6911.5752742168
 21
5355.3285274208
 31
0.0
  0
ARC
  5
AC
330
1F
100
AcDbEntity
  8
0
  6
Continuous
 62
     7
370
    25
100
AcDbCircle
 10
6916.0676829639
 20
5410.711197017
 30
0.0
 40
5.417880890079218
100
AcDbArc
 50
121.1183292484
 51
165.6994942168
  0
ARC
  5
AD
330
1F
100
AcDbEntity
  8
0
  6
Continuous
 62
     7
370
    25
100
AcDbCircle
 10
6916.0676829639
 20
5410.711197017
 30
0.0
 40
5.417880890078278
100
AcDbArc
 50
14.3005057832
 51
58.8816707516
  0
LINE
  5
AE
330
1F
100
AcDbEntity
  8
0
  6
Continuous
 62
     7
370
    25
100
AcDbLine
 10
6755.560091711
 20
5355.6227597889
 30
0.0
 11
6755.560091711
 21
5355.3941151575
 31
0.0
  0
LINE
  5
AF
330
1F
100
AcDbEntity
  8
0
  6
Continuous
 62
     7
370
    25
100
AcDbLine
 10
6751.5752742168
 20
5355.0998827894
 30
0.0
 11
6751.5752742168
 21
5355.3285274208
 31
0.0
  0
LINE
  5
B0
330
1F
100
AcDbEntity
  8
0
  6
Continuous
 62
     7
370
    25
100
AcDbLine
 10
6755.560091711
 20
5174.6633723691
 30
0.0
 11
6755.560091711
 21
5174.4347277377
 31
0.0
  0
LINE
  5
B1
330
1F
100
AcDbEntity
  8
0
  6
Continuous
 62
     7
370
    25
100
AcDbLine
 10
6751.5752742168
 20
5174.1404953696
 30
0.0
 11
6751.5752742168
 21
5174.369140001
 31
0.0
  0
ARC
  5
B2
330
1F
100
AcDbEntity
  8
0
  6
Continuous
 62
     7
370
    25
100
AcDbCircle
 10
7333.7193945986
 20
5402.0494545927
 30
0.0
 40
10.00000000000091
100
AcDbArc
 50
348.0031006921
 51
90.0
  0
LINE
  5
B3
330
1F
100
AcDbEntity
  8
0
  6
Continuous
 62
     7
370
    25
100
AcDbLine
 10
7261.4043429927
 20
5013.6337370811
 30
0.0
 11
7343.5009831078
 21
5399.9708670345
 31
0.0
  0
ARC
  5
B4
330
1F
100
AcDbEntity
  8
0
  6
Continuous
 62
     7
370
    25
100
AcDbCircle
 10
7259.4480252908
 20
5014.0494545927
 30
0.0
 40
2.0
100
AcDbArc
 50
270.0
 51
348.0031006921
  0
LWPOLYLINE
  5
B5
330
1F
100
AcDbEntity
  8
0
  6
Continuous
 62
     7
370
    25
100
AcDbPolyline
 90
        3
 70
   128
 43
0.0
 10
6913.8007005158
 20
5176.4099987056
 10
6914.0514093274
 20
5176.3640468783
 10
6914.1063000564
 20
5176.349460436
  0
ARC
  5
B6
330
1F
100
AcDbEntity
  8
0
  6
Continuous
 62
     7
370
    25
100
AcDbCircle
 10
6913.6110952577
 20
5174.4990187054
 30
0.0
 40
1.910357215237102
100
AcDbArc
 50
23.6624459992
 51
48.0383601277
  0
LINE
  5
B7
330
1F
100
AcDbEntity
  8
0
  6
Continuous
 62
     7
370
    25
100
AcDbLine
 10
6912.0075426664
 20
5175.6605190401
 30
0.0
 11
6912.0868822635
 21
5175.7572962769
 31
0.0
  0
ARC
  5
B8
330
1F
100
AcDbEntity
  8
0
  6
Continuous
 62
     7
370
    25
100
AcDbCircle
 10
6913.5676245446
 20
5174.4338181366
 30
0.0
 40
1.98987789817578
100
AcDbArc
 50
83.2734589064
 51
110.7348537229
  0
ARC
  5
B9
330
1F
100
AcDbEntity
  8
0
  6
Continuous
 62
     7
370
    25
100
AcDbCircle
 10
6913.4917569903
 20
5174.5166851126
 30
0.0
 40
1.873832493295849
100
AcDbArc
 50
142.3797709287
 51
203.5907097056
  0
ARC
  5
BA
330
1F
100
AcDbEntity
  8
0
  6
Continuous
 62
     7
370
    25
100
AcDbCircle
 10
6913.5527184438
 20
5174.555531875
 30
0.0
 40
1.945278007667441
100
AcDbArc
 50
203.9206952965
 51
263.5639888769
  0
ARC
  5
BB
330
1F
100
AcDbEntity
  8
0
  6
Continuous
 62
     7
370
    25
100
AcDbCircle
 10
6913.5708364321
 20
5174.5773038606
 30
0.0
 40
1.969005196005866
100
AcDbArc
 50
263.1111099577
 51
322.2554639463
  0
ARC
  5
BC
330
1F
100
AcDbEntity
  8
0
  6
Continuous
 62
     7
370
    25
100
AcDbCircle
 10
6913.6436089375
 20
5174.5158272575
 30
0.0
 40
1.873832493295216
100
AcDbArc
 50
322.3797709287
 51
23.5907097056
  0
ARC
  5
BD
330
1F
100
AcDbEntity
  8
0
  6
Continuous
 62
     7
370
    25
100
AcDbCircle
 10
6914.8543326856
 20
5176.213019462
 30
0.0
 40
0.7587971108433156
100
AcDbArc
 50
187.4906550775
 51
279.9940290962
  0
ARC
  5
BE
330
1F
100
AcDbEntity
  8
0
  6
Continuous
 62
     7
370
    25
100
AcDbCircle
 10
6913.7636599366
 20
5176.0709207624
 30
0.0
 40
0.3410950836181403
100
AcDbArc
 50
7.2724632068
 51
83.7657785703
  0
ARC
  5
BF
330
1F
100
AcDbEntity
  8
0
  6
Continuous
 62
     7
370
    25
100
AcDbCircle
 10
6915.0446910147
 20
5175.124466294
 30
0.0
 40
0.3462770317909012
100
AcDbArc
 50
24.0771805453
 51
99.7551416034
  0
ARC
  5
C0
330
1F
100
AcDbEntity
  8
0
  6
Continuous
 62
     7
370
    25
100
AcDbCircle
 10
6913.7581579378
 20
5176.0671506523
 30
0.0
 40
0.3454774357390896
100
AcDbArc
 50
82.9265629082
 51
158.7289394288
  0
ARC
  5
C1
330
1F
100
AcDbEntity
  8
0
  6
Continuous
 62
     7
370
    25
100
AcDbCircle
 10
6912.7224284224
 20
5176.4724551116
 30
0.0
 40
0.7667316487568564
100
AcDbArc
 50
246.7833790876
 51
338.5831948164
  0
ARC
  5
C2
330
1F
100
AcDbEntity
  8
0
  6
Continuous
 62
     7
370
    25
100
AcDbCircle
 10
6912.2835255471
 20
5175.4462414209
 30
0.0
 40
0.349401557702144
100
AcDbArc
 50
66.9770783205
 51
142.1736511868
  0
ARC
  5
C3
330
1F
100
AcDbEntity
  8
0
  6
Continuous
 62
     7
370
    25
100
AcDbCircle
 10
6912.2704157023
 20
5175.4581419318
 30
0.0
 40
0.3317510014617047
100
AcDbArc
 50
142.4085359782
 51
220.4282669196
  0
ARC
  5
C4
330
1F
100
AcDbEntity
  8
0
  6
Continuous
 62
     7
370
    25
100
AcDbCircle
 10
6911.4576304807
 20
5174.7672997506
 30
0.0
 40
0.7349651707238739
100
AcDbArc
 50
305.6362111101
 51
40.3342695242
  0
ARC
  5
C5
330
1F
100
AcDbEntity
  8
0
  6
Continuous
 62
     7
370
    25
100
AcDbCircle
 10
6912.079983643
 20
5173.8994031536
 30
0.0
 40
0.3330086134999672
100
AcDbArc
 50
125.6600101738
 51
203.4699397873
  0
ARC
  5
C6
330
1F
100
AcDbEntity
  8
0
  6
Continuous
 62
     7
370
    25
100
AcDbCircle
 10
6915.0553822848
 20
5175.1331092164
 30
0.0
 40
0.3330086134994371
100
AcDbArc
 50
305.6600101736
 51
23.4699397875
  0
ARC
  5
C7
330
1F
100
AcDbEntity
  8
0
  6
Continuous
 62
     7
370
    25
100
AcDbCircle
 10
6915.6777354471
 20
5174.2652126195
 30
0.0
 40
0.7349651707252951
100
AcDbArc
 50
125.6362111102
 51
220.3342695241
  0
ARC
  5
C8
330
1F
100
AcDbEntity
  8
0
  6
Continuous
 62
     7
370
    25
100
AcDbCircle
 10
6914.8649502255
 20
5173.5743704383
 30
0.0
 40
0.3317510014587616
100
AcDbArc
 50
322.4085359778
 51
40.4282669197
  0
LWPOLYLINE
  5
C9
330
1F
100
AcDbEntity
  8
0
  6
Continuous
 62
     7
370
    25
100
AcDbPolyline
 90
       17
 70
   128
 43
0.0
 10
6913.0619204936
 20
5174.3048644845
 10
6913.1831217866
 20
5174.1316360886
 10
6913.3628690328
 20
5174.0169626157
 10
6913.5737973434
 20
5173.9783020627
 10
6913.7837947952
 20
5174.0215401482
 10
6913.9608911796
 20
5174.1400942657
 10
6914.0781251777
 20
5174.3159156256
 10
6914.1176489759
 20
5174.5222370195
 10
6914.0734454342
 20
5174.7276478856
 10
6913.9522441412
 20
5174.9008762815
 10
6913.772496895
 20
5175.0155497543
 10
6913.5615685844
 20
5175.0542103074
 10
6913.3515711326
 20
5175.0109722218
 10
6913.1744747482
 20
5174.8924181043
 10
6913.0572407501
 20
5174.7165967445
 10
6913.0177169519
 20
5174.5102753506
 10
6913.0619204936
 20
5174.3048644845
  0
ARC
  5
CA
330
1F
100
AcDbEntity
  8
0
  6
Continuous
 62
     7
370
    25
100
AcDbCircle
 10
6912.0906749131
 20
5173.9080460761
 30
0.0
 40
0.3462770317948765
100
AcDbArc
 50
204.0771805456
 51
279.7551416031
  0
ARC
  5
CB
330
1F
100
AcDbEntity
  8
0
  6
Continuous
 62
     7
370
    25
100
AcDbCircle
 10
6912.2810332422
 20
5172.819492908
 30
0.0
 40
0.7587971108446334
100
AcDbArc
 50
7.4906550775
 51
99.9940290959
  0
ARC
  5
CC
330
1F
100
AcDbEntity
  8
0
  6
Continuous
 62
     7
370
    25
100
AcDbCircle
 10
6913.3717059912
 20
5172.9615916076
 30
0.0
 40
0.3410950836218077
100
AcDbArc
 50
187.2724632072
 51
263.7657785697
  0
ARC
  5
CD
330
1F
100
AcDbEntity
  8
0
  6
Continuous
 62
     7
370
    25
100
AcDbCircle
 10
6914.8518403807
 20
5173.5862709491
 30
0.0
 40
0.3494015577018944
100
AcDbArc
 50
246.9770783204
 51
322.1736511868
  0
ARC
  5
CE
330
1F
100
AcDbEntity
  8
0
  6
Continuous
 62
     7
370
    25
100
AcDbCircle
 10
6913.37720799
 20
5172.9653617178
 30
0.0
 40
0.3454774357402851
100
AcDbArc
 50
262.9265629085
 51
338.728939429
  0
ARC
  5
CF
330
1F
100
AcDbEntity
  8
0
  6
Continuous
 62
     7
370
    25
100
AcDbCircle
 10
6914.4129375054
 20
5172.5600572585
 30
0.0
 40
0.76673164875706
100
AcDbArc
 50
66.7833790876
 51
158.5831948162
  0
ARC
  5
D0
330
1F
100
AcDbEntity
  8
0
  6
Continuous
 62
     7
370
    25
100
AcDbCircle
 10
6753.5086295553
 20
5355.4690026928
 30
0.0
 40
1.891641502416393
100
AcDbArc
 50
137.0886373111
 51
171.7323904612
  0
ARC
  5
D1
330
1F
100
AcDbEntity
  8
0
  6
Continuous
 62
     7
370
    25
100
AcDbCircle
 10
6753.5064040764
 20
5355.4782749995
 30
0.0
 40
1.888126593285453
100
AcDbArc
 50
172.0011272048
 51
232.8902796148
  0
ARC
  5
D2
330
1F
100
AcDbEntity
  8
0
  6
Continuous
 62
     7
370
    25
100
AcDbCircle
 10
6753.5681132904
 20
5355.5526415857
 30
0.0
 40
1.984669169034926
100
AcDbArc
 50
232.7648896593
 51
291.5854805263
  0
ARC
  5
D3
330
1F
100
AcDbEntity
  8
0
  6
Continuous
 62
     7
370
    25
100
AcDbCircle
 10
6753.6042832302
 20
5355.4923333606
 30
0.0
 40
1.915318059725971
100
AcDbArc
 50
291.2430590507
 51
351.5314926837
  0
ARC
  5
D4
330
1F
100
AcDbEntity
  8
0
  6
Continuous
 62
     7
370
    25
100
AcDbCircle
 10
6753.6321461156
 20
5355.4734373683
 30
0.0
 40
1.885032669728428
100
AcDbArc
 50
351.9748620714
 51
47.5194457953
  0
ARC
  5
D5
330
1F
100
AcDbEntity
  8
0
  6
Continuous
 62
     7
370
    25
100
AcDbCircle
 10
6753.5677687958
 20
5355.3926749845
 30
0.0
 40
1.990411715160991
100
AcDbArc
 50
74.9603556668
 51
111.5360674598
  0
ARC
  5
D6
330
1F
100
AcDbEntity
  8
0
  6
Continuous
 62
     7
370
    25
100
AcDbCircle
 10
6753.8675501052
 20
5357.5865115514
 30
0.0
 40
0.7719751374412654
100
AcDbArc
 50
216.5041939528
 51
307.8461762329
  0
ARC
  5
D7
330
1F
100
AcDbEntity
  8
0
  6
Continuous
 62
     7
370
    25
100
AcDbCircle
 10
6752.9662476248
 20
5356.9197197297
 30
0.0
 40
0.3491660562976496
100
AcDbArc
 50
36.4726653796
 51
111.7052586347
  0
ARC
  5
D8
330
1F
100
AcDbEntity
  8
0
  6
Continuous
 62
     7
370
    25
100
AcDbCircle
 10
6754.5545391467
 20
5356.7022801531
 30
0.0
 40
0.3477655068451567
100
AcDbArc
 50
107.6407244455
 51
127.8418504457
  0
ARC
  5
D9
330
1F
100
AcDbEntity
  8
0
  6
Continuous
 62
     7
370
    25
100
AcDbCircle
 10
6752.9518218214
 20
5356.931405281
 30
0.0
 40
0.33034073182322
100
AcDbArc
 50
161.1887607417
 51
188.6847360221
  0
ARC
  5
DA
330
1F
100
AcDbEntity
  8
0
  6
Continuous
 62
     7
370
    25
100
AcDbCircle
 10
6751.8839318646
 20
5356.7761221453
 30
0.0
 40
0.7487923846091762
100
AcDbArc
 50
274.682531681
 51
8.0920200535
  0
ARC
  5
DB
330
1F
100
AcDbEntity
  8
0
  6
Continuous
 62
     7
370
    25
100
AcDbCircle
 10
6751.9742906538
 20
5355.6895373773
 30
0.0
 40
0.3415448061526303
100
AcDbArc
 50
94.9097113685
 51
171.3314075982
  0
ARC
  5
DC
330
1F
100
AcDbEntity
  8
0
  6
Continuous
 62
     7
370
    25
100
AcDbCircle
 10
6754.5690985779
 20
5356.7129840821
 30
0.0
 40
0.3315128924681598
100
AcDbArc
 50
335.040357082
 51
35.108872468
  0
ARC
  5
DD
330
1F
100
AcDbEntity
  8
0
  6
Continuous
 62
     7
370
    25
100
AcDbCircle
 10
6755.1653504386
 20
5355.2560055251
 30
0.0
 40
0.3364903646338017
100
AcDbArc
 50
352.1886600439
 51
69.4249133349
  0
ARC
  5
DE
330
1F
100
AcDbEntity
  8
0
  6
Continuous
 62
     7
370
    25
100
AcDbCircle
 10
6755.5418098653
 20
5356.2642308084
 30
0.0
 40
0.7397259371775754
100
AcDbArc
 50
155.3209351913
 51
249.5704716282
  0
LWPOLYLINE
  5
DF
330
1F
100
AcDbEntity
  8
0
  6
Continuous
 62
     7
370
    25
100
AcDbPolyline
 90
       17
 70
   128
 43
0.0
 10
6753.7737406419
 20
5354.9768399091
 10
6753.9532015611
 20
5355.0919416584
 10
6754.0739707686
 20
5355.2654585507
 10
6754.1176622473
 20
5355.4709742122
 10
6754.0776243658
 20
5355.6772007464
 10
6753.9599525284
 20
5355.8527420329
 10
6753.7825612057
 20
5355.9708735021
 10
6753.5724566186
 20
5356.0136107088
 10
6753.3616252859
 20
5355.9744473005
 10
6753.1821643667
 20
5355.8593455513
 10
6753.0613951592
 20
5355.6858286589
 10
6753.0177036805
 20
5355.4803129975
 10
6753.057741562
 20
5355.2740864633
 10
6753.1754133994
 20
5355.0985451768
 10
6753.3528047221
 20
5354.9804137075
 10
6753.5629093092
 20
5354.9376765009
 10
6753.7737406419
 20
5354.9768399091
  0
ARC
  5
E0
330
1F
100
AcDbEntity
  8
0
  6
Continuous
 62
     7
370
    25
100
AcDbCircle
 10
6751.9700154892
 20
5355.6952816846
 30
0.0
 40
0.3364903646376233
100
AcDbArc
 50
172.1886600445
 51
249.4249133345
  0
ARC
  5
E1
330
1F
100
AcDbEntity
  8
0
  6
Continuous
 62
     7
370
    25
100
AcDbCircle
 10
6751.5935560625
 20
5354.6870564013
 30
0.0
 40
0.7397259371792282
100
AcDbArc
 50
335.3209351914
 51
69.5704716281
  0
ARC
  5
E2
330
1F
100
AcDbEntity
  8
0
  6
Continuous
 62
     7
370
    25
100
AcDbCircle
 10
6752.567635096
 20
5354.2382055739
 30
0.0
 40
0.3327944227758804
100
AcDbArc
 50
155.1244976751
 51
232.9700616268
  0
ARC
  5
E3
330
1F
100
AcDbEntity
  8
0
  6
Continuous
 62
     7
370
    25
100
AcDbCircle
 10
6755.161075274
 20
5355.2617498324
 30
0.0
 40
0.341544806152074
100
AcDbArc
 50
274.9097113683
 51
351.3314075982
  0
ARC
  5
E4
330
1F
100
AcDbEntity
  8
0
  6
Continuous
 62
     7
370
    25
100
AcDbCircle
 10
6754.1773032302
 20
5354.0210059073
 30
0.0
 40
0.3363466014834775
100
AcDbArc
 50
291.0751994638
 51
8.3349343014
  0
ARC
  5
E5
330
1F
100
AcDbEntity
  8
0
  6
Continuous
 62
     7
370
    25
100
AcDbCircle
 10
6755.2514340633
 20
5354.1751650644
 30
0.0
 40
0.7487923846085671
100
AcDbArc
 50
94.6825316811
 51
188.0920200534
  0
ARC
  5
E6
330
1F
100
AcDbEntity
  8
0
  6
Continuous
 62
     7
370
    25
100
AcDbCircle
 10
6752.5794930954
 20
5354.2516459077
 30
0.0
 40
0.3506680774364646
100
AcDbArc
 50
232.7458426326
 51
307.7494250702
  0
ARC
  5
E7
330
1F
100
AcDbEntity
  8
0
  6
Continuous
 62
     7
370
    25
100
AcDbCircle
 10
6753.2678158226
 20
5353.3647756582
 30
0.0
 40
0.7719751374389507
100
AcDbArc
 50
36.5041939526
 51
127.8461762331
  0
ARC
  5
E8
330
1F
100
AcDbEntity
  8
0
  6
Continuous
 62
     7
370
    25
100
AcDbCircle
 10
6754.169118303
 20
5354.03156748
 30
0.0
 40
0.3491660562982993
100
AcDbArc
 50
216.4726653795
 51
291.7052586347
  0
ARC
  5
E9
330
1F
100
AcDbEntity
  8
0
  6
Continuous
 62
     7
370
    25
100
AcDbCircle
 10
6913.6402654982
 20
5355.4758969059
 30
0.0
 40
1.877003590822124
100
AcDbArc
 50
341.554771025
 51
42.6939591676
  0
ARC
  5
EA
330
1F
100
AcDbEntity
  8
0
  6
Continuous
 62
     7
370
    25
100
AcDbCircle
 10
6913.5676618886
 20
5355.3911113464
 30
0.0
 40
1.991951666803156
100
AcDbArc
 50
75.3241279399
 51
101.613076481
  0
LINE
  5
EB
330
1F
100
AcDbEntity
  8
0
  6
Continuous
 62
     7
370
    25
100
AcDbLine
 10
6914.9141564517
 20
5356.8553362815
 30
0.0
 11
6915.0198370303
 21
5356.7486595969
 31
0.0
  0
ARC
  5
EC
330
1F
100
AcDbEntity
  8
0
  6
Continuous
 62
     7
370
    25
100
AcDbCircle
 10
6913.515005626
 20
5355.4645334563
 30
0.0
 40
1.899325487382289
100
AcDbArc
 50
138.4331501169
 51
161.4340713232
  0
LWPOLYLINE
  5
ED
330
1F
100
AcDbEntity
  8
0
  6
Continuous
 62
     7
370
    25
100
AcDbPolyline
 90
        3
 70
   128
 43
0.0
 10
6912.8530117059
 20
5357.2503335177
 10
6912.9210236024
 20
5357.2751187318
 10
6913.1666790659
 20
5357.342286433
  0
ARC
  5
EE
330
1F
100
AcDbEntity
  8
0
  6
Continuous
 62
     7
370
    25
100
AcDbCircle
 10
6913.4951004296
 20
5355.4753903037
 30
0.0
 40
1.877003590821237
100
AcDbArc
 50
161.554771025
 51
222.6939591677
  0
ARC
  5
EF
330
1F
100
AcDbEntity
  8
0
  6
Continuous
 62
     7
370
    25
100
AcDbCircle
 10
6913.5666595967
 20
5355.5433365116
 30
0.0
 40
1.975672203986346
100
AcDbArc
 50
222.7350392194
 51
281.7410520675
  0
ARC
  5
F0
330
1F
100
AcDbEntity
  8
0
  6
Continuous
 62
     7
370
    25
100
AcDbCircle
 10
6913.5890321727
 20
5355.5068384238
 30
0.0
 40
1.935439334615783
100
AcDbArc
 50
281.3124626043
 51
341.1657240214
  0
ARC
  5
F1
330
1F
100
AcDbEntity
  8
0
  6
Continuous
 62
     7
370
    25
100
AcDbCircle
 10
6913.2321228344
 20
5357.0092015759
 30
0.0
 40
0.3394531026465822
100
AcDbArc
 50
101.1157544296
 51
177.8719676493
  0
ARC
  5
F2
330
1F
100
AcDbEntity
  8
0
  6
Continuous
 62
     7
370
    25
100
AcDbCircle
 10
6912.1380356092
 20
5357.0529371814
 30
0.0
 40
0.7555098736178384
100
AcDbArc
 50
264.8397303707
 51
357.638456255
  0
ARC
  5
F3
330
1F
100
AcDbEntity
  8
0
  6
Continuous
 62
     7
370
    25
100
AcDbCircle
 10
6912.0405247391
 20
5355.9569528554
 30
0.0
 40
0.3448058443129439
100
AcDbArc
 50
85.0822284405
 51
160.9894932027
  0
ARC
  5
F4
330
1F
100
AcDbEntity
  8
0
  6
Continuous
 62
     7
370
    25
100
AcDbCircle
 10
6914.7628920143
 20
5356.510854664
 30
0.0
 40
0.3501027383783923
100
AcDbArc
 50
42.7845386776
 51
117.8741157079
  0
ARC
  5
F5
330
1F
100
AcDbEntity
  8
0
  6
Continuous
 62
     7
370
    25
100
AcDbCircle
 10
6914.237725789
 20
5357.4990378856
 30
0.0
 40
0.768962901279155
100
AcDbArc
 50
206.4358897935
 51
298.0402014936
  0
ARC
  5
F6
330
1F
100
AcDbEntity
  8
0
  6
Continuous
 62
     7
370
    25
100
AcDbCircle
 10
6913.2382605298
 20
5357.0028670073
 30
0.0
 40
0.3468853593661018
100
AcDbArc
 50
26.3251772942
 51
101.9088200946
  0
ARC
  5
F7
330
1F
100
AcDbEntity
  8
0
  6
Continuous
 62
     7
370
    25
100
AcDbCircle
 10
6914.7759889258
 20
5356.5236289324
 30
0.0
 40
0.3318142524075773
100
AcDbArc
 50
324.6926447228
 51
42.7017905776
  0
ARC
  5
F8
330
1F
100
AcDbEntity
  8
0
  6
Continuous
 62
     7
370
    25
100
AcDbCircle
 10
6915.6483934654
 20
5355.9078520542
 30
0.0
 40
0.7360210128233197
100
AcDbArc
 50
144.8252962944
 51
239.4234338982
  0
ARC
  5
F9
330
1F
100
AcDbEntity
  8
0
  6
Continuous
 62
     7
370
    25
100
AcDbCircle
 10
6915.1037759335
 20
5354.9868591685
 30
0.0
 40
0.333949307136173
100
AcDbArc
 50
341.7027401487
 51
59.356642883
  0
ARC
  5
FA
330
1F
100
AcDbEntity
  8
0
  6
Continuous
 62
     7
370
    25
100
AcDbCircle
 10
6912.0315899943
 20
5355.9644280412
 30
0.0
 40
0.333949307136173
100
AcDbArc
 50
161.7027401487
 51
239.356642883
  0
CIRCLE
  5
FB
330
1F
100
AcDbEntity
  8
0
  6
Continuous
 62
     7
370
    25
100
AcDbCircle
 10
6913.5598596385
 20
5355.4684566956
 30
0.0
 40
0.5436683980588803
  0
ARC
  5
FC
330
1F
100
AcDbEntity
  8
0
  6
Continuous
 62
     7
370
    25
100
AcDbCircle
 10
6911.4869724624
 20
5355.0434351555
 30
0.0
 40
0.7360210128225763
100
AcDbArc
 50
324.8252962943
 51
59.4234338983
  0
ARC
  5
FD
330
1F
100
AcDbEntity
  8
0
  6
Continuous
 62
     7
370
    25
100
AcDbCircle
 10
6912.359377002
 20
5354.4276582773
 30
0.0
 40
0.331814252404825
100
AcDbArc
 50
144.6926447227
 51
222.7017905781
  0
ARC
  5
FE
330
1F
100
AcDbEntity
  8
0
  6
Continuous
 62
     7
370
    25
100
AcDbCircle
 10
6915.0948411887
 20
5354.9943343543
 30
0.0
 40
0.3448058443141001
100
AcDbArc
 50
265.0822284407
 51
340.9894932026
  0
ARC
  5
FF
330
1F
100
AcDbEntity
  8
0
  6
Continuous
 62
     7
370
    25
100
AcDbCircle
 10
6914.9973303186
 20
5353.8983500282
 30
0.0
 40
0.7555098736161905
100
AcDbArc
 50
84.8397303706
 51
177.6384562551
  0
ARC
  5
100
330
1F
100
AcDbEntity
  8
0
  6
Continuous
 62
     7
370
    25
100
AcDbCircle
 10
6913.9032430934
 20
5353.9420856338
 30
0.0
 40
0.3394531026456057
100
AcDbArc
 50
281.1157544295
 51
357.8719676496
  0
ARC
  5
101
330
1F
100
AcDbEntity
  8
0
  6
Continuous
 62
     7
370
    25
100
AcDbCircle
 10
6912.3724739135
 20
5354.4404325457
 30
0.0
 40
0.3501027383721152
100
AcDbArc
 50
222.7845386769
 51
297.8741157086
  0
ARC
  5
102
330
1F
100
AcDbEntity
  8
0
  6
Continuous
 62
     7
370
    25
100
AcDbCircle
 10
6912.8976401388
 20
5353.4522493241
 30
0.0
 40
0.7689629012787275
100
AcDbArc
 50
26.4358897934
 51
118.0402014936
  0
ARC
  5
103
330
1F
100
AcDbEntity
  8
0
  6
Continuous
 62
     7
370
    25
100
AcDbCircle
 10
6913.897105398
 20
5353.9484202024
 30
0.0
 40
0.3468853593696229
100
AcDbArc
 50
206.325177295
 51
281.9088200943
  0
ARC
  5
104
330
1F
100
AcDbEntity
  8
0
  6
Continuous
 62
     7
370
    25
100
AcDbCircle
 10
6753.6259422588
 20
5174.5102541463
 30
0.0
 40
1.892084348499482
100
AcDbArc
 50
3.9024743168
 51
48.2106216675
  0
ARC
  5
105
330
1F
100
AcDbEntity
  8
0
  6
Continuous
 62
     7
370
    25
100
AcDbCircle
 10
6753.5677418084
 20
5174.4339067673
 30
0.0
 40
1.989821874196567
100
AcDbArc
 50
74.2339473908
 51
111.7964936365
  0
ARC
  5
106
330
1F
100
AcDbEntity
  8
0
  6
Continuous
 62
     7
370
    25
100
AcDbCircle
 10
6753.5035499693
 20
5174.5129592673
 30
0.0
 40
1.885612294555054
100
AcDbArc
 50
137.6001750219
 51
183.6327193752
  0
ARC
  5
107
330
1F
100
AcDbEntity
  8
0
  6
Continuous
 62
     7
370
    25
100
AcDbCircle
 10
6753.5241544645
 20
5174.5279654334
 30
0.0
 40
1.907175181918292
100
AcDbArc
 50
184.0434152143
 51
244.5101987125
  0
ARC
  5
108
330
1F
100
AcDbEntity
  8
0
  6
Continuous
 62
     7
370
    25
100
AcDbCircle
 10
6753.5674032554
 20
5174.5951270496
 30
0.0
 40
1.986437410015591
100
AcDbArc
 50
244.2178397128
 51
303.0021578462
  0
ARC
  5
109
330
1F
100
AcDbEntity
  8
0
  6
Continuous
 62
     7
370
    25
100
AcDbCircle
 10
6753.6227899255
 20
5174.5214615321
 30
0.0
 40
1.894500891382094
100
AcDbArc
 50
302.8108211059
 51
3.5578224128
  0
ARC
  5
10A
330
1F
100
AcDbEntity
  8
0
  6
Continuous
 62
     7
370
    25
100
AcDbCircle
 10
6755.3436154358
 20
5175.6867866781
 30
0.0
 40
0.7460759225528167
100
AcDbArc
 50
167.4471746118
 51
261.106439315
  0
ARC
  5
10B
330
1F
100
AcDbEntity
  8
0
  6
Continuous
 62
     7
370
    25
100
AcDbCircle
 10
6754.2938723314
 20
5175.9237218814
 30
0.0
 40
0.3300843297887856
100
AcDbArc
 50
346.9054742757
 51
6.576623333
  0
ARC
  5
10C
330
1F
100
AcDbEntity
  8
0
  6
Continuous
 62
     7
370
    25
100
AcDbCircle
 10
6755.1744485371
 20
5174.6138417679
 30
0.0
 40
0.3401246496164622
100
AcDbArc
 50
4.2463583286
 51
80.8947815934
  0
ARC
  5
10D
330
1F
100
AcDbEntity
  8
0
  6
Continuous
 62
     7
370
    25
100
AcDbCircle
 10
6751.6574731994
 20
5175.449967413
 30
0.0
 40
0.7418501330974895
100
AcDbArc
 50
286.1587852614
 51
20.2098582573
  0
ARC
  5
10E
330
1F
100
AcDbEntity
  8
0
  6
Continuous
 62
     7
370
    25
100
AcDbCircle
 10
6751.9589140249
 20
5174.4132864358
 30
0.0
 40
0.337768466608688
100
AcDbArc
 50
106.3324111951
 51
183.3606751066
  0
CIRCLE
  5
10F
330
1F
100
AcDbEntity
  8
0
  6
Continuous
 62
     7
370
    25
100
AcDbCircle
 10
6753.5600482097
 20
5174.5141574404
 30
0.0
 40
0.5422014249616308
  0
ARC
  5
110
330
1F
100
AcDbEntity
  8
0
  6
Continuous
 62
     7
370
    25
100
AcDbCircle
 10
6755.1764519029
 20
5174.6192259343
 30
0.0
 40
0.3377684666077481
100
AcDbArc
 50
286.3324111949
 51
3.3606751071
  0
ARC
  5
111
330
1F
100
AcDbEntity
  8
0
  6
Continuous
 62
     7
370
    25
100
AcDbCircle
 10
6751.9609173907
 20
5174.4186706022
 30
0.0
 40
0.3401246496163949
100
AcDbArc
 50
184.2463583285
 51
260.8947815934
  0
ARC
  5
112
330
1F
100
AcDbEntity
  8
0
  6
Continuous
 62
     7
370
    25
100
AcDbCircle
 10
6755.4778927284
 20
5173.582544957
 30
0.0
 40
0.7418501330988693
100
AcDbArc
 50
106.1587852615
 51
200.2098582572
  0
ARC
  5
113
330
1F
100
AcDbEntity
  8
0
  6
Continuous
 62
     7
370
    25
100
AcDbCircle
 10
6754.4691528128
 20
5173.2098634786
 30
0.0
 40
0.3335340870394214
100
AcDbArc
 50
302.7032614926
 51
20.425939184
  0
ARC
  5
114
330
1F
100
AcDbEntity
  8
0
  6
Continuous
 62
     7
370
    25
100
AcDbCircle
 10
6751.791750492
 20
5173.3457256919
 30
0.0
 40
0.7460759225531193
100
AcDbArc
 50
347.447174612
 51
81.1064393149
  0
ARC
  5
115
330
1F
100
AcDbEntity
  8
0
  6
Continuous
 62
     7
370
    25
100
AcDbCircle
 10
6752.8468644276
 20
5173.109367105
 30
0.0
 40
0.3351895873755426
100
AcDbArc
 50
167.2094722576
 51
244.6588295765
  0
ARC
  5
116
330
1F
100
AcDbEntity
  8
0
  6
Continuous
 62
     7
370
    25
100
AcDbCircle
 10
6754.4581787452
 20
5173.2230275984
 30
0.0
 40
0.3505470134273134
100
AcDbArc
 50
228.0281269247
 51
303.0501041754
  0
ARC
  5
117
330
1F
100
AcDbEntity
  8
0
  6
Continuous
 62
     7
370
    25
100
AcDbCircle
 10
6752.8560881574
 20
5173.1211994069
 30
0.0
 40
0.3498464533552747
100
AcDbArc
 50
244.1229749532
 51
319.2516159824
  0
ARC
  5
118
330
1F
100
AcDbEntity
  8
0
  6
Continuous
 62
     7
370
    25
100
AcDbCircle
 10
6753.7064427192
 20
5172.3885946067
 30
0.0
 40
0.7725673184622406
100
AcDbArc
 50
47.9646858609
 51
139.2553116981
  0
LINE
  5
119
330
1F
100
AcDbEntity
  8
0
  6
Continuous
 62
     7
370
    25
100
AcDbLine
 10
6695.9509577144
 20
5253.283039896
 30
0.0
 11
6695.9509577144
 21
5172.8835672796
 31
0.0
  0
LWPOLYLINE
  5
11A
330
1F
100
AcDbEntity
  8
0
  6
Continuous
 62
     7
370
    25
100
AcDbPolyline
 90
       25
 70
   128
 43
0.0
 10
6908.8986574827
 20
5177.3216770551
 10
6909.6790620019
 20
5178.4237055683
 10
6910.7244696133
 20
5179.2906113709
 10
6911.963637516
 20
5179.8633162652
 10
6913.3121184651
 20
5180.102791359
 10
6914.6780157125
 20
5179.9927168204
 10
6915.968245618
 20
5179.5405940474
 10
6917.0948811457
 20
5178.7772344597
 10
6917.9811439463
 20
5177.7546597517
 10
6918.5666366745
 20
5176.5425567
 10
6918.8114589686
 20
5175.2235281243
 10
6918.6989265936
 20
5173.8874636423
 10
6918.2367084451
 20
5172.6254138406
 10
6917.4563039259
 20
5171.5233853274
 10
6916.4108963145
 20
5170.6564795247
 10
6915.1717284118
 20
5170.0837746304
 10
6913.8232474627
 20
5169.8442995366
 10
6912.4573502153
 20
5169.9543740752
 10
6911.1671203098
 20
5170.4064968483
 10
6910.0404847821
 20
5171.169856436
 10
6909.1542219815
 20
5172.1924311439
 10
6908.5687292533
 20
5173.4045341957
 10
6908.3239069593
 20
5174.7235627714
 10
6908.4364393342
 20
5176.0596272533
 10
6908.8986574827
 20
5177.3216770551
  0
ARC
  5
11B
330
1F
100
AcDbEntity
  8
0
  6
Continuous
 62
     7
370
    25
100
AcDbCircle
 10
6913.4565980426
 20
5174.2872905846
 30
0.0
 40
2.688696271248283
100
AcDbArc
 50
152.2316548125
 51
213.4731479677
  0
ARC
  5
11C
330
1F
100
AcDbEntity
  8
0
  6
Continuous
 62
     7
370
    25
100
AcDbCircle
 10
6913.559457579
 20
5174.3665101171
 30
0.0
 40
2.818204709358312
100
AcDbArc
 50
213.6632139959
 51
272.9395982556
  0
ARC
  5
11D
330
1F
100
AcDbEntity
  8
0
  6
Continuous
 62
     7
370
    25
100
AcDbCircle
 10
6913.5828170943
 20
5174.3536346874
 30
0.0
 40
2.804239895377376
100
AcDbArc
 50
272.4764343642
 51
331.9572023057
  0
ARC
  5
11E
330
1F
100
AcDbEntity
  8
0
  6
Continuous
 62
     7
370
    25
100
AcDbCircle
 10
6913.6787678852
 20
5174.2879325227
 30
0.0
 40
2.688696271239436
100
AcDbArc
 50
332.2316548125
 51
33.4731479678
  0
ARC
  5
11F
330
1F
100
AcDbEntity
  8
0
  6
Continuous
 62
     7
370
    25
100
AcDbCircle
 10
6913.5759083488
 20
5174.2087129901
 30
0.0
 40
2.818204709346635
100
AcDbArc
 50
33.6632139958
 51
92.9395982558
  0
ARC
  5
120
330
1F
100
AcDbEntity
  8
0
  6
Continuous
 62
     7
370
    25
100
AcDbCircle
 10
6913.5525488335
 20
5174.2215884199
 30
0.0
 40
2.804239895378324
100
AcDbArc
 50
92.4764343642
 51
151.9572023057
  0
ARC
  5
121
330
1F
100
AcDbEntity
  8
0
  6
Continuous
 62
     7
370
    25
100
AcDbCircle
 10
6911.8982400232
 20
5176.8501436629
 30
0.0
 40
1.093238514625846
100
AcDbArc
 50
256.0795875879
 51
348.3540490822
  0
ARC
  5
122
330
1F
100
AcDbEntity
  8
0
  6
Continuous
 62
     7
370
    25
100
AcDbCircle
 10
6911.5171926253
 20
5175.3044051288
 30
0.0
 40
0.4987770545573366
100
AcDbArc
 50
76.3102440807
 51
151.8200966915
  0
ARC
  5
123
330
1F
100
AcDbEntity
  8
0
  6
Continuous
 62
     7
370
    25
100
AcDbCircle
 10
6913.4509011939
 20
5176.5318913514
 30
0.0
 40
0.4917056042218954
100
AcDbArc
 50
92.2750751907
 51
168.5550436239
  0
ARC
  5
124
330
1F
100
AcDbEntity
  8
0
  6
Continuous
 62
     7
370
    25
100
AcDbCircle
 10
6915.5053774385
 20
5175.4926017852
 30
0.0
 40
0.5006161930729593
100
AcDbArc
 50
33.769723913
 51
109.0824074208
  0
ARC
  5
125
330
1F
100
AcDbEntity
  8
0
  6
Continuous
 62
     7
370
    25
100
AcDbCircle
 10
6914.978936626
 20
5177.0019506817
 30
0.0
 40
1.097908612230938
100
AcDbArc
 50
197.3082920805
 51
289.2945201711
  0
ARC
  5
126
330
1F
100
AcDbEntity
  8
0
  6
Continuous
 62
     7
370
    25
100
AcDbCircle
 10
6913.4584038954
 20
5176.5296638853
 30
0.0
 40
0.4942846717595274
100
AcDbArc
 50
17.1369974729
 51
93.133859375
  0
LINE
  5
127
330
1F
100
AcDbEntity
  8
0
  6
Continuous
 62
     7
370
    25
100
AcDbLine
 10
6915.8631913319
 20
5175.4025520791
 30
0.0
 11
6915.8631913319
 21
5175.1739074477
 31
0.0
  0
LWPOLYLINE
  5
128
330
1F
100
AcDbEntity
  8
0
  6
Continuous
 62
     7
370
    25
100
AcDbPolyline
 90
        3
 70
   128
 43
0.0
 10
6915.8631913319
 20
5175.4025520791
 10
6915.9555358187
 20
5175.5357243708
 10
6915.9864323646
 20
5175.6229040103
  0
ARC
  5
129
330
1F
100
AcDbEntity
  8
0
  6
Continuous
 62
     7
370
    25
100
AcDbCircle
 10
6915.5237208861
 20
5175.5084146772
 30
0.0
 40
0.4765871066237809
100
AcDbArc
 50
315.421922288
 51
33.4152391106
  0
LWPOLYLINE
  5
12A
330
1F
100
AcDbEntity
  8
0
  6
Continuous
 62
     7
370
    25
100
AcDbPolyline
 90
        3
 70
   128
 43
0.0
 10
6911.036735167
 20
5175.432815067
 10
6911.0897976122
 20
5175.3037636122
 10
6911.1949436155
 20
5175.1800061394
  0
LINE
  5
12B
330
1F
100
AcDbEntity
  8
0
  6
Continuous
 62
     7
370
    25
100
AcDbLine
 10
6911.1949436155
 20
5175.1800061394
 30
0.0
 11
6911.1949436155
 21
5174.951361508
 31
0.0
  0
ARC
  5
12C
330
1F
100
AcDbEntity
  8
0
  6
Continuous
 62
     7
370
    25
100
AcDbCircle
 10
6911.5002638964
 20
5175.3182681672
 30
0.0
 40
0.4773269011084466
100
AcDbArc
 50
152.3272966804
 51
230.2345664036
  0
ARC
  5
12D
330
1F
100
AcDbEntity
  8
0
  6
Continuous
 62
     7
370
    25
100
AcDbCircle
 10
6915.6351020314
 20
5173.2569549401
 30
0.0
 40
0.4773269011079849
100
AcDbArc
 50
332.3272966807
 51
50.2345664034
  0
ARC
  5
12E
330
1F
100
AcDbEntity
  8
0
  6
Continuous
 62
     7
370
    25
100
AcDbCircle
 10
6916.6152188146
 20
5174.4344302511
 30
0.0
 40
1.054690409045022
100
AcDbArc
 50
135.4821047291
 51
230.2226980511
  0
ARC
  5
12F
330
1F
100
AcDbEntity
  8
0
  6
Continuous
 62
     7
370
    25
100
AcDbCircle
 10
6910.5201471132
 20
5174.1407928561
 30
0.0
 40
1.054690409048159
100
AcDbArc
 50
315.4821047294
 51
50.2226980509
  0
ARC
  5
130
330
1F
100
AcDbEntity
  8
0
  6
Continuous
 62
     7
370
    25
100
AcDbCircle
 10
6911.6116450417
 20
5173.06680843
 30
0.0
 40
0.4765871066189834
100
AcDbArc
 50
135.4219222873
 51
213.4152391107
  0
ARC
  5
131
330
1F
100
AcDbEntity
  8
0
  6
Continuous
 62
     7
370
    25
100
AcDbCircle
 10
6916.6173320639
 20
5174.6615850659
 30
0.0
 40
1.057241863611724
100
AcDbArc
 50
135.5048324839
 51
179.9031395002
  0
ARC
  5
132
330
1F
100
AcDbEntity
  8
0
  6
Continuous
 62
     7
370
    25
100
AcDbCircle
 10
6910.5164437777
 20
5174.3671322871
 30
0.0
 40
1.058832342612162
100
AcDbArc
 50
0.1086419436
 51
50.1484954925
  0
ARC
  5
133
330
1F
100
AcDbEntity
  8
0
  6
Continuous
 62
     7
370
    25
100
AcDbCircle
 10
6913.6844647339
 20
5172.0433317559
 30
0.0
 40
0.4917056042129594
100
AcDbArc
 50
272.2750751899
 51
348.5550436247
  0
ARC
  5
134
330
1F
100
AcDbEntity
  8
0
  6
Continuous
 62
     7
370
    25
100
AcDbCircle
 10
6915.2371259046
 20
5171.7250794443
 30
0.0
 40
1.093238514627667
100
AcDbArc
 50
76.0795875879
 51
168.3540490821
  0
ARC
  5
135
330
1F
100
AcDbEntity
  8
0
  6
Continuous
 62
     7
370
    25
100
AcDbCircle
 10
6915.6181733025
 20
5173.2708179785
 30
0.0
 40
0.4987770545537313
100
AcDbArc
 50
256.3102440805
 51
331.820096692
  0
LINE
  5
136
330
1F
100
AcDbEntity
  8
0
  6
Continuous
 62
     7
370
    25
100
AcDbLine
 10
6915.5001305122
 20
5173.0148550885
 30
0.0
 11
6915.5001305122
 21
5172.7862104571
 31
0.0
  0
ARC
  5
137
330
1F
100
AcDbEntity
  8
0
  6
Continuous
 62
     7
370
    25
100
AcDbCircle
 10
6915.6195840684
 20
5173.4950566846
 30
0.0
 40
0.4948360587165633
100
AcDbArc
 50
256.0308000582
 51
345.4872100816
  0
ARC
  5
138
330
1F
100
AcDbEntity
  8
0
  6
Continuous
 62
     7
370
    25
100
AcDbCircle
 10
6911.6283843567
 20
5173.3050050636
 30
0.0
 40
0.495236594842377
100
AcDbArc
 50
194.5052593884
 51
289.4946096523
  0
LINE
  5
139
330
1F
100
AcDbEntity
  8
0
  6
Continuous
 62
     7
370
    25
100
AcDbLine
 10
6911.7936538092
 20
5172.8381589509
 30
0.0
 11
6911.7936538092
 21
5172.6095143195
 31
0.0
  0
ARC
  5
13A
330
1F
100
AcDbEntity
  8
0
  6
Continuous
 62
     7
370
    25
100
AcDbCircle
 10
6911.6299884893
 20
5173.082621322
 30
0.0
 40
0.5006161930701161
100
AcDbArc
 50
213.7697239126
 51
289.0824074211
  0
ARC
  5
13B
330
1F
100
AcDbEntity
  8
0
  6
Continuous
 62
     7
370
    25
100
AcDbCircle
 10
6912.1564293018
 20
5171.5732724255
 30
0.0
 40
1.097908612235167
100
AcDbArc
 50
17.3082920807
 51
109.2945201709
  0
ARC
  5
13C
330
1F
100
AcDbEntity
  8
0
  6
Continuous
 62
     7
370
    25
100
AcDbCircle
 10
6913.6769620324
 20
5172.045559222
 30
0.0
 40
0.4942846717559446
100
AcDbArc
 50
197.1369974726
 51
273.1338593751
  0
LINE
  5
13D
330
1F
100
AcDbEntity
  8
0
  6
Continuous
 62
     7
370
    25
100
AcDbLine
 10
6914.1663931575
 20
5172.1744089965
 30
0.0
 11
6914.1663931575
 21
5171.9457643651
 31
0.0
  0
ARC
  5
13E
330
1F
100
AcDbEntity
  8
0
  6
Continuous
 62
     7
370
    25
100
AcDbCircle
 10
6915.2371259046
 20
5171.9537240757
 30
0.0
 40
1.093238514625151
100
AcDbArc
 50
76.0795875877
 51
168.3540490823
  0
ARC
  5
13F
330
1F
100
AcDbEntity
  8
0
  6
Continuous
 62
     7
370
    25
100
AcDbCircle
 10
6912.1564293018
 20
5171.8019170569
 30
0.0
 40
1.097908612233757
100
AcDbArc
 50
17.3082920806
 51
109.294520171
  0
LINE
  5
140
330
1F
100
AcDbEntity
  8
0
  6
Continuous
 62
     7
370
    25
100
AcDbLine
 10
6913.2046221442
 20
5172.1285591944
 30
0.0
 11
6913.2046221442
 21
5171.899914563
 31
0.0
  0
ARC
  5
141
330
1F
100
AcDbEntity
  8
0
  6
Continuous
 62
     7
370
    25
100
AcDbCircle
 10
6913.6795588734
 20
5172.276268968
 30
0.0
 40
0.4973761896102493
100
AcDbArc
 50
197.2761833808
 51
348.1825229953
  0
LWPOLYLINE
  5
142
330
1F
100
AcDbEntity
  8
0
  6
Continuous
 62
     7
370
    25
100
AcDbPolyline
 90
       25
 70
   128
 43
0.0
 10
6908.8986574827
 20
5358.2810644749
 10
6909.6790620019
 20
5359.3830929881
 10
6910.7244696133
 20
5360.2499987907
 10
6911.963637516
 20
5360.822703685
 10
6913.3121184651
 20
5361.0621787788
 10
6914.6780157125
 20
5360.9521042402
 10
6915.968245618
 20
5360.4999814672
 10
6917.0948811457
 20
5359.7366218795
 10
6917.9811439463
 20
5358.7140471715
 10
6918.5666366745
 20
5357.5019441198
 10
6918.8114589686
 20
5356.1829155441
 10
6918.6989265936
 20
5354.8468510621
 10
6918.2367084451
 20
5353.5848012604
 10
6917.4563039259
 20
5352.4827727472
 10
6916.4108963145
 20
5351.6158669445
 10
6915.1717284118
 20
5351.0431620502
 10
6913.8232474627
 20
5350.8036869565
 10
6912.4573502153
 20
5350.913761495
 10
6911.1671203098
 20
5351.3658842681
 10
6910.0404847821
 20
5352.1292438558
 10
6909.1542219815
 20
5353.1518185637
 10
6908.5687292533
 20
5354.3639216155
 10
6908.3239069593
 20
5355.6829501912
 10
6908.4364393342
 20
5357.0190146731
 10
6908.8986574827
 20
5358.2810644749
  0
ARC
  5
143
330
1F
100
AcDbEntity
  8
0
  6
Continuous
 62
     7
370
    25
100
AcDbCircle
 10
6913.4565980426
 20
5355.2466780044
 30
0.0
 40
2.688696271248283
100
AcDbArc
 50
152.2316548125
 51
213.4731479677
  0
ARC
  5
144
330
1F
100
AcDbEntity
  8
0
  6
Continuous
 62
     7
370
    25
100
AcDbCircle
 10
6913.559457579
 20
5355.3258975369
 30
0.0
 40
2.818204709359826
100
AcDbArc
 50
213.6632139959
 51
272.9395982556
  0
ARC
  5
145
330
1F
100
AcDbEntity
  8
0
  6
Continuous
 62
     7
370
    25
100
AcDbCircle
 10
6913.5828170943
 20
5355.3130221072
 30
0.0
 40
2.804239895382037
100
AcDbArc
 50
272.4764343642
 51
331.9572023057
  0
ARC
  5
146
330
1F
100
AcDbEntity
  8
0
  6
Continuous
 62
     7
370
    25
100
AcDbCircle
 10
6913.6787678852
 20
5355.2473199425
 30
0.0
 40
2.688696271239436
100
AcDbArc
 50
332.2316548125
 51
33.4731479678
  0
ARC
  5
147
330
1F
100
AcDbEntity
  8
0
  6
Continuous
 62
     7
370
    25
100
AcDbCircle
 10
6913.5759083488
 20
5355.1681004099
 30
0.0
 40
2.818204709346635
100
AcDbArc
 50
33.6632139958
 51
92.9395982558
  0
ARC
  5
148
330
1F
100
AcDbEntity
  8
0
  6
Continuous
 62
     7
370
    25
100
AcDbCircle
 10
6913.5525488335
 20
5355.1809758397
 30
0.0
 40
2.80423989537563
100
AcDbArc
 50
92.4764343642
 51
151.9572023057
  0
ARC
  5
149
330
1F
100
AcDbEntity
  8
0
  6
Continuous
 62
     7
370
    25
100
AcDbCircle
 10
6911.8982400232
 20
5357.8095310827
 30
0.0
 40
1.093238514626728
100
AcDbArc
 50
256.0795875879
 51
348.3540490821
  0
ARC
  5
14A
330
1F
100
AcDbEntity
  8
0
  6
Continuous
 62
     7
370
    25
100
AcDbCircle
 10
6911.5171926253
 20
5356.2637925486
 30
0.0
 40
0.4987770545597017
100
AcDbArc
 50
76.3102440808
 51
151.8200966912
  0
ARC
  5
14B
330
1F
100
AcDbEntity
  8
0
  6
Continuous
 62
     7
370
    25
100
AcDbCircle
 10
6913.4509011939
 20
5357.4912787712
 30
0.0
 40
0.4917056042202821
100
AcDbArc
 50
92.2750751906
 51
168.5550436243
  0
ARC
  5
14C
330
1F
100
AcDbEntity
  8
0
  6
Continuous
 62
     7
370
    25
100
AcDbCircle
 10
6915.5053774385
 20
5356.451989205
 30
0.0
 40
0.5006161930738189
100
AcDbArc
 50
33.7697239131
 51
109.0824074207
  0
ARC
  5
14D
330
1F
100
AcDbEntity
  8
0
  6
Continuous
 62
     7
370
    25
100
AcDbCircle
 10
6914.978936626
 20
5357.9613381015
 30
0.0
 40
1.097908612230668
100
AcDbArc
 50
197.3082920804
 51
289.2945201711
  0
ARC
  5
14E
330
1F
100
AcDbEntity
  8
0
  6
Continuous
 62
     7
370
    25
100
AcDbCircle
 10
6913.4584038954
 20
5357.4890513051
 30
0.0
 40
0.494284671758669
100
AcDbArc
 50
17.1369974729
 51
93.1338593751
  0
LINE
  5
14F
330
1F
100
AcDbEntity
  8
0
  6
Continuous
 62
     7
370
    25
100
AcDbLine
 10
6915.8631913319
 20
5356.3619394989
 30
0.0
 11
6915.8631913319
 21
5356.1332948675
 31
0.0
  0
LWPOLYLINE
  5
150
330
1F
100
AcDbEntity
  8
0
  6
Continuous
 62
     7
370
    25
100
AcDbPolyline
 90
        3
 70
   128
 43
0.0
 10
6915.8631913319
 20
5356.3619394989
 10
6915.9555358187
 20
5356.4951117906
 10
6915.9864323527
 20
5356.5822913822
  0
ARC
  5
151
330
1F
100
AcDbEntity
  8
0
  6
Continuous
 62
     7
370
    25
100
AcDbCircle
 10
6915.5237208861
 20
5356.467802097
 30
0.0
 40
0.476587106624058
100
AcDbArc
 50
315.4219222879
 51
33.4152391105
  0
LWPOLYLINE
  5
152
330
1F
100
AcDbEntity
  8
0
  6
Continuous
 62
     7
370
    25
100
AcDbPolyline
 90
        3
 70
   128
 43
0.0
 10
6911.0367351655
 20
5356.3922024932
 10
6911.0897976122
 20
5356.263151032
 10
6911.1949436155
 20
5356.1393935592
  0
LINE
  5
153
330
1F
100
AcDbEntity
  8
0
  6
Continuous
 62
     7
370
    25
100
AcDbLine
 10
6911.1949436155
 20
5356.1393935592
 30
0.0
 11
6911.1949436155
 21
5355.9107489278
 31
0.0
  0
ARC
  5
154
330
1F
100
AcDbEntity
  8
0
  6
Continuous
 62
     7
370
    25
100
AcDbCircle
 10
6911.5002638964
 20
5356.277655587
 30
0.0
 40
0.4773269011080382
100
AcDbArc
 50
152.3272966805
 51
230.2345664037
  0
ARC
  5
155
330
1F
100
AcDbEntity
  8
0
  6
Continuous
 62
     7
370
    25
100
AcDbCircle
 10
6915.6351020314
 20
5354.2163423599
 30
0.0
 40
0.4773269011095958
100
AcDbArc
 50
332.3272966808
 51
50.2345664032
  0
ARC
  5
156
330
1F
100
AcDbEntity
  8
0
  6
Continuous
 62
     7
370
    25
100
AcDbCircle
 10
6916.6152188146
 20
5355.3938176709
 30
0.0
 40
1.054690409046191
100
AcDbArc
 50
135.4821047292
 51
230.222698051
  0
ARC
  5
157
330
1F
100
AcDbEntity
  8
0
  6
Continuous
 62
     7
370
    25
100
AcDbCircle
 10
6910.5201471132
 20
5355.1001802759
 30
0.0
 40
1.054690409050376
100
AcDbArc
 50
315.4821047295
 51
50.2226980508
  0
ARC
  5
158
330
1F
100
AcDbEntity
  8
0
  6
Continuous
 62
     7
370
    25
100
AcDbCircle
 10
6911.6116450417
 20
5354.0261958498
 30
0.0
 40
0.4765871066210026
100
AcDbArc
 50
135.4219222875
 51
213.4152391107
  0
ARC
  5
159
330
1F
100
AcDbEntity
  8
0
  6
Continuous
 62
     7
370
    25
100
AcDbCircle
 10
6916.6173320639
 20
5355.6209724857
 30
0.0
 40
1.057241863607863
100
AcDbArc
 50
135.5048324838
 51
179.9031395002
  0
ARC
  5
15A
330
1F
100
AcDbEntity
  8
0
  6
Continuous
 62
     7
370
    25
100
AcDbCircle
 10
6910.5164437777
 20
5355.3265197069
 30
0.0
 40
1.05883234261125
100
AcDbArc
 50
0.1086419436
 51
50.1484954925
  0
ARC
  5
15B
330
1F
100
AcDbEntity
  8
0
  6
Continuous
 62
     7
370
    25
100
AcDbCircle
 10
6913.6844647339
 20
5353.0027191757
 30
0.0
 40
0.4917056042115266
100
AcDbArc
 50
272.2750751898
 51
348.555043625
  0
ARC
  5
15C
330
1F
100
AcDbEntity
  8
0
  6
Continuous
 62
     7
370
    25
100
AcDbCircle
 10
6915.2371259046
 20
5352.6844668641
 30
0.0
 40
1.093238514627166
100
AcDbArc
 50
76.0795875878
 51
168.354049082
  0
ARC
  5
15D
330
1F
100
AcDbEntity
  8
0
  6
Continuous
 62
     7
370
    25
100
AcDbCircle
 10
6915.6181733025
 20
5354.2302053983
 30
0.0
 40
0.4987770545522972
100
AcDbArc
 50
256.3102440805
 51
331.8200966921
  0
LINE
  5
15E
330
1F
100
AcDbEntity
  8
0
  6
Continuous
 62
     7
370
    25
100
AcDbLine
 10
6915.5001305122
 20
5353.9742425083
 30
0.0
 11
6915.5001305122
 21
5353.7455978769
 31
0.0
  0
ARC
  5
15F
330
1F
100
AcDbEntity
  8
0
  6
Continuous
 62
     7
370
    25
100
AcDbCircle
 10
6915.6195840684
 20
5354.4544441046
 30
0.0
 40
0.4948360589534381
100
AcDbArc
 50
256.0308000715
 51
345.487208659
  0
ARC
  5
160
330
1F
100
AcDbEntity
  8
0
  6
Continuous
 62
     7
370
    25
100
AcDbCircle
 10
6911.6283843565
 20
5354.2643924814
 30
0.0
 40
0.4952365930281049
100
AcDbArc
 50
194.5052464315
 51
289.4946097565
  0
LINE
  5
161
330
1F
100
AcDbEntity
  8
0
  6
Continuous
 62
     7
370
    25
100
AcDbLine
 10
6911.7936538092
 20
5353.7975463707
 30
0.0
 11
6911.7936538092
 21
5353.5689017393
 31
0.0
  0
ARC
  5
162
330
1F
100
AcDbEntity
  8
0
  6
Continuous
 62
     7
370
    25
100
AcDbCircle
 10
6911.6299884893
 20
5354.0420087418
 30
0.0
 40
0.5006161930710695
100
AcDbArc
 50
213.7697239128
 51
289.0824074211
  0
ARC
  5
163
330
1F
100
AcDbEntity
  8
0
  6
Continuous
 62
     7
370
    25
100
AcDbCircle
 10
6912.1564293018
 20
5352.5326598453
 30
0.0
 40
1.097908612236035
100
AcDbArc
 50
17.3082920807
 51
109.2945201708
  0
ARC
  5
164
330
1F
100
AcDbEntity
  8
0
  6
Continuous
 62
     7
370
    25
100
AcDbCircle
 10
6913.6769620324
 20
5353.0049466418
 30
0.0
 40
0.4942846717549758
100
AcDbArc
 50
197.1369974724
 51
273.133859375
  0
LINE
  5
165
330
1F
100
AcDbEntity
  8
0
  6
Continuous
 62
     7
370
    25
100
AcDbLine
 10
6914.1663931575
 20
5353.1337964163
 30
0.0
 11
6914.1663931575
 21
5352.9051517849
 31
0.0
  0
ARC
  5
166
330
1F
100
AcDbEntity
  8
0
  6
Continuous
 62
     7
370
    25
100
AcDbCircle
 10
6915.2371259046
 20
5352.9131114955
 30
0.0
 40
1.093238514624444
100
AcDbArc
 50
76.0795875877
 51
168.3540490822
  0
ARC
  5
167
330
1F
100
AcDbEntity
  8
0
  6
Continuous
 62
     7
370
    25
100
AcDbCircle
 10
6912.1564293018
 20
5352.7613044767
 30
0.0
 40
1.097908612235758
100
AcDbArc
 50
17.3082920808
 51
109.294520171
  0
LINE
  5
168
330
1F
100
AcDbEntity
  8
0
  6
Continuous
 62
     7
370
    25
100
AcDbLine
 10
6913.2046221442
 20
5353.0879466143
 30
0.0
 11
6913.2046221442
 21
5352.8593019828
 31
0.0
  0
ARC
  5
169
330
1F
100
AcDbEntity
  8
0
  6
Continuous
 62
     7
370
    25
100
AcDbCircle
 10
6913.6795588734
 20
5353.2356563878
 30
0.0
 40
0.4973761896099792
100
AcDbArc
 50
197.2761833807
 51
348.1825229954
  0
LINE
  5
16A
330
1F
100
AcDbEntity
  8
0
  6
Continuous
 62
     7
370
    25
100
AcDbLine
 10
6917.3821119113
 20
5415.3494545927
 30
0.0
 11
6914.5838212113
 21
5415.3494545927
 31
0.0
  0
LINE
  5
16B
330
1F
100
AcDbEntity
  8
0
  6
Continuous
 62
     7
370
    25
100
AcDbLine
 10
6918.8659736639
 20
5415.3494545927
 30
0.0
 11
6917.3821119113
 21
5415.3494545927
 31
0.0
  0
LINE
  5
16C
330
1F
100
AcDbEntity
  8
0
  6
Continuous
 62
     7
370
    25
100
AcDbLine
 10
6914.5838212113
 20
5415.3494545927
 30
0.0
 11
6913.2693922639
 21
5415.3494545927
 31
0.0
  0
LINE
  5
16D
330
1F
100
AcDbEntity
  8
0
  6
Continuous
 62
     7
370
    25
100
AcDbLine
 10
6918.8662759261
 20
5415.3494545927
 30
0.0
 11
6918.8659736639
 21
5415.3494545927
 31
0.0
  0
LWPOLYLINE
  5
16E
330
1F
100
AcDbEntity
  8
0
  6
Continuous
 62
     7
370
    25
100
AcDbPolyline
 90
       25
 70
   128
 43
0.0
 10
6748.8986574827
 20
5358.2810644749
 10
6749.6790620019
 20
5359.3830929881
 10
6750.7244696133
 20
5360.2499987907
 10
6751.963637516
 20
5360.822703685
 10
6753.3121184651
 20
5361.0621787788
 10
6754.6780157125
 20
5360.9521042402
 10
6755.968245618
 20
5360.4999814672
 10
6757.0948811457
 20
5359.7366218795
 10
6757.9811439463
 20
5358.7140471715
 10
6758.5666366745
 20
5357.5019441198
 10
6758.8114589686
 20
5356.1829155441
 10
6758.6989265936
 20
5354.8468510621
 10
6758.2367084451
 20
5353.5848012604
 10
6757.4563039259
 20
5352.4827727472
 10
6756.4108963145
 20
5351.6158669445
 10
6755.1717284118
 20
5351.0431620502
 10
6753.8232474627
 20
5350.8036869565
 10
6752.4573502153
 20
5350.913761495
 10
6751.1671203098
 20
5351.3658842681
 10
6750.0404847821
 20
5352.1292438558
 10
6749.1542219815
 20
5353.1518185637
 10
6748.5687292533
 20
5354.3639216155
 10
6748.3239069593
 20
5355.6829501912
 10
6748.4364393342
 20
5357.0190146731
 10
6748.8986574827
 20
5358.2810644749
  0
ARC
  5
16F
330
1F
100
AcDbEntity
  8
0
  6
Continuous
 62
     7
370
    25
100
AcDbCircle
 10
6753.4565980426
 20
5355.2466780044
 30
0.0
 40
2.688696271248283
100
AcDbArc
 50
152.2316548125
 51
213.4731479677
  0
ARC
  5
170
330
1F
100
AcDbEntity
  8
0
  6
Continuous
 62
     7
370
    25
100
AcDbCircle
 10
6753.559457579
 20
5355.3258975369
 30
0.0
 40
2.818204709359069
100
AcDbArc
 50
213.6632139959
 51
272.9395982556
  0
ARC
  5
171
330
1F
100
AcDbEntity
  8
0
  6
Continuous
 62
     7
370
    25
100
AcDbCircle
 10
6753.5828170943
 20
5355.3130221072
 30
0.0
 40
2.804239895382585
100
AcDbArc
 50
272.4764343642
 51
331.9572023057
  0
ARC
  5
172
330
1F
100
AcDbEntity
  8
0
  6
Continuous
 62
     7
370
    25
100
AcDbCircle
 10
6753.6787678852
 20
5355.2473199425
 30
0.0
 40
2.688696271242471
100
AcDbArc
 50
332.2316548125
 51
33.4731479678
  0
ARC
  5
173
330
1F
100
AcDbEntity
  8
0
  6
Continuous
 62
     7
370
    25
100
AcDbCircle
 10
6753.5759083488
 20
5355.1681004099
 30
0.0
 40
2.818204709347217
100
AcDbArc
 50
33.6632139958
 51
92.9395982558
  0
ARC
  5
174
330
1F
100
AcDbEntity
  8
0
  6
Continuous
 62
     7
370
    25
100
AcDbCircle
 10
6753.5525488335
 20
5355.1809758397
 30
0.0
 40
2.804239895372315
100
AcDbArc
 50
92.4764343641
 51
151.9572023058
  0
ARC
  5
175
330
1F
100
AcDbEntity
  8
0
  6
Continuous
 62
     7
370
    25
100
AcDbCircle
 10
6751.8982400232
 20
5357.8095310827
 30
0.0
 40
1.093238514626728
100
AcDbArc
 50
256.0795875879
 51
348.3540490821
  0
ARC
  5
176
330
1F
100
AcDbEntity
  8
0
  6
Continuous
 62
     7
370
    25
100
AcDbCircle
 10
6751.5171926253
 20
5356.2637925486
 30
0.0
 40
0.4987770545597017
100
AcDbArc
 50
76.3102440808
 51
151.8200966912
  0
ARC
  5
177
330
1F
100
AcDbEntity
  8
0
  6
Continuous
 62
     7
370
    25
100
AcDbCircle
 10
6753.4509011939
 20
5357.4912787712
 30
0.0
 40
0.4917056042211735
100
AcDbArc
 50
92.2750751907
 51
168.5550436243
  0
ARC
  5
178
330
1F
100
AcDbEntity
  8
0
  6
Continuous
 62
     7
370
    25
100
AcDbCircle
 10
6755.5053774385
 20
5356.451989205
 30
0.0
 40
0.5006161930738479
100
AcDbArc
 50
33.769723913
 51
109.0824074207
  0
ARC
  5
179
330
1F
100
AcDbEntity
  8
0
  6
Continuous
 62
     7
370
    25
100
AcDbCircle
 10
6754.978936626
 20
5357.9613381015
 30
0.0
 40
1.097908612231536
100
AcDbArc
 50
197.3082920804
 51
289.294520171
  0
ARC
  5
17A
330
1F
100
AcDbEntity
  8
0
  6
Continuous
 62
     7
370
    25
100
AcDbCircle
 10
6753.4584038954
 20
5357.4890513051
 30
0.0
 40
0.494284671758669
100
AcDbArc
 50
17.1369974729
 51
93.1338593751
  0
LINE
  5
17B
330
1F
100
AcDbEntity
  8
0
  6
Continuous
 62
     7
370
    25
100
AcDbLine
 10
6755.8631913319
 20
5356.3619394989
 30
0.0
 11
6755.8631913319
 21
5356.1332948675
 31
0.0
  0
LWPOLYLINE
  5
17C
330
1F
100
AcDbEntity
  8
0
  6
Continuous
 62
     7
370
    25
100
AcDbPolyline
 90
        3
 70
   128
 43
0.0
 10
6755.8631913319
 20
5356.3619394989
 10
6755.9555358187
 20
5356.4951117906
 10
6755.9864323661
 20
5356.5822914362
  0
ARC
  5
17D
330
1F
100
AcDbEntity
  8
0
  6
Continuous
 62
     7
370
    25
100
AcDbCircle
 10
6755.5237208861
 20
5356.467802097
 30
0.0
 40
0.4765871066247984
100
AcDbArc
 50
315.421922288
 51
33.4152391104
  0
LWPOLYLINE
  5
17E
330
1F
100
AcDbEntity
  8
0
  6
Continuous
 62
     7
370
    25
100
AcDbPolyline
 90
        3
 70
   128
 43
0.0
 10
6751.03673517
 20
5356.3922024747
 10
6751.0897976122
 20
5356.263151032
 10
6751.1949436155
 20
5356.1393935592
  0
LINE
  5
17F
330
1F
100
AcDbEntity
  8
0
  6
Continuous
 62
     7
370
    25
100
AcDbLine
 10
6751.1949436155
 20
5356.1393935592
 30
0.0
 11
6751.1949436155
 21
5355.9107489278
 31
0.0
  0
ARC
  5
180
330
1F
100
AcDbEntity
  8
0
  6
Continuous
 62
     7
370
    25
100
AcDbCircle
 10
6751.5002638964
 20
5356.277655587
 30
0.0
 40
0.4773269011052247
100
AcDbArc
 50
152.3272966802
 51
230.2345664038
  0
ARC
  5
181
330
1F
100
AcDbEntity
  8
0
  6
Continuous
 62
     7
370
    25
100
AcDbCircle
 10
6755.6351020314
 20
5354.2163423599
 30
0.0
 40
0.4773269011104013
100
AcDbArc
 50
332.3272966809
 51
50.2345664032
  0
ARC
  5
182
330
1F
100
AcDbEntity
  8
0
  6
Continuous
 62
     7
370
    25
100
AcDbCircle
 10
6756.6152188146
 20
5355.3938176709
 30
0.0
 40
1.054690409045543
100
AcDbArc
 50
135.4821047291
 51
230.222698051
  0
ARC
  5
183
330
1F
100
AcDbEntity
  8
0
  6
Continuous
 62
     7
370
    25
100
AcDbCircle
 10
6750.5201471132
 20
5355.1001802759
 30
0.0
 40
1.054690409050753
100
AcDbArc
 50
315.4821047295
 51
50.2226980508
  0
ARC
  5
184
330
1F
100
AcDbEntity
  8
0
  6
Continuous
 62
     7
370
    25
100
AcDbCircle
 10
6751.6116450417
 20
5354.0261958498
 30
0.0
 40
0.4765871066210026
100
AcDbArc
 50
135.4219222874
 51
213.4152391107
  0
ARC
  5
185
330
1F
100
AcDbEntity
  8
0
  6
Continuous
 62
     7
370
    25
100
AcDbCircle
 10
6756.6173320639
 20
5355.6209724857
 30
0.0
 40
1.057241863608773
100
AcDbArc
 50
135.5048324838
 51
179.9031395002
  0
ARC
  5
186
330
1F
100
AcDbEntity
  8
0
  6
Continuous
 62
     7
370
    25
100
AcDbCircle
 10
6750.5164437777
 20
5355.3265197069
 30
0.0
 40
1.0588323425893
100
AcDbArc
 50
0.1086419431
 51
50.1484954931
  0
ARC
  5
187
330
1F
100
AcDbEntity
  8
0
  6
Continuous
 62
     7
370
    25
100
AcDbCircle
 10
6753.6844647339
 20
5353.0027191757
 30
0.0
 40
0.4917056042134899
100
AcDbArc
 50
272.2750751899
 51
348.555043625
  0
ARC
  5
188
330
1F
100
AcDbEntity
  8
0
  6
Continuous
 62
     7
370
    25
100
AcDbCircle
 10
6755.2371259046
 20
5352.6844668641
 30
0.0
 40
1.093238514627166
100
AcDbArc
 50
76.0795875878
 51
168.354049082
  0
ARC
  5
189
330
1F
100
AcDbEntity
  8
0
  6
Continuous
 62
     7
370
    25
100
AcDbCircle
 10
6755.6181733025
 20
5354.2302053983
 30
0.0
 40
0.4987770545535284
100
AcDbArc
 50
256.3102440805
 51
331.8200966921
  0
LINE
  5
18A
330
1F
100
AcDbEntity
  8
0
  6
Continuous
 62
     7
370
    25
100
AcDbLine
 10
6755.5001305122
 20
5353.9742425083
 30
0.0
 11
6755.5001305122
 21
5353.7455978769
 31
0.0
  0
ARC
  5
18B
330
1F
100
AcDbEntity
  8
0
  6
Continuous
 62
     7
370
    25
100
AcDbCircle
 10
6755.6195840684
 20
5354.4544441043
 30
0.0
 40
0.4948360586587913
100
AcDbArc
 50
256.0308000551
 51
345.4872104511
  0
ARC
  5
18C
330
1F
100
AcDbEntity
  8
0
  6
Continuous
 62
     7
370
    25
100
AcDbCircle
 10
6751.6283843564
 20
5354.2643924828
 30
0.0
 40
0.4952365943995319
100
AcDbArc
 50
194.5052592888
 51
289.4946097077
  0
LINE
  5
18D
330
1F
100
AcDbEntity
  8
0
  6
Continuous
 62
     7
370
    25
100
AcDbLine
 10
6751.7936538092
 20
5353.7975463707
 30
0.0
 11
6751.7936538092
 21
5353.5689017393
 31
0.0
  0
ARC
  5
18E
330
1F
100
AcDbEntity
  8
0
  6
Continuous
 62
     7
370
    25
100
AcDbCircle
 10
6751.6299884893
 20
5354.0420087418
 30
0.0
 40
0.5006161930710695
100
AcDbArc
 50
213.7697239128
 51
289.0824074211
  0
ARC
  5
18F
330
1F
100
AcDbEntity
  8
0
  6
Continuous
 62
     7
370
    25
100
AcDbCircle
 10
6752.1564293018
 20
5352.5326598453
 30
0.0
 40
1.097908612236903
100
AcDbArc
 50
17.3082920807
 51
109.2945201708
  0
ARC
  5
190
330
1F
100
AcDbEntity
  8
0
  6
Continuous
 62
     7
370
    25
100
AcDbCircle
 10
6753.6769620324
 20
5353.0049466418
 30
0.0
 40
0.4942846717549758
100
AcDbArc
 50
197.1369974724
 51
273.1338593749
  0
LINE
  5
191
330
1F
100
AcDbEntity
  8
0
  6
Continuous
 62
     7
370
    25
100
AcDbLine
 10
6754.1663931575
 20
5353.1337964163
 30
0.0
 11
6754.1663931575
 21
5352.9051517849
 31
0.0
  0
ARC
  5
192
330
1F
100
AcDbEntity
  8
0
  6
Continuous
 62
     7
370
    25
100
AcDbCircle
 10
6755.2371259046
 20
5352.9131114955
 30
0.0
 40
1.093238514623409
100
AcDbArc
 50
76.0795875876
 51
168.3540490822
  0
ARC
  5
193
330
1F
100
AcDbEntity
  8
0
  6
Continuous
 62
     7
370
    25
100
AcDbCircle
 10
6752.1564293018
 20
5352.7613044767
 30
0.0
 40
1.097908612235758
100
AcDbArc
 50
17.3082920808
 51
109.294520171
  0
LINE
  5
194
330
1F
100
AcDbEntity
  8
0
  6
Continuous
 62
     7
370
    25
100
AcDbLine
 10
6753.2046221442
 20
5353.0879466143
 30
0.0
 11
6753.2046221442
 21
5352.8593019828
 31
0.0
  0
ARC
  5
195
330
1F
100
AcDbEntity
  8
0
  6
Continuous
 62
     7
370
    25
100
AcDbCircle
 10
6753.6795588734
 20
5353.2356563878
 30
0.0
 40
0.4973761896102643
100
AcDbArc
 50
197.2761833808
 51
348.1825229954
  0
LWPOLYLINE
  5
196
330
1F
100
AcDbEntity
  8
0
  6
Continuous
 62
     7
370
    25
100
AcDbPolyline
 90
       25
 70
   128
 43
0.0
 10
6748.8986574827
 20
5177.3216770551
 10
6749.6790620019
 20
5178.4237055683
 10
6750.7244696133
 20
5179.2906113709
 10
6751.963637516
 20
5179.8633162652
 10
6753.3121184651
 20
5180.102791359
 10
6754.6780157125
 20
5179.9927168204
 10
6755.968245618
 20
5179.5405940474
 10
6757.0948811457
 20
5178.7772344597
 10
6757.9811439463
 20
5177.7546597517
 10
6758.5666366745
 20
5176.5425567
 10
6758.8114589686
 20
5175.2235281243
 10
6758.6989265936
 20
5173.8874636423
 10
6758.2367084451
 20
5172.6254138406
 10
6757.4563039259
 20
5171.5233853274
 10
6756.4108963145
 20
5170.6564795247
 10
6755.1717284118
 20
5170.0837746304
 10
6753.8232474627
 20
5169.8442995366
 10
6752.4573502153
 20
5169.9543740752
 10
6751.1671203098
 20
5170.4064968483
 10
6750.0404847821
 20
5171.169856436
 10
6749.1542219815
 20
5172.1924311439
 10
6748.5687292533
 20
5173.4045341957
 10
6748.3239069593
 20
5174.7235627714
 10
6748.4364393342
 20
5176.0596272533
 10
6748.8986574827
 20
5177.3216770551
  0
ARC
  5
197
330
1F
100
AcDbEntity
  8
0
  6
Continuous
 62
     7
370
    25
100
AcDbCircle
 10
6753.4565980426
 20
5174.2872905846
 30
0.0
 40
2.688696271248283
100
AcDbArc
 50
152.2316548125
 51
213.4731479677
  0
ARC
  5
198
330
1F
100
AcDbEntity
  8
0
  6
Continuous
 62
     7
370
    25
100
AcDbCircle
 10
6753.559457579
 20
5174.3665101171
 30
0.0
 40
2.818204709359069
100
AcDbArc
 50
213.6632139959
 51
272.9395982556
  0
ARC
  5
199
330
1F
100
AcDbEntity
  8
0
  6
Continuous
 62
     7
370
    25
100
AcDbCircle
 10
6753.5828170943
 20
5174.3536346874
 30
0.0
 40
2.804239895378039
100
AcDbArc
 50
272.4764343642
 51
331.9572023057
  0
ARC
  5
19A
330
1F
100
AcDbEntity
  8
0
  6
Continuous
 62
     7
370
    25
100
AcDbCircle
 10
6753.6787678852
 20
5174.2879325227
 30
0.0
 40
2.688696271242471
100
AcDbArc
 50
332.2316548125
 51
33.4731479678
  0
ARC
  5
19B
330
1F
100
AcDbEntity
  8
0
  6
Continuous
 62
     7
370
    25
100
AcDbCircle
 10
6753.5759083488
 20
5174.2087129901
 30
0.0
 40
2.818204709347217
100
AcDbArc
 50
33.6632139958
 51
92.9395982558
  0
ARC
  5
19C
330
1F
100
AcDbEntity
  8
0
  6
Continuous
 62
     7
370
    25
100
AcDbCircle
 10
6753.5525488335
 20
5174.2215884199
 30
0.0
 40
2.80423989537563
100
AcDbArc
 50
92.4764343642
 51
151.9572023057
  0
ARC
  5
19D
330
1F
100
AcDbEntity
  8
0
  6
Continuous
 62
     7
370
    25
100
AcDbCircle
 10
6751.8982400232
 20
5176.8501436629
 30
0.0
 40
1.093238514625846
100
AcDbArc
 50
256.0795875879
 51
348.3540490822
  0
ARC
  5
19E
330
1F
100
AcDbEntity
  8
0
  6
Continuous
 62
     7
370
    25
100
AcDbCircle
 10
6751.5171926253
 20
5175.3044051288
 30
0.0
 40
0.4987770545573366
100
AcDbArc
 50
76.3102440807
 51
151.8200966915
  0
ARC
  5
19F
330
1F
100
AcDbEntity
  8
0
  6
Continuous
 62
     7
370
    25
100
AcDbCircle
 10
6753.4509011939
 20
5176.5318913514
 30
0.0
 40
0.4917056042227868
100
AcDbArc
 50
92.2750751908
 51
168.5550436239
  0
ARC
  5
1A0
330
1F
100
AcDbEntity
  8
0
  6
Continuous
 62
     7
370
    25
100
AcDbCircle
 10
6755.5053774385
 20
5175.4926017852
 30
0.0
 40
0.5006161930733423
100
AcDbArc
 50
33.769723913
 51
109.0824074208
  0
ARC
  5
1A1
330
1F
100
AcDbEntity
  8
0
  6
Continuous
 62
     7
370
    25
100
AcDbCircle
 10
6754.978936626
 20
5177.0019506817
 30
0.0
 40
1.097908612231806
100
AcDbArc
 50
197.3082920805
 51
289.294520171
  0
ARC
  5
1A2
330
1F
100
AcDbEntity
  8
0
  6
Continuous
 62
     7
370
    25
100
AcDbCircle
 10
6753.4584038954
 20
5176.5296638853
 30
0.0
 40
0.4942846717595274
100
AcDbArc
 50
17.1369974729
 51
93.133859375
  0
LINE
  5
1A3
330
1F
100
AcDbEntity
  8
0
  6
Continuous
 62
     7
370
    25
100
AcDbLine
 10
6755.8631913319
 20
5175.4025520791
 30
0.0
 11
6755.8631913319
 21
5175.1739074477
 31
0.0
  0
LWPOLYLINE
  5
1A4
330
1F
100
AcDbEntity
  8
0
  6
Continuous
 62
     7
370
    25
100
AcDbPolyline
 90
        3
 70
   128
 43
0.0
 10
6755.8631913319
 20
5175.4025520791
 10
6755.9555358187
 20
5175.5357243708
 10
6755.9864323535
 20
5175.6229039656
  0
ARC
  5
1A5
330
1F
100
AcDbEntity
  8
0
  6
Continuous
 62
     7
370
    25
100
AcDbCircle
 10
6755.5237208861
 20
5175.5084146772
 30
0.0
 40
0.4765871066237809
100
AcDbArc
 50
315.4219222879
 51
33.4152391106
  0
LWPOLYLINE
  5
1A6
330
1F
100
AcDbEntity
  8
0
  6
Continuous
 62
     7
370
    25
100
AcDbPolyline
 90
        3
 70
   128
 43
0.0
 10
6751.0367351717
 20
5175.4328150483
 10
6751.0897976122
 20
5175.3037636122
 10
6751.1949436155
 20
5175.1800061394
  0
LINE
  5
1A7
330
1F
100
AcDbEntity
  8
0
  6
Continuous
 62
     7
370
    25
100
AcDbLine
 10
6751.1949436155
 20
5175.1800061394
 30
0.0
 11
6751.1949436155
 21
5174.951361508
 31
0.0
  0
ARC
  5
1A8
330
1F
100
AcDbEntity
  8
0
  6
Continuous
 62
     7
370
    25
100
AcDbCircle
 10
6751.5002638964
 20
5175.3182681672
 30
0.0
 40
0.4773269011068357
100
AcDbArc
 50
152.3272966803
 51
230.2345664037
  0
ARC
  5
1A9
330
1F
100
AcDbEntity
  8
0
  6
Continuous
 62
     7
370
    25
100
AcDbCircle
 10
6755.6351020314
 20
5173.2569549401
 30
0.0
 40
0.4773269011087903
100
AcDbArc
 50
332.3272966807
 51
50.2345664034
  0
ARC
  5
1AA
330
1F
100
AcDbEntity
  8
0
  6
Continuous
 62
     7
370
    25
100
AcDbCircle
 10
6756.6152188146
 20
5174.4344302511
 30
0.0
 40
1.054690409045543
100
AcDbArc
 50
135.4821047291
 51
230.222698051
  0
ARC
  5
1AB
330
1F
100
AcDbEntity
  8
0
  6
Continuous
 62
     7
370
    25
100
AcDbCircle
 10
6750.5201471132
 20
5174.1407928561
 30
0.0
 40
1.054690409048807
100
AcDbArc
 50
315.4821047294
 51
50.2226980509
  0
ARC
  5
1AC
330
1F
100
AcDbEntity
  8
0
  6
Continuous
 62
     7
370
    25
100
AcDbCircle
 10
6751.6116450417
 20
5173.06680843
 30
0.0
 40
0.4765871066189834
100
AcDbArc
 50
135.4219222872
 51
213.4152391107
  0
ARC
  5
1AD
330
1F
100
AcDbEntity
  8
0
  6
Continuous
 62
     7
370
    25
100
AcDbCircle
 10
6756.6173320639
 20
5174.6615850659
 30
0.0
 40
1.057241863611076
100
AcDbArc
 50
135.5048324838
 51
179.9031395002
  0
ARC
  5
1AE
330
1F
100
AcDbEntity
  8
0
  6
Continuous
 62
     7
370
    25
100
AcDbCircle
 10
6750.5164437777
 20
5174.3671322871
 30
0.0
 40
1.058832342590466
100
AcDbArc
 50
0.1086419431
 51
50.148495493
  0
ARC
  5
1AF
330
1F
100
AcDbEntity
  8
0
  6
Continuous
 62
     7
370
    25
100
AcDbCircle
 10
6753.6844647339
 20
5172.0433317559
 30
0.0
 40
0.4917056042142118
100
AcDbArc
 50
272.2750751899
 51
348.5550436245
  0
ARC
  5
1B0
330
1F
100
AcDbEntity
  8
0
  6
Continuous
 62
     7
370
    25
100
AcDbCircle
 10
6755.2371259046
 20
5171.7250794443
 30
0.0
 40
1.093238514626776
100
AcDbArc
 50
76.0795875879
 51
168.3540490821
  0
ARC
  5
1B1
330
1F
100
AcDbEntity
  8
0
  6
Continuous
 62
     7
370
    25
100
AcDbCircle
 10
6755.6181733025
 20
5173.2708179785
 30
0.0
 40
0.4987770545539579
100
AcDbArc
 50
256.3102440805
 51
331.820096692
  0
LINE
  5
1B2
330
1F
100
AcDbEntity
  8
0
  6
Continuous
 62
     7
370
    25
100
AcDbLine
 10
6755.5001305122
 20
5173.0148550885
 30
0.0
 11
6755.5001305122
 21
5172.7862104571
 31
0.0
  0
ARC
  5
1B3
330
1F
100
AcDbEntity
  8
0
  6
Continuous
 62
     7
370
    25
100
AcDbCircle
 10
6755.6195840684
 20
5173.4950566849
 30
0.0
 40
0.4948360589747173
100
AcDbArc
 50
256.0308000725
 51
345.4872085054
  0
ARC
  5
1B4
330
1F
100
AcDbEntity
  8
0
  6
Continuous
 62
     7
370
    25
100
AcDbCircle
 10
6751.6283843551
 20
5173.3050050593
 30
0.0
 40
0.4952365913220955
100
AcDbArc
 50
194.5052479881
 51
289.4946099892
  0
LINE
  5
1B5
330
1F
100
AcDbEntity
  8
0
  6
Continuous
 62
     7
370
    25
100
AcDbLine
 10
6751.7936538092
 20
5172.8381589509
 30
0.0
 11
6751.7936538092
 21
5172.6095143195
 31
0.0
  0
ARC
  5
1B6
330
1F
100
AcDbEntity
  8
0
  6
Continuous
 62
     7
370
    25
100
AcDbCircle
 10
6751.6299884893
 20
5173.082621322
 30
0.0
 40
0.5006161930701161
100
AcDbArc
 50
213.7697239126
 51
289.0824074211
  0
ARC
  5
1B7
330
1F
100
AcDbEntity
  8
0
  6
Continuous
 62
     7
370
    25
100
AcDbCircle
 10
6752.1564293018
 20
5171.5732724255
 30
0.0
 40
1.097908612236035
100
AcDbArc
 50
17.3082920807
 51
109.2945201709
  0
ARC
  5
1B8
330
1F
100
AcDbEntity
  8
0
  6
Continuous
 62
     7
370
    25
100
AcDbCircle
 10
6753.6769620324
 20
5172.045559222
 30
0.0
 40
0.4942846717558949
100
AcDbArc
 50
197.1369974726
 51
273.133859375
  0
LINE
  5
1B9
330
1F
100
AcDbEntity
  8
0
  6
Continuous
 62
     7
370
    25
100
AcDbLine
 10
6754.1663931575
 20
5172.1744089965
 30
0.0
 11
6754.1663931575
 21
5171.9457643651
 31
0.0
  0
ARC
  5
1BA
330
1F
100
AcDbEntity
  8
0
  6
Continuous
 62
     7
370
    25
100
AcDbCircle
 10
6755.2371259046
 20
5171.9537240757
 30
0.0
 40
1.093238514623854
100
AcDbArc
 50
76.0795875877
 51
168.3540490823
  0
ARC
  5
1BB
330
1F
100
AcDbEntity
  8
0
  6
Continuous
 62
     7
370
    25
100
AcDbCircle
 10
6752.1564293018
 20
5171.8019170569
 30
0.0
 40
1.097908612234626
100
AcDbArc
 50
17.3082920806
 51
109.294520171
  0
LINE
  5
1BC
330
1F
100
AcDbEntity
  8
0
  6
Continuous
 62
     7
370
    25
100
AcDbLine
 10
6753.2046221442
 20
5172.1285591944
 30
0.0
 11
6753.2046221442
 21
5171.899914563
 31
0.0
  0
ARC
  5
1BD
330
1F
100
AcDbEntity
  8
0
  6
Continuous
 62
     7
370
    25
100
AcDbCircle
 10
6753.6795588734
 20
5172.276268968
 30
0.0
 40
0.4973761896104505
100
AcDbArc
 50
197.2761833809
 51
348.1825229953
  0
LINE
  5
1BE
330
1F
100
AcDbEntity
  8
0
  6
Continuous
 62
     7
370
    25
100
AcDbLine
 10
6931.0676829639
 20
5360.8237271222
 30
0.0
 11
6931.0676829639
 21
5360.8445129978
 31
0.0
  0
LINE
  5
1BF
330
1F
100
AcDbEntity
  8
0
  6
Continuous
 62
     7
370
    25
100
AcDbLine
 10
6931.0676829639
 20
5360.8237271222
 30
0.0
 11
6915.1684640233
 21
5360.8237271222
 31
0.0
  0
LINE
  5
1C0
330
1F
100
AcDbEntity
  8
0
  6
Continuous
 62
     7
370
    25
100
AcDbLine
 10
6911.9669019045
 20
5360.8237271222
 30
0.0
 11
6755.1684640233
 21
5360.8237271222
 31
0.0
  0
LINE
  5
1C1
330
1F
100
AcDbEntity
  8
0
  6
Continuous
 62
     7
370
    25
100
AcDbLine
 10
6751.9669019045
 20
5360.8237271222
 30
0.0
 11
6736.0676829639
 21
5360.8237271222
 31
0.0
  0
LINE
  5
1C2
330
1F
100
AcDbEntity
  8
0
  6
Continuous
 62
     7
370
    25
100
AcDbLine
 10
6736.0676829639
 20
5360.8237271222
 30
0.0
 11
6736.0676829639
 21
5360.8445129978
 31
0.0
  0
LINE
  5
1C3
330
1F
100
AcDbEntity
  8
0
  6
Continuous
 62
     7
370
    25
100
AcDbLine
 10
6931.0676829639
 20
5170.0827511932
 30
0.0
 11
6931.0676829639
 21
5360.8237271222
 31
0.0
  0
LINE
  5
1C4
330
1F
100
AcDbEntity
  8
0
  6
Continuous
 62
     7
370
    25
100
AcDbLine
 10
6736.0676829639
 20
5170.0827511932
 30
0.0
 11
6751.9669019045
 21
5170.0827511932
 31
0.0
  0
LINE
  5
1C5
330
1F
100
AcDbEntity
  8
0
  6
Continuous
 62
     7
370
    25
100
AcDbLine
 10
6755.1684640233
 20
5170.0827511932
 30
0.0
 11
6911.9669019045
 21
5170.0827511932
 31
0.0
  0
LINE
  5
1C6
330
1F
100
AcDbEntity
  8
0
  6
Continuous
 62
     7
370
    25
100
AcDbLine
 10
6915.1684640233
 20
5170.0827511932
 30
0.0
 11
6931.0676829639
 21
5170.0827511932
 31
0.0
  0
LINE
  5
1C7
330
1F
100
AcDbEntity
  8
0
  6
Continuous
 62
     7
370
    25
100
AcDbLine
 10
6736.0676829639
 20
5360.8237271222
 30
0.0
 11
6736.0676829639
 21
5170.0827511932
 31
0.0
  0
LINE
  5
1C8
330
1F
100
AcDbEntity
  8
0
  6
Continuous
 62
     7
370
    25
100
AcDbLine
 10
6696.0676829639
 20
5412.0494545927
 30
0.0
 11
7171.0676829639
 21
5412.0494545927
 31
0.0
  0
LINE
  5
1C9
330
1F
100
AcDbEntity
  8
0
  6
Continuous
 62
     7
370
    25
100
AcDbLine
 10
7171.0676829639
 20
5412.0494545927
 30
0.0
 11
7171.0676829639
 21
5399.9708670345
 31
0.0
  0
LINE
  5
1CA
330
1F
100
AcDbEntity
  8
0
  6
Continuous
 62
     7
370
    25
100
AcDbLine
 10
7171.0676829639
 20
5399.9708670345
 30
0.0
 11
6696.0676829639
 21
5399.9708670345
 31
0.0
  0
LINE
  5
1CB
330
1F
100
AcDbEntity
  8
0
  6
Continuous
 62
     7
370
    25
100
AcDbLine
 10
6696.0676829639
 20
5399.9708670345
 30
0.0
 11
6696.0676829639
 21
5412.0494545927
 31
0.0
  0
LINE
  5
1CC
330
1F
100
AcDbEntity
  8
0
  6
Continuous
 62
     7
370
    25
100
AcDbLine
 10
7171.0676829639
 20
5412.0494545927
 30
0.0
 11
7333.7193945986
 21
5412.0494545927
 31
0.0
  0
LINE
  5
1CD
330
1F
100
AcDbEntity
  8
0
  6
Continuous
 62
     7
370
    25
100
AcDbLine
 10
7171.0676829639
 20
5013.6337370811
 30
0.0
 11
7171.0676829639
 21
5399.9708670345
 31
0.0
  0
LINE
  5
1CE
330
1F
100
AcDbEntity
  8
0
  6
Continuous
 62
     7
370
    25
100
AcDbLine
 10
6696.0676829639
 20
5013.6337370811
 30
0.0
 11
7171.0676829639
 21
5013.6337370811
 31
0.0
  0
LINE
  5
1CF
330
1F
100
AcDbEntity
  8
0
  6
Continuous
 62
     7
370
    25
100
AcDbLine
 10
6931.0676829639
 20
5360.8445129978
 30
0.0
 11
6915.100506645
 21
5360.8445129978
 31
0.0
  0
LINE
  5
1D0
330
1F
100
AcDbEntity
  8
0
  6
Continuous
 62
     7
370
    25
100
AcDbLine
 10
6912.0348592828
 20
5360.8445129978
 30
0.0
 11
6755.100506645
 21
5360.8445129978
 31
0.0
  0
LINE
  5
1D1
330
1F
100
AcDbEntity
  8
0
  6
Continuous
 62
     7
370
    25
100
AcDbLine
 10
6752.0348592828
 20
5360.8445129978
 30
0.0
 11
6736.0676829639
 21
5360.8445129978
 31
0.0
  0
LINE
  5
1D2
330
1F
100
AcDbEntity
  8
0
  6
Continuous
 62
     7
370
    25
100
AcDbLine
 10
6696.0676829639
 20
5013.6337370811
 30
0.0
 11
6696.0676829639
 21
5399.9708670345
 31
0.0
  0
LINE
  5
1D3
330
1F
100
AcDbEntity
  8
0
  6
Continuous
 62
     7
370
    25
100
AcDbLine
 10
7171.0676829639
 20
5013.6337370811
 30
0.0
 11
7171.0676829639
 21
5012.0494545927
 31
0.0
  0
LINE
  5
1D4
330
1F
100
AcDbEntity
  8
0
  6
Continuous
 62
     7
370
    25
100
AcDbLine
 10
7171.0676829639
 20
5012.0494545927
 30
0.0
 11
6696.0676829639
 21
5012.0494545927
 31
0.0
  0
LINE
  5
1D5
330
1F
100
AcDbEntity
  8
0
  6
Continuous
 62
     7
370
    25
100
AcDbLine
 10
6696.0676829639
 20
5012.0494545927
 30
0.0
 11
6696.0676829639
 21
5013.6337370811
 31
0.0
  0
LINE
  5
1D6
330
1F
100
AcDbEntity
  8
0
  6
Continuous
 62
     7
370
    25
100
AcDbLine
 10
7259.4480252908
 20
5012.0494545927
 30
0.0
 11
7171.0676829639
 21
5012.0494545927
 31
0.0
  0
LINE
  5
1D7
330
1F
100
AcDbEntity
  8
0
  6
Continuous
 62
     8
370
    25
100
AcDbLine
 10
7343.5009831078
 20
5399.9708670345
 30
0.0
 11
7171.0676829639
 21
5399.9708670345
 31
0.0
  0
LINE
  5
1D8
330
1F
100
AcDbEntity
  8
0
  6
Continuous
 62
     8
370
    25
100
AcDbLine
 10
7171.0676829639
 20
5013.6337370811
 30
0.0
 11
7261.4043429927
 21
5013.6337370811
 31
0.0
  0
LINE
  5
1D9
330
1F
100
AcDbEntity
  8
0
  6
Continuous
 62
     7
370
    25
100
AcDbLine
 10
6233.6110401059
 20
4743.2753987148
 30
0.0
 11
6233.6110401059
 21
4743.1586734652
 31
0.0
  0
LINE
  5
1DA
330
1F
100
AcDbEntity
  8
0
  6
Continuous
 62
     7
370
    25
100
AcDbLine
 10
6314.0105127223
 20
4743.1586734652
 30
0.0
 11
6314.0105127223
 21
4743.2753987148
 31
0.0
  0
LINE
  5
1DB
330
1F
100
AcDbEntity
  8
0
  6
Continuous
 62
     7
370
    25
100
AcDbLine
 10
6446.6704669708
 20
4268.1586734652
 30
0.0
 11
6446.6704669708
 21
4743.1586734652
 31
0.0
  0
LINE
  5
1DC
330
1F
100
AcDbEntity
  8
0
  6
Continuous
 62
     7
370
    25
100
AcDbLine
 10
6101.3670437014
 20
4743.1586734652
 30
0.0
 11
6101.3670437014
 21
4268.1586734652
 31
0.0
  0
ARC
  5
1DD
330
1F
100
AcDbEntity
  8
0
  6
Continuous
 62
     7
370
    25
100
AcDbCircle
 10
6274.0187553361
 20
4268.1586734652
 30
0.0
 40
172.651711634704
100
AcDbArc
 50
180.0
 51
0.0
  0
LINE
  5
1DE
330
1F
100
AcDbEntity
  8
0
  6
Continuous
 62
     7
370
    25
100
AcDbLine
 10
6314.0105127223
 20
4743.2753987148
 30
0.0
 11
6233.6110401059
 21
4743.2753987148
 31
0.0
  0
ARC
  5
1DF
330
1F
100
AcDbEntity
  8
0
  6
Continuous
 62
     7
370
    25
100
AcDbCircle
 10
6354.0187553361
 20
4523.1586734652
 30
0.0
 40
2.799999999999267
100
AcDbArc
 50
295.6937965141
 51
355.6937965141
  0
ARC
  5
1E0
330
1F
100
AcDbEntity
  8
0
  6
Continuous
 62
     7
370
    25
100
AcDbCircle
 10
6355.0180560921
 20
4521.08170441
 30
0.0
 40
0.495135045733514
100
AcDbArc
 50
295.6937965142
 51
12.1947181103
  0
ARC
  5
1E1
330
1F
100
AcDbEntity
  8
0
  6
Continuous
 62
     7
370
    25
100
AcDbCircle
 10
6356.5709246768
 20
4521.4172966399
 30
0.0
 40
1.093582357151977
100
AcDbArc
 50
99.1928749179
 51
192.1947181104
  0
ARC
  5
1E2
330
1F
100
AcDbEntity
  8
0
  6
Continuous
 62
     7
370
    25
100
AcDbCircle
 10
6356.3171136788
 20
4522.9856087783
 30
0.0
 40
0.4951350457333863
100
AcDbArc
 50
279.1928749176
 51
355.693796514
  0
ARC
  5
1E3
330
1F
100
AcDbEntity
  8
0
  6
Continuous
 62
     7
370
    25
100
AcDbCircle
 10
6356.8029165748
 20
4524.4982285364
 30
0.0
 40
1.093582357151922
100
AcDbArc
 50
159.1928749178
 51
252.1947181104
  0
ARC
  5
1E4
330
1F
100
AcDbEntity
  8
0
  6
Continuous
 62
     7
370
    25
100
AcDbCircle
 10
6355.3178129228
 20
4525.0625778336
 30
0.0
 40
0.4951350457333952
100
AcDbArc
 50
339.1928749179
 51
55.6937965141
  0
ARC
  5
1E5
330
1F
100
AcDbEntity
  8
0
  6
Continuous
 62
     7
370
    25
100
AcDbCircle
 10
6354.0187553361
 20
4523.1586734652
 30
0.0
 40
2.800000000001503
100
AcDbArc
 50
355.6937965141
 51
55.6937965141
  0
ARC
  5
1E6
330
1F
100
AcDbEntity
  8
0
  6
Continuous
 62
     7
370
    25
100
AcDbCircle
 10
6356.3171136788
 20
4522.9856087783
 30
0.0
 40
0.4951350457337969
100
AcDbArc
 50
355.693796514
 51
72.1947181103
  0
CIRCLE
  5
1E7
330
1F
100
AcDbEntity
  8
0
  6
Continuous
 62
     7
370
    25
100
AcDbCircle
 10
6354.0187553361
 20
4523.1586734652
 30
0.0
 40
5.249999999999945
  0
ARC
  5
1E8
330
1F
100
AcDbEntity
  8
0
  6
Continuous
 62
     7
370
    25
100
AcDbCircle
 10
6354.0187553361
 20
4523.1586734652
 30
0.0
 40
2.800000000001503
100
AcDbArc
 50
55.6937965141
 51
115.6937965141
  0
ARC
  5
1E9
330
1F
100
AcDbEntity
  8
0
  6
Continuous
 62
     7
370
    25
100
AcDbCircle
 10
6354.0187553361
 20
4523.1586734652
 30
0.0
 40
2.800000000001321
100
AcDbArc
 50
115.6937965141
 51
175.6937965141
  0
ARC
  5
1EA
330
1F
100
AcDbEntity
  8
0
  6
Continuous
 62
     7
370
    25
100
AcDbCircle
 10
6354.0187553361
 20
4523.1586734652
 30
0.0
 40
2.799999999998565
100
AcDbArc
 50
175.6937965141
 51
235.6937965141
  0
ARC
  5
1EB
330
1F
100
AcDbEntity
  8
0
  6
Continuous
 62
     7
370
    25
100
AcDbCircle
 10
6354.0187553361
 20
4523.1586734652
 30
0.0
 40
2.799999999999257
100
AcDbArc
 50
235.6937965141
 51
295.6937965141
  0
ARC
  5
1EC
330
1F
100
AcDbEntity
  8
0
  6
Continuous
 62
     7
370
    25
100
AcDbCircle
 10
6353.0194545801
 20
4525.2356425205
 30
0.0
 40
0.495135045731823
100
AcDbArc
 50
115.6937965141
 51
192.1947181106
  0
ARC
  5
1ED
330
1F
100
AcDbEntity
  8
0
  6
Continuous
 62
     7
370
    25
100
AcDbCircle
 10
6351.4665859954
 20
4524.9000502906
 30
0.0
 40
1.093582357152352
100
AcDbArc
 50
279.1928749179
 51
12.1947181104
  0
ARC
  5
1EE
330
1F
100
AcDbEntity
  8
0
  6
Continuous
 62
     7
370
    25
100
AcDbCircle
 10
6351.7203969934
 20
4523.3317381522
 30
0.0
 40
0.4951350457335316
100
AcDbArc
 50
99.1928749178
 51
175.6937965138
  0
ARC
  5
1EF
330
1F
100
AcDbEntity
  8
0
  6
Continuous
 62
     7
370
    25
100
AcDbCircle
 10
6353.0194545801
 20
4525.2356425205
 30
0.0
 40
0.4951350457310862
100
AcDbArc
 50
39.1928749176
 51
115.6937965141
  0
ARC
  5
1F0
330
1F
100
AcDbEntity
  8
0
  6
Continuous
 62
     7
370
    25
100
AcDbCircle
 10
6355.3178129228
 20
4525.0625778336
 30
0.0
 40
0.4951350457333952
100
AcDbArc
 50
55.6937965141
 51
132.1947181105
  0
ARC
  5
1F1
330
1F
100
AcDbEntity
  8
0
  6
Continuous
 62
     7
370
    25
100
AcDbCircle
 10
6354.2507472341
 20
4526.2396053617
 30
0.0
 40
1.09358235715295
100
AcDbArc
 50
219.1928749178
 51
312.1947181103
  0
ARC
  5
1F2
330
1F
100
AcDbEntity
  8
0
  6
Continuous
 62
     7
370
    25
100
AcDbCircle
 10
6351.7203969934
 20
4523.3317381522
 30
0.0
 40
0.4951350457319654
100
AcDbArc
 50
175.6937965138
 51
252.1947181101
  0
ARC
  5
1F3
330
1F
100
AcDbEntity
  8
0
  6
Continuous
 62
     7
370
    25
100
AcDbCircle
 10
6351.2345940974
 20
4521.8191183941
 30
0.0
 40
1.093582357152316
100
AcDbArc
 50
339.1928749178
 51
72.1947181105
  0
ARC
  5
1F4
330
1F
100
AcDbEntity
  8
0
  6
Continuous
 62
     7
370
    25
100
AcDbCircle
 10
6352.7196977494
 20
4521.2547690969
 30
0.0
 40
0.4951350457318704
100
AcDbArc
 50
159.1928749178
 51
235.6937965142
  0
ARC
  5
1F5
330
1F
100
AcDbEntity
  8
0
  6
Continuous
 62
     7
370
    25
100
AcDbCircle
 10
6353.7867634381
 20
4520.0777415687
 30
0.0
 40
1.093582357152287
100
AcDbArc
 50
39.1928749178
 51
132.1947181105
  0
ARC
  5
1F6
330
1F
100
AcDbEntity
  8
0
  6
Continuous
 62
     7
370
    25
100
AcDbCircle
 10
6355.0180560921
 20
4521.08170441
 30
0.0
 40
0.495135045733514
100
AcDbArc
 50
219.1928749179
 51
295.6937965142
  0
ARC
  5
1F7
330
1F
100
AcDbEntity
  8
0
  6
Continuous
 62
     7
370
    25
100
AcDbCircle
 10
6352.7196977494
 20
4521.2547690969
 30
0.0
 40
0.4951350457305583
100
AcDbArc
 50
235.6937965142
 51
312.1947181104
  0
ARC
  5
1F8
330
1F
100
AcDbEntity
  8
0
  6
Continuous
 62
     7
370
    25
100
AcDbCircle
 10
6194.0187553361
 20
4523.1586734652
 30
0.0
 40
2.800000000000101
100
AcDbArc
 50
27.9978811191
 51
87.9978811191
  0
ARC
  5
1F9
330
1F
100
AcDbEntity
  8
0
  6
Continuous
 62
     7
370
    25
100
AcDbCircle
 10
6196.0538703144
 20
4524.2406667566
 30
0.0
 40
0.495135045732915
100
AcDbArc
 50
27.9978811192
 51
104.4988027153
  0
ARC
  5
1FA
330
1F
100
AcDbEntity
  8
0
  6
Continuous
 62
     7
370
    25
100
AcDbCircle
 10
6194.0992791482
 20
4525.4621313817
 30
0.0
 40
0.4951350457335809
100
AcDbArc
 50
11.4969595226
 51
87.997881119
  0
ARC
  5
1FB
330
1F
100
AcDbEntity
  8
0
  6
Continuous
 62
     7
370
    25
100
AcDbCircle
 10
6195.656119386
 20
4525.7787880733
 30
0.0
 40
1.093582357152133
100
AcDbArc
 50
191.4969595229
 51
284.4988027154
  0
ARC
  5
1FC
330
1F
100
AcDbEntity
  8
0
  6
Continuous
 62
     7
370
    25
100
AcDbCircle
 10
6192.5683515496
 20
4525.8867296317
 30
0.0
 40
1.093582357152892
100
AcDbArc
 50
251.4969595228
 51
344.4988027153
  0
ARC
  5
1FD
330
1F
100
AcDbEntity
  8
0
  6
Continuous
 62
     7
370
    25
100
AcDbCircle
 10
6192.0641641699
 20
4524.3801380904
 30
0.0
 40
0.4951350457330858
100
AcDbArc
 50
71.4969595229
 51
147.997881119
  0
ARC
  5
1FE
330
1F
100
AcDbEntity
  8
0
  6
Continuous
 62
     7
370
    25
100
AcDbCircle
 10
6194.0187553361
 20
4523.1586734652
 30
0.0
 40
2.800000000001404
100
AcDbArc
 50
87.9978811191
 51
147.997881119
  0
ARC
  5
1FF
330
1F
100
AcDbEntity
  8
0
  6
Continuous
 62
     7
370
    25
100
AcDbCircle
 10
6194.0992791482
 20
4525.4621313817
 30
0.0
 40
0.4951350457330692
100
AcDbArc
 50
87.997881119
 51
164.4988027153
  0
CIRCLE
  5
200
330
1F
100
AcDbEntity
  8
0
  6
Continuous
 62
     7
370
    25
100
AcDbCircle
 10
6194.0187553361
 20
4523.1586734652
 30
0.0
 40
5.250000000000236
  0
ARC
  5
201
330
1F
100
AcDbEntity
  8
0
  6
Continuous
 62
     7
370
    25
100
AcDbCircle
 10
6194.0187553361
 20
4523.1586734652
 30
0.0
 40
2.800000000001404
100
AcDbArc
 50
147.997881119
 51
207.997881119
  0
ARC
  5
202
330
1F
100
AcDbEntity
  8
0
  6
Continuous
 62
     7
370
    25
100
AcDbCircle
 10
6194.0187553361
 20
4523.1586734652
 30
0.0
 40
2.800000000001119
100
AcDbArc
 50
207.997881119
 51
267.997881119
  0
ARC
  5
203
330
1F
100
AcDbEntity
  8
0
  6
Continuous
 62
     7
370
    25
100
AcDbCircle
 10
6194.0187553361
 20
4523.1586734652
 30
0.0
 40
2.799999999998346
100
AcDbArc
 50
267.997881119
 51
327.9978811191
  0
ARC
  5
204
330
1F
100
AcDbEntity
  8
0
  6
Continuous
 62
     7
370
    25
100
AcDbCircle
 10
6194.0187553361
 20
4523.1586734652
 30
0.0
 40
2.799999999999564
100
AcDbArc
 50
327.9978811191
 51
27.9978811191
  0
ARC
  5
205
330
1F
100
AcDbEntity
  8
0
  6
Continuous
 62
     7
370
    25
100
AcDbCircle
 10
6191.9836403578
 20
4522.0766801739
 30
0.0
 40
0.4951350457321566
100
AcDbArc
 50
207.997881119
 51
284.4988027155
  0
ARC
  5
206
330
1F
100
AcDbEntity
  8
0
  6
Continuous
 62
     7
370
    25
100
AcDbCircle
 10
6192.3813912862
 20
4520.5385588571
 30
0.0
 40
1.093582357152037
100
AcDbArc
 50
11.4969595228
 51
104.4988027153
  0
ARC
  5
207
330
1F
100
AcDbEntity
  8
0
  6
Continuous
 62
     7
370
    25
100
AcDbCircle
 10
6193.938231524
 20
4520.8552155487
 30
0.0
 40
0.4951350457339434
100
AcDbArc
 50
191.4969595228
 51
267.9978811189
  0
ARC
  5
208
330
1F
100
AcDbEntity
  8
0
  6
Continuous
 62
     7
370
    25
100
AcDbCircle
 10
6190.9309874997
 20
4523.2666150236
 30
0.0
 40
1.093582357152725
100
AcDbArc
 50
311.4969595228
 51
44.4988027153
  0
ARC
  5
209
330
1F
100
AcDbEntity
  8
0
  6
Continuous
 62
     7
370
    25
100
AcDbCircle
 10
6191.9836403578
 20
4522.0766801739
 30
0.0
 40
0.4951350457320611
100
AcDbArc
 50
131.4969595226
 51
207.997881119
  0
ARC
  5
20A
330
1F
100
AcDbEntity
  8
0
  6
Continuous
 62
     7
370
    25
100
AcDbCircle
 10
6192.0641641699
 20
4524.3801380904
 30
0.0
 40
0.4951350457330858
100
AcDbArc
 50
147.997881119
 51
224.4988027154
  0
ARC
  5
20B
330
1F
100
AcDbEntity
  8
0
  6
Continuous
 62
     7
370
    25
100
AcDbCircle
 10
6193.938231524
 20
4520.8552155487
 30
0.0
 40
0.4951350457318866
100
AcDbArc
 50
267.9978811189
 51
344.4988027152
  0
ARC
  5
20C
330
1F
100
AcDbEntity
  8
0
  6
Continuous
 62
     7
370
    25
100
AcDbCircle
 10
6195.4691591226
 20
4520.4306172987
 30
0.0
 40
1.093582357152035
100
AcDbArc
 50
71.4969595228
 51
164.4988027154
  0
ARC
  5
20D
330
1F
100
AcDbEntity
  8
0
  6
Continuous
 62
     7
370
    25
100
AcDbCircle
 10
6195.9733465023
 20
4521.9372088401
 30
0.0
 40
0.495135045732254
100
AcDbArc
 50
251.4969595228
 51
327.9978811192
  0
ARC
  5
20E
330
1F
100
AcDbEntity
  8
0
  6
Continuous
 62
     7
370
    25
100
AcDbCircle
 10
6197.1065231725
 20
4523.0507319068
 30
0.0
 40
1.09358235715266
100
AcDbArc
 50
131.4969595227
 51
224.4988027154
  0
ARC
  5
20F
330
1F
100
AcDbEntity
  8
0
  6
Continuous
 62
     7
370
    25
100
AcDbCircle
 10
6196.0538703144
 20
4524.2406667566
 30
0.0
 40
0.495135045732915
100
AcDbArc
 50
311.496959523
 51
27.9978811192
  0
ARC
  5
210
330
1F
100
AcDbEntity
  8
0
  6
Continuous
 62
     7
370
    25
100
AcDbCircle
 10
6195.9733465023
 20
4521.9372088401
 30
0.0
 40
0.4951350457303897
100
AcDbArc
 50
327.9978811192
 51
44.4988027154
  0
LINE
  5
211
330
1F
100
AcDbEntity
  8
0
  6
Continuous
 62
     7
370
    25
100
AcDbLine
 10
6436.6704669708
 20
4268.1586734652
 30
0.0
 11
6436.6704669708
 21
4743.1586734652
 31
0.0
  0
LINE
  5
212
330
1F
100
AcDbEntity
  8
0
  6
Continuous
 62
     7
370
    25
100
AcDbLine
 10
6436.6704669708
 20
4743.1586734652
 30
0.0
 11
6446.6704669708
 21
4743.1586734652
 31
0.0
  0
LINE
  5
213
330
1F
100
AcDbEntity
  8
0
  6
Continuous
 62
     7
370
    25
100
AcDbLine
 10
6140.8962563369
 20
4268.1586734652
 30
0.0
 11
6140.8962563369
 21
4333.1586734652
 31
0.0
  0
ARC
  5
214
330
1F
100
AcDbEntity
  8
0
  6
Continuous
 62
     7
370
    25
100
AcDbCircle
 10
6274.0187553361
 20
4268.1586734652
 30
0.0
 40
133.1224989991997
100
AcDbArc
 50
180.0
 51
0.0
  0
LINE
  5
215
330
1F
100
AcDbEntity
  8
0
  6
Continuous
 62
     7
370
    25
100
AcDbLine
 10
6407.1412543353
 20
4333.1586734653
 30
0.0
 11
6407.1412543353
 21
4268.1586734652
 31
0.0
  0
ARC
  5
216
330
1F
100
AcDbEntity
  8
0
  6
Continuous
 62
     7
370
    25
100
AcDbCircle
 10
6274.0187553361
 20
4333.1586734652
 30
0.0
 40
133.1224989991997
100
AcDbArc
 50
0.0
 51
180.0
  0
ARC
  5
217
330
1F
100
AcDbEntity
  8
0
  6
Continuous
 62
     7
370
    25
100
AcDbCircle
 10
6274.0187553361
 20
4268.1586734652
 30
0.0
 40
162.6517116347031
100
AcDbArc
 50
180.0
 51
0.0
  0
LINE
  5
218
330
1F
100
AcDbEntity
  8
0
  6
Continuous
 62
     7
370
    25
100
AcDbLine
 10
6111.3670437014
 20
4743.1586734652
 30
0.0
 11
6111.3670437014
 21
4268.1586734652
 31
0.0
  0
LINE
  5
219
330
1F
100
AcDbEntity
  8
0
  6
Continuous
 62
     7
370
    25
100
AcDbLine
 10
6111.3670437014
 20
4743.1586734652
 30
0.0
 11
6436.6704669708
 21
4743.1586734652
 31
0.0
  0
LINE
  5
21A
330
1F
100
AcDbEntity
  8
0
  6
Continuous
 62
     7
370
    25
100
AcDbLine
 10
6101.3670437014
 20
4743.1586734652
 30
0.0
 11
6111.3670437014
 21
4743.1586734652
 31
0.0
  0
LINE
  5
21B
330
1F
100
AcDbEntity
  8
0
  6
Continuous
 62
     7
370
    25
100
AcDbLine
 10
6407.1412543353
 20
4333.1586734653
 30
0.0
 11
6404.0187553361
 21
4333.1586734653
 31
0.0
  0
ARC
  5
21C
330
1F
100
AcDbEntity
  8
0
  6
Continuous
 62
     7
370
    25
100
AcDbCircle
 10
6274.0187553361
 20
4333.1586734652
 30
0.0
 40
130.0
100
AcDbArc
 50
0.0
 51
180.0
  0
LINE
  5
21D
330
1F
100
AcDbEntity
  8
0
  6
Continuous
 62
     7
370
    25
100
AcDbLine
 10
6140.8962563369
 20
4333.1586734652
 30
0.0
 11
6144.0187553361
 21
4333.1586734652
 31
0.0
  0
LINE
  5
21E
330
1F
100
AcDbEntity
  8
0
  6
Continuous
 62
     7
370
    25
100
AcDbLine
 10
6404.0187553361
 20
4268.1586734652
 30
0.0
 11
6404.0187553361
 21
4333.1586734653
 31
0.0
  0
LINE
  5
21F
330
1F
100
AcDbEntity
  8
0
  6
Continuous
 62
     7
370
    25
100
AcDbLine
 10
6404.0187553361
 20
4268.1586734652
 30
0.0
 11
6407.1412543353
 21
4268.1586734652
 31
0.0
  0
LINE
  5
220
330
1F
100
AcDbEntity
  8
0
  6
Continuous
 62
     7
370
    25
100
AcDbLine
 10
6144.0187553361
 20
4333.1586734652
 30
0.0
 11
6144.0187553361
 21
4268.1586734652
 31
0.0
  0
LINE
  5
221
330
1F
100
AcDbEntity
  8
0
  6
Continuous
 62
     7
370
    25
100
AcDbLine
 10
6144.0187553361
 20
4268.1586734652
 30
0.0
 11
6140.8962563369
 21
4268.1586734652
 31
0.0
  0
ARC
  5
222
330
1F
100
AcDbEntity
  8
0
  6
Continuous
 62
     7
370
    25
100
AcDbCircle
 10
6274.0187553361
 20
4268.1586734652
 30
0.0
 40
130.0
100
AcDbArc
 50
180.0
 51
0.0
  0
ARC
  5
223
330
1F
100
AcDbEntity
  8
0
  6
Continuous
 62
     7
370
    25
100
AcDbCircle
 10
6274.0187553361
 20
4333.1586734652
 30
0.0
 40
120.0
100
AcDbArc
 50
0.0
 51
180.0
  0
LINE
  5
224
330
1F
100
AcDbEntity
  8
0
  6
Continuous
 62
     7
370
    25
100
AcDbLine
 10
6154.0187553361
 20
4333.1586734652
 30
0.0
 11
6150.0187553361
 21
4333.1586734652
 31
0.0
  0
ARC
  5
225
330
1F
100
AcDbEntity
  8
0
  6
Continuous
 62
     7
370
    25
100
AcDbCircle
 10
6274.0187553361
 20
4333.1586734652
 30
0.0
 40
124.0
100
AcDbArc
 50
0.0
 51
180.0
  0
LINE
  5
226
330
1F
100
AcDbEntity
  8
0
  6
Continuous
 62
     7
370
    25
100
AcDbLine
 10
6394.0187553361
 20
4333.1586734652
 30
0.0
 11
6398.0187553361
 21
4333.1586734652
 31
0.0
  0
LINE
  5
227
330
1F
100
AcDbEntity
  8
0
  6
Continuous
 62
     7
370
    25
100
AcDbLine
 10
6398.0187553361
 20
4333.1586734652
 30
0.0
 11
6398.0187553361
 21
4268.1586734652
 31
0.0
  0
LINE
  5
228
330
1F
100
AcDbEntity
  8
0
  6
Continuous
 62
     7
370
    25
100
AcDbLine
 10
6150.0187553361
 20
4268.1586734652
 30
0.0
 11
6150.0187553361
 21
4333.1586734652
 31
0.0
  0
ARC
  5
229
330
1F
100
AcDbEntity
  8
0
  6
Continuous
 62
     7
370
    25
100
AcDbCircle
 10
6274.0187553361
 20
4268.1586734652
 30
0.0
 40
124.0
100
AcDbArc
 50
180.0
 51
0.0
  0
LINE
  5
22A
330
1F
100
AcDbEntity
  8
0
  6
Continuous
 62
     7
370
    25
100
AcDbLine
 10
6398.0187553361
 20
4268.1586734652
 30
0.0
 11
6394.0187553361
 21
4268.1586734652
 31
0.0
  0
LINE
  5
22B
330
1F
100
AcDbEntity
  8
0
  6
Continuous
 62
     7
370
    25
100
AcDbLine
 10
6394.0187553361
 20
4268.1586734652
 30
0.0
 11
6394.0187553361
 21
4333.1586734652
 31
0.0
  0
LINE
  5
22C
330
1F
100
AcDbEntity
  8
0
  6
Continuous
 62
     7
370
    25
100
AcDbLine
 10
6154.0187553361
 20
4333.1586734652
 30
0.0
 11
6154.0187553361
 21
4268.1586734652
 31
0.0
  0
LINE
  5
22D
330
1F
100
AcDbEntity
  8
0
  6
Continuous
 62
     7
370
    25
100
AcDbLine
 10
6150.0187553361
 20
4268.1586734652
 30
0.0
 11
6154.0187553361
 21
4268.1586734652
 31
0.0
  0
ARC
  5
22E
330
1F
100
AcDbEntity
  8
0
  6
Continuous
 62
     7
370
    25
100
AcDbCircle
 10
6274.0187553361
 20
4268.1586734652
 30
0.0
 40
120.0
100
AcDbArc
 50
180.0
 51
0.0
  0
CIRCLE
  5
22F
330
1F
100
AcDbEntity
  8
0
  6
Continuous
 62
     7
370
    25
100
AcDbCircle
 10
6274.0214614786
 20
4333.1587917136
 30
0.0
 40
39.99988184313651
  0
ARC
  5
230
330
1F
100
AcDbEntity
  8
0
  6
Continuous
 62
     7
370
    25
100
AcDbCircle
 10
6274.0187553361
 20
4333.1817038551
 30
0.0
 40
34.99999929975797
100
AcDbArc
 50
180.0171085451
 51
359.9828914549
  0
ARC
  5
231
330
1F
100
AcDbEntity
  8
0
  6
Continuous
 62
     7
370
    25
100
AcDbCircle
 10
6274.0187553361
 20
4333.1586734652
 30
0.0
 40
37.95803989154978
100
AcDbArc
 50
179.9794072829
 51
0.0205927171
  0
ARC
  5
232
330
1F
100
AcDbEntity
  8
0
  6
Continuous
 62
     7
370
    25
100
AcDbCircle
 10
6274.0187553361
 20
4333.1586734652
 30
0.0
 40
37.95803989154978
100
AcDbArc
 50
0.0205927171
 51
179.9794072829
  0
ARC
  5
233
330
1F
100
AcDbEntity
  8
0
  6
Continuous
 62
     7
370
    25
100
AcDbCircle
 10
6274.0187553361
 20
4333.1586734652
 30
0.0
 40
35.00000000000016
100
AcDbArc
 50
0.0205927171
 51
179.9794072829
  0
LINE
  5
234
330
1F
100
AcDbEntity
  8
0
  6
Continuous
 62
     7
370
    25
100
AcDbLine
 10
6236.0607178962
 20
4333.1723159912
 30
0.0
 11
6239.0187575967
 21
4333.17125284
 31
0.0
  0
LINE
  5
235
330
1F
100
AcDbEntity
  8
0
  6
Continuous
 62
     7
370
    25
100
AcDbLine
 10
6309.0187530755
 20
4333.17125284
 30
0.0
 11
6311.976792776
 21
4333.1723159912
 31
0.0
  0
ARC
  5
236
330
1F
100
AcDbEntity
  8
0
  6
Continuous
 62
     7
370
    25
100
AcDbCircle
 10
6274.0187553361
 20
4333.1586734652
 30
0.0
 40
35.00000000000016
100
AcDbArc
 50
179.9794072829
 51
0.0205927171
  0
LINE
  5
237
330
1F
100
AcDbEntity
  8
0
  6
Continuous
 62
     8
370
    25
100
AcDbLine
 10
6436.6704669708
 20
4268.1586734652
 30
0.0
 11
6446.6704669708
 21
4268.1586734652
 31
0.0
  0
LINE
  5
238
330
1F
100
AcDbEntity
  8
0
  6
Continuous
 62
     8
370
    25
100
AcDbLine
 10
6111.3670437014
 20
4268.1586734652
 30
0.0
 11
6101.3670437014
 21
4268.1586734652
 31
0.0
  0
ENDSEC
  0
SECTION
  2
OBJECTS
  0
DICTIONARY
  5
C
330
0
100
AcDbDictionary
281
     1
  3
ACAD_GROUP
350
D
  3
ACAD_LAYOUT
350
1A
  3
ACAD_MLINESTYLE
350
17
  3
ACAD_PLOTSETTINGS
350
19
  3
ACAD_PLOTSTYLENAME
350
E
  3
ACAD_SCALELIST
350
47
  3
DWGPROPS
350
239
  0
DICTIONARY
  5
D
102
{ACAD_REACTORS
330
C
102
}
330
C
100
AcDbDictionary
281
     1
  0
DICTIONARY
  5
1A
102
{ACAD_REACTORS
330
C
102
}
330
C
100
AcDbDictionary
281
     1
  3
Layout1
350
1E
  3
Layout2
350
26
  3
Model
350
22
  0
DICTIONARY
  5
17
102
{ACAD_REACTORS
330
C
102
}
330
C
100
AcDbDictionary
281
     1
  3
Standard
350
18
  0
DICTIONARY
  5
19
102
{ACAD_REACTORS
330
C
102
}
330
C
100
AcDbDictionary
281
     1
  0
ACDBDICTIONARYWDFLT
  5
E
102
{ACAD_REACTORS
330
C
102
}
330
C
100
AcDbDictionary
281
     1
  3
Normal
350
F
100
AcDbDictionaryWithDefault
340
F
  0
DICTIONARY
  5
47
102
{ACAD_REACTORS
330
C
102
}
330
C
100
AcDbDictionary
281
     1
  3
A0
350
48
  3
A1
350
49
  3
A2
350
4A
  3
A3
350
4B
  3
A4
350
4C
  3
A5
350
4D
  3
A6
350
4E
  3
A7
350
4F
  3
A8
350
50
  3
A9
350
51
  3
B0
350
52
  3
B1
350
53
  3
B2
350
54
  3
B3
350
55
  3
B4
350
56
  3
B5
350
57
  3
B6
350
58
  3
B7
350
59
  3
B8
350
5A
  3
B9
350
5B
  3
C0
350
5C
  3
C1
350
5D
  3
C2
350
5E
  3
C3
350
5F
  3
C4
350
60
  3
C5
350
61
  3
C6
350
62
  3
C7
350
63
  3
C8
350
64
  3
C9
350
65
  3
D0
350
66
  3
D1
350
67
  3
D2
350
68
  0
XRECORD
  5
239
102
{ACAD_REACTORS
330
C
102
}
330
C
100
AcDbXrecord
280
     1
  1
DWGPROPS COOKIE
  2

  3

  4

  6

  7

  8
radek.stransky
  9

300
=
301
=
302
=
303
=
304
=
305
=
306
=
307
=
308
=
309
=
 40
0.0
 41
2459104.433343704
 42
2459104.433343889
  1

 90
        0
  0
LAYOUT
  5
1E
102
{ACAD_REACTORS
330
1A
102
}
330
1A
100
AcDbPlotSettings
  1

  2
none_device
  4

  6

 40
0.0
 41
0.0
 42
0.0
 43
0.0
 44
0.0
 45
0.0
 46
0.0
 47
0.0
 48
0.0
 49
0.0
140
0.0
141
0.0
142
1.0
143
1.0
 70
   688
 72
     1
 73
     0
 74
     5
  7

 75
    16
147
1.0
148
0.0
149
0.0
100
AcDbLayout
  1
Layout1
 70
     1
 71
     1
 10
0.0
 20
0.0
 11
420.0
 21
297.0
 12
0.0
 22
0.0
 32
0.0
 14
1.0000000000E+20
 24
1.0000000000E+20
 34
1.0000000000E+20
 15
-1.0000000000E+20
 25
-1.0000000000E+20
 35
-1.0000000000E+20
146
0.0
 13
0.0
 23
0.0
 33
0.0
 16
1.0
 26
0.0
 36
0.0
 17
0.0
 27
1.0
 37
0.0
 76
     0
330
1B
  0
LAYOUT
  5
26
102
{ACAD_REACTORS
330
1A
102
}
330
1A
100
AcDbPlotSettings
  1

  2
none_device
  4

  6

 40
0.0
 41
0.0
 42
0.0
 43
0.0
 44
0.0
 45
0.0
 46
0.0
 47
0.0
 48
0.0
 49
0.0
140
0.0
141
0.0
142
1.0
143
1.0
 70
   688
 72
     1
 73
     0
 74
     5
  7

 75
    16
147
1.0
148
0.0
149
0.0
100
AcDbLayout
  1
Layout2
 70
     1
 71
     2
 10
0.0
 20
0.0
 11
0.0
 21
0.0
 12
0.0
 22
0.0
 32
0.0
 14
0.0
 24
0.0
 34
0.0
 15
0.0
 25
0.0
 35
0.0
146
0.0
 13
0.0
 23
0.0
 33
0.0
 16
1.0
 26
0.0
 36
0.0
 17
0.0
 27
1.0
 37
0.0
 76
     0
330
23
  0
LAYOUT
  5
22
102
{ACAD_REACTORS
330
1A
102
}
330
1A
100
AcDbPlotSettings
  1

  2
none_device
  4
Letter_(8.50_x_11.00_Inches)
  6

 40
6.35
 41
6.35
 42
6.35000508
 43
6.35000508
 44
215.9
 45
279.4
 46
0.0
 47
0.0
 48
0.0
 49
0.0
140
0.0
141
0.0
142
1.0
143
1.0
 70
  1712
 72
     1
 73
     0
 74
     0
  7

 75
     0
147
1.0
148
0.0
149
0.0
100
AcDbLayout
  1
Model
 70
     1
 71
     0
 10
0.0
 20
0.0
 11
20000.0
 21
10000.0
 12
0.0
 22
0.0
 32
0.0
 14
0.0
 24
0.0
 34
0.0
 15
20000.0
 25
10000.0
 35
0.0
146
0.0
 13
0.0
 23
0.0
 33
0.0
 16
1.0
 26
0.0
 36
0.0
 17
0.0
 27
1.0
 37
0.0
 76
     0
330
1F
331
29
  0
MLINESTYLE
  5
18
102
{ACAD_REACTORS
330
17
102
}
330
17
100
AcDbMlineStyle
  2
Standard
 70
     0
  3

 62
   256
 51
90.0
 52
90.0
 71
     2
 49
0.5
 62
   256
  6
BYLAYER
 49
-0.5
 62
   256
  6
BYLAYER
  0
ACDBPLACEHOLDER
  5
F
102
{ACAD_REACTORS
330
E
102
}
330
E
  0
SCALE
  5
48
102
{ACAD_REACTORS
330
47
102
}
330
47
100
AcDbScale
 70
     0
300
1:1
140
1.0
141
1.0
290
     1
  0
SCALE
  5
49
102
{ACAD_REACTORS
330
47
102
}
330
47
100
AcDbScale
 70
     0
300
1:2
140
1.0
141
2.0
290
     0
  0
SCALE
  5
4A
102
{ACAD_REACTORS
330
47
102
}
330
47
100
AcDbScale
 70
     0
300
1:4
140
1.0
141
4.0
290
     0
  0
SCALE
  5
4B
102
{ACAD_REACTORS
330
47
102
}
330
47
100
AcDbScale
 70
     0
300
1:5
140
1.0
141
5.0
290
     0
  0
SCALE
  5
4C
102
{ACAD_REACTORS
330
47
102
}
330
47
100
AcDbScale
 70
     0
300
1:8
140
1.0
141
8.0
290
     0
  0
SCALE
  5
4D
102
{ACAD_REACTORS
330
47
102
}
330
47
100
AcDbScale
 70
     0
300
1:10
140
1.0
141
10.0
290
     0
  0
SCALE
  5
4E
102
{ACAD_REACTORS
330
47
102
}
330
47
100
AcDbScale
 70
     0
300
1:16
140
1.0
141
16.0
290
     0
  0
SCALE
  5
4F
102
{ACAD_REACTORS
330
47
102
}
330
47
100
AcDbScale
 70
     0
300
1:20
140
1.0
141
20.0
290
     0
  0
SCALE
  5
50
102
{ACAD_REACTORS
330
47
102
}
330
47
100
AcDbScale
 70
     0
300
1:30
140
1.0
141
30.0
290
     0
  0
SCALE
  5
51
102
{ACAD_REACTORS
330
47
102
}
330
47
100
AcDbScale
 70
     0
300
1:40
140
1.0
141
40.0
290
     0
  0
SCALE
  5
52
102
{ACAD_REACTORS
330
47
102
}
330
47
100
AcDbScale
 70
     0
300
1:50
140
1.0
141
50.0
290
     0
  0
SCALE
  5
53
102
{ACAD_REACTORS
330
47
102
}
330
47
100
AcDbScale
 70
     0
300
1:100
140
1.0
141
100.0
290
     0
  0
SCALE
  5
54
102
{ACAD_REACTORS
330
47
102
}
330
47
100
AcDbScale
 70
     0
300
2:1
140
2.0
141
1.0
290
     0
  0
SCALE
  5
55
102
{ACAD_REACTORS
330
47
102
}
330
47
100
AcDbScale
 70
     0
300
4:1
140
4.0
141
1.0
290
     0
  0
SCALE
  5
56
102
{ACAD_REACTORS
330
47
102
}
330
47
100
AcDbScale
 70
     0
300
8:1
140
8.0
141
1.0
290
     0
  0
SCALE
  5
57
102
{ACAD_REACTORS
330
47
102
}
330
47
100
AcDbScale
 70
     0
300
10:1
140
10.0
141
1.0
290
     0
  0
SCALE
  5
58
102
{ACAD_REACTORS
330
47
102
}
330
47
100
AcDbScale
 70
     0
300
100:1
140
100.0
141
1.0
290
     0
  0
SCALE
  5
59
102
{ACAD_REACTORS
330
47
102
}
330
47
100
AcDbScale
 70
     0
300
1/128" = 1'-0"
140
0.0078125
141
12.0
290
     0
  0
SCALE
  5
5A
102
{ACAD_REACTORS
330
47
102
}
330
47
100
AcDbScale
 70
     0
300
1/64" = 1'-0"
140
0.015625
141
12.0
290
     0
  0
SCALE
  5
5B
102
{ACAD_REACTORS
330
47
102
}
330
47
100
AcDbScale
 70
     0
300
1/32" = 1'-0"
140
0.03125
141
12.0
290
     0
  0
SCALE
  5
5C
102
{ACAD_REACTORS
330
47
102
}
330
47
100
AcDbScale
 70
     0
300
1/16" = 1'-0"
140
0.0625
141
12.0
290
     0
  0
SCALE
  5
5D
102
{ACAD_REACTORS
330
47
102
}
330
47
100
AcDbScale
 70
     0
300
3/32" = 1'-0"
140
0.09375
141
12.0
290
     0
  0
SCALE
  5
5E
102
{ACAD_REACTORS
330
47
102
}
330
47
100
AcDbScale
 70
     0
300
1/8" = 1'-0"
140
0.125
141
12.0
290
     0
  0
SCALE
  5
5F
102
{ACAD_REACTORS
330
47
102
}
330
47
100
AcDbScale
 70
     0
300
3/16" = 1'-0"
140
0.1875
141
12.0
290
     0
  0
SCALE
  5
60
102
{ACAD_REACTORS
330
47
102
}
330
47
100
AcDbScale
 70
     0
300
1/4" = 1'-0"
140
0.25
141
12.0
290
     0
  0
SCALE
  5
61
102
{ACAD_REACTORS
330
47
102
}
330
47
100
AcDbScale
 70
     0
300
3/8" = 1'-0"
140
0.375
141
12.0
290
     0
  0
SCALE
  5
62
102
{ACAD_REACTORS
330
47
102
}
330
47
100
AcDbScale
 70
     0
300
1/2" = 1'-0"
140
0.5
141
12.0
290
     0
  0
SCALE
  5
63
102
{ACAD_REACTORS
330
47
102
}
330
47
100
AcDbScale
 70
     0
300
3/4" = 1'-0"
140
0.75
141
12.0
290
     0
  0
SCALE
  5
64
102
{ACAD_REACTORS
330
47
102
}
330
47
100
AcDbScale
 70
     0
300
1" = 1'-0"
140
1.0
141
12.0
290
     0
  0
SCALE
  5
65
102
{ACAD_REACTORS
330
47
102
}
330
47
100
AcDbScale
 70
     0
300
1-1/2" = 1'-0"
140
1.5
141
12.0
290
     0
  0
SCALE
  5
66
102
{ACAD_REACTORS
330
47
102
}
330
47
100
AcDbScale
 70
     0
300
3" = 1'-0"
140
3.0
141
12.0
290
     0
  0
SCALE
  5
67
102
{ACAD_REACTORS
330
47
102
}
330
47
100
AcDbScale
 70
     0
300
6" = 1'-0"
140
6.0
141
12.0
290
     0
  0
SCALE
  5
68
102
{ACAD_REACTORS
330
47
102
}
330
47
100
AcDbScale
 70
     0
300
1'-0" = 1'-0"
140
12.0
141
12.0
290
     0
  0
ENDSEC
  0
EOF
