  0
SECTION
  2
HEADER
  9
$ACADVER
  1
AC1015
  9
$ACADMAINTVER
 70
     6
  9
$DWGCODEPAGE
  3
ANSI_1250
  9
$INSBASE
 10
0.0
 20
0.0
 30
0.0
  9
$EXTMIN
 10
6176.5187422946
 20
4771.4622833933
 30
0.0
  9
$EXTMAX
 10
6733.0974773487
 20
5339.6884617225
 30
0.0
  9
$LIMMIN
 10
0.0
 20
0.0
  9
$LIMMAX
 10
420.0
 20
297.0
  9
$ORTHOMODE
 70
     0
  9
$REGENMODE
 70
     1
  9
$FILLMODE
 70
     1
  9
$QTEXTMODE
 70
     0
  9
$MIRRTEXT
 70
     1
  9
$LTSCALE
 40
1.0
  9
$ATTMODE
 70
     1
  9
$TEXTSIZE
 40
3.5
  9
$TRACEWID
 40
1.0
  9
$TEXTSTYLE
  7
Standard
  9
$CLAYER
  8
0
  9
$CELTYPE
  6
ByLayer
  9
$CECOLOR
 62
   256
  9
$CELTSCALE
 40
1.0
  9
$DISPSILH
 70
     0
  9
$DIMSCALE
 40
1.0
  9
$DIMASZ
 40
3.302
  9
$DIMEXO
 40
0.0
  9
$DIMDLI
 40
3.75
  9
$DIMRND
 40
0.0
  9
$DIMDLE
 40
0.0
  9
$DIMEXE
 40
1.0
  9
$DIMTP
 40
0.0
  9
$DIMTM
 40
0.0
  9
$DIMTXT
 40
3.5
  9
$DIMCEN
 40
2.5
  9
$DIMTSZ
 40
0.0
  9
$DIMTOL
 70
     0
  9
$DIMLIM
 70
     0
  9
$DIMTIH
 70
     1
  9
$DIMTOH
 70
     1
  9
$DIMSE1
 70
     0
  9
$DIMSE2
 70
     0
  9
$DIMTAD
 70
     1
  9
$DIMZIN
 70
     0
  9
$DIMBLK
  1

  9
$DIMASO
 70
     1
  9
$DIMSHO
 70
     1
  9
$DIMPOST
  1

  9
$DIMAPOST
  1

  9
$DIMALT
 70
     0
  9
$DIMALTD
 70
     3
  9
$DIMALTF
 40
0.0393700787
  9
$DIMLFAC
 40
1.0
  9
$DIMTOFL
 70
     1
  9
$DIMTVP
 40
0.0
  9
$DIMTIX
 70
     0
  9
$DIMSOXD
 70
     0
  9
$DIMSAH
 70
     0
  9
$DIMBLK1
  1

  9
$DIMBLK2
  1

  9
$DIMSTYLE
  2
ISO-25
  9
$DIMCLRD
 70
     0
  9
$DIMCLRE
 70
     0
  9
$DIMCLRT
 70
     0
  9
$DIMTFAC
 40
1.0
  9
$DIMGAP
 40
1.524
  9
$DIMJUST
 70
     0
  9
$DIMSD1
 70
     0
  9
$DIMSD2
 70
     0
  9
$DIMTOLJ
 70
     0
  9
$DIMTZIN
 70
     0
  9
$DIMALTZ
 70
     0
  9
$DIMALTTZ
 70
     0
  9
$DIMUPT
 70
     0
  9
$DIMDEC
 70
     2
  9
$DIMTDEC
 70
     2
  9
$DIMALTU
 70
     2
  9
$DIMALTTD
 70
     3
  9
$DIMTXSTY
  7
Standard
  9
$DIMAUNIT
 70
     0
  9
$DIMADEC
 70
     2
  9
$DIMALTRND
 40
0.0
  9
$DIMAZIN
 70
     0
  9
$DIMDSEP
 70
    44
  9
$DIMATFIT
 70
     3
  9
$DIMFRAC
 70
     0
  9
$DIMLDRBLK
  1

  9
$DIMLUNIT
 70
     2
  9
$DIMLWD
 70
    -2
  9
$DIMLWE
 70
    -2
  9
$DIMTMOVE
 70
     0
  9
$LUNITS
 70
     2
  9
$LUPREC
 70
     2
  9
$SKETCHINC
 40
1.0
  9
$FILLETRAD
 40
10.0
  9
$AUNITS
 70
     0
  9
$AUPREC
 70
     2
  9
$MENU
  1
.
  9
$ELEVATION
 40
0.0
  9
$PELEVATION
 40
0.0
  9
$THICKNESS
 40
0.0
  9
$LIMCHECK
 70
     0
  9
$CHAMFERA
 40
0.0
  9
$CHAMFERB
 40
0.0
  9
$CHAMFERC
 40
0.0
  9
$CHAMFERD
 40
0.0
  9
$SKPOLY
 70
     0
  9
$TDCREATE
 40
2459103.455570116
  9
$TDUCREATE
 40
2459103.372236782
  9
$TDUPDATE
 40
2459103.455632106
  9
$TDUUPDATE
 40
2459103.372298773
  9
$TDINDWG
 40
0.0000000116
  9
$TDUSRTIMER
 40
0.0000000116
  9
$USRTIMER
 70
     1
  9
$ANGBASE
 50
0.0
  9
$ANGDIR
 70
     0
  9
$PDMODE
 70
     0
  9
$PDSIZE
 40
-1.0
  9
$PLINEWID
 40
0.0
  9
$SPLFRAME
 70
     0
  9
$SPLINETYPE
 70
     6
  9
$SPLINESEGS
 70
     8
  9
$HANDSEED
  5
4AF
  9
$SURFTAB1
 70
     6
  9
$SURFTAB2
 70
     6
  9
$SURFTYPE
 70
     6
  9
$SURFU
 70
     6
  9
$SURFV
 70
     6
  9
$UCSBASE
  2

  9
$UCSNAME
  2

  9
$UCSORG
 10
0.0
 20
0.0
 30
0.0
  9
$UCSXDIR
 10
1.0
 20
0.0
 30
0.0
  9
$UCSYDIR
 10
0.0
 20
1.0
 30
0.0
  9
$UCSORTHOREF
  2

  9
$UCSORTHOVIEW
 70
     0
  9
$UCSORGTOP
 10
0.0
 20
0.0
 30
0.0
  9
$UCSORGBOTTOM
 10
0.0
 20
0.0
 30
0.0
  9
$UCSORGLEFT
 10
0.0
 20
0.0
 30
0.0
  9
$UCSORGRIGHT
 10
0.0
 20
0.0
 30
0.0
  9
$UCSORGFRONT
 10
0.0
 20
0.0
 30
0.0
  9
$UCSORGBACK
 10
0.0
 20
0.0
 30
0.0
  9
$PUCSBASE
  2

  9
$PUCSNAME
  2

  9
$PUCSORG
 10
0.0
 20
0.0
 30
0.0
  9
$PUCSXDIR
 10
1.0
 20
0.0
 30
0.0
  9
$PUCSYDIR
 10
0.0
 20
1.0
 30
0.0
  9
$PUCSORTHOREF
  2

  9
$PUCSORTHOVIEW
 70
     0
  9
$PUCSORGTOP
 10
0.0
 20
0.0
 30
0.0
  9
$PUCSORGBOTTOM
 10
0.0
 20
0.0
 30
0.0
  9
$PUCSORGLEFT
 10
0.0
 20
0.0
 30
0.0
  9
$PUCSORGRIGHT
 10
0.0
 20
0.0
 30
0.0
  9
$PUCSORGFRONT
 10
0.0
 20
0.0
 30
0.0
  9
$PUCSORGBACK
 10
0.0
 20
0.0
 30
0.0
  9
$USERI1
 70
     0
  9
$USERI2
 70
     0
  9
$USERI3
 70
     0
  9
$USERI4
 70
     0
  9
$USERI5
 70
     0
  9
$USERR1
 40
0.0
  9
$USERR2
 40
0.0
  9
$USERR3
 40
0.0
  9
$USERR4
 40
0.0
  9
$USERR5
 40
0.0
  9
$WORLDVIEW
 70
     1
  9
$SHADEDGE
 70
     3
  9
$SHADEDIF
 70
    70
  9
$TILEMODE
 70
     1
  9
$MAXACTVP
 70
    64
  9
$PINSBASE
 10
0.0
 20
0.0
 30
0.0
  9
$PLIMCHECK
 70
     0
  9
$PEXTMIN
 10
1.0000000000E+20
 20
1.0000000000E+20
 30
1.0000000000E+20
  9
$PEXTMAX
 10
-1.0000000000E+20
 20
-1.0000000000E+20
 30
-1.0000000000E+20
  9
$PLIMMIN
 10
0.0
 20
0.0
  9
$PLIMMAX
 10
420.0
 20
297.0
  9
$UNITMODE
 70
     0
  9
$VISRETAIN
 70
     1
  9
$PLINEGEN
 70
     0
  9
$PSLTSCALE
 70
     1
  9
$TREEDEPTH
 70
  3020
  9
$CMLSTYLE
  2
Standard
  9
$CMLJUST
 70
     0
  9
$CMLSCALE
 40
20.0
  9
$PROXYGRAPHICS
 70
     1
  9
$MEASUREMENT
 70
     1
  9
$CELWEIGHT
370
    -1
  9
$ENDCAPS
280
     0
  9
$JOINSTYLE
280
     0
  9
$LWDISPLAY
290
     1
  9
$INSUNITS
 70
     4
  9
$HYPERLINKBASE
  1

  9
$STYLESHEET
  1

  9
$XEDIT
290
     1
  9
$CEPSNTYPE
380
     0
  9
$PSTYLEMODE
290
     1
  9
$FINGERPRINTGUID
  2
{7f8b5eee-7f0d-4e0a-817b-da040b501568}
  9
$VERSIONGUID
  2
{FAEB1C32-E019-11D5-929B-00C0DF256EC4}
  9
$EXTNAMES
290
     1
  9
$PSVPSCALE
 40
0.0
  9
$OLESTARTUP
290
     0
  0
ENDSEC
  0
SECTION
  2
CLASSES
  0
CLASS
  1
ACDBDICTIONARYWDFLT
  2
AcDbDictionaryWithDefault
  3
ObjectDBX Classes
 90
        0
280
     0
281
     0
  0
CLASS
  1
VISUALSTYLE
  2
AcDbVisualStyle
  3
ObjectDBX Classes
 90
     4095
280
     0
281
     0
  0
CLASS
  1
MATERIAL
  2
AcDbMaterial
  3
ObjectDBX Classes
 90
     1153
280
     0
281
     0
  0
CLASS
  1
SCALE
  2
AcDbScale
  3
ObjectDBX Classes
 90
     1153
280
     0
281
     0
  0
CLASS
  1
TABLESTYLE
  2
AcDbTableStyle
  3
ObjectDBX Classes
 90
     4095
280
     0
281
     0
  0
CLASS
  1
MLEADERSTYLE
  2
AcDbMLeaderStyle
  3
ACDB_MLEADERSTYLE_CLASS
 90
     4095
280
     0
281
     0
  0
CLASS
  1
SUN
  2
AcDbSun
  3
SCENEOE
 90
     1153
280
     0
281
     0
  0
CLASS
  1
ACDBPLACEHOLDER
  2
AcDbPlaceHolder
  3
ObjectDBX Classes
 90
        0
280
     0
281
     0
  0
CLASS
  1
LAYOUT
  2
AcDbLayout
  3
ObjectDBX Classes
 90
        0
280
     0
281
     0
  0
ENDSEC
  0
SECTION
  2
TABLES
  0
TABLE
  2
VPORT
  5
8
330
0
100
AcDbSymbolTable
 70
     1
  0
VPORT
  5
29
330
8
100
AcDbSymbolTableRecord
100
AcDbViewportTableRecord
  2
*Active
 70
     0
 10
0.0
 20
0.0
 11
1.0
 21
1.0
 12
6454.8081098217
 22
5055.5753725579
 13
0.0
 23
0.0
 14
10.0
 24
10.0
 15
10.0
 25
10.0
 16
0.0
 26
0.0
 36
1.0
 17
0.0
 27
0.0
 37
0.0
 40
579.5907018958
 41
0.9795021002
 42
50.0
 43
0.0
 44
0.0
 50
0.0
 51
0.0
 71
     0
 72
   100
 73
     1
 74
     3
 75
     0
 76
     0
 77
     0
 78
     0
281
     0
 65
     1
110
0.0
120
0.0
130
0.0
111
1.0
121
0.0
131
0.0
112
0.0
122
1.0
132
0.0
 79
     0
146
0.0
  0
ENDTAB
  0
TABLE
  2
LTYPE
  5
5
330
0
100
AcDbSymbolTable
 70
     6
  0
LTYPE
  5
14
330
5
100
AcDbSymbolTableRecord
100
AcDbLinetypeTableRecord
  2
ByBlock
 70
     0
  3

 72
    65
 73
     0
 40
0.0
  0
LTYPE
  5
15
330
5
100
AcDbSymbolTableRecord
100
AcDbLinetypeTableRecord
  2
ByLayer
 70
     0
  3

 72
    65
 73
     0
 40
0.0
  0
LTYPE
  5
16
330
5
100
AcDbSymbolTableRecord
100
AcDbLinetypeTableRecord
  2
Continuous
 70
     0
  3
Solid line
 72
    65
 73
     0
 40
0.0
  0
LTYPE
  5
6E
330
5
100
AcDbSymbolTableRecord
100
AcDbLinetypeTableRecord
  2
HIDDEN
 70
     0
  3
Hidden __ __ __ __ __ __ __ __ __ __ __ __ __ __
 72
    65
 73
     2
 40
1.905
 49
1.27
 74
     0
 49
-0.635
 74
     0
  0
LTYPE
  5
6F
330
5
100
AcDbSymbolTableRecord
100
AcDbLinetypeTableRecord
  2
PHANTOM
 70
     0
  3
Phantom ______  __  __  ______  __  __  ______
 72
    65
 73
     6
 40
12.7
 49
6.35
 74
     0
 49
-1.27
 74
     0
 49
1.27
 74
     0
 49
-1.27
 74
     0
 49
1.27
 74
     0
 49
-1.27
 74
     0
  0
LTYPE
  5
70
330
5
100
AcDbSymbolTableRecord
100
AcDbLinetypeTableRecord
  2
CENTER
 70
     0
  3
Center ____ _ ____ _ ____ _ ____ _ ____ _ ____
 72
    65
 73
     4
 40
10.16
 49
6.35
 74
     0
 49
-1.27
 74
     0
 49
1.27
 74
     0
 49
-1.27
 74
     0
  0
LTYPE
  5
71
330
5
100
AcDbSymbolTableRecord
100
AcDbLinetypeTableRecord
  2
CENTERX2
 70
     0
  3
Center (2x) ________  __  ________  __  _____
 72
    65
 73
     4
 40
20.32
 49
12.7
 74
     0
 49
-2.54
 74
     0
 49
2.54
 74
     0
 49
-2.54
 74
     0
  0
LTYPE
  5
72
330
5
100
AcDbSymbolTableRecord
100
AcDbLinetypeTableRecord
  2
DOT2
 70
     0
  3
Dot (.5x) ........................................
 72
    65
 73
     2
 40
0.635
 49
0.0
 74
     0
 49
-0.635
 74
     0
  0
ENDTAB
  0
TABLE
  2
LAYER
  5
2
330
0
100
AcDbSymbolTable
 70
     1
  0
LAYER
  5
10
330
2
100
AcDbSymbolTableRecord
100
AcDbLayerTableRecord
  2
0
 70
     0
 62
     7
  6
Continuous
370
    -3
390
F
  0
ENDTAB
  0
TABLE
  2
STYLE
  5
3
330
0
100
AcDbSymbolTable
 70
     1
  0
STYLE
  5
11
330
3
100
AcDbSymbolTableRecord
100
AcDbTextStyleTableRecord
  2
Standard
 70
     0
 40
0.0
 41
1.0
 50
0.0
 71
     0
 42
3.5
  3
txt
  4

  0
ENDTAB
  0
TABLE
  2
VIEW
  5
6
330
0
100
AcDbSymbolTable
 70
     0
  0
ENDTAB
  0
TABLE
  2
UCS
  5
7
330
0
100
AcDbSymbolTable
 70
     0
  0
ENDTAB
  0
TABLE
  2
APPID
  5
9
330
0
100
AcDbSymbolTable
 70
     1
  0
APPID
  5
12
330
9
100
AcDbSymbolTableRecord
100
AcDbRegAppTableRecord
  2
ACAD
 70
     0
  0
ENDTAB
  0
TABLE
  2
DIMSTYLE
  5
A
330
0
100
AcDbSymbolTable
 70
     1
100
AcDbDimStyleTable
  0
DIMSTYLE
105
27
330
A
100
AcDbSymbolTableRecord
100
AcDbDimStyleTableRecord
  2
ISO-25
 70
     0
 41
2.5
 42
0.625
 43
3.75
 44
1.25
 73
     0
 74
     0
 77
     1
 78
     8
140
2.5
141
2.5
143
0.0393700787
147
0.625
171
     3
172
     1
178
     0
271
     2
272
     2
274
     3
278
    44
283
     0
284
     8
340
11
  0
ENDTAB
  0
TABLE
  2
BLOCK_RECORD
  5
1
330
0
100
AcDbSymbolTable
 70
     1
  0
BLOCK_RECORD
  5
1F
330
1
100
AcDbSymbolTableRecord
100
AcDbBlockTableRecord
  2
*Model_Space
340
22
  0
BLOCK_RECORD
  5
1B
330
1
100
AcDbSymbolTableRecord
100
AcDbBlockTableRecord
  2
*Paper_Space
340
1E
  0
BLOCK_RECORD
  5
23
330
1
100
AcDbSymbolTableRecord
100
AcDbBlockTableRecord
  2
*Paper_Space0
340
26
  0
ENDTAB
  0
ENDSEC
  0
SECTION
  2
BLOCKS
  0
BLOCK
  5
20
330
1F
100
AcDbEntity
  8
0
100
AcDbBlockBegin
  2
*Model_Space
 70
     0
 10
0.0
 20
0.0
 30
0.0
  3
*Model_Space
  1

  0
ENDBLK
  5
21
330
1F
100
AcDbEntity
  8
0
100
AcDbBlockEnd
  0
BLOCK
  5
1C
330
1B
100
AcDbEntity
 67
     1
  8
0
100
AcDbBlockBegin
  2
*Paper_Space
 70
     0
 10
0.0
 20
0.0
 30
0.0
  3
*Paper_Space
  1

  0
ENDBLK
  5
1D
330
1B
100
AcDbEntity
 67
     1
  8
0
100
AcDbBlockEnd
  0
BLOCK
  5
24
330
23
100
AcDbEntity
  8
0
100
AcDbBlockBegin
  2
*Paper_Space0
 70
     0
 10
0.0
 20
0.0
 30
0.0
  3
*Paper_Space0
  1

  0
ENDBLK
  5
25
330
23
100
AcDbEntity
  8
0
100
AcDbBlockEnd
  0
ENDSEC
  0
SECTION
  2
ENTITIES
  0
ARC
  5
73
330
1F
100
AcDbEntity
  8
0
  6
Continuous
 62
     7
100
AcDbCircle
 10
6273.2637424231
 20
5174.2408974947
 30
0.0
 40
7.311104705565925
100
AcDbArc
 50
273.151576913
 51
304.7727108174
  0
ARC
  5
74
330
1F
100
AcDbEntity
  8
0
  6
Continuous
 62
     7
100
AcDbCircle
 10
6274.263841173
 20
5174.2274452378
 30
0.0
 40
7.311104705566211
100
AcDbArc
 50
233.6859085429
 51
265.3071531634
  0
CIRCLE
  5
75
330
1F
100
AcDbEntity
  8
0
  6
Continuous
 62
     7
100
AcDbCircle
 10
6333.4386933361
 20
5181.3749118228
 30
0.0
 40
0.5814415000004374
  0
CIRCLE
  5
76
330
1F
100
AcDbEntity
  8
0
  6
Continuous
 62
     7
100
AcDbCircle
 10
6333.4386933361
 20
5181.3749118228
 30
0.0
 40
0.505037099999754
  0
ARC
  5
77
330
1F
100
AcDbEntity
  8
0
  6
Continuous
 62
     7
100
AcDbCircle
 10
6349.018747063
 20
5315.1884695904
 30
0.0
 40
10.00000000000091
100
AcDbArc
 50
0.0000546412
 51
89.9999453588
  0
ARC
  5
78
330
1F
100
AcDbEntity
  8
0
  6
Continuous
 62
     7
100
AcDbCircle
 10
6199.018760176
 20
5315.1884695904
 30
0.0
 40
10.00000000000091
100
AcDbArc
 50
90.0000546412
 51
179.9999453588
  0
ARC
  5
79
330
1F
100
AcDbEntity
  8
0
  6
Continuous
 62
     7
100
AcDbCircle
 10
6199.018760176
 20
5165.1884827034
 30
0.0
 40
10.0
100
AcDbArc
 50
180.0000546418
 51
269.9999453588
  0
ARC
  5
7A
330
1F
100
AcDbEntity
  8
0
  6
Continuous
 62
     7
100
AcDbCircle
 10
6349.018747063
 20
5165.1884827034
 30
0.0
 40
10.00000000000091
100
AcDbArc
 50
270.0000546412
 51
359.9999453582
  0
CIRCLE
  5
7B
330
1F
100
AcDbEntity
  8
0
  6
Continuous
 62
     7
100
AcDbCircle
 10
6274.0187553361
 20
5193.1884757228
 30
0.0
 40
26.94999999999982
  0
CIRCLE
  5
7C
330
1F
100
AcDbEntity
  8
0
  6
Continuous
 62
     7
100
AcDbCircle
 10
6274.0187553361
 20
5193.1884757228
 30
0.0
 40
28.44999999999982
  0
CIRCLE
  5
7D
330
1F
100
AcDbEntity
  8
0
  6
Continuous
 62
     7
100
AcDbCircle
 10
6274.0187553361
 20
5193.1884757228
 30
0.0
 40
24.55000000000018
  0
ARC
  5
7E
330
1F
100
AcDbEntity
  8
0
  6
Continuous
 62
     7
100
AcDbCircle
 10
6638.8474828463
 20
5158.2884769336
 30
0.0
 40
0.8000000000002051
100
AcDbArc
 50
179.9990301113
 51
269.999902677
  0
ARC
  5
7F
330
1F
100
AcDbEntity
  8
0
  6
Continuous
 62
     7
100
AcDbCircle
 10
6650.447482775
 20
5158.2884769336
 30
0.0
 40
0.799999999999517
100
AcDbArc
 50
270.0000973228
 51
0.0009698887
  0
ARC
  5
80
330
1F
100
AcDbEntity
  8
0
  6
Continuous
 62
     7
100
AcDbCircle
 10
6690.1974745972
 20
5166.2384879009
 30
0.0
 40
1.500000000001937
100
AcDbArc
 50
270.0001684754
 51
359.99926234
  0
ARC
  5
81
330
1F
100
AcDbEntity
  8
0
  6
Continuous
 62
     7
100
AcDbCircle
 10
6690.1974745971
 20
5220.1384825126
 30
0.0
 40
1.500000000001028
100
AcDbArc
 50
359.9995992961
 51
89.9998315213
  0
ARC
  5
82
330
1F
100
AcDbEntity
  8
0
  6
Continuous
 62
     7
100
AcDbCircle
 10
6702.0170329169
 20
5192.2282272026
 30
0.0
 40
31.09527461368275
100
AcDbArc
 50
1.7696237257
 51
55.1237942078
  0
ARC
  5
83
330
1F
100
AcDbEntity
  8
0
  6
Continuous
 62
     7
100
AcDbCircle
 10
6702.0170325748
 20
5194.1487131701
 30
0.0
 40
31.09527461368382
100
AcDbArc
 50
304.8762065606
 51
358.2303966866
  0
ARC
  5
84
330
1F
100
AcDbEntity
  8
0
  6
Continuous
 62
     7
100
AcDbCircle
 10
6679.3974803669
 20
5165.1884827034
 30
0.0
 40
10.00000000000091
100
AcDbArc
 50
269.9999692637
 51
359.9999453582
  0
ARC
  5
85
330
1F
100
AcDbEntity
  8
0
  6
Continuous
 62
     7
100
AcDbCircle
 10
6679.3974803669
 20
5315.1884695904
 30
0.0
 40
10.00000000000091
100
AcDbArc
 50
0.0000546413
 51
90.0000307363
  0
ARC
  5
86
330
1F
100
AcDbEntity
  8
0
  6
Continuous
 62
     7
100
AcDbCircle
 10
6624.9514458822
 20
5188.4434263545
 30
0.0
 40
0.8500000000004103
100
AcDbArc
 50
14.9215148185
 51
85.5839733432
  0
ARC
  5
87
330
1F
100
AcDbEntity
  8
0
  6
Continuous
 62
     7
100
AcDbCircle
 10
6631.9248312075
 20
5187.8105777639
 30
0.0
 40
0.8500000000011435
100
AcDbArc
 50
84.0450240863
 51
153.6031564101
  0
ARC
  5
88
330
1F
100
AcDbEntity
  8
0
  6
Continuous
 62
     7
100
AcDbCircle
 10
6713.0995631645
 20
5068.2905951491
 30
0.0
 40
100.0645299971525
100
AcDbArc
 50
87.8538371352
 51
92.1484400265
  0
ARC
  5
89
330
1F
100
AcDbEntity
  8
0
  6
Continuous
 62
     7
100
AcDbCircle
 10
6713.0974792225
 20
5065.9606678301
 30
0.0
 40
102.7484713027504
100
AcDbArc
 50
87.9084195259
 51
92.0915804741
  0
CIRCLE
  5
8A
330
1F
100
AcDbEntity
  8
0
  6
Continuous
 62
     7
100
AcDbCircle
 10
6628.8974743474
 20
5193.1884784081
 30
0.0
 40
5.499999999999326
  0
CIRCLE
  5
8B
330
1F
100
AcDbEntity
  8
0
  6
Continuous
 62
     7
100
AcDbCircle
 10
6628.8974743474
 20
5193.1884784081
 30
0.0
 40
9.49999999999889
  0
ARC
  5
8C
330
1F
100
AcDbEntity
  8
0
  6
Continuous
 62
     7
100
AcDbCircle
 10
6628.8974743474
 20
5193.1884784081
 30
0.0
 40
13.22049715231929
100
AcDbArc
 50
3.1796851704
 51
93.1797245654
  0
CIRCLE
  5
8D
330
1F
100
AcDbEntity
  8
0
  6
Continuous
 62
     7
100
AcDbCircle
 10
6628.8974743474
 20
5193.1884784081
 30
0.0
 40
11.72050000000028
  0
CIRCLE
  5
8E
330
1F
100
AcDbEntity
  8
0
  6
Continuous
 62
     7
100
AcDbCircle
 10
6628.8974743474
 20
5193.1884784081
 30
0.0
 40
9.750000000000924
  0
ARC
  5
8F
330
1F
100
AcDbEntity
  8
0
  6
Continuous
 62
     7
100
AcDbCircle
 10
6611.8974773487
 20
5318.1884757228
 30
0.0
 40
1.000000000000909
100
AcDbArc
 50
90.0
 51
180.0
  0
ARC
  5
90
330
1F
100
AcDbEntity
  8
0
  6
Continuous
 62
     7
100
AcDbCircle
 10
6611.8974773487
 20
5318.1884757228
 30
0.0
 40
2.00000163100741
100
AcDbArc
 50
89.9999306119
 51
180.0001551912
  0
ARC
  5
91
330
1F
100
AcDbEntity
  8
0
  6
Continuous
 62
     7
100
AcDbCircle
 10
6611.8974773487
 20
5161.1884757228
 30
0.0
 40
0.9999999999990905
100
AcDbArc
 50
180.0
 51
270.0
  0
ARC
  5
92
330
1F
100
AcDbEntity
  8
0
  6
Continuous
 62
     7
100
AcDbCircle
 10
6611.8974757177
 20
5161.1884610073
 30
0.0
 40
1.999999999999559
100
AcDbArc
 50
179.9998838871
 51
270.0001161129
  0
ARC
  5
93
330
1F
100
AcDbEntity
  8
0
  6
Continuous
 62
     7
100
AcDbCircle
 10
6677.8974643709
 20
5161.1884610072
 30
0.0
 40
1.999999999999269
100
AcDbArc
 50
270.0004309294
 51
318.5909399813
  0
ARC
  5
94
330
1F
100
AcDbEntity
  8
0
  6
Continuous
 62
     7
100
AcDbCircle
 10
6677.8974814398
 20
5161.1884757228
 30
0.0
 40
1.000000000001364
100
AcDbArc
 50
269.9997655998
 51
359.9993890899
  0
ARC
  5
95
330
1F
100
AcDbEntity
  8
0
  6
Continuous
 62
     7
100
AcDbCircle
 10
6677.8974814397
 20
5318.1884757228
 30
0.0
 40
1.00000000000194
100
AcDbArc
 50
359.9996896169
 51
90.0002343978
  0
ARC
  5
96
330
1F
100
AcDbEntity
  8
0
  6
Continuous
 62
     7
100
AcDbCircle
 10
6677.8974814397
 20
5318.1884757228
 30
0.0
 40
2.000001630998785
100
AcDbArc
 50
41.4096996289
 51
90.0000580553
  0
ARC
  5
97
330
1F
100
AcDbEntity
  8
0
  6
Continuous
 62
     7
100
AcDbCircle
 10
6247.0687563136
 20
4814.3622861449
 30
0.0
 40
1.500000000000118
100
AcDbArc
 50
180.0001684749
 51
270.000400704
  0
ARC
  5
98
330
1F
100
AcDbEntity
  8
0
  6
Continuous
 62
     7
100
AcDbCircle
 10
6300.9687509254
 20
4814.3622861449
 30
0.0
 40
1.500000000001028
100
AcDbArc
 50
269.999599296
 51
359.9998315251
  0
ARC
  5
99
330
1F
100
AcDbEntity
  8
0
  6
Continuous
 62
     7
100
AcDbCircle
 10
6273.058525827
 20
4802.5427284125
 30
0.0
 40
31.09527461368431
100
AcDbArc
 50
271.7695886794
 51
325.1237928888
  0
ARC
  5
9A
330
1F
100
AcDbEntity
  8
0
  6
Continuous
 62
     7
100
AcDbCircle
 10
6274.9789813364
 20
4802.5427285209
 30
0.0
 40
31.09527461368452
100
AcDbArc
 50
214.8762073546
 51
268.2304177889
  0
ARC
  5
9B
330
1F
100
AcDbEntity
  8
0
  6
Continuous
 62
     7
100
AcDbCircle
 10
6199.018760176
 20
4825.1622803752
 30
0.0
 40
10.00000000000053
100
AcDbArc
 50
179.9999692642
 51
269.9999453587
  0
ARC
  5
9C
330
1F
100
AcDbEntity
  8
0
  6
Continuous
 62
     7
100
AcDbCircle
 10
6349.018747063
 20
4825.1622803752
 30
0.0
 40
10.0
100
AcDbArc
 50
270.0000546413
 51
0.0000307358
  0
CIRCLE
  5
9D
330
1F
100
AcDbEntity
  8
0
  6
Continuous
 62
     7
100
AcDbCircle
 10
6274.0187483708
 20
4875.662284851
 30
0.0
 40
7.499999999999676
  0
CIRCLE
  5
9E
330
1F
100
AcDbEntity
  8
0
  6
Continuous
 62
     7
100
AcDbCircle
 10
6274.0187483708
 20
4875.662284851
 30
0.0
 40
7.200000000000405
  0
CIRCLE
  5
9F
330
1F
100
AcDbEntity
  8
0
  6
Continuous
 62
     7
100
AcDbCircle
 10
6274.0187483708
 20
4875.662284851
 30
0.0
 40
3.999999999999564
  0
CIRCLE
  5
A0
330
1F
100
AcDbEntity
  8
0
  6
Continuous
 62
     7
100
AcDbCircle
 10
6274.0187483708
 20
4875.662284851
 30
0.0
 40
9.299999999999844
  0
CIRCLE
  5
A1
330
1F
100
AcDbEntity
  8
0
  6
Continuous
 62
     7
100
AcDbCircle
 10
6274.0187483708
 20
4875.662284851
 30
0.0
 40
7.800000000000082
  0
ARC
  5
A2
330
1F
100
AcDbEntity
  8
0
  6
Continuous
 62
     7
100
AcDbCircle
 10
6274.0187483708
 20
4875.662284851
 30
0.0
 40
13.22049496805165
100
AcDbArc
 50
33.1797467907
 51
123.179715099
  0
CIRCLE
  5
A3
330
1F
100
AcDbEntity
  8
0
  6
Continuous
 62
     7
100
AcDbCircle
 10
6274.0187483708
 20
4875.662284851
 30
0.0
 40
11.72049999999941
  0
CIRCLE
  5
A4
330
1F
100
AcDbEntity
  8
0
  6
Continuous
 62
     7
100
AcDbCircle
 10
6274.0187483708
 20
4875.662284851
 30
0.0
 40
9.749999999999451
  0
ARC
  5
A5
330
1F
100
AcDbEntity
  8
0
  6
Continuous
 62
     7
100
AcDbCircle
 10
6198.0187594608
 20
4892.6622850243
 30
0.0
 40
2.000000000000469
100
AcDbArc
 50
89.9998838871
 51
180.0001161129
  0
ARC
  5
A6
330
1F
100
AcDbEntity
  8
0
  6
Continuous
 62
     7
100
AcDbCircle
 10
6198.0187465862
 20
4892.6622829979
 30
0.0
 40
0.9999999999995733
100
AcDbArc
 50
89.9990301141
 51
180.0001161238
  0
ARC
  5
A7
330
1F
100
AcDbEntity
  8
0
  6
Continuous
 62
     7
100
AcDbCircle
 10
6350.0187477782
 20
4892.6622850243
 30
0.0
 40
1.999999999999559
100
AcDbArc
 50
359.9998838871
 51
90.0001161129
  0
ARC
  5
A8
330
1F
100
AcDbEntity
  8
0
  6
Continuous
 62
     7
100
AcDbCircle
 10
6350.0187606528
 20
4892.6622829979
 30
0.0
 40
0.9999999999986638
100
AcDbArc
 50
359.9998838761
 51
90.000969886
  0
LINE
  5
A9
330
1F
100
AcDbEntity
  8
0
  6
Continuous
 62
     7
100
AcDbLine
 10
6270.4916636661
 20
5168.8931700603
 30
0.0
 11
6270.4916040614
 21
5168.8879248516
 31
0.0
  0
LINE
  5
AA
330
1F
100
AcDbEntity
  8
0
  6
Continuous
 62
     7
100
AcDbLine
 10
6269.9388901904
 20
5168.6911401169
 30
0.0
 11
6269.9341218189
 21
5168.3362838642
 31
0.0
  0
LINE
  5
AB
330
1F
100
AcDbEntity
  8
0
  6
Continuous
 62
     7
100
AcDbLine
 10
6277.4334292129
 20
5168.2354030029
 30
0.0
 11
6277.4382273868
 21
5168.5902592556
 31
0.0
  0
LINE
  5
AC
330
1F
100
AcDbEntity
  8
0
  6
Continuous
 62
     7
100
AcDbLine
 10
6370.5346028522
 20
5180.4838296787
 30
0.0
 11
6371.5187649444
 21
5181.4679619686
 31
0.0
  0
LINE
  5
AD
330
1F
100
AcDbEntity
  8
0
  6
Continuous
 62
     7
100
AcDbLine
 10
6371.5187649444
 20
5204.9089786426
 30
0.0
 11
6370.018754454
 21
5206.408989133
 31
0.0
  0
LINE
  5
AE
330
1F
100
AcDbEntity
  8
0
  6
Continuous
 62
     7
100
AcDbLine
 10
6369.210902901
 20
5179.9679812805
 30
0.0
 11
6369.6076314166
 21
5179.9679812805
 31
0.0
  0
LINE
  5
AF
330
1F
100
AcDbEntity
  8
0
  6
Continuous
 62
     7
100
AcDbLine
 10
6367.6234225944
 20
5179.9679812805
 30
0.0
 11
6368.0201213077
 21
5179.9679812805
 31
0.0
  0
LINE
  5
B0
330
1F
100
AcDbEntity
  8
0
  6
Continuous
 62
     7
100
AcDbLine
 10
6366.0359124854
 20
5179.9679812805
 30
0.0
 11
6366.4326410011
 21
5179.9679812805
 31
0.0
  0
LINE
  5
B1
330
1F
100
AcDbEntity
  8
0
  6
Continuous
 62
     7
100
AcDbLine
 10
6364.4484023765
 20
5179.9679812805
 30
0.0
 11
6364.8451308921
 21
5179.9679812805
 31
0.0
  0
LINE
  5
B2
330
1F
100
AcDbEntity
  8
0
  6
Continuous
 62
     7
100
AcDbLine
 10
6362.8609220699
 20
5179.9679812805
 30
0.0
 11
6363.2576207832
 21
5179.9679812805
 31
0.0
  0
LINE
  5
B3
330
1F
100
AcDbEntity
  8
0
  6
Continuous
 62
     7
100
AcDbLine
 10
6364.0513758376
 20
5206.408989133
 30
0.0
 11
6363.6544983104
 21
5206.408989133
 31
0.0
  0
LINE
  5
B4
330
1F
100
AcDbEntity
  8
0
  6
Continuous
 62
     7
100
AcDbLine
 10
6365.6388561443
 20
5206.408989133
 30
0.0
 11
6365.241978617
 21
5206.408989133
 31
0.0
  0
LINE
  5
B5
330
1F
100
AcDbEntity
  8
0
  6
Continuous
 62
     7
100
AcDbLine
 10
6367.2263662532
 20
5206.408989133
 30
0.0
 11
6366.829488726
 21
5206.408989133
 31
0.0
  0
LINE
  5
B6
330
1F
100
AcDbEntity
  8
0
  6
Continuous
 62
     7
100
AcDbLine
 10
6368.8138763622
 20
5206.408989133
 30
0.0
 11
6368.4169988349
 21
5206.408989133
 31
0.0
  0
LINE
  5
B7
330
1F
100
AcDbEntity
  8
0
  6
Continuous
 62
     7
100
AcDbLine
 10
6370.2929656223
 20
5180.8350798504
 30
0.0
 11
6370.4966048911
 21
5180.4825779812
 31
0.0
  0
LINE
  5
B8
330
1F
100
AcDbEntity
  8
0
  6
Continuous
 62
     7
100
AcDbLine
 10
6369.4769184306
 20
5205.4554042236
 30
0.0
 11
6369.2784945682
 21
5205.4554042236
 31
0.0
  0
LINE
  5
B9
330
1F
100
AcDbEntity
  8
0
  6
Continuous
 62
     7
100
AcDbLine
 10
6367.8894083217
 20
5205.4554042236
 30
0.0
 11
6367.6909844592
 21
5205.4554042236
 31
0.0
  0
LINE
  5
BA
330
1F
100
AcDbEntity
  8
0
  6
Continuous
 62
     7
100
AcDbLine
 10
6366.3019280151
 20
5205.4554042236
 30
0.0
 11
6366.1034743503
 21
5205.4554042236
 31
0.0
  0
LINE
  5
BB
330
1F
100
AcDbEntity
  8
0
  6
Continuous
 62
     7
100
AcDbLine
 10
6364.7144179061
 20
5205.4554042236
 30
0.0
 11
6364.5159940437
 21
5205.4554042236
 31
0.0
  0
LINE
  5
BC
330
1F
100
AcDbEntity
  8
0
  6
Continuous
 62
     7
100
AcDbLine
 10
6363.1269077972
 20
5205.4554042236
 30
0.0
 11
6362.9284839347
 21
5205.4554042236
 31
0.0
  0
LINE
  5
BD
330
1F
100
AcDbEntity
  8
0
  6
Continuous
 62
     7
100
AcDbLine
 10
6368.515644522
 20
5180.8272716419
 30
0.0
 11
6368.7099854663
 21
5180.8272716419
 31
0.0
  0
LINE
  5
BE
330
1F
100
AcDbEntity
  8
0
  6
Continuous
 62
     7
100
AcDbLine
 10
6366.9281642154
 20
5180.8272716419
 30
0.0
 11
6367.1224753574
 21
5180.8272716419
 31
0.0
  0
LINE
  5
BF
330
1F
100
AcDbEntity
  8
0
  6
Continuous
 62
     7
100
AcDbLine
 10
6365.3406541064
 20
5180.8272716419
 30
0.0
 11
6365.5349950507
 21
5180.8272716419
 31
0.0
  0
LINE
  5
C0
330
1F
100
AcDbEntity
  8
0
  6
Continuous
 62
     7
100
AcDbLine
 10
6363.7531439975
 20
5180.8272716419
 30
0.0
 11
6363.9474849418
 21
5180.8272716419
 31
0.0
  0
LINE
  5
C1
330
1F
100
AcDbEntity
  8
0
  6
Continuous
 62
     7
100
AcDbLine
 10
6370.103154631
 20
5180.8272716419
 30
0.0
 11
6370.2974955753
 21
5180.8272716419
 31
0.0
  0
LINE
  5
C2
330
1F
100
AcDbEntity
  8
0
  6
Continuous
 62
     7
100
AcDbLine
 10
6286.5534167007
 20
5338.8743218796
 30
0.0
 11
6285.7392470554
 21
5339.6884617225
 31
0.0
  0
LINE
  5
C3
330
1F
100
AcDbEntity
  8
0
  6
Continuous
 62
     7
100
AcDbLine
 10
6262.2982601836
 20
5339.6884617225
 30
0.0
 11
6260.9581391528
 21
5338.3483704941
 31
0.0
  0
LINE
  5
C4
330
1F
100
AcDbEntity
  8
0
  6
Continuous
 62
     7
100
AcDbLine
 10
6287.2392575458
 20
5337.6463171856
 30
0.0
 11
6287.2392575458
 21
5338.0434033291
 31
0.0
  0
LINE
  5
C5
330
1F
100
AcDbEntity
  8
0
  6
Continuous
 62
     7
100
AcDbLine
 10
6287.2392575458
 20
5336.0588070766
 30
0.0
 11
6287.2392575458
 21
5336.4558932201
 31
0.0
  0
LINE
  5
C6
330
1F
100
AcDbEntity
  8
0
  6
Continuous
 62
     7
100
AcDbLine
 10
6287.2392575458
 20
5334.47132677
 30
0.0
 11
6287.2392575458
 21
5334.8683831112
 31
0.0
  0
LINE
  5
C7
330
1F
100
AcDbEntity
  8
0
  6
Continuous
 62
     7
100
AcDbLine
 10
6287.2392575458
 20
5332.883816661
 30
0.0
 11
6287.2392575458
 21
5333.2809028045
 31
0.0
  0
LINE
  5
C8
330
1F
100
AcDbEntity
  8
0
  6
Continuous
 62
     7
100
AcDbLine
 10
6287.2392575458
 20
5331.2963065521
 30
0.0
 11
6287.2392575458
 21
5331.6933926956
 31
0.0
  0
LINE
  5
C9
330
1F
100
AcDbEntity
  8
0
  6
Continuous
 62
     7
100
AcDbLine
 10
6260.7982496932
 20
5330.8995482341
 30
0.0
 11
6260.7982496932
 21
5330.688488187
 31
0.0
  0
LINE
  5
CA
330
1F
100
AcDbEntity
  8
0
  6
Continuous
 62
     7
100
AcDbLine
 10
6260.7982496932
 20
5332.4870583431
 30
0.0
 11
6260.7982496932
 21
5332.0900616066
 31
0.0
  0
LINE
  5
CB
330
1F
100
AcDbEntity
  8
0
  6
Continuous
 62
     7
100
AcDbLine
 10
6260.7982496932
 20
5334.0745386497
 30
0.0
 11
6260.7982496932
 21
5333.6775717155
 31
0.0
  0
LINE
  5
CC
330
1F
100
AcDbEntity
  8
0
  6
Continuous
 62
     7
100
AcDbLine
 10
6260.7982496932
 20
5335.6620487587
 30
0.0
 11
6260.7982496932
 21
5335.2650520221
 31
0.0
  0
LINE
  5
CD
330
1F
100
AcDbEntity
  8
0
  6
Continuous
 62
     7
100
AcDbLine
 10
6260.7982496932
 20
5337.2495290653
 30
0.0
 11
6260.7982496932
 21
5336.8525621311
 31
0.0
  0
LINE
  5
CE
330
1F
100
AcDbEntity
  8
0
  6
Continuous
 62
     7
100
AcDbLine
 10
6286.3721291736
 20
5338.728767337
 30
0.0
 11
6286.5437011436
 21
5338.8278898613
 31
0.0
  0
LINE
  5
CF
330
1F
100
AcDbEntity
  8
0
  6
Continuous
 62
     7
100
AcDbLine
 10
6261.6575400546
 20
5336.3571879284
 30
0.0
 11
6261.6575400546
 21
5336.1628767864
 31
0.0
  0
LINE
  5
D0
330
1F
100
AcDbEntity
  8
0
  6
Continuous
 62
     7
100
AcDbLine
 10
6261.6575400546
 20
5334.7697076217
 30
0.0
 11
6261.6575400546
 21
5334.5753666774
 31
0.0
  0
LINE
  5
D1
330
1F
100
AcDbEntity
  8
0
  6
Continuous
 62
     7
100
AcDbLine
 10
6261.6575400546
 20
5333.1821975128
 30
0.0
 11
6261.6575400546
 21
5332.9878863708
 31
0.0
  0
LINE
  5
D2
330
1F
100
AcDbEntity
  8
0
  6
Continuous
 62
     7
100
AcDbLine
 10
6261.6575400546
 20
5331.5947172062
 30
0.0
 11
6261.6575400546
 21
5331.4003762619
 31
0.0
  0
LINE
  5
D3
330
1F
100
AcDbEntity
  8
0
  6
Continuous
 62
     7
100
AcDbLine
 10
6286.3799671844
 20
5336.9525191204
 30
0.0
 11
6286.3799671844
 21
5337.1457871811
 31
0.0
  0
LINE
  5
D4
330
1F
100
AcDbEntity
  8
0
  6
Continuous
 62
     7
100
AcDbLine
 10
6286.3799671844
 20
5335.3650090114
 30
0.0
 11
6286.3799671844
 21
5335.5582770721
 31
0.0
  0
LINE
  5
D5
330
1F
100
AcDbEntity
  8
0
  6
Continuous
 62
     7
100
AcDbLine
 10
6286.3799671844
 20
5333.7775287048
 30
0.0
 11
6286.3799671844
 21
5333.9707967655
 31
0.0
  0
LINE
  5
D6
330
1F
100
AcDbEntity
  8
0
  6
Continuous
 62
     7
100
AcDbLine
 10
6286.3799671844
 20
5332.1900185959
 30
0.0
 11
6286.3799671844
 21
5332.3832866565
 31
0.0
  0
LINE
  5
D7
330
1F
100
AcDbEntity
  8
0
  6
Continuous
 62
     7
100
AcDbLine
 10
6286.3799671844
 20
5330.688488187
 30
0.0
 11
6286.3799671844
 21
5330.7957765476
 31
0.0
  0
LINE
  5
D8
330
1F
100
AcDbEntity
  8
0
  6
Continuous
 62
     7
100
AcDbLine
 10
6286.3799671844
 20
5338.5400292293
 30
0.0
 11
6286.3799671844
 21
5338.7332674877
 31
0.0
  0
LINE
  5
D9
330
1F
100
AcDbEntity
  8
0
  6
Continuous
 62
     7
100
AcDbLine
 10
6261.6575400546
 20
5337.9446980373
 30
0.0
 11
6261.6575400546
 21
5337.750357093
 31
0.0
  0
LINE
  5
DA
330
1F
100
AcDbEntity
  8
0
  6
Continuous
 62
     7
100
AcDbLine
 10
6178.018752785
 20
5206.408989133
 30
0.0
 11
6176.5187422946
 21
5204.9089786426
 31
0.0
  0
LINE
  5
DB
330
1F
100
AcDbEntity
  8
0
  6
Continuous
 62
     7
100
AcDbLine
 10
6176.5187422946
 20
5181.4679619686
 30
0.0
 11
6177.5029043868
 21
5180.4838296787
 31
0.0
  0
LINE
  5
DC
330
1F
100
AcDbEntity
  8
0
  6
Continuous
 62
     7
100
AcDbLine
 10
6179.6205084041
 20
5206.408989133
 30
0.0
 11
6179.2236606792
 21
5206.408989133
 31
0.0
  0
LINE
  5
DD
330
1F
100
AcDbEntity
  8
0
  6
Continuous
 62
     7
100
AcDbLine
 10
6181.208018513
 20
5206.408989133
 30
0.0
 11
6180.8111409858
 21
5206.408989133
 31
0.0
  0
LINE
  5
DE
330
1F
100
AcDbEntity
  8
0
  6
Continuous
 62
     7
100
AcDbLine
 10
6182.795528622
 20
5206.408989133
 30
0.0
 11
6182.3986510947
 21
5206.408989133
 31
0.0
  0
LINE
  5
DF
330
1F
100
AcDbEntity
  8
0
  6
Continuous
 62
     7
100
AcDbLine
 10
6184.3830089286
 20
5206.408989133
 30
0.0
 11
6183.9861612037
 21
5206.408989133
 31
0.0
  0
LINE
  5
E0
330
1F
100
AcDbEntity
  8
0
  6
Continuous
 62
     7
100
AcDbLine
 10
6184.7798864558
 20
5179.9679812805
 30
0.0
 11
6185.1765851691
 21
5179.9679812805
 31
0.0
  0
LINE
  5
E1
330
1F
100
AcDbEntity
  8
0
  6
Continuous
 62
     7
100
AcDbLine
 10
6183.1923763469
 20
5179.9679812805
 30
0.0
 11
6183.5891048625
 21
5179.9679812805
 31
0.0
  0
LINE
  5
E2
330
1F
100
AcDbEntity
  8
0
  6
Continuous
 62
     7
100
AcDbLine
 10
6181.6048662379
 20
5179.9679812805
 30
0.0
 11
6182.0015947536
 21
5179.9679812805
 31
0.0
  0
LINE
  5
E3
330
1F
100
AcDbEntity
  8
0
  6
Continuous
 62
     7
100
AcDbLine
 10
6180.0173859313
 20
5179.9679812805
 30
0.0
 11
6180.4140846446
 21
5179.9679812805
 31
0.0
  0
LINE
  5
E4
330
1F
100
AcDbEntity
  8
0
  6
Continuous
 62
     7
100
AcDbLine
 10
6178.4298758224
 20
5179.9679812805
 30
0.0
 11
6178.826604338
 21
5179.9679812805
 31
0.0
  0
LINE
  5
E5
330
1F
100
AcDbEntity
  8
0
  6
Continuous
 62
     7
100
AcDbLine
 10
6177.5409023479
 20
5180.4825779812
 30
0.0
 11
6177.7445416167
 21
5180.8350798504
 31
0.0
  0
LINE
  5
E6
330
1F
100
AcDbEntity
  8
0
  6
Continuous
 62
     7
100
AcDbLine
 10
6179.3234090522
 20
5180.8272716419
 30
0.0
 11
6179.5166771129
 21
5180.8272716419
 31
0.0
  0
LINE
  5
E7
330
1F
100
AcDbEntity
  8
0
  6
Continuous
 62
     7
100
AcDbLine
 10
6180.9109191612
 20
5180.8272716419
 30
0.0
 11
6181.1041872218
 21
5180.8272716419
 31
0.0
  0
LINE
  5
E8
330
1F
100
AcDbEntity
  8
0
  6
Continuous
 62
     7
100
AcDbLine
 10
6182.4984292701
 20
5180.8272716419
 30
0.0
 11
6182.6916973308
 21
5180.8272716419
 31
0.0
  0
LINE
  5
E9
330
1F
100
AcDbEntity
  8
0
  6
Continuous
 62
     7
100
AcDbLine
 10
6184.0859095767
 20
5180.8272716419
 30
0.0
 11
6184.2791776374
 21
5180.8272716419
 31
0.0
  0
LINE
  5
EA
330
1F
100
AcDbEntity
  8
0
  6
Continuous
 62
     7
100
AcDbLine
 10
6178.7590424731
 20
5205.4554042236
 30
0.0
 11
6178.5605888084
 21
5205.4554042236
 31
0.0
  0
LINE
  5
EB
330
1F
100
AcDbEntity
  8
0
  6
Continuous
 62
     7
100
AcDbLine
 10
6180.3465227798
 20
5205.4554042236
 30
0.0
 11
6180.1480989173
 21
5205.4554042236
 31
0.0
  0
LINE
  5
EC
330
1F
100
AcDbEntity
  8
0
  6
Continuous
 62
     7
100
AcDbLine
 10
6181.9340328887
 20
5205.4554042236
 30
0.0
 11
6181.7355792239
 21
5205.4554042236
 31
0.0
  0
LINE
  5
ED
330
1F
100
AcDbEntity
  8
0
  6
Continuous
 62
     7
100
AcDbLine
 10
6183.5215429977
 20
5205.4554042236
 30
0.0
 11
6183.3230893329
 21
5205.4554042236
 31
0.0
  0
LINE
  5
EE
330
1F
100
AcDbEntity
  8
0
  6
Continuous
 62
     7
100
AcDbLine
 10
6185.1090233043
 20
5205.4554042236
 30
0.0
 11
6184.9105994418
 21
5205.4554042236
 31
0.0
  0
LINE
  5
EF
330
1F
100
AcDbEntity
  8
0
  6
Continuous
 62
     7
100
AcDbLine
 10
6177.7359287456
 20
5180.8272716419
 30
0.0
 11
6177.9291968063
 21
5180.8272716419
 31
0.0
  0
LINE
  5
F0
330
1F
100
AcDbEntity
  8
0
  6
Continuous
 62
     7
100
AcDbLine
 10
6313.6844675258
 20
5180.0304469482
 30
0.0
 11
6313.9549832061
 21
5180.0304469482
 31
0.0
  0
LINE
  5
F1
330
1F
100
AcDbEntity
  8
0
  6
Continuous
 62
     7
100
AcDbLine
 10
6315.0786499694
 20
5178.7338671104
 30
0.0
 11
6315.0786499694
 21
5174.8084840194
 31
0.0
  0
LINE
  5
F2
330
1F
100
AcDbEntity
  8
0
  6
Continuous
 62
     7
100
AcDbLine
 10
6315.0786499694
 20
5174.8084840194
 30
0.0
 11
6314.3790404514
 21
5174.8084840194
 31
0.0
  0
LINE
  5
F3
330
1F
100
AcDbEntity
  8
0
  6
Continuous
 62
     7
100
AcDbLine
 10
6314.3790404514
 20
5174.8084840194
 30
0.0
 11
6314.3790404514
 21
5177.1155712024
 31
0.0
  0
LINE
  5
F4
330
1F
100
AcDbEntity
  8
0
  6
Continuous
 62
     7
100
AcDbLine
 10
6313.2612149432
 20
5177.1155712024
 30
0.0
 11
6313.2609467223
 21
5174.8084840194
 31
0.0
  0
LINE
  5
F5
330
1F
100
AcDbEntity
  8
0
  6
Continuous
 62
     7
100
AcDbLine
 10
6313.2609467223
 20
5174.8084840194
 30
0.0
 11
6312.5749568656
 21
5174.8084840194
 31
0.0
  0
LINE
  5
F6
330
1F
100
AcDbEntity
  8
0
  6
Continuous
 62
     7
100
AcDbLine
 10
6312.5749568656
 20
5174.8084840194
 30
0.0
 11
6312.5749568656
 21
5177.1155712024
 31
0.0
  0
LINE
  5
F7
330
1F
100
AcDbEntity
  8
0
  6
Continuous
 62
     7
100
AcDbLine
 10
6312.5749568656
 20
5177.1155712024
 30
0.0
 11
6312.274460049
 21
5177.1155712024
 31
0.0
  0
LINE
  5
F8
330
1F
100
AcDbEntity
  8
0
  6
Continuous
 62
     7
100
AcDbLine
 10
6312.274460049
 20
5177.1155712024
 30
0.0
 11
6312.0322565749
 21
5177.8478738682
 31
0.0
  0
LINE
  5
F9
330
1F
100
AcDbEntity
  8
0
  6
Continuous
 62
     7
100
AcDbLine
 10
6312.0322565749
 20
5177.8478738682
 30
0.0
 11
6312.5749568656
 21
5177.8478738682
 31
0.0
  0
LINE
  5
FA
330
1F
100
AcDbEntity
  8
0
  6
Continuous
 62
     7
100
AcDbLine
 10
6312.5749568656
 20
5177.8478738682
 30
0.0
 11
6312.5749568656
 21
5178.7433144466
 31
0.0
  0
LINE
  5
FB
330
1F
100
AcDbEntity
  8
0
  6
Continuous
 62
     7
100
AcDbLine
 10
6313.2609467223
 20
5177.8480228798
 30
0.0
 11
6314.3790404514
 21
5177.8480228798
 31
0.0
  0
LINE
  5
FC
330
1F
100
AcDbEntity
  8
0
  6
Continuous
 62
     7
100
AcDbLine
 10
6314.3790404514
 20
5177.8480228798
 30
0.0
 11
6314.3790404514
 21
5178.1223532573
 31
0.0
  0
LINE
  5
FD
330
1F
100
AcDbEntity
  8
0
  6
Continuous
 62
     7
100
AcDbLine
 10
6313.9549832061
 20
5179.3258902446
 30
0.0
 11
6313.6844675258
 21
5179.3258902446
 31
0.0
  0
LINE
  5
FE
330
1F
100
AcDbEntity
  8
0
  6
Continuous
 62
     7
100
AcDbLine
 10
6313.2609467223
 20
5178.1157967464
 30
0.0
 11
6313.2609467223
 21
5177.8480228798
 31
0.0
  0
LINE
  5
FF
330
1F
100
AcDbEntity
  8
0
  6
Continuous
 62
     7
100
AcDbLine
 10
6314.3790404514
 20
5177.1155712024
 30
0.0
 11
6313.2612149432
 21
5177.1155712024
 31
0.0
  0
LINE
  5
100
330
1F
100
AcDbEntity
  8
0
  6
Continuous
 62
     7
100
AcDbLine
 10
6327.3139636234
 20
5181.2076088802
 30
0.0
 11
6310.9558264926
 21
5181.2075194732
 31
0.0
  0
LINE
  5
101
330
1F
100
AcDbEntity
  8
0
  6
Continuous
 62
     7
100
AcDbLine
 10
6327.3139636234
 20
5180.4426428692
 30
0.0
 11
6327.3139636234
 21
5181.2076088802
 31
0.0
  0
LINE
  5
102
330
1F
100
AcDbEntity
  8
0
  6
Continuous
 62
     7
100
AcDbLine
 10
6311.0063712314
 20
5180.4426428692
 30
0.0
 11
6327.3139636234
 21
5180.4426428692
 31
0.0
  0
LINE
  5
103
330
1F
100
AcDbEntity
  8
0
  6
Continuous
 62
     7
100
AcDbLine
 10
6311.5290741637
 20
5177.5340554134
 30
0.0
 11
6310.8364383891
 21
5178.3249494449
 31
0.0
  0
LINE
  5
104
330
1F
100
AcDbEntity
  8
0
  6
Continuous
 62
     7
100
AcDbLine
 10
6309.0258280948
 20
5174.8084840194
 30
0.0
 11
6310.5879764274
 21
5174.8084840194
 31
0.0
  0
LINE
  5
105
330
1F
100
AcDbEntity
  8
0
  6
Continuous
 62
     7
100
AcDbLine
 10
6309.0258280948
 20
5175.5862650291
 30
0.0
 11
6309.0258280948
 21
5174.8084840194
 31
0.0
  0
LINE
  5
106
330
1F
100
AcDbEntity
  8
0
  6
Continuous
 62
     7
100
AcDbLine
 10
6310.5226497367
 20
5175.5862650291
 30
0.0
 11
6309.0258280948
 21
5175.5862650291
 31
0.0
  0
LINE
  5
107
330
1F
100
AcDbEntity
  8
0
  6
Continuous
 62
     7
100
AcDbLine
 10
6309.8459880069
 20
5178.2590863125
 30
0.0
 11
6310.7903043941
 21
5177.1904942409
 31
0.0
  0
LINE
  5
108
330
1F
100
AcDbEntity
  8
0
  6
Continuous
 62
     7
100
AcDbLine
 10
6319.9811916068
 20
5175.4687842743
 30
0.0
 11
6321.3012258723
 21
5175.4687842743
 31
0.0
  0
LINE
  5
109
330
1F
100
AcDbEntity
  8
0
  6
Continuous
 62
     7
100
AcDbLine
 10
6321.3012258723
 20
5175.4687842743
 30
0.0
 11
6321.3012258723
 21
5174.8084840194
 31
0.0
  0
LINE
  5
10A
330
1F
100
AcDbEntity
  8
0
  6
Continuous
 62
     7
100
AcDbLine
 10
6317.9545740798
 20
5174.8084840194
 30
0.0
 11
6317.9545740798
 21
5177.1155712024
 31
0.0
  0
LINE
  5
10B
330
1F
100
AcDbEntity
  8
0
  6
Continuous
 62
     7
100
AcDbLine
 10
6317.9545740798
 20
5177.1155712024
 30
0.0
 11
6316.4051811412
 21
5178.2922860996
 31
0.0
  0
LINE
  5
10C
330
1F
100
AcDbEntity
  8
0
  6
Continuous
 62
     7
100
AcDbLine
 10
6316.4051811412
 20
5178.2922860996
 30
0.0
 11
6316.4054493621
 21
5174.8084840194
 31
0.0
  0
LINE
  5
10D
330
1F
100
AcDbEntity
  8
0
  6
Continuous
 62
     7
100
AcDbLine
 10
6316.4054493621
 20
5174.8084840194
 30
0.0
 11
6315.6733255103
 21
5174.8084840194
 31
0.0
  0
LINE
  5
10E
330
1F
100
AcDbEntity
  8
0
  6
Continuous
 62
     7
100
AcDbLine
 10
6315.6733255103
 20
5174.8084840194
 30
0.0
 11
6315.6734149173
 21
5180.0304469482
 31
0.0
  0
LINE
  5
10F
330
1F
100
AcDbEntity
  8
0
  6
Continuous
 62
     7
100
AcDbLine
 10
6315.6734149173
 20
5180.0304469482
 30
0.0
 11
6317.9545740798
 21
5178.1877097503
 31
0.0
  0
LINE
  5
110
330
1F
100
AcDbEntity
  8
0
  6
Continuous
 62
     7
100
AcDbLine
 10
6317.9545740798
 20
5178.1877097503
 30
0.0
 11
6317.9545740798
 21
5179.9395200626
 31
0.0
  0
LINE
  5
111
330
1F
100
AcDbEntity
  8
0
  6
Continuous
 62
     7
100
AcDbLine
 10
6317.9545740798
 20
5179.9395200626
 30
0.0
 11
6318.7456469253
 21
5179.9396094696
 31
0.0
  0
LINE
  5
112
330
1F
100
AcDbEntity
  8
0
  6
Continuous
 62
     7
100
AcDbLine
 10
6318.7456469253
 20
5179.9396094696
 30
0.0
 11
6318.7456469253
 21
5177.8480228798
 31
0.0
  0
LINE
  5
113
330
1F
100
AcDbEntity
  8
0
  6
Continuous
 62
     7
100
AcDbLine
 10
6318.7456469253
 20
5177.8480228798
 30
0.0
 11
6319.3401734546
 21
5177.8480228798
 31
0.0
  0
LINE
  5
114
330
1F
100
AcDbEntity
  8
0
  6
Continuous
 62
     7
100
AcDbLine
 10
6319.3401734546
 20
5177.8480228798
 30
0.0
 11
6319.3401734546
 21
5179.9396094696
 31
0.0
  0
LINE
  5
115
330
1F
100
AcDbEntity
  8
0
  6
Continuous
 62
     7
100
AcDbLine
 10
6319.3401734546
 20
5179.9396094696
 30
0.0
 11
6321.3012258723
 21
5179.9396094696
 31
0.0
  0
LINE
  5
116
330
1F
100
AcDbEntity
  8
0
  6
Continuous
 62
     7
100
AcDbLine
 10
6321.3012258723
 20
5179.9396094696
 30
0.0
 11
6321.3012258723
 21
5179.3258902446
 31
0.0
  0
LINE
  5
117
330
1F
100
AcDbEntity
  8
0
  6
Continuous
 62
     7
100
AcDbLine
 10
6321.3012258723
 20
5179.3258902446
 30
0.0
 11
6319.9811916068
 21
5179.3258902446
 31
0.0
  0
LINE
  5
118
330
1F
100
AcDbEntity
  8
0
  6
Continuous
 62
     7
100
AcDbLine
 10
6319.9811916068
 20
5179.3258902446
 30
0.0
 11
6319.9811916068
 21
5177.8480228798
 31
0.0
  0
LINE
  5
119
330
1F
100
AcDbEntity
  8
0
  6
Continuous
 62
     7
100
AcDbLine
 10
6319.9811916068
 20
5177.8480228798
 30
0.0
 11
6321.311358662
 21
5177.8480228798
 31
0.0
  0
LINE
  5
11A
330
1F
100
AcDbEntity
  8
0
  6
Continuous
 62
     7
100
AcDbLine
 10
6321.311358662
 20
5177.8480228798
 30
0.0
 11
6321.5530554965
 21
5177.1155712024
 31
0.0
  0
LINE
  5
11B
330
1F
100
AcDbEntity
  8
0
  6
Continuous
 62
     7
100
AcDbLine
 10
6321.5530554965
 20
5177.1155712024
 30
0.0
 11
6319.9809233859
 21
5177.1155712024
 31
0.0
  0
LINE
  5
11C
330
1F
100
AcDbEntity
  8
0
  6
Continuous
 62
     7
100
AcDbLine
 10
6319.9809233859
 20
5177.1155712024
 30
0.0
 11
6319.9811916068
 21
5175.4687842743
 31
0.0
  0
LINE
  5
11D
330
1F
100
AcDbEntity
  8
0
  6
Continuous
 62
     7
100
AcDbLine
 10
6321.3012258723
 20
5174.8084840194
 30
0.0
 11
6319.3401734546
 21
5174.8084840194
 31
0.0
  0
LINE
  5
11E
330
1F
100
AcDbEntity
  8
0
  6
Continuous
 62
     7
100
AcDbLine
 10
6319.3401734546
 20
5174.8084840194
 30
0.0
 11
6319.3402628616
 21
5177.1155712024
 31
0.0
  0
LINE
  5
11F
330
1F
100
AcDbEntity
  8
0
  6
Continuous
 62
     7
100
AcDbLine
 10
6319.3402628616
 20
5177.1155712024
 30
0.0
 11
6318.7456469253
 21
5177.1155712024
 31
0.0
  0
LINE
  5
120
330
1F
100
AcDbEntity
  8
0
  6
Continuous
 62
     7
100
AcDbLine
 10
6318.7456469253
 20
5177.1155712024
 30
0.0
 11
6318.7456469253
 21
5174.8084840194
 31
0.0
  0
LINE
  5
121
330
1F
100
AcDbEntity
  8
0
  6
Continuous
 62
     7
100
AcDbLine
 10
6318.7456469253
 20
5174.8084840194
 30
0.0
 11
6317.9545740798
 21
5174.8084840194
 31
0.0
  0
LINE
  5
122
330
1F
100
AcDbEntity
  8
0
  6
Continuous
 62
     7
100
AcDbLine
 10
6328.5486738399
 20
5180.3515967743
 30
0.0
 11
6328.6018709853
 21
5180.4270264522
 31
0.0
  0
LINE
  5
123
330
1F
100
AcDbEntity
  8
0
  6
Continuous
 62
     7
100
AcDbLine
 10
6330.0609330848
 20
5179.0520963089
 30
0.0
 11
6330.1585356906
 21
5179.0520963089
 31
0.0
  0
LINE
  5
124
330
1F
100
AcDbEntity
  8
0
  6
Continuous
 62
     7
100
AcDbLine
 10
6330.4690758899
 20
5179.1585204021
 30
0.0
 11
6330.0609330848
 21
5179.1585204021
 31
0.0
  0
LINE
  5
125
330
1F
100
AcDbEntity
  8
0
  6
Continuous
 62
     7
100
AcDbLine
 10
6330.3670625404
 20
5179.0520963089
 30
0.0
 11
6330.4690758899
 21
5179.0520963089
 31
0.0
  0
LINE
  5
126
330
1F
100
AcDbEntity
  8
0
  6
Continuous
 62
     7
100
AcDbLine
 10
6333.3287577346
 20
5181.6473719494
 30
0.0
 11
6333.4132175163
 21
5181.6473719494
 31
0.0
  0
LINE
  5
127
330
1F
100
AcDbEntity
  8
0
  6
Continuous
 62
     7
100
AcDbLine
 10
6333.7124030307
 20
5181.0363051311
 30
0.0
 11
6333.5302810386
 21
5181.3387092964
 31
0.0
  0
LINE
  5
128
330
1F
100
AcDbEntity
  8
0
  6
Continuous
 62
     7
100
AcDbLine
 10
6333.6194495872
 20
5181.0363051311
 30
0.0
 11
6333.7124030307
 21
5181.0363051311
 31
0.0
  0
LINE
  5
129
330
1F
100
AcDbEntity
  8
0
  6
Continuous
 62
     7
100
AcDbLine
 10
6333.4578613952
 20
5181.3135561363
 30
0.0
 11
6333.6194495872
 21
5181.0363051311
 31
0.0
  0
LINE
  5
12A
330
1F
100
AcDbEntity
  8
0
  6
Continuous
 62
     7
100
AcDbLine
 10
6333.3287577346
 20
5181.3135561363
 30
0.0
 11
6333.4578613952
 21
5181.3135561363
 31
0.0
  0
LINE
  5
12B
330
1F
100
AcDbEntity
  8
0
  6
Continuous
 62
     7
100
AcDbLine
 10
6333.3287577346
 20
5181.0363051311
 30
0.0
 11
6333.3287577346
 21
5181.3135561363
 31
0.0
  0
LINE
  5
12C
330
1F
100
AcDbEntity
  8
0
  6
Continuous
 62
     7
100
AcDbLine
 10
6333.2511226848
 20
5181.0363051311
 30
0.0
 11
6333.3287577346
 21
5181.0363051311
 31
0.0
  0
LINE
  5
12D
330
1F
100
AcDbEntity
  8
0
  6
Continuous
 62
     7
100
AcDbLine
 10
6333.2511226848
 20
5181.7135331051
 30
0.0
 11
6333.2511226848
 21
5181.0363051311
 31
0.0
  0
LINE
  5
12E
330
1F
100
AcDbEntity
  8
0
  6
Continuous
 62
     7
100
AcDbLine
 10
6333.4132175163
 20
5181.7135331051
 30
0.0
 11
6333.2511226848
 21
5181.7135331051
 31
0.0
  0
LINE
  5
12F
330
1F
100
AcDbEntity
  8
0
  6
Continuous
 62
     7
100
AcDbLine
 10
6333.3287577346
 20
5181.3749489204
 30
0.0
 11
6333.3287577346
 21
5181.6473719494
 31
0.0
  0
LINE
  5
130
330
1F
100
AcDbEntity
  8
0
  6
Continuous
 62
     7
100
AcDbLine
 10
6333.4148268417
 20
5181.3749489204
 30
0.0
 11
6333.3287577346
 21
5181.3749489204
 31
0.0
  0
LINE
  5
131
330
1F
100
AcDbEntity
  8
0
  6
Continuous
 62
     7
100
AcDbLine
 10
6321.8955437854
 20
5179.9396094696
 30
0.0
 11
6322.6403932288
 21
5179.9396094696
 31
0.0
  0
LINE
  5
132
330
1F
100
AcDbEntity
  8
0
  6
Continuous
 62
     7
100
AcDbLine
 10
6322.6403932288
 20
5179.9396094696
 30
0.0
 11
6322.6403932288
 21
5175.4687842743
 31
0.0
  0
LINE
  5
133
330
1F
100
AcDbEntity
  8
0
  6
Continuous
 62
     7
100
AcDbLine
 10
6322.6403932288
 20
5175.4687842743
 30
0.0
 11
6324.2155651763
 21
5175.4687842743
 31
0.0
  0
LINE
  5
134
330
1F
100
AcDbEntity
  8
0
  6
Continuous
 62
     7
100
AcDbLine
 10
6324.2155651763
 20
5175.4687842743
 30
0.0
 11
6324.2155651763
 21
5174.8084840194
 31
0.0
  0
LINE
  5
135
330
1F
100
AcDbEntity
  8
0
  6
Continuous
 62
     7
100
AcDbLine
 10
6324.2155651763
 20
5174.8084840194
 30
0.0
 11
6321.8955437854
 21
5174.8084840194
 31
0.0
  0
LINE
  5
136
330
1F
100
AcDbEntity
  8
0
  6
Continuous
 62
     7
100
AcDbLine
 10
6321.8955437854
 20
5174.8084840194
 30
0.0
 11
6321.8955437854
 21
5179.9396094696
 31
0.0
  0
LINE
  5
137
330
1F
100
AcDbEntity
  8
0
  6
Continuous
 62
     7
100
AcDbLine
 10
6325.9196917728
 20
5180.0304469482
 30
0.0
 11
6326.1901776508
 21
5180.0304469482
 31
0.0
  0
LINE
  5
138
330
1F
100
AcDbEntity
  8
0
  6
Continuous
 62
     7
100
AcDbLine
 10
6325.4961709693
 20
5178.1157967464
 30
0.0
 11
6325.4961709693
 21
5177.8480228798
 31
0.0
  0
LINE
  5
139
330
1F
100
AcDbEntity
  8
0
  6
Continuous
 62
     7
100
AcDbLine
 10
6325.4961709693
 20
5177.8480228798
 30
0.0
 11
6326.614234896
 21
5177.8480228798
 31
0.0
  0
LINE
  5
13A
330
1F
100
AcDbEntity
  8
0
  6
Continuous
 62
     7
100
AcDbLine
 10
6326.614234896
 20
5177.8480228798
 30
0.0
 11
6326.614234896
 21
5178.1223532573
 31
0.0
  0
LINE
  5
13B
330
1F
100
AcDbEntity
  8
0
  6
Continuous
 62
     7
100
AcDbLine
 10
6326.1901776508
 20
5179.3258902446
 30
0.0
 11
6325.9196917728
 21
5179.3258902446
 31
0.0
  0
LINE
  5
13C
330
1F
100
AcDbEntity
  8
0
  6
Continuous
 62
     7
100
AcDbLine
 10
6327.313933821
 20
5178.7338671104
 30
0.0
 11
6327.313933821
 21
5174.8084840194
 31
0.0
  0
LINE
  5
13D
330
1F
100
AcDbEntity
  8
0
  6
Continuous
 62
     7
100
AcDbLine
 10
6327.313933821
 20
5174.8084840194
 30
0.0
 11
6326.614234896
 21
5174.8084840194
 31
0.0
  0
LINE
  5
13E
330
1F
100
AcDbEntity
  8
0
  6
Continuous
 62
     7
100
AcDbLine
 10
6326.614234896
 20
5177.1155712024
 30
0.0
 11
6325.4964391902
 21
5177.1155712024
 31
0.0
  0
LINE
  5
13F
330
1F
100
AcDbEntity
  8
0
  6
Continuous
 62
     7
100
AcDbLine
 10
6325.4964391902
 20
5177.1155712024
 30
0.0
 11
6325.4961709693
 21
5174.8084840194
 31
0.0
  0
LINE
  5
140
330
1F
100
AcDbEntity
  8
0
  6
Continuous
 62
     7
100
AcDbLine
 10
6325.4961709693
 20
5174.8084840194
 30
0.0
 11
6324.8101811126
 21
5174.8084840194
 31
0.0
  0
LINE
  5
141
330
1F
100
AcDbEntity
  8
0
  6
Continuous
 62
     7
100
AcDbLine
 10
6324.8101811126
 20
5174.8084840194
 30
0.0
 11
6324.8101811126
 21
5177.1155712024
 31
0.0
  0
LINE
  5
142
330
1F
100
AcDbEntity
  8
0
  6
Continuous
 62
     7
100
AcDbLine
 10
6324.8101811126
 20
5177.1155712024
 30
0.0
 11
6324.5097439006
 21
5177.1155712024
 31
0.0
  0
LINE
  5
143
330
1F
100
AcDbEntity
  8
0
  6
Continuous
 62
     7
100
AcDbLine
 10
6324.5097439006
 20
5177.1155712024
 30
0.0
 11
6324.2675702289
 21
5177.8478738682
 31
0.0
  0
LINE
  5
144
330
1F
100
AcDbEntity
  8
0
  6
Continuous
 62
     7
100
AcDbLine
 10
6324.2675702289
 20
5177.8478738682
 30
0.0
 11
6324.8101811126
 21
5177.8478738682
 31
0.0
  0
LINE
  5
145
330
1F
100
AcDbEntity
  8
0
  6
Continuous
 62
     7
100
AcDbLine
 10
6324.8101811126
 20
5177.8478738682
 30
0.0
 11
6324.8101811126
 21
5178.7433144466
 31
0.0
  0
LINE
  5
146
330
1F
100
AcDbEntity
  8
0
  6
Continuous
 62
     7
100
AcDbLine
 10
6326.614234896
 20
5174.8084840194
 30
0.0
 11
6326.614234896
 21
5177.1155712024
 31
0.0
  0
LINE
  5
147
330
1F
100
AcDbEntity
  8
0
  6
Continuous
 62
     7
100
AcDbLine
 10
6349.0187565997
 20
5325.1884695904
 30
0.0
 11
6349.018747063
 21
5315.1884695904
 31
0.0
  0
LINE
  5
148
330
1F
100
AcDbEntity
  8
0
  6
Continuous
 62
     7
100
AcDbLine
 10
6349.018747063
 20
5315.1884695904
 30
0.0
 11
6359.018747063
 21
5315.1884791271
 31
0.0
  0
LINE
  5
149
330
1F
100
AcDbEntity
  8
0
  6
Continuous
 62
     7
100
AcDbLine
 10
6349.018747063
 20
5165.1884827034
 30
0.0
 11
6349.0187565997
 21
5155.1884827034
 31
0.0
  0
LINE
  5
14A
330
1F
100
AcDbEntity
  8
0
  6
Continuous
 62
     7
100
AcDbLine
 10
6199.0187506393
 20
5155.1884827034
 30
0.0
 11
6349.0187565997
 21
5155.1884827034
 31
0.0
  0
LINE
  5
14B
330
1F
100
AcDbEntity
  8
0
  6
Continuous
 62
     7
100
AcDbLine
 10
6199.018760176
 20
5165.1884827034
 30
0.0
 11
6199.0187506393
 21
5155.1884827034
 31
0.0
  0
LINE
  5
14C
330
1F
100
AcDbEntity
  8
0
  6
Continuous
 62
     7
100
AcDbLine
 10
6199.0187506393
 20
5325.1884695904
 30
0.0
 11
6199.018760176
 21
5315.1884695904
 31
0.0
  0
LINE
  5
14D
330
1F
100
AcDbEntity
  8
0
  6
Continuous
 62
     7
100
AcDbLine
 10
6189.018760176
 20
5315.1884791271
 30
0.0
 11
6199.018760176
 21
5315.1884695904
 31
0.0
  0
LINE
  5
14E
330
1F
100
AcDbEntity
  8
0
  6
Continuous
 62
     7
100
AcDbLine
 10
6349.018747063
 20
5165.1884827034
 30
0.0
 11
6349.018747063
 21
5315.1884695904
 31
0.0
  0
LINE
  5
14F
330
1F
100
AcDbEntity
  8
0
  6
Continuous
 62
     7
100
AcDbLine
 10
6359.018747063
 20
5165.1884731666
 30
0.0
 11
6359.018747063
 21
5315.1884791271
 31
0.0
  0
LINE
  5
150
330
1F
100
AcDbEntity
  8
0
  6
Continuous
 62
     7
100
AcDbLine
 10
6349.018747063
 20
5165.1884827034
 30
0.0
 11
6359.018747063
 21
5165.1884731666
 31
0.0
  0
LINE
  5
151
330
1F
100
AcDbEntity
  8
0
  6
Continuous
 62
     7
100
AcDbLine
 10
6349.0187565997
 20
5325.1884695904
 30
0.0
 11
6199.0187506393
 21
5325.1884695904
 31
0.0
  0
LINE
  5
152
330
1F
100
AcDbEntity
  8
0
  6
Continuous
 62
     7
100
AcDbLine
 10
6349.018747063
 20
5315.1884695904
 30
0.0
 11
6199.018760176
 21
5315.1884695904
 31
0.0
  0
LINE
  5
153
330
1F
100
AcDbEntity
  8
0
  6
Continuous
 62
     7
100
AcDbLine
 10
6199.018760176
 20
5315.1884695904
 30
0.0
 11
6199.018760176
 21
5165.1884827034
 31
0.0
  0
LINE
  5
154
330
1F
100
AcDbEntity
  8
0
  6
Continuous
 62
     7
100
AcDbLine
 10
6189.018760176
 20
5165.1884731666
 30
0.0
 11
6199.018760176
 21
5165.1884827034
 31
0.0
  0
LINE
  5
155
330
1F
100
AcDbEntity
  8
0
  6
Continuous
 62
     7
100
AcDbLine
 10
6189.018760176
 20
5315.1884791271
 30
0.0
 11
6189.018760176
 21
5165.1884731666
 31
0.0
  0
LINE
  5
156
330
1F
100
AcDbEntity
  8
0
  6
Continuous
 62
     7
100
AcDbLine
 10
6199.018760176
 20
5165.1884827034
 30
0.0
 11
6268.9786593631
 21
5165.1884731666
 31
0.0
  0
LINE
  5
157
330
1F
100
AcDbEntity
  8
0
  6
Continuous
 62
     7
100
AcDbLine
 10
6279.0588478759
 20
5165.1884731666
 30
0.0
 11
6349.018747063
 21
5165.1884827034
 31
0.0
  0
LINE
  5
158
330
1F
100
AcDbEntity
  8
0
  6
Continuous
 62
     7
100
AcDbLine
 10
6269.9341218189
 20
5168.3362838642
 30
0.0
 11
6269.9351947025
 21
5168.3362540619
 31
0.0
  0
LINE
  5
159
330
1F
100
AcDbEntity
  8
0
  6
Continuous
 62
     7
100
AcDbLine
 10
6269.9351947025
 20
5168.3362540619
 30
0.0
 11
6270.0860838607
 21
5168.3342275039
 31
0.0
  0
LINE
  5
15A
330
1F
100
AcDbEntity
  8
0
  6
Continuous
 62
     7
100
AcDbLine
 10
6270.0860838607
 20
5168.3342275039
 30
0.0
 11
6270.4821865276
 21
5168.3288928882
 31
0.0
  0
LINE
  5
15B
330
1F
100
AcDbEntity
  8
0
  6
Continuous
 62
     7
100
AcDbLine
 10
6270.4821865276
 20
5168.3288928882
 30
0.0
 11
6271.0964421943
 21
5168.3206376449
 31
0.0
  0
LINE
  5
15C
330
1F
100
AcDbEntity
  8
0
  6
Continuous
 62
     7
100
AcDbLine
 10
6271.0964421943
 20
5168.3206376449
 30
0.0
 11
6271.8870382026
 21
5168.3099982158
 31
0.0
  0
LINE
  5
15D
330
1F
100
AcDbEntity
  8
0
  6
Continuous
 62
     7
100
AcDbLine
 10
6271.8870382026
 20
5168.3099982158
 30
0.0
 11
6272.8000621513
 21
5168.297719659
 31
0.0
  0
LINE
  5
15E
330
1F
100
AcDbEntity
  8
0
  6
Continuous
 62
     7
100
AcDbLine
 10
6272.8000621513
 20
5168.297719659
 30
0.0
 11
6273.7733463958
 21
5168.2846364395
 31
0.0
  0
LINE
  5
15F
330
1F
100
AcDbEntity
  8
0
  6
Continuous
 62
     7
100
AcDbLine
 10
6273.7733463958
 20
5168.2846364395
 30
0.0
 11
6274.7404913619
 21
5168.2716128246
 31
0.0
  0
LINE
  5
160
330
1F
100
AcDbEntity
  8
0
  6
Continuous
 62
     7
100
AcDbLine
 10
6274.7404913619
 20
5168.2716128246
 30
0.0
 11
6275.6356339172
 21
5168.2595726864
 31
0.0
  0
LINE
  5
161
330
1F
100
AcDbEntity
  8
0
  6
Continuous
 62
     7
100
AcDbLine
 10
6275.6356339172
 20
5168.2595726864
 30
0.0
 11
6276.3977687076
 21
5168.2493206875
 31
0.0
  0
LINE
  5
162
330
1F
100
AcDbEntity
  8
0
  6
Continuous
 62
     7
100
AcDbLine
 10
6276.3977687076
 20
5168.2493206875
 30
0.0
 11
6276.9749204829
 21
5168.2415720836
 31
0.0
  0
LINE
  5
163
330
1F
100
AcDbEntity
  8
0
  6
Continuous
 62
     7
100
AcDbLine
 10
6276.9749204829
 20
5168.2415720836
 30
0.0
 11
6277.3278097823
 21
5168.2368037121
 31
0.0
  0
LINE
  5
164
330
1F
100
AcDbEntity
  8
0
  6
Continuous
 62
     7
100
AcDbLine
 10
6277.3278097823
 20
5168.2368037121
 30
0.0
 11
6277.4334292129
 21
5168.2354030029
 31
0.0
  0
LINE
  5
165
330
1F
100
AcDbEntity
  8
0
  6
Continuous
 62
     7
100
AcDbLine
 10
6269.9388901904
 20
5168.6911401169
 30
0.0
 11
6269.939963074
 21
5168.6911103145
 31
0.0
  0
LINE
  5
166
330
1F
100
AcDbEntity
  8
0
  6
Continuous
 62
     7
100
AcDbLine
 10
6269.939963074
 20
5168.6911103145
 30
0.0
 11
6270.0908820346
 21
5168.6890837566
 31
0.0
  0
LINE
  5
167
330
1F
100
AcDbEntity
  8
0
  6
Continuous
 62
     7
100
AcDbLine
 10
6270.0908820346
 20
5168.6890837566
 30
0.0
 11
6270.4869548991
 21
5168.6837491409
 31
0.0
  0
LINE
  5
168
330
1F
100
AcDbEntity
  8
0
  6
Continuous
 62
     7
100
AcDbLine
 10
6270.4869548991
 20
5168.6837491409
 30
0.0
 11
6271.1012105659
 21
5168.6754938976
 31
0.0
  0
LINE
  5
169
330
1F
100
AcDbEntity
  8
0
  6
Continuous
 62
     7
100
AcDbLine
 10
6271.1012105659
 20
5168.6754938976
 30
0.0
 11
6271.8918065742
 21
5168.6648544685
 31
0.0
  0
LINE
  5
16A
330
1F
100
AcDbEntity
  8
0
  6
Continuous
 62
     7
100
AcDbLine
 10
6271.8918065742
 20
5168.6648544685
 30
0.0
 11
6272.8048603252
 21
5168.6525759117
 31
0.0
  0
LINE
  5
16B
330
1F
100
AcDbEntity
  8
0
  6
Continuous
 62
     7
100
AcDbLine
 10
6272.8048603252
 20
5168.6525759117
 30
0.0
 11
6273.7781147674
 21
5168.6394926922
 31
0.0
  0
LINE
  5
16C
330
1F
100
AcDbEntity
  8
0
  6
Continuous
 62
     7
100
AcDbLine
 10
6273.7781147674
 20
5168.6394926922
 30
0.0
 11
6274.7452597335
 21
5168.6264690773
 31
0.0
  0
LINE
  5
16D
330
1F
100
AcDbEntity
  8
0
  6
Continuous
 62
     7
100
AcDbLine
 10
6274.7452597335
 20
5168.6264690773
 30
0.0
 11
6275.6404022887
 21
5168.614428939
 31
0.0
  0
LINE
  5
16E
330
1F
100
AcDbEntity
  8
0
  6
Continuous
 62
     7
100
AcDbLine
 10
6275.6404022887
 20
5168.614428939
 30
0.0
 11
6276.4025370792
 21
5168.6041769401
 31
0.0
  0
LINE
  5
16F
330
1F
100
AcDbEntity
  8
0
  6
Continuous
 62
     7
100
AcDbLine
 10
6276.4025370792
 20
5168.6041769401
 30
0.0
 11
6276.9797186568
 21
5168.5964283363
 31
0.0
  0
LINE
  5
170
330
1F
100
AcDbEntity
  8
0
  6
Continuous
 62
     7
100
AcDbLine
 10
6276.9797186568
 20
5168.5964283363
 30
0.0
 11
6277.3326079562
 21
5168.591689767
 31
0.0
  0
LINE
  5
171
330
1F
100
AcDbEntity
  8
0
  6
Continuous
 62
     7
100
AcDbLine
 10
6277.3326079562
 20
5168.591689767
 30
0.0
 11
6277.4382273868
 21
5168.5902592556
 31
0.0
  0
LINE
  5
172
330
1F
100
AcDbEntity
  8
0
  6
Continuous
 62
     7
100
AcDbLine
 10
6270.7530896381
 20
5168.8566324131
 30
0.0
 11
6270.7507054523
 21
5168.6802026645
 31
0.0
  0
LINE
  5
173
330
1F
100
AcDbEntity
  8
0
  6
Continuous
 62
     7
100
AcDbLine
 10
6276.6621153072
 20
5168.6006900684
 30
0.0
 11
6276.6645590976
 21
5168.781470956
 31
0.0
  0
LINE
  5
174
330
1F
100
AcDbEntity
  8
0
  6
Continuous
 62
     7
100
AcDbLine
 10
6270.7149724677
 20
5168.680709304
 30
0.0
 11
6270.7174162582
 21
5168.8614603893
 31
0.0
  0
LINE
  5
175
330
1F
100
AcDbEntity
  8
0
  6
Continuous
 62
     7
100
AcDbLine
 10
6362.5187616065
 20
5200.982701482
 30
0.0
 11
6362.5187616065
 21
5185.3942391292
 31
0.0
  0
LINE
  5
176
330
1F
100
AcDbEntity
  8
0
  6
Continuous
 62
     7
100
AcDbLine
 10
6362.5187616065
 20
5185.3942391292
 30
0.0
 11
6359.018747063
 21
5185.3942391292
 31
0.0
  0
LINE
  5
177
330
1F
100
AcDbEntity
  8
0
  6
Continuous
 62
     7
100
AcDbLine
 10
6362.5187616065
 20
5200.982701482
 30
0.0
 11
6359.018747063
 21
5200.982701482
 31
0.0
  0
LINE
  5
178
330
1F
100
AcDbEntity
  8
0
  6
Continuous
 62
     7
100
AcDbLine
 10
6370.018754454
 20
5206.3886341469
 30
0.0
 11
6370.018754454
 21
5206.408989133
 31
0.0
  0
LINE
  5
179
330
1F
100
AcDbEntity
  8
0
  6
Continuous
 62
     7
100
AcDbLine
 10
6371.5187649444
 20
5203.3387240783
 30
0.0
 11
6371.5187649444
 21
5181.4679619686
 31
0.0
  0
LINE
  5
17A
330
1F
100
AcDbEntity
  8
0
  6
Continuous
 62
     7
100
AcDbLine
 10
6371.5187649444
 20
5204.9089786426
 30
0.0
 11
6371.5187649444
 21
5203.3387240783
 31
0.0
  0
LINE
  5
17B
330
1F
100
AcDbEntity
  8
0
  6
Continuous
 62
     7
100
AcDbLine
 10
6362.5187616065
 20
5208.7769326584
 30
0.0
 11
6359.018747063
 21
5208.7769326584
 31
0.0
  0
LINE
  5
17C
330
1F
100
AcDbEntity
  8
0
  6
Continuous
 62
     7
100
AcDbLine
 10
6362.5187616065
 20
5208.7769326584
 30
0.0
 11
6362.5187616065
 21
5200.982701482
 31
0.0
  0
LINE
  5
17D
330
1F
100
AcDbEntity
  8
0
  6
Continuous
 62
     7
100
AcDbLine
 10
6362.5187616065
 20
5177.6000079529
 30
0.0
 11
6359.018747063
 21
5177.6000079529
 31
0.0
  0
LINE
  5
17E
330
1F
100
AcDbEntity
  8
0
  6
Continuous
 62
     7
100
AcDbLine
 10
6362.5187616065
 20
5185.3942391292
 30
0.0
 11
6362.5187616065
 21
5177.6000079529
 31
0.0
  0
LINE
  5
17F
330
1F
100
AcDbEntity
  8
0
  6
Continuous
 62
     7
100
AcDbLine
 10
6266.2245373443
 20
5330.688488187
 30
0.0
 11
6281.8129698947
 21
5330.688488187
 31
0.0
  0
LINE
  5
180
330
1F
100
AcDbEntity
  8
0
  6
Continuous
 62
     7
100
AcDbLine
 10
6281.8129698947
 20
5330.688488187
 30
0.0
 11
6281.8129698947
 21
5325.1884695904
 31
0.0
  0
LINE
  5
181
330
1F
100
AcDbEntity
  8
0
  6
Continuous
 62
     7
100
AcDbLine
 10
6266.2245373443
 20
5330.688488187
 30
0.0
 11
6266.2245373443
 21
5325.1884695904
 31
0.0
  0
LINE
  5
182
330
1F
100
AcDbEntity
  8
0
  6
Continuous
 62
     7
100
AcDbLine
 10
6262.2982601836
 20
5339.6884617225
 30
0.0
 11
6285.7392470554
 21
5339.6884617225
 31
0.0
  0
LINE
  5
183
330
1F
100
AcDbEntity
  8
0
  6
Continuous
 62
     7
100
AcDbLine
 10
6289.6072010711
 20
5330.688488187
 30
0.0
 11
6289.6072010711
 21
5325.1884695904
 31
0.0
  0
LINE
  5
184
330
1F
100
AcDbEntity
  8
0
  6
Continuous
 62
     7
100
AcDbLine
 10
6281.8129698947
 20
5330.688488187
 30
0.0
 11
6289.6072010711
 21
5330.688488187
 31
0.0
  0
LINE
  5
185
330
1F
100
AcDbEntity
  8
0
  6
Continuous
 62
     7
100
AcDbLine
 10
6258.4303061679
 20
5330.688488187
 30
0.0
 11
6258.4303061679
 21
5325.1884695904
 31
0.0
  0
LINE
  5
186
330
1F
100
AcDbEntity
  8
0
  6
Continuous
 62
     7
100
AcDbLine
 10
6258.4303061679
 20
5330.688488187
 30
0.0
 11
6266.2245373443
 21
5330.688488187
 31
0.0
  0
LINE
  5
187
330
1F
100
AcDbEntity
  8
0
  6
Continuous
 62
     7
100
AcDbLine
 10
6185.5187456325
 20
5200.982701482
 30
0.0
 11
6189.018760176
 21
5200.982701482
 31
0.0
  0
LINE
  5
188
330
1F
100
AcDbEntity
  8
0
  6
Continuous
 62
     7
100
AcDbLine
 10
6185.5187456325
 20
5185.3942391292
 30
0.0
 11
6189.018760176
 21
5185.3942391292
 31
0.0
  0
LINE
  5
189
330
1F
100
AcDbEntity
  8
0
  6
Continuous
 62
     7
100
AcDbLine
 10
6185.5187456325
 20
5185.3942391292
 30
0.0
 11
6185.5187456325
 21
5200.982701482
 31
0.0
  0
LINE
  5
18A
330
1F
100
AcDbEntity
  8
0
  6
Continuous
 62
     7
100
AcDbLine
 10
6178.018752785
 20
5206.3886341469
 30
0.0
 11
6178.018752785
 21
5193.9217862503
 31
0.0
  0
LINE
  5
18B
330
1F
100
AcDbEntity
  8
0
  6
Continuous
 62
     7
100
AcDbLine
 10
6176.5187422946
 20
5181.4679619686
 30
0.0
 11
6176.5187422946
 21
5204.9089786426
 31
0.0
  0
LINE
  5
18C
330
1F
100
AcDbEntity
  8
0
  6
Continuous
 62
     7
100
AcDbLine
 10
6185.5187456325
 20
5177.6000079529
 30
0.0
 11
6189.018760176
 21
5177.6000079529
 31
0.0
  0
LINE
  5
18D
330
1F
100
AcDbEntity
  8
0
  6
Continuous
 62
     7
100
AcDbLine
 10
6185.5187456325
 20
5177.6000079529
 30
0.0
 11
6185.5187456325
 21
5185.3942391292
 31
0.0
  0
LINE
  5
18E
330
1F
100
AcDbEntity
  8
0
  6
Continuous
 62
     7
100
AcDbLine
 10
6185.5187456325
 20
5208.7769326584
 30
0.0
 11
6189.018760176
 21
5208.7769326584
 31
0.0
  0
LINE
  5
18F
330
1F
100
AcDbEntity
  8
0
  6
Continuous
 62
     7
100
AcDbLine
 10
6185.5187456325
 20
5200.982701482
 30
0.0
 11
6185.5187456325
 21
5208.7769326584
 31
0.0
  0
LINE
  5
190
330
1F
100
AcDbEntity
  8
0
  6
Continuous
 62
     7
100
AcDbLine
 10
6199.018760176
 20
5165.1884827034
 30
0.0
 11
6268.9786593631
 21
5165.1884731666
 31
0.0
  0
LINE
  5
191
330
1F
100
AcDbEntity
  8
0
  6
Continuous
 62
     7
100
AcDbLine
 10
6279.0588478759
 20
5165.1884731666
 30
0.0
 11
6349.018747063
 21
5165.1884827034
 31
0.0
  0
LINE
  5
192
330
1F
100
AcDbEntity
  8
0
  6
Continuous
 62
     7
100
AcDbLine
 10
6638.0474828464
 20
5159.1884610073
 30
0.0
 11
6638.0474828464
 21
5158.2884904758
 31
0.0
  0
LINE
  5
193
330
1F
100
AcDbEntity
  8
0
  6
Continuous
 62
     7
100
AcDbLine
 10
6651.2474827749
 20
5158.2884904758
 30
0.0
 11
6651.2474827749
 21
5159.1884610073
 31
0.0
  0
LINE
  5
194
330
1F
100
AcDbEntity
  8
0
  6
Continuous
 62
     7
100
AcDbLine
 10
6689.3974803669
 20
5164.7384879009
 30
0.0
 11
6690.1974790079
 21
5164.7384879009
 31
0.0
  0
LINE
  5
195
330
1F
100
AcDbEntity
  8
0
  6
Continuous
 62
     7
100
AcDbLine
 10
6690.1974790079
 20
5221.6384825126
 30
0.0
 11
6689.3974803669
 21
5221.6384825126
 31
0.0
  0
LINE
  5
196
330
1F
100
AcDbEntity
  8
0
  6
Continuous
 62
     7
100
AcDbLine
 10
6716.8474756462
 20
5168.6384794132
 30
0.0
 11
6719.7974734289
 21
5168.6384794132
 31
0.0
  0
LINE
  5
197
330
1F
100
AcDbEntity
  8
0
  6
Continuous
 62
     7
100
AcDbLine
 10
6697.5974701625
 20
5168.6384794132
 30
0.0
 11
6709.3474827987
 21
5168.6384794132
 31
0.0
  0
LINE
  5
198
330
1F
100
AcDbEntity
  8
0
  6
Continuous
 62
     7
100
AcDbLine
 10
6719.7974734289
 20
5217.738461198
 30
0.0
 11
6697.5974701625
 21
5217.738461198
 31
0.0
  0
LINE
  5
199
330
1F
100
AcDbEntity
  8
0
  6
Continuous
 62
     7
100
AcDbLine
 10
6709.3474827987
 20
5168.6406847851
 30
0.0
 11
6709.3474827987
 21
5168.2858285324
 31
0.0
  0
LINE
  5
19A
330
1F
100
AcDbEntity
  8
0
  6
Continuous
 62
     7
100
AcDbLine
 10
6716.8468646986
 20
5168.2849344627
 30
0.0
 11
6716.8474756462
 21
5168.6406847851
 31
0.0
  0
LINE
  5
19B
330
1F
100
AcDbEntity
  8
0
  6
Continuous
 62
     7
100
AcDbLine
 10
6691.6974745971
 20
5169.7884616272
 30
0.0
 11
6697.5974701625
 21
5169.7884616272
 31
0.0
  0
LINE
  5
19C
330
1F
100
AcDbEntity
  8
0
  6
Continuous
 62
     7
100
AcDbLine
 10
6697.5974701625
 20
5216.588478984
 30
0.0
 11
6691.6974745971
 21
5216.588478984
 31
0.0
  0
LINE
  5
19D
330
1F
100
AcDbEntity
  8
0
  6
Continuous
 62
     7
100
AcDbLine
 10
6679.3974750024
 20
5216.588478984
 30
0.0
 11
6675.8974753601
 21
5216.588478984
 31
0.0
  0
LINE
  5
19E
330
1F
100
AcDbEntity
  8
0
  6
Continuous
 62
     7
100
AcDbLine
 10
6641.6892819387
 20
5338.6171576397
 30
0.0
 11
6640.6179778558
 21
5339.6884617225
 31
0.0
  0
LINE
  5
19F
330
1F
100
AcDbEntity
  8
0
  6
Continuous
 62
     7
100
AcDbLine
 10
6616.2937991602
 20
5338.8052997009
 30
0.0
 11
6615.6769804937
 21
5338.1884810344
 31
0.0
  0
LINE
  5
1A0
330
1F
100
AcDbEntity
  8
0
  6
Continuous
 62
     7
100
AcDbLine
 10
6617.176976083
 20
5339.6884617225
 30
0.0
 11
6616.5408604128
 21
5339.0523609535
 31
0.0
  0
LINE
  5
1A1
330
1F
100
AcDbEntity
  8
0
  6
Continuous
 62
     7
100
AcDbLine
 10
6642.1179734451
 20
5337.249409856
 30
0.0
 11
6642.1179734451
 21
5337.6464661972
 31
0.0
  0
LINE
  5
1A2
330
1F
100
AcDbEntity
  8
0
  6
Continuous
 62
     7
100
AcDbLine
 10
6642.1179734451
 20
5335.6619295494
 30
0.0
 11
6642.1179734451
 21
5336.0589858906
 31
0.0
  0
LINE
  5
1A3
330
1F
100
AcDbEntity
  8
0
  6
Continuous
 62
     7
100
AcDbLine
 10
6642.1179734451
 20
5334.0744194404
 30
0.0
 11
6642.1179734451
 21
5334.4714757816
 31
0.0
  0
LINE
  5
1A4
330
1F
100
AcDbEntity
  8
0
  6
Continuous
 62
     7
100
AcDbLine
 10
6642.1179734451
 20
5332.4869093315
 30
0.0
 11
6642.1179734451
 21
5332.8839656727
 31
0.0
  0
LINE
  5
1A5
330
1F
100
AcDbEntity
  8
0
  6
Continuous
 62
     7
100
AcDbLine
 10
6642.1179734451
 20
5330.8994290249
 30
0.0
 11
6642.1179734451
 21
5331.296485366
 31
0.0
  0
LINE
  5
1A6
330
1F
100
AcDbEntity
  8
0
  6
Continuous
 62
     7
100
AcDbLine
 10
6615.6769804937
 20
5332.0901212112
 30
0.0
 11
6615.6769804937
 21
5331.693243684
 31
0.0
  0
LINE
  5
1A7
330
1F
100
AcDbEntity
  8
0
  6
Continuous
 62
     7
100
AcDbLine
 10
6615.6769804937
 20
5333.6776015178
 30
0.0
 11
6615.6769804937
 21
5333.2807239906
 31
0.0
  0
LINE
  5
1A8
330
1F
100
AcDbEntity
  8
0
  6
Continuous
 62
     7
100
AcDbLine
 10
6615.6769804937
 20
5335.2651116268
 30
0.0
 11
6615.6769804937
 21
5334.8682340996
 31
0.0
  0
LINE
  5
1A9
330
1F
100
AcDbEntity
  8
0
  6
Continuous
 62
     7
100
AcDbLine
 10
6615.6769804937
 20
5336.8526217357
 30
0.0
 11
6615.6769804937
 21
5336.4557442085
 31
0.0
  0
LINE
  5
1AA
330
1F
100
AcDbEntity
  8
0
  6
Continuous
 62
     7
100
AcDbLine
 10
6615.6769804937
 20
5338.1884810344
 30
0.0
 11
6615.6769804937
 21
5338.0432245151
 31
0.0
  0
LINE
  5
1AB
330
1F
100
AcDbEntity
  8
0
  6
Continuous
 62
     7
100
AcDbLine
 10
6641.7599283439
 20
5330.688488187
 30
0.0
 11
6642.1106271726
 21
5330.8910843746
 31
0.0
  0
LINE
  5
1AC
330
1F
100
AcDbEntity
  8
0
  6
Continuous
 62
     7
100
AcDbLine
 10
6616.5440790636
 20
5338.9455196277
 30
0.0
 11
6616.3349710685
 21
5338.8247010128
 31
0.0
  0
LINE
  5
1AD
330
1F
100
AcDbEntity
  8
0
  6
Continuous
 62
     7
100
AcDbLine
 10
6616.5362559539
 20
5337.5478205101
 30
0.0
 11
6616.5362559539
 21
5337.3535093681
 31
0.0
  0
LINE
  5
1AE
330
1F
100
AcDbEntity
  8
0
  6
Continuous
 62
     7
100
AcDbLine
 10
6616.5362559539
 20
5335.9603402034
 30
0.0
 11
6616.5362559539
 21
5335.7659992592
 31
0.0
  0
LINE
  5
1AF
330
1F
100
AcDbEntity
  8
0
  6
Continuous
 62
     7
100
AcDbLine
 10
6616.5362559539
 20
5334.3728300945
 30
0.0
 11
6616.5362559539
 21
5334.1784891502
 31
0.0
  0
LINE
  5
1B0
330
1F
100
AcDbEntity
  8
0
  6
Continuous
 62
     7
100
AcDbLine
 10
6616.5362559539
 20
5332.7853199856
 30
0.0
 11
6616.5362559539
 21
5332.5910088436
 31
0.0
  0
LINE
  5
1B1
330
1F
100
AcDbEntity
  8
0
  6
Continuous
 62
     7
100
AcDbLine
 10
6616.5362559539
 20
5331.1978396789
 30
0.0
 11
6616.5362559539
 21
5331.0034987346
 31
0.0
  0
LINE
  5
1B2
330
1F
100
AcDbEntity
  8
0
  6
Continuous
 62
     7
100
AcDbLine
 10
6641.2586979848
 20
5336.5556415931
 30
0.0
 11
6641.2586979848
 21
5336.7489096538
 31
0.0
  0
LINE
  5
1B3
330
1F
100
AcDbEntity
  8
0
  6
Continuous
 62
     7
100
AcDbLine
 10
6641.2586979848
 20
5334.9681314842
 30
0.0
 11
6641.2586979848
 21
5335.1613995449
 31
0.0
  0
LINE
  5
1B4
330
1F
100
AcDbEntity
  8
0
  6
Continuous
 62
     7
100
AcDbLine
 10
6641.2586979848
 20
5333.3806511776
 30
0.0
 11
6641.2586979848
 21
5333.5739192383
 31
0.0
  0
LINE
  5
1B5
330
1F
100
AcDbEntity
  8
0
  6
Continuous
 62
     7
100
AcDbLine
 10
6641.2586979848
 20
5331.7931410686
 30
0.0
 11
6641.2586979848
 21
5331.9864091293
 31
0.0
  0
LINE
  5
1B6
330
1F
100
AcDbEntity
  8
0
  6
Continuous
 62
     7
100
AcDbLine
 10
6641.2586979848
 20
5338.1431517021
 30
0.0
 11
6641.2586979848
 21
5338.3364197628
 31
0.0
  0
LINE
  5
1B7
330
1F
100
AcDbEntity
  8
0
  6
Continuous
 62
     7
100
AcDbLine
 10
6616.5362559539
 20
5339.135330619
 30
0.0
 11
6616.5362559539
 21
5338.9409896747
 31
0.0
  0
LINE
  5
1B8
330
1F
100
AcDbEntity
  8
0
  6
Continuous
 62
     7
100
AcDbLine
 10
6679.3974803669
 20
5165.1884827034
 30
0.0
 11
6679.3974750024
 21
5155.1884827034
 31
0.0
  0
LINE
  5
1B9
330
1F
100
AcDbEntity
  8
0
  6
Continuous
 62
     7
100
AcDbLine
 10
6679.3974803669
 20
5165.1884827034
 30
0.0
 11
6689.3974803669
 21
5165.1884731666
 31
0.0
  0
LINE
  5
1BA
330
1F
100
AcDbEntity
  8
0
  6
Continuous
 62
     7
100
AcDbLine
 10
6679.3974803669
 20
5315.1884695904
 30
0.0
 11
6679.3974803669
 21
5165.1884827034
 31
0.0
  0
LINE
  5
1BB
330
1F
100
AcDbEntity
  8
0
  6
Continuous
 62
     7
100
AcDbLine
 10
6679.3974803669
 20
5315.1884695904
 30
0.0
 11
6689.3974803669
 21
5315.1884791271
 31
0.0
  0
LINE
  5
1BC
330
1F
100
AcDbEntity
  8
0
  6
Continuous
 62
     7
100
AcDbLine
 10
6689.3974803669
 20
5315.1884791271
 30
0.0
 11
6689.3974803669
 21
5165.1884731666
 31
0.0
  0
LINE
  5
1BD
330
1F
100
AcDbEntity
  8
0
  6
Continuous
 62
     7
100
AcDbLine
 10
6679.3974750024
 20
5325.1884695904
 30
0.0
 11
6679.3974803669
 21
5315.1884695904
 31
0.0
  0
LINE
  5
1BE
330
1F
100
AcDbEntity
  8
0
  6
Continuous
 62
     7
100
AcDbLine
 10
6638.8474814874
 20
5157.4884769336
 30
0.0
 11
6650.4474841339
 21
5157.4884769336
 31
0.0
  0
LINE
  5
1BF
330
1F
100
AcDbEntity
  8
0
  6
Continuous
 62
     7
100
AcDbLine
 10
6632.8254305107
 20
5194.8113259689
 30
0.0
 11
6632.8739635927
 21
5194.688480796
 31
0.0
  0
LINE
  5
1C0
330
1F
100
AcDbEntity
  8
0
  6
Continuous
 62
     7
100
AcDbLine
 10
6633.1179701072
 20
5193.6884638683
 30
0.0
 11
6633.1213824731
 21
5192.7182790653
 31
0.0
  0
LINE
  5
1C1
330
1F
100
AcDbEntity
  8
0
  6
Continuous
 62
     7
100
AcDbLine
 10
6633.1213824731
 20
5192.7182790653
 30
0.0
 11
6633.1179701072
 21
5192.6884767429
 31
0.0
  0
LINE
  5
1C2
330
1F
100
AcDbEntity
  8
0
  6
Continuous
 62
     7
100
AcDbLine
 10
6632.8739635927
 20
5191.6884896175
 30
0.0
 11
6632.8717582208
 21
5191.68261856
 31
0.0
  0
LINE
  5
1C3
330
1F
100
AcDbEntity
  8
0
  6
Continuous
 62
     7
100
AcDbLine
 10
6632.8717582208
 20
5191.68261856
 30
0.0
 11
6632.3974840623
 21
5190.7775518314
 31
0.0
  0
LINE
  5
1C4
330
1F
100
AcDbEntity
  8
0
  6
Continuous
 62
     7
100
AcDbLine
 10
6631.308387993
 20
5189.6884855644
 30
0.0
 11
6630.7637803537
 21
5189.370166959
 31
0.0
  0
LINE
  5
1C5
330
1F
100
AcDbEntity
  8
0
  6
Continuous
 62
     7
100
AcDbLine
 10
6630.7637803537
 20
5189.370166959
 30
0.0
 11
6630.3974800092
 21
5189.2119762317
 31
0.0
  0
LINE
  5
1C6
330
1F
100
AcDbEntity
  8
0
  6
Continuous
 62
     7
100
AcDbLine
 10
6629.3974779827
 20
5188.9679846184
 30
0.0
 11
6628.6934428197
 21
5188.9433679001
 31
0.0
  0
LINE
  5
1C7
330
1F
100
AcDbEntity
  8
0
  6
Continuous
 62
     7
100
AcDbLine
 10
6628.6934428197
 20
5188.9433679001
 30
0.0
 11
6628.3974759561
 21
5188.9679846184
 31
0.0
  0
LINE
  5
1C8
330
1F
100
AcDbEntity
  8
0
  6
Continuous
 62
     7
100
AcDbLine
 10
6627.3974739296
 20
5189.2119762317
 30
0.0
 11
6626.6735904199
 21
5189.5667728798
 31
0.0
  0
LINE
  5
1C9
330
1F
100
AcDbEntity
  8
0
  6
Continuous
 62
     7
100
AcDbLine
 10
6626.6735904199
 20
5189.5667728798
 30
0.0
 11
6626.4865659458
 21
5189.6884855644
 31
0.0
  0
LINE
  5
1CA
330
1F
100
AcDbEntity
  8
0
  6
Continuous
 62
     7
100
AcDbLine
 10
6625.3974847776
 20
5190.7775518314
 30
0.0
 11
6625.2038888914
 21
5191.0860952751
 31
0.0
  0
LINE
  5
1CB
330
1F
100
AcDbEntity
  8
0
  6
Continuous
 62
     7
100
AcDbLine
 10
6625.2038888914
 20
5191.0860952751
 30
0.0
 11
6624.9209903461
 21
5191.6884896175
 31
0.0
  0
LINE
  5
1CC
330
1F
100
AcDbEntity
  8
0
  6
Continuous
 62
     7
100
AcDbLine
 10
6624.6769987327
 20
5192.6884767429
 30
0.0
 11
6624.6479414684
 21
5193.125557603
 31
0.0
  0
LINE
  5
1CD
330
1F
100
AcDbEntity
  8
0
  6
Continuous
 62
     7
100
AcDbLine
 10
6624.6479414684
 20
5193.125557603
 30
0.0
 11
6624.6769987327
 21
5193.6884638683
 31
0.0
  0
LINE
  5
1CE
330
1F
100
AcDbEntity
  8
0
  6
Continuous
 62
     7
100
AcDbLine
 10
6624.9209903461
 20
5194.688480796
 30
0.0
 11
6625.1432709676
 21
5195.1805767433
 31
0.0
  0
LINE
  5
1CF
330
1F
100
AcDbEntity
  8
0
  6
Continuous
 62
     7
100
AcDbLine
 10
6625.1432709676
 20
5195.1805767433
 30
0.0
 11
6625.3974847776
 21
5195.5993887798
 31
0.0
  0
LINE
  5
1D0
330
1F
100
AcDbEntity
  8
0
  6
Continuous
 62
     7
100
AcDbLine
 10
6626.4865659458
 20
5196.6884848491
 30
0.0
 11
6626.5673451406
 21
5196.7427548782
 31
0.0
  0
LINE
  5
1D1
330
1F
100
AcDbEntity
  8
0
  6
Continuous
 62
     7
100
AcDbLine
 10
6626.5673451406
 20
5196.7427548782
 30
0.0
 11
6627.3974739296
 21
5197.1649643795
 31
0.0
  0
LINE
  5
1D2
330
1F
100
AcDbEntity
  8
0
  6
Continuous
 62
     7
100
AcDbLine
 10
6628.3974759561
 20
5197.4089559929
 30
0.0
 11
6628.5678558332
 21
5197.4256750957
 31
0.0
  0
LINE
  5
1D3
330
1F
100
AcDbEntity
  8
0
  6
Continuous
 62
     7
100
AcDbLine
 10
6628.5678558332
 20
5197.4256750957
 30
0.0
 11
6629.3974779827
 21
5197.4089559929
 31
0.0
  0
LINE
  5
1D4
330
1F
100
AcDbEntity
  8
0
  6
Continuous
 62
     7
100
AcDbLine
 10
6630.3974800092
 20
5197.1649643795
 30
0.0
 11
6630.6499056799
 21
5197.0603582279
 31
0.0
  0
LINE
  5
1D5
330
1F
100
AcDbEntity
  8
0
  6
Continuous
 62
     7
100
AcDbLine
 10
6630.6499056799
 20
5197.0603582279
 30
0.0
 11
6631.308387993
 21
5196.6884848491
 31
0.0
  0
LINE
  5
1D6
330
1F
100
AcDbEntity
  8
0
  6
Continuous
 62
     7
100
AcDbLine
 10
6632.3974840623
 20
5195.5993887798
 30
0.0
 11
6632.8254305107
 21
5194.8113259689
 31
0.0
  0
LINE
  5
1D7
330
1F
100
AcDbEntity
  8
0
  6
Continuous
 62
     7
100
AcDbLine
 10
6630.5745356065
 20
5193.6884638683
 30
0.0
 11
6630.6474767906
 21
5193.1868907825
 31
0.0
  0
LINE
  5
1D8
330
1F
100
AcDbEntity
  8
0
  6
Continuous
 62
     7
100
AcDbLine
 10
6630.6474767906
 20
5193.1868907825
 30
0.0
 11
6630.5745356065
 21
5192.6884767429
 31
0.0
  0
LINE
  5
1D9
330
1F
100
AcDbEntity
  8
0
  6
Continuous
 62
     7
100
AcDbLine
 10
6629.3974779827
 20
5191.5114340202
 30
0.0
 11
6628.8959048969
 21
5191.438477935
 31
0.0
  0
LINE
  5
1DA
330
1F
100
AcDbEntity
  8
0
  6
Continuous
 62
     7
100
AcDbLine
 10
6628.8959048969
 20
5191.438477935
 30
0.0
 11
6628.3974759561
 21
5191.5114340202
 31
0.0
  0
LINE
  5
1DB
330
1F
100
AcDbEntity
  8
0
  6
Continuous
 62
     7
100
AcDbLine
 10
6627.2204332334
 20
5192.6884767429
 30
0.0
 11
6627.1474771482
 21
5193.1900498287
 31
0.0
  0
LINE
  5
1DC
330
1F
100
AcDbEntity
  8
0
  6
Continuous
 62
     7
100
AcDbLine
 10
6627.1474771482
 20
5193.1900498287
 30
0.0
 11
6627.2204332334
 21
5193.6884638683
 31
0.0
  0
LINE
  5
1DD
330
1F
100
AcDbEntity
  8
0
  6
Continuous
 62
     7
100
AcDbLine
 10
6628.3974759561
 20
5194.8655363933
 30
0.0
 11
6628.8990639431
 21
5194.9384626762
 31
0.0
  0
LINE
  5
1DE
330
1F
100
AcDbEntity
  8
0
  6
Continuous
 62
     7
100
AcDbLine
 10
6628.8990639431
 20
5194.9384626762
 30
0.0
 11
6629.3974779827
 21
5194.8655363933
 31
0.0
  0
LINE
  5
1DF
330
1F
100
AcDbEntity
  8
0
  6
Continuous
 62
     7
100
AcDbLine
 10
6689.3974803669
 20
5164.7384879009
 30
0.0
 11
6689.3974803669
 21
5165.1884731666
 31
0.0
  0
LINE
  5
1E0
330
1F
100
AcDbEntity
  8
0
  6
Continuous
 62
     7
100
AcDbLine
 10
6691.6974745971
 20
5173.07801217
 30
0.0
 11
6691.6974745971
 21
5220.1384720222
 31
0.0
  0
LINE
  5
1E1
330
1F
100
AcDbEntity
  8
0
  6
Continuous
 62
     7
100
AcDbLine
 10
6691.6974745971
 20
5166.238468589
 30
0.0
 11
6691.6974745971
 21
5173.07801217
 31
0.0
  0
LINE
  5
1E2
330
1F
100
AcDbEntity
  8
0
  6
Continuous
 62
     7
100
AcDbLine
 10
6719.7974734289
 20
5168.6384794132
 30
0.0
 11
6719.7974734289
 21
5217.738461198
 31
0.0
  0
LINE
  5
1E3
330
1F
100
AcDbEntity
  8
0
  6
Continuous
 62
     7
100
AcDbLine
 10
6697.5974701625
 20
5168.6384794132
 30
0.0
 11
6697.5974701625
 21
5217.738461198
 31
0.0
  0
LINE
  5
1E4
330
1F
100
AcDbEntity
  8
0
  6
Continuous
 62
     7
100
AcDbLine
 10
6712.4201320392
 20
5168.6903056518
 30
0.0
 11
6712.4201320392
 21
5168.8775834457
 31
0.0
  0
LINE
  5
1E5
330
1F
100
AcDbEntity
  8
0
  6
Continuous
 62
     7
100
AcDbLine
 10
6713.9160447103
 20
5168.8757058994
 30
0.0
 11
6713.9160447103
 21
5168.6899182216
 31
0.0
  0
LINE
  5
1E6
330
1F
100
AcDbEntity
  8
0
  6
Continuous
 62
     7
100
AcDbLine
 10
6713.8910107595
 20
5168.8770768062
 30
0.0
 11
6713.8910107595
 21
5168.6899778263
 31
0.0
  0
LINE
  5
1E7
330
1F
100
AcDbEntity
  8
0
  6
Continuous
 62
     7
100
AcDbLine
 10
6713.7748115045
 20
5168.6903056518
 30
0.0
 11
6713.7748115045
 21
5168.8821133987
 31
0.0
  0
LINE
  5
1E8
330
1F
100
AcDbEntity
  8
0
  6
Continuous
 62
     7
100
AcDbLine
 10
6713.7998454553
 20
5168.6902460472
 30
0.0
 11
6713.7998454553
 21
5168.8819047825
 31
0.0
  0
LINE
  5
1E9
330
1F
100
AcDbEntity
  8
0
  6
Continuous
 62
     7
100
AcDbLine
 10
6632.3974840623
 20
5192.6884767429
 30
0.0
 11
6632.3974840623
 21
5193.6884638683
 31
0.0
  0
LINE
  5
1EA
330
1F
100
AcDbEntity
  8
0
  6
Continuous
 62
     7
100
AcDbLine
 10
6633.3974711877
 20
5192.6884767429
 30
0.0
 11
6632.3974840623
 21
5192.6884767429
 31
0.0
  0
LINE
  5
1EB
330
1F
100
AcDbEntity
  8
0
  6
Continuous
 62
     7
100
AcDbLine
 10
6633.3974711877
 20
5193.6884638683
 30
0.0
 11
6633.3974711877
 21
5192.6884767429
 31
0.0
  0
LINE
  5
1EC
330
1F
100
AcDbEntity
  8
0
  6
Continuous
 62
     7
100
AcDbLine
 10
6632.3974840623
 20
5193.6884638683
 30
0.0
 11
6633.3974711877
 21
5193.6884638683
 31
0.0
  0
LINE
  5
1ED
330
1F
100
AcDbEntity
  8
0
  6
Continuous
 62
     7
100
AcDbLine
 10
6632.3974840623
 20
5190.6884726898
 30
0.0
 11
6632.3974840623
 21
5191.6884896175
 31
0.0
  0
LINE
  5
1EE
330
1F
100
AcDbEntity
  8
0
  6
Continuous
 62
     7
100
AcDbLine
 10
6633.3974711877
 20
5190.6884726898
 30
0.0
 11
6632.3974840623
 21
5190.6884726898
 31
0.0
  0
LINE
  5
1EF
330
1F
100
AcDbEntity
  8
0
  6
Continuous
 62
     7
100
AcDbLine
 10
6633.3974711877
 20
5191.6884896175
 30
0.0
 11
6633.3974711877
 21
5190.6884726898
 31
0.0
  0
LINE
  5
1F0
330
1F
100
AcDbEntity
  8
0
  6
Continuous
 62
     7
100
AcDbLine
 10
6632.3974840623
 20
5191.6884896175
 30
0.0
 11
6633.3974711877
 21
5191.6884896175
 31
0.0
  0
LINE
  5
1F1
330
1F
100
AcDbEntity
  8
0
  6
Continuous
 62
     7
100
AcDbLine
 10
6632.3974840623
 20
5189.1946908848
 30
0.0
 11
6632.3974840623
 21
5189.6884855644
 31
0.0
  0
LINE
  5
1F2
330
1F
100
AcDbEntity
  8
0
  6
Continuous
 62
     7
100
AcDbLine
 10
6632.3974840623
 20
5189.6884855644
 30
0.0
 11
6633.1401132328
 21
5189.6884855644
 31
0.0
  0
LINE
  5
1F3
330
1F
100
AcDbEntity
  8
0
  6
Continuous
 62
     7
100
AcDbLine
 10
6632.3974840623
 20
5196.6884848491
 30
0.0
 11
6632.3974840623
 21
5197.4311289207
 31
0.0
  0
LINE
  5
1F4
330
1F
100
AcDbEntity
  8
0
  6
Continuous
 62
     7
100
AcDbLine
 10
6633.1401132328
 20
5196.6884848491
 30
0.0
 11
6632.3974840623
 21
5196.6884848491
 31
0.0
  0
LINE
  5
1F5
330
1F
100
AcDbEntity
  8
0
  6
Continuous
 62
     7
100
AcDbLine
 10
6632.3974840623
 20
5195.6884679214
 30
0.0
 11
6633.3974711877
 21
5195.6884679214
 31
0.0
  0
LINE
  5
1F6
330
1F
100
AcDbEntity
  8
0
  6
Continuous
 62
     7
100
AcDbLine
 10
6632.3974840623
 20
5194.688480796
 30
0.0
 11
6632.3974840623
 21
5195.6884679214
 31
0.0
  0
LINE
  5
1F7
330
1F
100
AcDbEntity
  8
0
  6
Continuous
 62
     7
100
AcDbLine
 10
6633.3974711877
 20
5194.688480796
 30
0.0
 11
6632.3974840623
 21
5194.688480796
 31
0.0
  0
LINE
  5
1F8
330
1F
100
AcDbEntity
  8
0
  6
Continuous
 62
     7
100
AcDbLine
 10
6633.3974711877
 20
5195.6884679214
 30
0.0
 11
6633.3974711877
 21
5194.688480796
 31
0.0
  0
LINE
  5
1F9
330
1F
100
AcDbEntity
  8
0
  6
Continuous
 62
     7
100
AcDbLine
 10
6628.3974759561
 20
5188.6884686367
 30
0.0
 11
6628.3974759561
 21
5189.6884855644
 31
0.0
  0
LINE
  5
1FA
330
1F
100
AcDbEntity
  8
0
  6
Continuous
 62
     7
100
AcDbLine
 10
6629.3974779827
 20
5188.6884686367
 30
0.0
 11
6628.3974759561
 21
5188.6884686367
 31
0.0
  0
LINE
  5
1FB
330
1F
100
AcDbEntity
  8
0
  6
Continuous
 62
     7
100
AcDbLine
 10
6629.3974779827
 20
5189.6884855644
 30
0.0
 11
6629.3974779827
 21
5188.6884686367
 31
0.0
  0
LINE
  5
1FC
330
1F
100
AcDbEntity
  8
0
  6
Continuous
 62
     7
100
AcDbLine
 10
6628.3974759561
 20
5189.6884855644
 30
0.0
 11
6629.3974779827
 21
5189.6884855644
 31
0.0
  0
LINE
  5
1FD
330
1F
100
AcDbEntity
  8
0
  6
Continuous
 62
     7
100
AcDbLine
 10
6628.3974759561
 20
5190.6884726898
 30
0.0
 11
6628.3974759561
 21
5191.6884896175
 31
0.0
  0
LINE
  5
1FE
330
1F
100
AcDbEntity
  8
0
  6
Continuous
 62
     7
100
AcDbLine
 10
6629.3974779827
 20
5190.6884726898
 30
0.0
 11
6628.3974759561
 21
5190.6884726898
 31
0.0
  0
LINE
  5
1FF
330
1F
100
AcDbEntity
  8
0
  6
Continuous
 62
     7
100
AcDbLine
 10
6629.3974779827
 20
5191.6884896175
 30
0.0
 11
6629.3974779827
 21
5190.6884726898
 31
0.0
  0
LINE
  5
200
330
1F
100
AcDbEntity
  8
0
  6
Continuous
 62
     7
100
AcDbLine
 10
6628.3974759561
 20
5191.6884896175
 30
0.0
 11
6629.3974779827
 21
5191.6884896175
 31
0.0
  0
LINE
  5
201
330
1F
100
AcDbEntity
  8
0
  6
Continuous
 62
     7
100
AcDbLine
 10
6628.3974759561
 20
5192.6884767429
 30
0.0
 11
6628.3974759561
 21
5193.6884638683
 31
0.0
  0
LINE
  5
202
330
1F
100
AcDbEntity
  8
0
  6
Continuous
 62
     7
100
AcDbLine
 10
6629.3974779827
 20
5192.6884767429
 30
0.0
 11
6628.3974759561
 21
5192.6884767429
 31
0.0
  0
LINE
  5
203
330
1F
100
AcDbEntity
  8
0
  6
Continuous
 62
     7
100
AcDbLine
 10
6629.3974779827
 20
5193.6884638683
 30
0.0
 11
6629.3974779827
 21
5192.6884767429
 31
0.0
  0
LINE
  5
204
330
1F
100
AcDbEntity
  8
0
  6
Continuous
 62
     7
100
AcDbLine
 10
6628.3974759561
 20
5193.6884638683
 30
0.0
 11
6629.3974779827
 21
5193.6884638683
 31
0.0
  0
LINE
  5
205
330
1F
100
AcDbEntity
  8
0
  6
Continuous
 62
     7
100
AcDbLine
 10
6628.3974759561
 20
5194.688480796
 30
0.0
 11
6628.3974759561
 21
5195.6884679214
 31
0.0
  0
LINE
  5
206
330
1F
100
AcDbEntity
  8
0
  6
Continuous
 62
     7
100
AcDbLine
 10
6629.3974779827
 20
5194.688480796
 30
0.0
 11
6628.3974759561
 21
5194.688480796
 31
0.0
  0
LINE
  5
207
330
1F
100
AcDbEntity
  8
0
  6
Continuous
 62
     7
100
AcDbLine
 10
6629.3974779827
 20
5195.6884679214
 30
0.0
 11
6629.3974779827
 21
5194.688480796
 31
0.0
  0
LINE
  5
208
330
1F
100
AcDbEntity
  8
0
  6
Continuous
 62
     7
100
AcDbLine
 10
6628.3974759561
 20
5195.6884679214
 30
0.0
 11
6629.3974779827
 21
5195.6884679214
 31
0.0
  0
LINE
  5
209
330
1F
100
AcDbEntity
  8
0
  6
Continuous
 62
     7
100
AcDbLine
 10
6628.3974759561
 20
5196.6884848491
 30
0.0
 11
6628.3974759561
 21
5197.6884719745
 31
0.0
  0
LINE
  5
20A
330
1F
100
AcDbEntity
  8
0
  6
Continuous
 62
     7
100
AcDbLine
 10
6629.3974779827
 20
5196.6884848491
 30
0.0
 11
6628.3974759561
 21
5196.6884848491
 31
0.0
  0
LINE
  5
20B
330
1F
100
AcDbEntity
  8
0
  6
Continuous
 62
     7
100
AcDbLine
 10
6629.3974779827
 20
5197.6884719745
 30
0.0
 11
6629.3974779827
 21
5196.6884848491
 31
0.0
  0
LINE
  5
20C
330
1F
100
AcDbEntity
  8
0
  6
Continuous
 62
     7
100
AcDbLine
 10
6628.3974759561
 20
5197.6884719745
 30
0.0
 11
6629.3974779827
 21
5197.6884719745
 31
0.0
  0
LINE
  5
20D
330
1F
100
AcDbEntity
  8
0
  6
Continuous
 62
     7
100
AcDbLine
 10
6631.3974820358
 20
5197.6884719745
 30
0.0
 11
6631.3974820358
 21
5196.6884848491
 31
0.0
  0
LINE
  5
20E
330
1F
100
AcDbEntity
  8
0
  6
Continuous
 62
     7
100
AcDbLine
 10
6630.3974800092
 20
5197.6884719745
 30
0.0
 11
6631.3974820358
 21
5197.6884719745
 31
0.0
  0
LINE
  5
20F
330
1F
100
AcDbEntity
  8
0
  6
Continuous
 62
     7
100
AcDbLine
 10
6630.3974800092
 20
5196.6884848491
 30
0.0
 11
6630.3974800092
 21
5197.6884719745
 31
0.0
  0
LINE
  5
210
330
1F
100
AcDbEntity
  8
0
  6
Continuous
 62
     7
100
AcDbLine
 10
6631.3974820358
 20
5196.6884848491
 30
0.0
 11
6630.3974800092
 21
5196.6884848491
 31
0.0
  0
LINE
  5
211
330
1F
100
AcDbEntity
  8
0
  6
Continuous
 62
     7
100
AcDbLine
 10
6631.3974820358
 20
5195.6884679214
 30
0.0
 11
6631.3974820358
 21
5194.688480796
 31
0.0
  0
LINE
  5
212
330
1F
100
AcDbEntity
  8
0
  6
Continuous
 62
     7
100
AcDbLine
 10
6630.3974800092
 20
5195.6884679214
 30
0.0
 11
6631.3974820358
 21
5195.6884679214
 31
0.0
  0
LINE
  5
213
330
1F
100
AcDbEntity
  8
0
  6
Continuous
 62
     7
100
AcDbLine
 10
6630.3974800092
 20
5194.688480796
 30
0.0
 11
6630.3974800092
 21
5195.6884679214
 31
0.0
  0
LINE
  5
214
330
1F
100
AcDbEntity
  8
0
  6
Continuous
 62
     7
100
AcDbLine
 10
6631.3974820358
 20
5194.688480796
 30
0.0
 11
6630.3974800092
 21
5194.688480796
 31
0.0
  0
LINE
  5
215
330
1F
100
AcDbEntity
  8
0
  6
Continuous
 62
     7
100
AcDbLine
 10
6631.3974820358
 20
5193.6884638683
 30
0.0
 11
6631.3974820358
 21
5192.6884767429
 31
0.0
  0
LINE
  5
216
330
1F
100
AcDbEntity
  8
0
  6
Continuous
 62
     7
100
AcDbLine
 10
6630.3974800092
 20
5193.6884638683
 30
0.0
 11
6631.3974820358
 21
5193.6884638683
 31
0.0
  0
LINE
  5
217
330
1F
100
AcDbEntity
  8
0
  6
Continuous
 62
     7
100
AcDbLine
 10
6630.3974800092
 20
5192.6884767429
 30
0.0
 11
6630.3974800092
 21
5193.6884638683
 31
0.0
  0
LINE
  5
218
330
1F
100
AcDbEntity
  8
0
  6
Continuous
 62
     7
100
AcDbLine
 10
6631.3974820358
 20
5192.6884767429
 30
0.0
 11
6630.3974800092
 21
5192.6884767429
 31
0.0
  0
LINE
  5
219
330
1F
100
AcDbEntity
  8
0
  6
Continuous
 62
     7
100
AcDbLine
 10
6631.3974820358
 20
5191.6884896175
 30
0.0
 11
6631.3974820358
 21
5190.6884726898
 31
0.0
  0
LINE
  5
21A
330
1F
100
AcDbEntity
  8
0
  6
Continuous
 62
     7
100
AcDbLine
 10
6630.3974800092
 20
5191.6884896175
 30
0.0
 11
6631.3974820358
 21
5191.6884896175
 31
0.0
  0
LINE
  5
21B
330
1F
100
AcDbEntity
  8
0
  6
Continuous
 62
     7
100
AcDbLine
 10
6630.3974800092
 20
5190.6884726898
 30
0.0
 11
6630.3974800092
 21
5191.6884896175
 31
0.0
  0
LINE
  5
21C
330
1F
100
AcDbEntity
  8
0
  6
Continuous
 62
     7
100
AcDbLine
 10
6631.3974820358
 20
5190.6884726898
 30
0.0
 11
6630.3974800092
 21
5190.6884726898
 31
0.0
  0
LINE
  5
21D
330
1F
100
AcDbEntity
  8
0
  6
Continuous
 62
     7
100
AcDbLine
 10
6631.3974820358
 20
5189.6884855644
 30
0.0
 11
6631.3974820358
 21
5189.1666170971
 31
0.0
  0
LINE
  5
21E
330
1F
100
AcDbEntity
  8
0
  6
Continuous
 62
     7
100
AcDbLine
 10
6630.3974800092
 20
5189.6884855644
 30
0.0
 11
6631.3974820358
 21
5189.6884855644
 31
0.0
  0
LINE
  5
21F
330
1F
100
AcDbEntity
  8
0
  6
Continuous
 62
     7
100
AcDbLine
 10
6630.3974800092
 20
5188.6884686367
 30
0.0
 11
6630.3974800092
 21
5189.6884855644
 31
0.0
  0
LINE
  5
220
330
1F
100
AcDbEntity
  8
0
  6
Continuous
 62
     7
100
AcDbLine
 10
6630.6393407566
 20
5188.6884686367
 30
0.0
 11
6630.3974800092
 21
5188.6884686367
 31
0.0
  0
LINE
  5
221
330
1F
100
AcDbEntity
  8
0
  6
Continuous
 62
     7
100
AcDbLine
 10
6627.3974739296
 20
5197.6884719745
 30
0.0
 11
6627.3974739296
 21
5196.6884848491
 31
0.0
  0
LINE
  5
222
330
1F
100
AcDbEntity
  8
0
  6
Continuous
 62
     7
100
AcDbLine
 10
6626.397471903
 20
5197.6884719745
 30
0.0
 11
6627.3974739296
 21
5197.6884719745
 31
0.0
  0
LINE
  5
223
330
1F
100
AcDbEntity
  8
0
  6
Continuous
 62
     7
100
AcDbLine
 10
6626.397471903
 20
5196.6884848491
 30
0.0
 11
6626.397471903
 21
5197.6884719745
 31
0.0
  0
LINE
  5
224
330
1F
100
AcDbEntity
  8
0
  6
Continuous
 62
     7
100
AcDbLine
 10
6627.3974739296
 20
5196.6884848491
 30
0.0
 11
6626.397471903
 21
5196.6884848491
 31
0.0
  0
LINE
  5
225
330
1F
100
AcDbEntity
  8
0
  6
Continuous
 62
     7
100
AcDbLine
 10
6627.3974739296
 20
5195.6884679214
 30
0.0
 11
6627.3974739296
 21
5194.688480796
 31
0.0
  0
LINE
  5
226
330
1F
100
AcDbEntity
  8
0
  6
Continuous
 62
     7
100
AcDbLine
 10
6626.397471903
 20
5195.6884679214
 30
0.0
 11
6627.3974739296
 21
5195.6884679214
 31
0.0
  0
LINE
  5
227
330
1F
100
AcDbEntity
  8
0
  6
Continuous
 62
     7
100
AcDbLine
 10
6626.397471903
 20
5194.688480796
 30
0.0
 11
6626.397471903
 21
5195.6884679214
 31
0.0
  0
LINE
  5
228
330
1F
100
AcDbEntity
  8
0
  6
Continuous
 62
     7
100
AcDbLine
 10
6627.3974739296
 20
5194.688480796
 30
0.0
 11
6626.397471903
 21
5194.688480796
 31
0.0
  0
LINE
  5
229
330
1F
100
AcDbEntity
  8
0
  6
Continuous
 62
     7
100
AcDbLine
 10
6627.3974739296
 20
5193.6884638683
 30
0.0
 11
6627.3974739296
 21
5192.6884767429
 31
0.0
  0
LINE
  5
22A
330
1F
100
AcDbEntity
  8
0
  6
Continuous
 62
     7
100
AcDbLine
 10
6626.397471903
 20
5193.6884638683
 30
0.0
 11
6627.3974739296
 21
5193.6884638683
 31
0.0
  0
LINE
  5
22B
330
1F
100
AcDbEntity
  8
0
  6
Continuous
 62
     7
100
AcDbLine
 10
6626.397471903
 20
5192.6884767429
 30
0.0
 11
6626.397471903
 21
5193.6884638683
 31
0.0
  0
LINE
  5
22C
330
1F
100
AcDbEntity
  8
0
  6
Continuous
 62
     7
100
AcDbLine
 10
6627.3974739296
 20
5192.6884767429
 30
0.0
 11
6626.397471903
 21
5192.6884767429
 31
0.0
  0
LINE
  5
22D
330
1F
100
AcDbEntity
  8
0
  6
Continuous
 62
     7
100
AcDbLine
 10
6627.3974739296
 20
5191.6884896175
 30
0.0
 11
6627.3974739296
 21
5190.6884726898
 31
0.0
  0
LINE
  5
22E
330
1F
100
AcDbEntity
  8
0
  6
Continuous
 62
     7
100
AcDbLine
 10
6627.3974739296
 20
5189.6884855644
 30
0.0
 11
6627.3974739296
 21
5188.6884686367
 31
0.0
  0
LINE
  5
22F
330
1F
100
AcDbEntity
  8
0
  6
Continuous
 62
     7
100
AcDbLine
 10
6626.397471903
 20
5189.6884855644
 30
0.0
 11
6627.3974739296
 21
5189.6884855644
 31
0.0
  0
LINE
  5
230
330
1F
100
AcDbEntity
  8
0
  6
Continuous
 62
     7
100
AcDbLine
 10
6626.397471903
 20
5189.0899655239
 30
0.0
 11
6626.397471903
 21
5189.6884855644
 31
0.0
  0
LINE
  5
231
330
1F
100
AcDbEntity
  8
0
  6
Continuous
 62
     7
100
AcDbLine
 10
6627.3974739296
 20
5188.6884686367
 30
0.0
 11
6626.397471903
 21
5188.6884686367
 31
0.0
  0
LINE
  5
232
330
1F
100
AcDbEntity
  8
0
  6
Continuous
 62
     7
100
AcDbLine
 10
6625.3974847776
 20
5197.4311289207
 30
0.0
 11
6625.3974847776
 21
5196.6884848491
 31
0.0
  0
LINE
  5
233
330
1F
100
AcDbEntity
  8
0
  6
Continuous
 62
     7
100
AcDbLine
 10
6625.3974847776
 20
5196.6884848491
 30
0.0
 11
6624.654840706
 21
5196.6884848491
 31
0.0
  0
LINE
  5
234
330
1F
100
AcDbEntity
  8
0
  6
Continuous
 62
     7
100
AcDbLine
 10
6625.3974847776
 20
5195.6884679214
 30
0.0
 11
6625.3974847776
 21
5194.688480796
 31
0.0
  0
LINE
  5
235
330
1F
100
AcDbEntity
  8
0
  6
Continuous
 62
     7
100
AcDbLine
 10
6625.3974847776
 20
5193.6884638683
 30
0.0
 11
6625.3974847776
 21
5192.6884767429
 31
0.0
  0
LINE
  5
236
330
1F
100
AcDbEntity
  8
0
  6
Continuous
 62
     7
100
AcDbLine
 10
6624.397482751
 20
5192.6884767429
 30
0.0
 11
6624.397482751
 21
5193.6884638683
 31
0.0
  0
LINE
  5
237
330
1F
100
AcDbEntity
  8
0
  6
Continuous
 62
     7
100
AcDbLine
 10
6625.3974847776
 20
5191.6884896175
 30
0.0
 11
6625.3974847776
 21
5190.6884726898
 31
0.0
  0
LINE
  5
238
330
1F
100
AcDbEntity
  8
0
  6
Continuous
 62
     7
100
AcDbLine
 10
6624.397482751
 20
5191.6884896175
 30
0.0
 11
6625.3974847776
 21
5191.6884896175
 31
0.0
  0
LINE
  5
239
330
1F
100
AcDbEntity
  8
0
  6
Continuous
 62
     7
100
AcDbLine
 10
6624.397482751
 20
5190.6884726898
 30
0.0
 11
6624.397482751
 21
5191.6884896175
 31
0.0
  0
LINE
  5
23A
330
1F
100
AcDbEntity
  8
0
  6
Continuous
 62
     7
100
AcDbLine
 10
6625.3974847776
 20
5190.6884726898
 30
0.0
 11
6624.397482751
 21
5190.6884726898
 31
0.0
  0
LINE
  5
23B
330
1F
100
AcDbEntity
  8
0
  6
Continuous
 62
     7
100
AcDbLine
 10
6625.3974847776
 20
5189.1670045273
 30
0.0
 11
6625.3974847776
 21
5188.9458414928
 31
0.0
  0
LINE
  5
23C
330
1F
100
AcDbEntity
  8
0
  6
Continuous
 62
     7
100
AcDbLine
 10
6627.3974739296
 20
5190.6884726898
 30
0.0
 11
6626.397471903
 21
5190.6884726898
 31
0.0
  0
LINE
  5
23D
330
1F
100
AcDbEntity
  8
0
  6
Continuous
 62
     7
100
AcDbLine
 10
6626.397471903
 20
5191.6884896175
 30
0.0
 11
6627.3974739296
 21
5191.6884896175
 31
0.0
  0
LINE
  5
23E
330
1F
100
AcDbEntity
  8
0
  6
Continuous
 62
     7
100
AcDbLine
 10
6624.397482751
 20
5195.6884679214
 30
0.0
 11
6625.3974847776
 21
5195.6884679214
 31
0.0
  0
LINE
  5
23F
330
1F
100
AcDbEntity
  8
0
  6
Continuous
 62
     7
100
AcDbLine
 10
6625.3974847776
 20
5194.688480796
 30
0.0
 11
6624.397482751
 21
5194.688480796
 31
0.0
  0
LINE
  5
240
330
1F
100
AcDbEntity
  8
0
  6
Continuous
 62
     7
100
AcDbLine
 10
6626.397471903
 20
5190.6884726898
 30
0.0
 11
6626.397471903
 21
5191.6884896175
 31
0.0
  0
LINE
  5
241
330
1F
100
AcDbEntity
  8
0
  6
Continuous
 62
     7
100
AcDbLine
 10
6624.397482751
 20
5194.688480796
 30
0.0
 11
6624.397482751
 21
5195.6884679214
 31
0.0
  0
LINE
  5
242
330
1F
100
AcDbEntity
  8
0
  6
Continuous
 62
     7
100
AcDbLine
 10
6624.397482751
 20
5193.6884638683
 30
0.0
 11
6625.3974847776
 21
5193.6884638683
 31
0.0
  0
LINE
  5
243
330
1F
100
AcDbEntity
  8
0
  6
Continuous
 62
     7
100
AcDbLine
 10
6625.3974847776
 20
5192.6884767429
 30
0.0
 11
6624.397482751
 21
5192.6884767429
 31
0.0
  0
LINE
  5
244
330
1F
100
AcDbEntity
  8
0
  6
Continuous
 62
     7
100
AcDbLine
 10
6628.89748442
 20
5330.688488187
 30
0.0
 11
6642.3974745256
 21
5330.688488187
 31
0.0
  0
LINE
  5
245
330
1F
100
AcDbEntity
  8
0
  6
Continuous
 62
     7
100
AcDbLine
 10
6642.3974745256
 20
5330.688488187
 30
0.0
 11
6642.3974745256
 21
5320.1884743587
 31
0.0
  0
LINE
  5
246
330
1F
100
AcDbEntity
  8
0
  6
Continuous
 62
     7
100
AcDbLine
 10
6628.89748442
 20
5330.688488187
 30
0.0
 11
6628.89748442
 21
5320.1884743587
 31
0.0
  0
LINE
  5
247
330
1F
100
AcDbEntity
  8
0
  6
Continuous
 62
     7
100
AcDbLine
 10
6617.8324781639
 20
5338.1884810344
 30
0.0
 11
6615.6769804937
 21
5338.1884810344
 31
0.0
  0
LINE
  5
248
330
1F
100
AcDbEntity
  8
0
  6
Continuous
 62
     7
100
AcDbLine
 10
6623.0372302515
 20
5339.6884617225
 30
0.0
 11
6640.6179778558
 21
5339.6884617225
 31
0.0
  0
LINE
  5
249
330
1F
100
AcDbEntity
  8
0
  6
Continuous
 62
     7
100
AcDbLine
 10
6617.176976083
 20
5339.6884617225
 30
0.0
 11
6623.0372302515
 21
5339.6884617225
 31
0.0
  0
LINE
  5
24A
330
1F
100
AcDbEntity
  8
0
  6
Continuous
 62
     7
100
AcDbLine
 10
6615.3974794132
 20
5330.688488187
 30
0.0
 11
6615.3974794132
 21
5320.1884743587
 31
0.0
  0
LINE
  5
24B
330
1F
100
AcDbEntity
  8
0
  6
Continuous
 62
     7
100
AcDbLine
 10
6615.3974794132
 20
5330.688488187
 30
0.0
 11
6628.89748442
 21
5330.688488187
 31
0.0
  0
LINE
  5
24C
330
1F
100
AcDbEntity
  8
0
  6
Continuous
 62
     7
100
AcDbLine
 10
6642.3974745256
 20
5185.3942391292
 30
0.0
 11
6642.3974745256
 21
5200.982701482
 31
0.0
  0
LINE
  5
24D
330
1F
100
AcDbEntity
  8
0
  6
Continuous
 62
     7
100
AcDbLine
 10
6628.89748442
 20
5177.6000079529
 30
0.0
 11
6642.3974745256
 21
5185.3942391292
 31
0.0
  0
LINE
  5
24E
330
1F
100
AcDbEntity
  8
0
  6
Continuous
 62
     7
100
AcDbLine
 10
6615.3974794132
 20
5185.3942391292
 30
0.0
 11
6628.89748442
 21
5177.6000079529
 31
0.0
  0
LINE
  5
24F
330
1F
100
AcDbEntity
  8
0
  6
Continuous
 62
     7
100
AcDbLine
 10
6615.3974794132
 20
5200.982701482
 30
0.0
 11
6615.3974794132
 21
5185.3942391292
 31
0.0
  0
LINE
  5
250
330
1F
100
AcDbEntity
  8
0
  6
Continuous
 62
     7
100
AcDbLine
 10
6628.89748442
 20
5208.7769326584
 30
0.0
 11
6615.3974794132
 21
5200.982701482
 31
0.0
  0
LINE
  5
251
330
1F
100
AcDbEntity
  8
0
  6
Continuous
 62
     7
100
AcDbLine
 10
6642.3974745256
 20
5200.982701482
 30
0.0
 11
6628.89748442
 21
5208.7769326584
 31
0.0
  0
LINE
  5
252
330
1F
100
AcDbEntity
  8
0
  6
Continuous
 62
     7
100
AcDbLine
 10
6609.8974757177
 20
5318.1884703056
 30
0.0
 11
6609.8974757177
 21
5161.1884650604
 31
0.0
  0
LINE
  5
253
330
1F
100
AcDbEntity
  8
0
  6
Continuous
 62
     7
100
AcDbLine
 10
6609.8974757177
 20
5318.1884703056
 30
0.0
 11
6611.8974773487
 21
5318.1884757228
 31
0.0
  0
LINE
  5
254
330
1F
100
AcDbEntity
  8
0
  6
Continuous
 62
     7
100
AcDbLine
 10
6611.8974773487
 20
5318.1884757228
 30
0.0
 11
6611.8974757177
 21
5161.1884610073
 31
0.0
  0
LINE
  5
255
330
1F
100
AcDbEntity
  8
0
  6
Continuous
 62
     7
100
AcDbLine
 10
6609.8974757177
 20
5161.1884650604
 30
0.0
 11
6611.8974757177
 21
5161.1884610073
 31
0.0
  0
LINE
  5
256
330
1F
100
AcDbEntity
  8
0
  6
Continuous
 62
     7
100
AcDbLine
 10
6611.8974773487
 20
5318.1884757228
 30
0.0
 11
6675.8974753601
 21
5318.1884703056
 31
0.0
  0
LINE
  5
257
330
1F
100
AcDbEntity
  8
0
  6
Continuous
 62
     7
100
AcDbLine
 10
6675.8974753601
 20
5318.1884703056
 30
0.0
 11
6675.8974753601
 21
5161.1884650604
 31
0.0
  0
LINE
  5
258
330
1F
100
AcDbEntity
  8
0
  6
Continuous
 62
     7
100
AcDbLine
 10
6611.8974757177
 20
5161.1884610073
 30
0.0
 11
6675.8974753601
 21
5161.1884650604
 31
0.0
  0
LINE
  5
259
330
1F
100
AcDbEntity
  8
0
  6
Continuous
 62
     7
100
AcDbLine
 10
6677.8974794132
 20
5161.1884650604
 30
0.0
 11
6675.8974753601
 21
5163.1884691135
 31
0.0
  0
LINE
  5
25A
330
1F
100
AcDbEntity
  8
0
  6
Continuous
 62
     7
100
AcDbLine
 10
6611.8974797708
 20
5159.1884610073
 30
0.0
 11
6611.8974757177
 21
5161.1884610073
 31
0.0
  0
LINE
  5
25B
330
1F
100
AcDbEntity
  8
0
  6
Continuous
 62
     7
100
AcDbLine
 10
6677.8974794132
 20
5161.1884650604
 30
0.0
 11
6677.8974794132
 21
5159.1884610073
 31
0.0
  0
LINE
  5
25C
330
1F
100
AcDbEntity
  8
0
  6
Continuous
 62
     7
100
AcDbLine
 10
6611.8974797708
 20
5159.1884610073
 30
0.0
 11
6677.8974794132
 21
5159.1884610073
 31
0.0
  0
LINE
  5
25D
330
1F
100
AcDbEntity
  8
0
  6
Continuous
 62
     7
100
AcDbLine
 10
6677.8974794132
 20
5320.1884773538
 30
0.0
 11
6677.8974814397
 21
5318.1884757228
 31
0.0
  0
LINE
  5
25E
330
1F
100
AcDbEntity
  8
0
  6
Continuous
 62
     7
100
AcDbLine
 10
6611.8974773487
 20
5318.1884757228
 30
0.0
 11
6611.8974797708
 21
5320.1884773538
 31
0.0
  0
LINE
  5
25F
330
1F
100
AcDbEntity
  8
0
  6
Continuous
 62
     7
100
AcDbLine
 10
6611.8974797708
 20
5320.1884773538
 30
0.0
 11
6677.8974794132
 21
5320.1884773538
 31
0.0
  0
LINE
  5
260
330
1F
100
AcDbEntity
  8
0
  6
Continuous
 62
     7
100
AcDbLine
 10
6677.8974814397
 20
5318.1884757228
 30
0.0
 11
6675.8974753601
 21
5316.1884662525
 31
0.0
  0
LINE
  5
261
330
1F
100
AcDbEntity
  8
0
  6
Continuous
 62
     7
100
AcDbLine
 10
6675.8974753601
 20
5207.1884688751
 30
0.0
 11
6677.8974794132
 21
5207.1884688751
 31
0.0
  0
LINE
  5
262
330
1F
100
AcDbEntity
  8
0
  6
Continuous
 62
     7
100
AcDbLine
 10
6677.8974794132
 20
5161.1984786407
 30
0.0
 11
6677.8974794132
 21
5207.1884688751
 31
0.0
  0
LINE
  5
263
330
1F
100
AcDbEntity
  8
0
  6
Continuous
 62
     7
100
AcDbLine
 10
6677.8974794132
 20
5161.1984786407
 30
0.0
 11
6675.8974753601
 21
5163.1984826938
 31
0.0
  0
LINE
  5
264
330
1F
100
AcDbEntity
  8
0
  6
Continuous
 62
     7
100
AcDbLine
 10
6677.8974794132
 20
5207.1884688751
 30
0.0
 11
6679.3974750024
 21
5207.1884688751
 31
0.0
  0
LINE
  5
265
330
1F
100
AcDbEntity
  8
0
  6
Continuous
 62
     7
100
AcDbLine
 10
6677.8974794132
 20
5272.1884664909
 30
0.0
 11
6677.8974794132
 21
5318.1784865276
 31
0.0
  0
LINE
  5
266
330
1F
100
AcDbEntity
  8
0
  6
Continuous
 62
     7
100
AcDbLine
 10
6675.8974753601
 20
5272.1884664909
 30
0.0
 11
6677.8974794132
 21
5272.1884664909
 31
0.0
  0
LINE
  5
267
330
1F
100
AcDbEntity
  8
0
  6
Continuous
 62
     7
100
AcDbLine
 10
6677.8974794132
 20
5318.1784865276
 30
0.0
 11
6675.8974753601
 21
5316.1784824745
 31
0.0
  0
LINE
  5
268
330
1F
100
AcDbEntity
  8
0
  6
Continuous
 62
     7
100
AcDbLine
 10
6678.8974814397
 20
5161.1884650604
 30
0.0
 11
6679.3974750024
 21
5161.1884650604
 31
0.0
  0
LINE
  5
269
330
1F
100
AcDbEntity
  8
0
  6
Continuous
 62
     7
100
AcDbLine
 10
6678.8974814397
 20
5318.1884703056
 30
0.0
 11
6679.3974750024
 21
5318.1884703056
 31
0.0
  0
LINE
  5
26A
330
1F
100
AcDbEntity
  8
0
  6
Continuous
 62
     7
100
AcDbLine
 10
6679.3974750024
 20
5272.1884664909
 30
0.0
 11
6677.8974794132
 21
5272.1884664909
 31
0.0
  0
LINE
  5
26B
330
1F
100
AcDbEntity
  8
0
  6
Continuous
 62
     7
100
AcDbLine
 10
6638.0474828464
 20
5158.2884904758
 30
0.0
 11
6651.2474827749
 21
5158.2884904758
 31
0.0
  0
LINE
  5
26C
330
1F
100
AcDbEntity
  8
0
  6
Continuous
 62
     7
100
AcDbLine
 10
6632.8105889541
 20
5189.6884855644
 30
0.0
 11
6632.8089349252
 21
5189.6866378204
 31
0.0
  0
LINE
  5
26D
330
1F
100
AcDbEntity
  8
0
  6
Continuous
 62
     7
100
AcDbLine
 10
6632.8089349252
 20
5189.6866378204
 30
0.0
 11
6632.3974840623
 21
5189.2753657715
 31
0.0
  0
LINE
  5
26E
330
1F
100
AcDbEntity
  8
0
  6
Continuous
 62
     7
100
AcDbLine
 10
6624.9843649847
 20
5196.6884848491
 30
0.0
 11
6624.9860190136
 21
5196.6903325931
 31
0.0
  0
LINE
  5
26F
330
1F
100
AcDbEntity
  8
0
  6
Continuous
 62
     7
100
AcDbLine
 10
6624.9860190136
 20
5196.6903325931
 30
0.0
 11
6625.3974847776
 21
5197.1016046421
 31
0.0
  0
LINE
  5
270
330
1F
100
AcDbEntity
  8
0
  6
Continuous
 62
     7
100
AcDbLine
 10
6632.3974840623
 20
5197.1016046421
 30
0.0
 11
6632.3993318063
 21
5197.099935712
 31
0.0
  0
LINE
  5
271
330
1F
100
AcDbEntity
  8
0
  6
Continuous
 62
     7
100
AcDbLine
 10
6632.3993318063
 20
5197.099935712
 30
0.0
 11
6632.8105889541
 21
5196.6884848491
 31
0.0
  0
LINE
  5
272
330
1F
100
AcDbEntity
  8
0
  6
Continuous
 62
     7
100
AcDbLine
 10
6690.1974790079
 20
5171.9586965458
 30
0.0
 11
6690.1974790079
 21
5221.6384825126
 31
0.0
  0
LINE
  5
273
330
1F
100
AcDbEntity
  8
0
  6
Continuous
 62
     7
100
AcDbLine
 10
6690.1974790079
 20
5164.7384879009
 30
0.0
 11
6690.1974790079
 21
5171.9586965458
 31
0.0
  0
LINE
  5
274
330
1F
100
AcDbEntity
  8
0
  6
Continuous
 62
     7
100
AcDbLine
 10
6677.8974794132
 20
5161.1884650604
 30
0.0
 11
6675.8974753601
 21
5161.1884650604
 31
0.0
  0
LINE
  5
275
330
1F
100
AcDbEntity
  8
0
  6
Continuous
 62
     7
100
AcDbLine
 10
6675.8974753601
 20
5318.1884703056
 30
0.0
 11
6677.8974814397
 21
5318.1884757228
 31
0.0
  0
LINE
  5
276
330
1F
100
AcDbEntity
  8
0
  6
Continuous
 62
     7
100
AcDbLine
 10
6271.4687626079
 20
4876.3122798745
 30
0.0
 11
6270.0719277576
 21
4876.3122798745
 31
0.0
  0
LINE
  5
277
330
1F
100
AcDbEntity
  8
0
  6
Continuous
 62
     7
100
AcDbLine
 10
6270.0719277576
 20
4875.0122876708
 30
0.0
 11
6271.4687626079
 21
4875.0122876708
 31
0.0
  0
LINE
  5
278
330
1F
100
AcDbEntity
  8
0
  6
Continuous
 62
     7
100
AcDbLine
 10
6245.5687563136
 20
4815.1622803752
 30
0.0
 11
6245.5687563136
 21
4814.3622817342
 31
0.0
  0
LINE
  5
279
330
1F
100
AcDbEntity
  8
0
  6
Continuous
 62
     7
100
AcDbLine
 10
6302.4687509254
 20
4814.3622817342
 30
0.0
 11
6302.4687509254
 21
4815.1622803752
 31
0.0
  0
LINE
  5
27A
330
1F
100
AcDbEntity
  8
0
  6
Continuous
 62
     7
100
AcDbLine
 10
6249.4687478259
 20
4806.9622905795
 30
0.0
 11
6249.4687478259
 21
4784.7622873132
 31
0.0
  0
LINE
  5
27B
330
1F
100
AcDbEntity
  8
0
  6
Continuous
 62
     7
100
AcDbLine
 10
6298.5687594131
 20
4784.7622873132
 30
0.0
 11
6298.5687594131
 21
4806.9622905795
 31
0.0
  0
LINE
  5
27C
330
1F
100
AcDbEntity
  8
0
  6
Continuous
 62
     7
100
AcDbLine
 10
6250.6187598422
 20
4826.6622813288
 30
0.0
 11
6250.6187598422
 21
4825.1622857396
 31
0.0
  0
LINE
  5
27D
330
1F
100
AcDbEntity
  8
0
  6
Continuous
 62
     7
100
AcDbLine
 10
6250.6187598422
 20
4812.8622861449
 30
0.0
 11
6250.6187598422
 21
4806.9622905795
 31
0.0
  0
LINE
  5
27E
330
1F
100
AcDbEntity
  8
0
  6
Continuous
 62
     7
100
AcDbLine
 10
6297.4187473968
 20
4806.9622905795
 30
0.0
 11
6297.4187473968
 21
4812.8622861449
 31
0.0
  0
LINE
  5
27F
330
1F
100
AcDbEntity
  8
0
  6
Continuous
 62
     7
100
AcDbLine
 10
6297.4187473968
 20
4825.1622857396
 30
0.0
 11
6297.4187473968
 21
4826.6622813288
 31
0.0
  0
LINE
  5
280
330
1F
100
AcDbEntity
  8
0
  6
Continuous
 62
     7
100
AcDbLine
 10
6197.0287601665
 20
4887.9222812001
 30
0.0
 11
6197.0187465862
 21
4887.9122825209
 31
0.0
  0
LINE
  5
281
330
1F
100
AcDbEntity
  8
0
  6
Continuous
 62
     7
100
AcDbLine
 10
6197.0187465862
 20
4863.4122850243
 30
0.0
 11
6197.0287601665
 21
4863.4022863452
 31
0.0
  0
LINE
  5
282
330
1F
100
AcDbEntity
  8
0
  6
Continuous
 62
     7
100
AcDbLine
 10
6351.0087470725
 20
4863.4022863452
 30
0.0
 11
6351.0187606528
 21
4863.4122850243
 31
0.0
  0
LINE
  5
283
330
1F
100
AcDbEntity
  8
0
  6
Continuous
 62
     7
100
AcDbLine
 10
6351.0187606528
 20
4887.9122825209
 30
0.0
 11
6351.0087470725
 21
4887.9222812001
 31
0.0
  0
LINE
  5
284
330
1F
100
AcDbEntity
  8
0
  6
Continuous
 62
     7
100
AcDbLine
 10
6370.267425032
 20
4862.6904429738
 30
0.0
 11
6371.5187649444
 21
4863.9417828862
 31
0.0
  0
LINE
  5
285
330
1F
100
AcDbEntity
  8
0
  6
Continuous
 62
     7
100
AcDbLine
 10
6371.5187649444
 20
4887.3827846591
 30
0.0
 11
6370.7848827556
 21
4888.1166370456
 31
0.0
  0
LINE
  5
286
330
1F
100
AcDbEntity
  8
0
  6
Continuous
 62
     7
100
AcDbLine
 10
6368.8140551761
 20
4862.4417872969
 30
0.0
 11
6369.2107240871
 21
4862.4417872969
 31
0.0
  0
LINE
  5
287
330
1F
100
AcDbEntity
  8
0
  6
Continuous
 62
     7
100
AcDbLine
 10
6367.2265450671
 20
4862.4417872969
 30
0.0
 11
6367.6232139781
 21
4862.4417872969
 31
0.0
  0
LINE
  5
288
330
1F
100
AcDbEntity
  8
0
  6
Continuous
 62
     7
100
AcDbLine
 10
6365.6390647605
 20
4862.4417872969
 30
0.0
 11
6366.0357038692
 21
4862.4417872969
 31
0.0
  0
LINE
  5
289
330
1F
100
AcDbEntity
  8
0
  6
Continuous
 62
     7
100
AcDbLine
 10
6364.0515546516
 20
4862.4417872969
 30
0.0
 11
6364.4482235625
 21
4862.4417872969
 31
0.0
  0
LINE
  5
28A
330
1F
100
AcDbEntity
  8
0
  6
Continuous
 62
     7
100
AcDbLine
 10
6362.5187616065
 20
4862.4417872969
 30
0.0
 11
6362.8607134536
 21
4862.4417872969
 31
0.0
  0
LINE
  5
28B
330
1F
100
AcDbEntity
  8
0
  6
Continuous
 62
     7
100
AcDbLine
 10
6363.6544983104
 20
4888.8827802483
 30
0.0
 11
6363.2577399924
 21
4888.8827802483
 31
0.0
  0
LINE
  5
28C
330
1F
100
AcDbEntity
  8
0
  6
Continuous
 62
     7
100
AcDbLine
 10
6365.2420084193
 20
4888.8827802483
 30
0.0
 11
6364.8452202991
 21
4888.8827802483
 31
0.0
  0
LINE
  5
28D
330
1F
100
AcDbEntity
  8
0
  6
Continuous
 62
     7
100
AcDbLine
 10
6366.8295185283
 20
4888.8827802483
 30
0.0
 11
6366.432730408
 21
4888.8827802483
 31
0.0
  0
LINE
  5
28E
330
1F
100
AcDbEntity
  8
0
  6
Continuous
 62
     7
100
AcDbLine
 10
6368.4169988349
 20
4888.8827802483
 30
0.0
 11
6368.020240517
 21
4888.8827802483
 31
0.0
  0
LINE
  5
28F
330
1F
100
AcDbEntity
  8
0
  6
Continuous
 62
     7
100
AcDbLine
 10
6370.018754454
 20
4888.8827802483
 30
0.0
 11
6369.6077208236
 21
4888.8827802483
 31
0.0
  0
LINE
  5
290
330
1F
100
AcDbEntity
  8
0
  6
Continuous
 62
     7
100
AcDbLine
 10
6369.110975714
 20
4888.0235047881
 30
0.0
 11
6368.9177076534
 21
4888.0235047881
 31
0.0
  0
LINE
  5
291
330
1F
100
AcDbEntity
  8
0
  6
Continuous
 62
     7
100
AcDbLine
 10
6367.5234656051
 20
4888.0235047881
 30
0.0
 11
6367.3301975444
 21
4888.0235047881
 31
0.0
  0
LINE
  5
292
330
1F
100
AcDbEntity
  8
0
  6
Continuous
 62
     7
100
AcDbLine
 10
6365.9359554961
 20
4888.0235047881
 30
0.0
 11
6365.7426874355
 21
4888.0235047881
 31
0.0
  0
LINE
  5
293
330
1F
100
AcDbEntity
  8
0
  6
Continuous
 62
     7
100
AcDbLine
 10
6364.3484751895
 20
4888.0235047881
 30
0.0
 11
6364.1552071288
 21
4888.0235047881
 31
0.0
  0
LINE
  5
294
330
1F
100
AcDbEntity
  8
0
  6
Continuous
 62
     7
100
AcDbLine
 10
6362.7609650806
 20
4888.0235047881
 30
0.0
 11
6362.5625412181
 21
4888.0235047881
 31
0.0
  0
LINE
  5
295
330
1F
100
AcDbEntity
  8
0
  6
Continuous
 62
     7
100
AcDbLine
 10
6368.1187669948
 20
4863.3010627572
 30
0.0
 11
6368.3131079391
 21
4863.3010627572
 31
0.0
  0
LINE
  5
296
330
1F
100
AcDbEntity
  8
0
  6
Continuous
 62
     7
100
AcDbLine
 10
6366.5312866882
 20
4863.3010627572
 30
0.0
 11
6366.7255978301
 21
4863.3010627572
 31
0.0
  0
LINE
  5
297
330
1F
100
AcDbEntity
  8
0
  6
Continuous
 62
     7
100
AcDbLine
 10
6364.9437765792
 20
4863.3010627572
 30
0.0
 11
6365.1381175235
 21
4863.3010627572
 31
0.0
  0
LINE
  5
298
330
1F
100
AcDbEntity
  8
0
  6
Continuous
 62
     7
100
AcDbLine
 10
6363.3562664703
 20
4863.3010627572
 30
0.0
 11
6363.5506074146
 21
4863.3010627572
 31
0.0
  0
LINE
  5
299
330
1F
100
AcDbEntity
  8
0
  6
Continuous
 62
     7
100
AcDbLine
 10
6369.7062771037
 20
4863.3010627572
 30
0.0
 11
6369.900618048
 21
4863.3010627572
 31
0.0
  0
LINE
  5
29A
330
1F
100
AcDbEntity
  8
0
  6
Continuous
 62
     7
100
AcDbLine
 10
6370.6984560207
 20
4888.0235047881
 30
0.0
 11
6370.50518796
 21
4888.0235047881
 31
0.0
  0
LINE
  5
29B
330
1F
100
AcDbEntity
  8
0
  6
Continuous
 62
     7
100
AcDbLine
 10
6177.7701120094
 20
4888.6341245715
 30
0.0
 11
6176.5187422946
 21
4887.3827846591
 31
0.0
  0
LINE
  5
29C
330
1F
100
AcDbEntity
  8
0
  6
Continuous
 62
     7
100
AcDbLine
 10
6176.5187422946
 20
4863.9417828862
 30
0.0
 11
6177.2526244834
 21
4863.2079155986
 31
0.0
  0
LINE
  5
29D
330
1F
100
AcDbEntity
  8
0
  6
Continuous
 62
     7
100
AcDbLine
 10
6179.2234520629
 20
4888.8827802483
 30
0.0
 11
6178.8267831519
 21
4888.8827802483
 31
0.0
  0
LINE
  5
29E
330
1F
100
AcDbEntity
  8
0
  6
Continuous
 62
     7
100
AcDbLine
 10
6180.8109621719
 20
4888.8827802483
 30
0.0
 11
6180.4142932609
 21
4888.8827802483
 31
0.0
  0
LINE
  5
29F
330
1F
100
AcDbEntity
  8
0
  6
Continuous
 62
     7
100
AcDbLine
 10
6182.3984424785
 20
4888.8827802483
 30
0.0
 11
6182.0018033698
 21
4888.8827802483
 31
0.0
  0
LINE
  5
2A0
330
1F
100
AcDbEntity
  8
0
  6
Continuous
 62
     7
100
AcDbLine
 10
6183.9859525874
 20
4888.8827802483
 30
0.0
 11
6183.5892836765
 21
4888.8827802483
 31
0.0
  0
LINE
  5
2A1
330
1F
100
AcDbEntity
  8
0
  6
Continuous
 62
     7
100
AcDbLine
 10
6185.5187456325
 20
4888.8827802483
 30
0.0
 11
6185.1767937854
 21
4888.8827802483
 31
0.0
  0
LINE
  5
2A2
330
1F
100
AcDbEntity
  8
0
  6
Continuous
 62
     7
100
AcDbLine
 10
6184.3830089286
 20
4862.4417872969
 30
0.0
 11
6184.7797672466
 21
4862.4417872969
 31
0.0
  0
LINE
  5
2A3
330
1F
100
AcDbEntity
  8
0
  6
Continuous
 62
     7
100
AcDbLine
 10
6182.7954988197
 20
4862.4417872969
 30
0.0
 11
6183.1922869399
 21
4862.4417872969
 31
0.0
  0
LINE
  5
2A4
330
1F
100
AcDbEntity
  8
0
  6
Continuous
 62
     7
100
AcDbLine
 10
6181.2079887107
 20
4862.4417872969
 30
0.0
 11
6181.604776831
 21
4862.4417872969
 31
0.0
  0
LINE
  5
2A5
330
1F
100
AcDbEntity
  8
0
  6
Continuous
 62
     7
100
AcDbLine
 10
6179.6205084041
 20
4862.4417872969
 30
0.0
 11
6180.017266722
 21
4862.4417872969
 31
0.0
  0
LINE
  5
2A6
330
1F
100
AcDbEntity
  8
0
  6
Continuous
 62
     7
100
AcDbLine
 10
6178.018752785
 20
4862.4417872969
 30
0.0
 11
6178.4297864154
 21
4862.4417872969
 31
0.0
  0
LINE
  5
2A7
330
1F
100
AcDbEntity
  8
0
  6
Continuous
 62
     7
100
AcDbLine
 10
6178.926531525
 20
4863.3010627572
 30
0.0
 11
6179.1197995857
 21
4863.3010627572
 31
0.0
  0
LINE
  5
2A8
330
1F
100
AcDbEntity
  8
0
  6
Continuous
 62
     7
100
AcDbLine
 10
6180.5140416339
 20
4863.3010627572
 30
0.0
 11
6180.7073096946
 21
4863.3010627572
 31
0.0
  0
LINE
  5
2A9
330
1F
100
AcDbEntity
  8
0
  6
Continuous
 62
     7
100
AcDbLine
 10
6182.1015517429
 20
4863.3010627572
 30
0.0
 11
6182.2948198035
 21
4863.3010627572
 31
0.0
  0
LINE
  5
2AA
330
1F
100
AcDbEntity
  8
0
  6
Continuous
 62
     7
100
AcDbLine
 10
6183.6890320495
 20
4863.3010627572
 30
0.0
 11
6183.8823001102
 21
4863.3010627572
 31
0.0
  0
LINE
  5
2AB
330
1F
100
AcDbEntity
  8
0
  6
Continuous
 62
     7
100
AcDbLine
 10
6185.2765421584
 20
4863.3010627572
 30
0.0
 11
6185.4749660209
 21
4863.3010627572
 31
0.0
  0
LINE
  5
2AC
330
1F
100
AcDbEntity
  8
0
  6
Continuous
 62
     7
100
AcDbLine
 10
6179.9187402442
 20
4888.0235047881
 30
0.0
 11
6179.7243992999
 21
4888.0235047881
 31
0.0
  0
LINE
  5
2AD
330
1F
100
AcDbEntity
  8
0
  6
Continuous
 62
     7
100
AcDbLine
 10
6181.5062205508
 20
4888.0235047881
 30
0.0
 11
6181.3119094089
 21
4888.0235047881
 31
0.0
  0
LINE
  5
2AE
330
1F
100
AcDbEntity
  8
0
  6
Continuous
 62
     7
100
AcDbLine
 10
6183.0937306598
 20
4888.0235047881
 30
0.0
 11
6182.8993897155
 21
4888.0235047881
 31
0.0
  0
LINE
  5
2AF
330
1F
100
AcDbEntity
  8
0
  6
Continuous
 62
     7
100
AcDbLine
 10
6184.6812407687
 20
4888.0235047881
 30
0.0
 11
6184.4868998245
 21
4888.0235047881
 31
0.0
  0
LINE
  5
2B0
330
1F
100
AcDbEntity
  8
0
  6
Continuous
 62
     7
100
AcDbLine
 10
6178.3312301353
 20
4888.0235047881
 30
0.0
 11
6178.136889191
 21
4888.0235047881
 31
0.0
  0
LINE
  5
2B1
330
1F
100
AcDbEntity
  8
0
  6
Continuous
 62
     7
100
AcDbLine
 10
6177.3390512183
 20
4863.3010627572
 30
0.0
 11
6177.532319279
 21
4863.3010627572
 31
0.0
  0
LINE
  5
2B2
330
1F
100
AcDbEntity
  8
0
  6
Continuous
 62
     7
100
AcDbLine
 10
6327.3139636234
 20
4815.1372762267
 30
0.0
 11
6327.3139636234
 21
4815.1622803752
 31
0.0
  0
LINE
  5
2B3
330
1F
100
AcDbEntity
  8
0
  6
Continuous
 62
     7
100
AcDbLine
 10
6327.3139636234
 20
4815.1372762267
 30
0.0
 11
6310.9558264926
 21
4815.1372762267
 31
0.0
  0
LINE
  5
2B4
330
1F
100
AcDbEntity
  8
0
  6
Continuous
 62
     7
100
AcDbLine
 10
6310.9558264926
 20
4815.1372762267
 30
0.0
 11
6310.9558264926
 21
4815.1622803752
 31
0.0
  0
LINE
  5
2B5
330
1F
100
AcDbEntity
  8
0
  6
Continuous
 62
     7
100
AcDbLine
 10
6309.2937807754
 20
4815.1372762267
 30
0.0
 11
6309.2937807754
 21
4815.1622803752
 31
0.0
  0
LINE
  5
2B6
330
1F
100
AcDbEntity
  8
0
  6
Continuous
 62
     7
100
AcDbLine
 10
6309.0258280948
 20
4815.1372762267
 30
0.0
 11
6309.0258280948
 21
4815.1622803752
 31
0.0
  0
LINE
  5
2B7
330
1F
100
AcDbEntity
  8
0
  6
Continuous
 62
     7
100
AcDbLine
 10
6309.1691772655
 20
4815.1372762267
 30
0.0
 11
6309.0258280948
 21
4815.1372762267
 31
0.0
  0
LINE
  5
2B8
330
1F
100
AcDbEntity
  8
0
  6
Continuous
 62
     7
100
AcDbLine
 10
6332.4071507171
 20
4815.1372762267
 30
0.0
 11
6332.4071507171
 21
4815.1622803752
 31
0.0
  0
LINE
  5
2B9
330
1F
100
AcDbEntity
  8
0
  6
Continuous
 62
     7
100
AcDbLine
 10
6330.5356244758
 20
4815.1372762267
 30
0.0
 11
6330.5356244758
 21
4815.1622803752
 31
0.0
  0
LINE
  5
2BA
330
1F
100
AcDbEntity
  8
0
  6
Continuous
 62
     7
100
AcDbLine
 10
6328.0652205661
 20
4815.1372762267
 30
0.0
 11
6328.0652205661
 21
4815.1622803752
 31
0.0
  0
LINE
  5
2BB
330
1F
100
AcDbEntity
  8
0
  6
Continuous
 62
     7
100
AcDbLine
 10
6329.8303525165
 20
4815.1372762267
 30
0.0
 11
6329.8303525165
 21
4815.1622803752
 31
0.0
  0
LINE
  5
2BC
330
1F
100
AcDbEntity
  8
0
  6
Continuous
 62
     7
100
AcDbLine
 10
6333.4132175163
 20
4815.1372762267
 30
0.0
 11
6333.4132175163
 21
4815.1622803752
 31
0.0
  0
LINE
  5
2BD
330
1F
100
AcDbEntity
  8
0
  6
Continuous
 62
     7
100
AcDbLine
 10
6333.2511226848
 20
4815.1372762267
 30
0.0
 11
6333.2511226848
 21
4815.1622803752
 31
0.0
  0
LINE
  5
2BE
330
1F
100
AcDbEntity
  8
0
  6
Continuous
 62
     7
100
AcDbLine
 10
6333.5841338351
 20
4815.1372762267
 30
0.0
 11
6333.5841338351
 21
4815.1622803752
 31
0.0
  0
LINE
  5
2BF
330
1F
100
AcDbEntity
  8
0
  6
Continuous
 62
     7
100
AcDbLine
 10
6333.6446027473
 20
4815.1372762267
 30
0.0
 11
6333.6446027473
 21
4815.1622803752
 31
0.0
  0
LINE
  5
2C0
330
1F
100
AcDbEntity
  8
0
  6
Continuous
 62
     7
100
AcDbLine
 10
6333.7124030307
 20
4815.1372762267
 30
0.0
 11
6333.7124030307
 21
4815.1622803752
 31
0.0
  0
LINE
  5
2C1
330
1F
100
AcDbEntity
  8
0
  6
Continuous
 62
     7
100
AcDbLine
 10
6333.4386985019
 20
4815.1372762267
 30
0.0
 11
6332.8572551921
 21
4815.1372762267
 31
0.0
  0
LINE
  5
2C2
330
1F
100
AcDbEntity
  8
0
  6
Continuous
 62
     7
100
AcDbLine
 10
6333.4386985019
 20
4815.1372762267
 30
0.0
 11
6334.0201418117
 21
4815.1372762267
 31
0.0
  0
LINE
  5
2C3
330
1F
100
AcDbEntity
  8
0
  6
Continuous
 62
     7
100
AcDbLine
 10
6199.018760176
 20
4825.1622803752
 30
0.0
 11
6199.0187506393
 21
4815.1622803752
 31
0.0
  0
LINE
  5
2C4
330
1F
100
AcDbEntity
  8
0
  6
Continuous
 62
     7
100
AcDbLine
 10
6199.018760176
 20
4825.1622803752
 30
0.0
 11
6189.018760176
 21
4825.1622857396
 31
0.0
  0
LINE
  5
2C5
330
1F
100
AcDbEntity
  8
0
  6
Continuous
 62
     7
100
AcDbLine
 10
6349.018747063
 20
4825.1622803752
 30
0.0
 11
6349.0187565997
 21
4815.1622803752
 31
0.0
  0
LINE
  5
2C6
330
1F
100
AcDbEntity
  8
0
  6
Continuous
 62
     7
100
AcDbLine
 10
6349.0187565997
 20
4815.1622803752
 30
0.0
 11
6199.0187506393
 21
4815.1622803752
 31
0.0
  0
LINE
  5
2C7
330
1F
100
AcDbEntity
  8
0
  6
Continuous
 62
     7
100
AcDbLine
 10
6349.018747063
 20
4825.1622803752
 30
0.0
 11
6199.018760176
 21
4825.1622803752
 31
0.0
  0
LINE
  5
2C8
330
1F
100
AcDbEntity
  8
0
  6
Continuous
 62
     7
100
AcDbLine
 10
6359.018747063
 20
4825.1622857396
 30
0.0
 11
6349.018747063
 21
4825.1622803752
 31
0.0
  0
LINE
  5
2C9
330
1F
100
AcDbEntity
  8
0
  6
Continuous
 62
     7
100
AcDbLine
 10
6271.4687626079
 20
4876.3122798745
 30
0.0
 11
6271.4687626079
 21
4875.0122876708
 31
0.0
  0
LINE
  5
2CA
330
1F
100
AcDbEntity
  8
0
  6
Continuous
 62
     7
100
AcDbLine
 10
6247.068766804
 20
4812.8622861449
 30
0.0
 11
6300.968740435
 21
4812.8622861449
 31
0.0
  0
LINE
  5
2CB
330
1F
100
AcDbEntity
  8
0
  6
Continuous
 62
     7
100
AcDbLine
 10
6274.3489484504
 20
4784.7622873132
 30
0.0
 11
6298.5687594131
 21
4784.7622873132
 31
0.0
  0
LINE
  5
2CC
330
1F
100
AcDbEntity
  8
0
  6
Continuous
 62
     7
100
AcDbLine
 10
6249.4687478259
 20
4784.7622873132
 30
0.0
 11
6274.3489484504
 21
4784.7622873132
 31
0.0
  0
LINE
  5
2CD
330
1F
100
AcDbEntity
  8
0
  6
Continuous
 62
     7
100
AcDbLine
 10
6274.3489484504
 20
4806.9622905795
 30
0.0
 11
6298.5687594131
 21
4806.9622905795
 31
0.0
  0
LINE
  5
2CE
330
1F
100
AcDbEntity
  8
0
  6
Continuous
 62
     7
100
AcDbLine
 10
6249.4687478259
 20
4806.9622905795
 30
0.0
 11
6274.3489484504
 21
4806.9622905795
 31
0.0
  0
LINE
  5
2CF
330
1F
100
AcDbEntity
  8
0
  6
Continuous
 62
     7
100
AcDbLine
 10
6362.5187616065
 20
4889.1622813288
 30
0.0
 11
6362.5187616065
 21
4875.6622763221
 31
0.0
  0
LINE
  5
2D0
330
1F
100
AcDbEntity
  8
0
  6
Continuous
 62
     7
100
AcDbLine
 10
6362.5187616065
 20
4875.6622763221
 30
0.0
 11
6352.0187477782
 21
4875.6622763221
 31
0.0
  0
LINE
  5
2D1
330
1F
100
AcDbEntity
  8
0
  6
Continuous
 62
     7
100
AcDbLine
 10
6362.5187616065
 20
4889.1622813288
 30
0.0
 11
6352.0187477782
 21
4889.1622813288
 31
0.0
  0
LINE
  5
2D2
330
1F
100
AcDbEntity
  8
0
  6
Continuous
 62
     7
100
AcDbLine
 10
6370.018754454
 20
4874.9289603774
 30
0.0
 11
6370.018754454
 21
4888.8624327127
 31
0.0
  0
LINE
  5
2D3
330
1F
100
AcDbEntity
  8
0
  6
Continuous
 62
     7
100
AcDbLine
 10
6371.5187649444
 20
4869.8020370547
 30
0.0
 11
6371.5187649444
 21
4863.9417828862
 31
0.0
  0
LINE
  5
2D4
330
1F
100
AcDbEntity
  8
0
  6
Continuous
 62
     7
100
AcDbLine
 10
6371.5187649444
 20
4887.3827846591
 30
0.0
 11
6371.5187649444
 21
4869.8020370547
 31
0.0
  0
LINE
  5
2D5
330
1F
100
AcDbEntity
  8
0
  6
Continuous
 62
     7
100
AcDbLine
 10
6370.018754454
 20
4888.8624327127
 30
0.0
 11
6370.0045089439
 21
4888.8580815737
 31
0.0
  0
LINE
  5
2D6
330
1F
100
AcDbEntity
  8
0
  6
Continuous
 62
     7
100
AcDbLine
 10
6362.5187616065
 20
4862.1622862164
 30
0.0
 11
6352.0187477782
 21
4862.1622862164
 31
0.0
  0
LINE
  5
2D7
330
1F
100
AcDbEntity
  8
0
  6
Continuous
 62
     7
100
AcDbLine
 10
6362.5187616065
 20
4875.6622763221
 30
0.0
 11
6362.5187616065
 21
4862.1622862164
 31
0.0
  0
LINE
  5
2D8
330
1F
100
AcDbEntity
  8
0
  6
Continuous
 62
     7
100
AcDbLine
 10
6289.6072010711
 20
4875.6622763221
 30
0.0
 11
6281.8129698947
 21
4889.1622813288
 31
0.0
  0
LINE
  5
2D9
330
1F
100
AcDbEntity
  8
0
  6
Continuous
 62
     7
100
AcDbLine
 10
6281.8129698947
 20
4862.1622862164
 30
0.0
 11
6289.6072010711
 21
4875.6622763221
 31
0.0
  0
LINE
  5
2DA
330
1F
100
AcDbEntity
  8
0
  6
Continuous
 62
     7
100
AcDbLine
 10
6266.2245373443
 20
4862.1622862164
 30
0.0
 11
6281.8129698947
 21
4862.1622862164
 31
0.0
  0
LINE
  5
2DB
330
1F
100
AcDbEntity
  8
0
  6
Continuous
 62
     7
100
AcDbLine
 10
6258.4303061679
 20
4875.6622763221
 30
0.0
 11
6266.2245373443
 21
4862.1622862164
 31
0.0
  0
LINE
  5
2DC
330
1F
100
AcDbEntity
  8
0
  6
Continuous
 62
     7
100
AcDbLine
 10
6266.2245373443
 20
4889.1622813288
 30
0.0
 11
6258.4303061679
 21
4875.6622763221
 31
0.0
  0
LINE
  5
2DD
330
1F
100
AcDbEntity
  8
0
  6
Continuous
 62
     7
100
AcDbLine
 10
6281.8129698947
 20
4889.1622813288
 30
0.0
 11
6266.2245373443
 21
4889.1622813288
 31
0.0
  0
LINE
  5
2DE
330
1F
100
AcDbEntity
  8
0
  6
Continuous
 62
     7
100
AcDbLine
 10
6185.5187456325
 20
4862.1622862164
 30
0.0
 11
6185.5187456325
 21
4875.6622763221
 31
0.0
  0
LINE
  5
2DF
330
1F
100
AcDbEntity
  8
0
  6
Continuous
 62
     7
100
AcDbLine
 10
6185.5187456325
 20
4875.6622763221
 30
0.0
 11
6196.0187594608
 21
4875.6622763221
 31
0.0
  0
LINE
  5
2E0
330
1F
100
AcDbEntity
  8
0
  6
Continuous
 62
     7
100
AcDbLine
 10
6185.5187456325
 20
4862.1622862164
 30
0.0
 11
6196.0187594608
 21
4862.1622862164
 31
0.0
  0
LINE
  5
2E1
330
1F
100
AcDbEntity
  8
0
  6
Continuous
 62
     7
100
AcDbLine
 10
6178.018752785
 20
4876.3956071679
 30
0.0
 11
6178.018752785
 21
4862.4621422831
 31
0.0
  0
LINE
  5
2E2
330
1F
100
AcDbEntity
  8
0
  6
Continuous
 62
     7
100
AcDbLine
 10
6176.5187422946
 20
4881.5225304906
 30
0.0
 11
6176.5187422946
 21
4887.3827846591
 31
0.0
  0
LINE
  5
2E3
330
1F
100
AcDbEntity
  8
0
  6
Continuous
 62
     7
100
AcDbLine
 10
6176.5187422946
 20
4863.9417828862
 30
0.0
 11
6176.5187422946
 21
4881.5225304906
 31
0.0
  0
LINE
  5
2E4
330
1F
100
AcDbEntity
  8
0
  6
Continuous
 62
     7
100
AcDbLine
 10
6178.018752785
 20
4862.4621422831
 30
0.0
 11
6178.0329982951
 21
4862.4664934222
 31
0.0
  0
LINE
  5
2E5
330
1F
100
AcDbEntity
  8
0
  6
Continuous
 62
     7
100
AcDbLine
 10
6185.5187456325
 20
4889.1622813288
 30
0.0
 11
6196.0187594608
 21
4889.1622813288
 31
0.0
  0
LINE
  5
2E6
330
1F
100
AcDbEntity
  8
0
  6
Continuous
 62
     7
100
AcDbLine
 10
6185.5187456325
 20
4875.6622763221
 30
0.0
 11
6185.5187456325
 21
4889.1622813288
 31
0.0
  0
LINE
  5
2E7
330
1F
100
AcDbEntity
  8
0
  6
Continuous
 62
     7
100
AcDbLine
 10
6349.0087430194
 20
4894.6622850243
 30
0.0
 11
6349.0087430194
 21
4892.6622809712
 31
0.0
  0
LINE
  5
2E8
330
1F
100
AcDbEntity
  8
0
  6
Continuous
 62
     7
100
AcDbLine
 10
6199.0287642196
 20
4892.6622809712
 30
0.0
 11
6349.0087430194
 21
4892.6622809712
 31
0.0
  0
LINE
  5
2E9
330
1F
100
AcDbEntity
  8
0
  6
Continuous
 62
     7
100
AcDbLine
 10
6199.0287642196
 20
4894.6622850243
 30
0.0
 11
6349.0087430194
 21
4894.6622850243
 31
0.0
  0
LINE
  5
2EA
330
1F
100
AcDbEntity
  8
0
  6
Continuous
 62
     7
100
AcDbLine
 10
6199.0287642196
 20
4892.6622809712
 30
0.0
 11
6199.0287642196
 21
4894.6622850243
 31
0.0
  0
LINE
  5
2EB
330
1F
100
AcDbEntity
  8
0
  6
Continuous
 62
     7
100
AcDbLine
 10
6349.0087430194
 20
4826.6622813288
 30
0.0
 11
6349.0087430194
 21
4892.6622809712
 31
0.0
  0
LINE
  5
2EC
330
1F
100
AcDbEntity
  8
0
  6
Continuous
 62
     7
100
AcDbLine
 10
6321.0187594608
 20
4826.6622813288
 30
0.0
 11
6349.0087430194
 21
4826.6622813288
 31
0.0
  0
LINE
  5
2ED
330
1F
100
AcDbEntity
  8
0
  6
Continuous
 62
     7
100
AcDbLine
 10
6321.0187594608
 20
4826.6622813288
 30
0.0
 11
6227.0187477782
 21
4826.6622813288
 31
0.0
  0
LINE
  5
2EE
330
1F
100
AcDbEntity
  8
0
  6
Continuous
 62
     7
100
AcDbLine
 10
6199.0287642196
 20
4826.6622813288
 30
0.0
 11
6227.0187477782
 21
4826.6622813288
 31
0.0
  0
LINE
  5
2EF
330
1F
100
AcDbEntity
  8
0
  6
Continuous
 62
     7
100
AcDbLine
 10
6199.0287642196
 20
4892.6622809712
 30
0.0
 11
6199.0287642196
 21
4826.6622813288
 31
0.0
  0
LINE
  5
2F0
330
1F
100
AcDbEntity
  8
0
  6
Continuous
 62
     7
100
AcDbLine
 10
6349.0087430194
 20
4892.6622809712
 30
0.0
 11
6351.0087470725
 21
4892.6622809712
 31
0.0
  0
LINE
  5
2F1
330
1F
100
AcDbEntity
  8
0
  6
Continuous
 62
     7
100
AcDbLine
 10
6351.0087470725
 20
4892.6622809712
 30
0.0
 11
6351.0087470725
 21
4826.6622813288
 31
0.0
  0
LINE
  5
2F2
330
1F
100
AcDbEntity
  8
0
  6
Continuous
 62
     7
100
AcDbLine
 10
6351.0087470725
 20
4826.6622813288
 30
0.0
 11
6349.0087430194
 21
4826.6622813288
 31
0.0
  0
LINE
  5
2F3
330
1F
100
AcDbEntity
  8
0
  6
Continuous
 62
     7
100
AcDbLine
 10
6199.0287642196
 20
4826.6622813288
 30
0.0
 11
6197.0287601665
 21
4826.6622813288
 31
0.0
  0
LINE
  5
2F4
330
1F
100
AcDbEntity
  8
0
  6
Continuous
 62
     7
100
AcDbLine
 10
6197.0287601665
 20
4892.6622809712
 30
0.0
 11
6197.0287601665
 21
4826.6622813288
 31
0.0
  0
LINE
  5
2F5
330
1F
100
AcDbEntity
  8
0
  6
Continuous
 62
     7
100
AcDbLine
 10
6197.0287601665
 20
4892.6622809712
 30
0.0
 11
6199.0287642196
 21
4892.6622809712
 31
0.0
  0
LINE
  5
2F6
330
1F
100
AcDbEntity
  8
0
  6
Continuous
 62
     7
100
AcDbLine
 10
6199.0287642196
 20
4825.1622857396
 30
0.0
 11
6199.0287642196
 21
4826.6622813288
 31
0.0
  0
LINE
  5
2F7
330
1F
100
AcDbEntity
  8
0
  6
Continuous
 62
     7
100
AcDbLine
 10
6227.0187477782
 20
4826.6622813288
 30
0.0
 11
6227.0187477782
 21
4825.1622857396
 31
0.0
  0
LINE
  5
2F8
330
1F
100
AcDbEntity
  8
0
  6
Continuous
 62
     7
100
AcDbLine
 10
6321.0187594608
 20
4825.1622857396
 30
0.0
 11
6321.0187594608
 21
4826.6622813288
 31
0.0
  0
LINE
  5
2F9
330
1F
100
AcDbEntity
  8
0
  6
Continuous
 62
     7
100
AcDbLine
 10
6349.0087430194
 20
4826.6622813288
 30
0.0
 11
6349.0087430194
 21
4825.1622857396
 31
0.0
  0
LINE
  5
2FA
330
1F
100
AcDbEntity
  8
0
  6
Continuous
 62
     7
100
AcDbLine
 10
6198.0187635139
 20
4894.6622850243
 30
0.0
 11
6198.0187635139
 21
4893.6622829978
 31
0.0
  0
LINE
  5
2FB
330
1F
100
AcDbEntity
  8
0
  6
Continuous
 62
     7
100
AcDbLine
 10
6199.0287642196
 20
4894.6622850243
 30
0.0
 11
6198.0187635139
 21
4894.6622850243
 31
0.0
  0
LINE
  5
2FC
330
1F
100
AcDbEntity
  8
0
  6
Continuous
 62
     7
100
AcDbLine
 10
6199.0287642196
 20
4893.6622829978
 30
0.0
 11
6198.0187635139
 21
4893.6622829978
 31
0.0
  0
LINE
  5
2FD
330
1F
100
AcDbEntity
  8
0
  6
Continuous
 62
     7
100
AcDbLine
 10
6197.0187465862
 20
4892.6622809712
 30
0.0
 11
6196.0187594608
 21
4892.6622809712
 31
0.0
  0
LINE
  5
2FE
330
1F
100
AcDbEntity
  8
0
  6
Continuous
 62
     7
100
AcDbLine
 10
6352.0187477782
 20
4892.6622809712
 30
0.0
 11
6351.0187606528
 21
4892.6622809712
 31
0.0
  0
LINE
  5
2FF
330
1F
100
AcDbEntity
  8
0
  6
Continuous
 62
     7
100
AcDbLine
 10
6350.0187437251
 20
4893.6622829978
 30
0.0
 11
6350.0187437251
 21
4894.6622850243
 31
0.0
  0
LINE
  5
300
330
1F
100
AcDbEntity
  8
0
  6
Continuous
 62
     7
100
AcDbLine
 10
6197.0187465862
 20
4828.662285382
 30
0.0
 11
6196.0187594608
 21
4828.662285382
 31
0.0
  0
LINE
  5
301
330
1F
100
AcDbEntity
  8
0
  6
Continuous
 62
     7
100
AcDbLine
 10
6196.0187594608
 20
4892.6622809712
 30
0.0
 11
6196.0187594608
 21
4828.662285382
 31
0.0
  0
LINE
  5
302
330
1F
100
AcDbEntity
  8
0
  6
Continuous
 62
     7
100
AcDbLine
 10
6197.0187465862
 20
4892.6622809712
 30
0.0
 11
6197.0187465862
 21
4828.662285382
 31
0.0
  0
LINE
  5
303
330
1F
100
AcDbEntity
  8
0
  6
Continuous
 62
     7
100
AcDbLine
 10
6350.0187437251
 20
4893.6622829978
 30
0.0
 11
6349.0087430194
 21
4893.6622829978
 31
0.0
  0
LINE
  5
304
330
1F
100
AcDbEntity
  8
0
  6
Continuous
 62
     7
100
AcDbLine
 10
6350.0187437251
 20
4894.6622850243
 30
0.0
 11
6349.0087430194
 21
4894.6622850243
 31
0.0
  0
LINE
  5
305
330
1F
100
AcDbEntity
  8
0
  6
Continuous
 62
     7
100
AcDbLine
 10
6352.0187477782
 20
4828.662285382
 30
0.0
 11
6351.0187606528
 21
4828.662285382
 31
0.0
  0
LINE
  5
306
330
1F
100
AcDbEntity
  8
0
  6
Continuous
 62
     7
100
AcDbLine
 10
6351.0187606528
 20
4828.662285382
 30
0.0
 11
6351.0187606528
 21
4892.6622809712
 31
0.0
  0
LINE
  5
307
330
1F
100
AcDbEntity
  8
0
  6
Continuous
 62
     7
100
AcDbLine
 10
6352.0187477782
 20
4828.662285382
 30
0.0
 11
6352.0187477782
 21
4892.6622809712
 31
0.0
  0
LINE
  5
308
330
1F
100
AcDbEntity
  8
0
  6
Continuous
 62
     7
100
AcDbLine
 10
6245.5687563136
 20
4814.3622817342
 30
0.0
 11
6302.4687509254
 21
4814.3622817342
 31
0.0
  0
LWPOLYLINE
  5
309
330
1F
100
AcDbEntity
  8
0
  6
Continuous
 62
     7
100
AcDbPolyline
 90
        3
 70
   128
 43
0.0
 10
6368.408203125
 20
5206.4016577617
 10
6368.1302766738
 20
5205.9201854079
 10
6367.9117302612
 20
5205.5418905632
  0
LWPOLYLINE
  5
30A
330
1F
100
AcDbEntity
  8
0
  6
Continuous
 62
     7
100
AcDbPolyline
 90
        3
 70
   128
 43
0.0
 10
6366.8174743652
 20
5206.4016577617
 10
6366.5427665648
 20
5205.9201854079
 10
6366.3242201522
 20
5205.5418905632
  0
LWPOLYLINE
  5
30B
330
1F
100
AcDbEntity
  8
0
  6
Continuous
 62
     7
100
AcDbPolyline
 90
        3
 70
   128
 43
0.0
 10
6365.2305603027
 20
5206.4016577617
 10
6364.9552564559
 20
5205.9201854079
 10
6364.7367100433
 20
5205.5418905632
  0
LWPOLYLINE
  5
30C
330
1F
100
AcDbEntity
  8
0
  6
Continuous
 62
     7
100
AcDbPolyline
 90
        3
 70
   128
 43
0.0
 10
6363.6436462402
 20
5206.4016577617
 10
6363.3677761492
 20
5205.9201854079
 10
6363.1492297366
 20
5205.5418905632
  0
LWPOLYLINE
  5
30D
330
1F
100
AcDbEntity
  8
0
  6
Continuous
 62
     7
100
AcDbPolyline
 90
        3
 70
   128
 43
0.0
 10
6368.7019348145
 20
5180.8350798504
 10
6368.9836126175
 20
5180.3536081709
 10
6369.2021708205
 20
5179.9753126518
  0
LWPOLYLINE
  5
30E
330
1F
100
AcDbEntity
  8
0
  6
Continuous
 62
     7
100
AcDbPolyline
 90
        3
 70
   128
 43
0.0
 10
6367.115020752
 20
5180.8350798504
 10
6367.3961238799
 20
5180.3536129418
 10
6367.6146607116
 20
5179.9753126518
  0
LWPOLYLINE
  5
30F
330
1F
100
AcDbEntity
  8
0
  6
Continuous
 62
     7
100
AcDbPolyline
 90
        3
 70
   128
 43
0.0
 10
6365.5281066895
 20
5180.8350798504
 10
6365.8086137709
 20
5180.3536129418
 10
6366.0271506026
 20
5179.9753126518
  0
LWPOLYLINE
  5
310
330
1F
100
AcDbEntity
  8
0
  6
Continuous
 62
     7
100
AcDbPolyline
 90
        3
 70
   128
 43
0.0
 10
6363.941192627
 20
5180.8350798504
 10
6364.2211328477
 20
5180.353620147
 10
6364.439670296
 20
5179.9753126518
  0
LWPOLYLINE
  5
311
330
1F
100
AcDbEntity
  8
0
  6
Continuous
 62
     7
100
AcDbPolyline
 90
        3
 70
   128
 43
0.0
 10
6362.5183105469
 20
5180.5524346248
 10
6362.7054700535
 20
5180.229249309
 10
6362.8521601871
 20
5179.9753126518
  0
LWPOLYLINE
  5
312
330
1F
100
AcDbEntity
  8
0
  6
Continuous
 62
     7
100
AcDbPolyline
 90
        3
 70
   128
 43
0.0
 10
6369.9951171875
 20
5206.4016577617
 10
6369.7177569804
 20
5205.9201854079
 10
6369.4992105678
 20
5205.5418905632
  0
LWPOLYLINE
  5
313
330
1F
100
AcDbEntity
  8
0
  6
Continuous
 62
     7
100
AcDbPolyline
 90
        3
 70
   128
 43
0.0
 10
6369.3046569824
 20
5205.5486556904
 10
6369.0285939101
 20
5206.0296980124
 10
6368.8101808742
 20
5206.4076480285
  0
LWPOLYLINE
  5
314
330
1F
100
AcDbEntity
  8
0
  6
Continuous
 62
     7
100
AcDbPolyline
 90
        3
 70
   128
 43
0.0
 10
6367.7177429199
 20
5205.5486556904
 10
6367.4410922308
 20
5206.0296932439
 10
6367.2227005676
 20
5206.4076480285
  0
LWPOLYLINE
  5
315
330
1F
100
AcDbEntity
  8
0
  6
Continuous
 62
     7
100
AcDbPolyline
 90
        3
 70
   128
 43
0.0
 10
6366.1308288574
 20
5205.5486556904
 10
6365.8536034945
 20
5206.0296980124
 10
6365.6351904586
 20
5206.4076480285
  0
LWPOLYLINE
  5
316
330
1F
100
AcDbEntity
  8
0
  6
Continuous
 62
     7
100
AcDbPolyline
 90
        3
 70
   128
 43
0.0
 10
6364.5439147949
 20
5205.5486556904
 10
6364.2660933856
 20
5206.0296980124
 10
6364.0476803497
 20
5206.4076480285
  0
LWPOLYLINE
  5
317
330
1F
100
AcDbEntity
  8
0
  6
Continuous
 62
     7
100
AcDbPolyline
 90
        3
 70
   128
 43
0.0
 10
6362.9531860352
 20
5205.5486556904
 10
6362.7216749066
 20
5205.9551293203
 10
6362.5371198371
 20
5206.2744912521
  0
LWPOLYLINE
  5
318
330
1F
100
AcDbEntity
  8
0
  6
Continuous
 62
     7
100
AcDbPolyline
 90
        3
 70
   128
 43
0.0
 10
6368.0267333984
 20
5179.9753126518
 10
6368.3068162223
 20
5180.4567925437
 10
6368.5253600791
 20
5180.8351096527
  0
LWPOLYLINE
  5
319
330
1F
100
AcDbEntity
  8
0
  6
Continuous
 62
     7
100
AcDbPolyline
 90
        3
 70
   128
 43
0.0
 10
6366.4398193359
 20
5179.9753126518
 10
6366.7193083009
 20
5180.4567988908
 10
6366.9378499702
 20
5180.8351096527
  0
LWPOLYLINE
  5
31A
330
1F
100
AcDbEntity
  8
0
  6
Continuous
 62
     7
100
AcDbPolyline
 90
        3
 70
   128
 43
0.0
 10
6364.8529052734
 20
5179.9753126518
 10
6365.131798192
 20
5180.4567988908
 10
6365.3503398612
 20
5180.8351096527
  0
LWPOLYLINE
  5
31B
330
1F
100
AcDbEntity
  8
0
  6
Continuous
 62
     7
100
AcDbPolyline
 90
        3
 70
   128
 43
0.0
 10
6363.2659912109
 20
5179.9753126518
 10
6363.5443156977
 20
5180.4567925437
 10
6363.7628595546
 20
5180.8351096527
  0
LWPOLYLINE
  5
31C
330
1F
100
AcDbEntity
  8
0
  6
Continuous
 62
     7
100
AcDbPolyline
 90
        3
 70
   128
 43
0.0
 10
6369.6136474609
 20
5179.9753126518
 10
6369.8942987165
 20
5180.4567988908
 10
6370.1128403857
 20
5180.8351096527
  0
LWPOLYLINE
  5
31D
330
1F
100
AcDbEntity
  8
0
  6
Continuous
 62
     7
100
AcDbPolyline
 90
        3
 70
   128
 43
0.0
 10
6260.8032226562
 20
5336.8441876785
 10
6261.2826935785
 20
5336.5685848399
 10
6261.6575400546
 20
5336.3520321266
  0
LWPOLYLINE
  5
31E
330
1F
100
AcDbEntity
  8
0
  6
Continuous
 62
     7
100
AcDbPolyline
 90
        3
 70
   128
 43
0.0
 10
6260.8032226562
 20
5335.2567073719
 10
6261.2827007342
 20
5334.9811002862
 10
6261.6575400546
 20
5334.7645220176
  0
LWPOLYLINE
  5
31F
330
1F
100
AcDbEntity
  8
0
  6
Continuous
 62
     7
100
AcDbPolyline
 90
        3
 70
   128
 43
0.0
 10
6260.8032226562
 20
5333.6691972629
 10
6261.2826935785
 20
5333.3935944243
 10
6261.6575400546
 20
5333.177041711
  0
LWPOLYLINE
  5
320
330
1F
100
AcDbEntity
  8
0
  6
Continuous
 62
     7
100
AcDbPolyline
 90
        3
 70
   128
 43
0.0
 10
6260.8032226562
 20
5332.081687154
 10
6261.2826935785
 20
5331.8060843154
 10
6261.6575400546
 20
5331.5895316021
  0
LWPOLYLINE
  5
321
330
1F
100
AcDbEntity
  8
0
  6
Continuous
 62
     7
100
AcDbPolyline
 90
        3
 70
   128
 43
0.0
 10
6286.3693237305
 20
5337.1412572281
 10
6286.8536155719
 20
5337.4194011558
 10
6287.2319261745
 20
5337.637942733
  0
LWPOLYLINE
  5
322
330
1F
100
AcDbEntity
  8
0
  6
Continuous
 62
     7
100
AcDbPolyline
 90
        3
 70
   128
 43
0.0
 10
6286.3693237305
 20
5335.5537471191
 10
6286.8536219178
 20
5335.8318968101
 10
6287.2319261745
 20
5336.0504624263
  0
LWPOLYLINE
  5
323
330
1F
100
AcDbEntity
  8
0
  6
Continuous
 62
     7
100
AcDbPolyline
 90
        3
 70
   128
 43
0.0
 10
6286.3693237305
 20
5333.9662668125
 10
6286.8536155719
 20
5334.2444107402
 10
6287.2319261745
 20
5334.4629523174
  0
LWPOLYLINE
  5
324
330
1F
100
AcDbEntity
  8
0
  6
Continuous
 62
     7
100
AcDbPolyline
 90
        3
 70
   128
 43
0.0
 10
6286.3693237305
 20
5332.3787567035
 10
6286.8536155719
 20
5332.6569006313
 10
6287.2319261745
 20
5332.8754422085
  0
LWPOLYLINE
  5
325
330
1F
100
AcDbEntity
  8
0
  6
Continuous
 62
     7
100
AcDbPolyline
 90
        3
 70
   128
 43
0.0
 10
6286.3693237305
 20
5330.7912465946
 10
6286.8536219178
 20
5331.0693962856
 10
6287.2319261745
 20
5331.2879619018
  0
LWPOLYLINE
  5
326
330
1F
100
AcDbEntity
  8
0
  6
Continuous
 62
     7
100
AcDbPolyline
 90
        3
 70
   128
 43
0.0
 10
6260.9786987305
 20
5338.3298036472
 10
6261.3603073193
 20
5338.1112576243
 10
6261.6575400546
 20
5337.9395422355
  0
LWPOLYLINE
  5
327
330
1F
100
AcDbEntity
  8
0
  6
Continuous
 62
     7
100
AcDbPolyline
 90
        3
 70
   128
 43
0.0
 10
6261.6653442383
 20
5336.1673769371
 10
6261.1838813546
 20
5335.8892282639
 10
6260.8055810645
 20
5335.6706914322
  0
LWPOLYLINE
  5
328
330
1F
100
AcDbEntity
  8
0
  6
Continuous
 62
     7
100
AcDbPolyline
 90
        3
 70
   128
 43
0.0
 10
6261.6653442383
 20
5334.5798966305
 10
6261.1838813546
 20
5334.3017479573
 10
6260.8055810645
 20
5334.0832111255
  0
LWPOLYLINE
  5
329
330
1F
100
AcDbEntity
  8
0
  6
Continuous
 62
     7
100
AcDbPolyline
 90
        3
 70
   128
 43
0.0
 10
6261.6653442383
 20
5332.9923865215
 10
6261.1838813546
 20
5332.7142378483
 10
6260.8055810645
 20
5332.4957010166
  0
LWPOLYLINE
  5
32A
330
1F
100
AcDbEntity
  8
0
  6
Continuous
 62
     7
100
AcDbPolyline
 90
        3
 70
   128
 43
0.0
 10
6261.6653442383
 20
5331.4048764126
 10
6261.1838813546
 20
5331.1267277394
 10
6260.8055810645
 20
5330.9081909076
  0
LWPOLYLINE
  5
32B
330
1F
100
AcDbEntity
  8
0
  6
Continuous
 62
     7
100
AcDbPolyline
 90
        3
 70
   128
 43
0.0
 10
6287.2314453125
 20
5336.4644464866
 10
6286.7548232536
 20
5336.7400599881
 10
6286.3799671844
 20
5336.9566318409
  0
LWPOLYLINE
  5
32C
330
1F
100
AcDbEntity
  8
0
  6
Continuous
 62
     7
100
AcDbPolyline
 90
        3
 70
   128
 43
0.0
 10
6287.2314453125
 20
5334.8769363777
 10
6286.7548359072
 20
5335.1525717822
 10
6286.3799671844
 20
5335.3691217319
  0
LWPOLYLINE
  5
32D
330
1F
100
AcDbEntity
  8
0
  6
Continuous
 62
     7
100
AcDbPolyline
 90
        3
 70
   128
 43
0.0
 10
6287.2314453125
 20
5333.2894560711
 10
6286.7548295162
 20
5333.56506375
 10
6286.3799671844
 20
5333.781611623
  0
LWPOLYLINE
  5
32E
330
1F
100
AcDbEntity
  8
0
  6
Continuous
 62
     7
100
AcDbPolyline
 90
        3
 70
   128
 43
0.0
 10
6287.2314453125
 20
5331.7019459621
 10
6286.7548232536
 20
5331.9775594635
 10
6286.3799671844
 20
5332.1941313163
  0
LWPOLYLINE
  5
32F
330
1F
100
AcDbEntity
  8
0
  6
Continuous
 62
     7
100
AcDbPolyline
 90
        3
 70
   128
 43
0.0
 10
6287.2314453125
 20
5338.0519565956
 10
6286.7548295162
 20
5338.3275642745
 10
6286.3799671844
 20
5338.5441121475
  0
LWPOLYLINE
  5
330
330
1F
100
AcDbEntity
  8
0
  6
Continuous
 62
     7
100
AcDbPolyline
 90
        3
 70
   128
 43
0.0
 10
6261.6653442383
 20
5337.754887046
 10
6261.1838813546
 20
5337.4767383729
 10
6260.8055810645
 20
5337.2582015411
  0
LWPOLYLINE
  5
331
330
1F
100
AcDbEntity
  8
0
  6
Continuous
 62
     7
100
AcDbPolyline
 90
        3
 70
   128
 43
0.0
 10
6179.5120239258
 20
5180.8351096527
 10
6179.790318735
 20
5180.3536295448
 10
6180.0088624671
 20
5179.9753126518
  0
LWPOLYLINE
  5
332
330
1F
100
AcDbEntity
  8
0
  6
Continuous
 62
     7
100
AcDbPolyline
 90
        3
 70
   128
 43
0.0
 10
6181.0989379883
 20
5180.8351096527
 10
6181.3778011987
 20
5180.3536232507
 10
6181.5963427737
 20
5179.9753126518
  0
LWPOLYLINE
  5
333
330
1F
100
AcDbEntity
  8
0
  6
Continuous
 62
     7
100
AcDbPolyline
 90
        3
 70
   128
 43
0.0
 10
6182.6858520508
 20
5180.8351096527
 10
6182.9653113076
 20
5180.3536232507
 10
6183.1838528827
 20
5179.9753126518
  0
LWPOLYLINE
  5
334
330
1F
100
AcDbEntity
  8
0
  6
Continuous
 62
     7
100
AcDbPolyline
 90
        3
 70
   128
 43
0.0
 10
6184.2727661133
 20
5180.8351096527
 10
6184.5528192596
 20
5180.3536295448
 10
6184.7713629916
 20
5179.9753126518
  0
LWPOLYLINE
  5
335
330
1F
100
AcDbEntity
  8
0
  6
Continuous
 62
     7
100
AcDbPolyline
 90
        3
 70
   128
 43
0.0
 10
6179.2259216309
 20
5206.4076480285
 10
6178.9493468311
 20
5205.9266189318
 10
6178.7309388831
 20
5205.5486556904
  0
LWPOLYLINE
  5
336
330
1F
100
AcDbEntity
  8
0
  6
Continuous
 62
     7
100
AcDbPolyline
 90
        3
 70
   128
 43
0.0
 10
6180.8128356934
 20
5206.4076480285
 10
6180.5368520867
 20
5205.9266141633
 10
6180.3184489921
 20
5205.5486556904
  0
LWPOLYLINE
  5
337
330
1F
100
AcDbEntity
  8
0
  6
Continuous
 62
     7
100
AcDbPolyline
 90
        3
 70
   128
 43
0.0
 10
6182.3997497559
 20
5206.4076480285
 10
6182.1243372467
 20
5205.9266189318
 10
6181.9059292987
 20
5205.5486556904
  0
LWPOLYLINE
  5
338
330
1F
100
AcDbEntity
  8
0
  6
Continuous
 62
     7
100
AcDbPolyline
 90
        3
 70
   128
 43
0.0
 10
6183.9866638184
 20
5206.4076480285
 10
6183.7118473556
 20
5205.9266189318
 10
6183.4934394077
 20
5205.5486556904
  0
LWPOLYLINE
  5
339
330
1F
100
AcDbEntity
  8
0
  6
Continuous
 62
     7
100
AcDbPolyline
 90
        3
 70
   128
 43
0.0
 10
6185.4972839355
 20
5206.2744912521
 10
6185.2654998211
 20
5205.8680289697
 10
6185.0809495166
 20
5205.5486556904
  0
LWPOLYLINE
  5
33A
330
1F
100
AcDbEntity
  8
0
  6
Continuous
 62
     7
100
AcDbPolyline
 90
        3
 70
   128
 43
0.0
 10
6177.921295166
 20
5180.8351096527
 10
6178.2028107831
 20
5180.3536232507
 10
6178.4213523582
 20
5179.9753126518
  0
LWPOLYLINE
  5
33B
330
1F
100
AcDbEntity
  8
0
  6
Continuous
 62
     7
100
AcDbPolyline
 90
        3
 70
   128
 43
0.0
 10
6178.8330078125
 20
5179.9753126518
 10
6179.1135053131
 20
5180.4567850057
 10
6179.3320517257
 20
5180.8350798504
  0
LWPOLYLINE
  5
33C
330
1F
100
AcDbEntity
  8
0
  6
Continuous
 62
     7
100
AcDbPolyline
 90
        3
 70
   128
 43
0.0
 10
6180.419921875
 20
5179.9753126518
 10
6180.7009856197
 20
5180.4567850057
 10
6180.9195320323
 20
5180.8350798504
  0
LWPOLYLINE
  5
33D
330
1F
100
AcDbEntity
  8
0
  6
Continuous
 62
     7
100
AcDbPolyline
 90
        3
 70
   128
 43
0.0
 10
6182.0068359375
 20
5179.9753126518
 10
6182.2884957287
 20
5180.4567850057
 10
6182.5070421413
 20
5180.8350798504
  0
LWPOLYLINE
  5
33E
330
1F
100
AcDbEntity
  8
0
  6
Continuous
 62
     7
100
AcDbPolyline
 90
        3
 70
   128
 43
0.0
 10
6183.5975646973
 20
5179.9753126518
 10
6183.8760058376
 20
5180.4567850057
 10
6184.0945522502
 20
5180.8350798504
  0
LWPOLYLINE
  5
33F
330
1F
100
AcDbEntity
  8
0
  6
Continuous
 62
     7
100
AcDbPolyline
 90
        3
 70
   128
 43
0.0
 10
6185.1844787598
 20
5179.9753126518
 10
6185.3720446655
 20
5180.2985041451
 10
6185.5187456325
 20
5180.5524346248
  0
LWPOLYLINE
  5
340
330
1F
100
AcDbEntity
  8
0
  6
Continuous
 62
     7
100
AcDbPolyline
 90
        3
 70
   128
 43
0.0
 10
6180.1223754883
 20
5205.5418905632
 10
6179.8476283047
 20
5206.0233574717
 10
6179.6290914729
 20
5206.4016577617
  0
LWPOLYLINE
  5
341
330
1F
100
AcDbEntity
  8
0
  6
Continuous
 62
     7
100
AcDbPolyline
 90
        3
 70
   128
 43
0.0
 10
6181.713104248
 20
5205.5418905632
 10
6181.4351384136
 20
5206.0233574717
 10
6181.2166015819
 20
5206.4016577617
  0
LWPOLYLINE
  5
342
330
1F
100
AcDbEntity
  8
0
  6
Continuous
 62
     7
100
AcDbPolyline
 90
        3
 70
   128
 43
0.0
 10
6183.3000183105
 20
5205.5418905632
 10
6183.0226485226
 20
5206.0233574717
 10
6182.8041116908
 20
5206.4016577617
  0
LWPOLYLINE
  5
343
330
1F
100
AcDbEntity
  8
0
  6
Continuous
 62
     7
100
AcDbPolyline
 90
        3
 70
   128
 43
0.0
 10
6184.886932373
 20
5205.5418905632
 10
6184.6101288292
 20
5206.0233574717
 10
6184.3915919975
 20
5206.4016577617
  0
LWPOLYLINE
  5
344
330
1F
100
AcDbEntity
  8
0
  6
Continuous
 62
     7
100
AcDbPolyline
 90
        3
 70
   128
 43
0.0
 10
6178.5354614258
 20
5205.5418905632
 10
6178.260147998
 20
5206.0233574717
 10
6178.0416111663
 20
5206.4016577617
  0
LWPOLYLINE
  5
345
330
1F
100
AcDbEntity
  8
0
  6
Continuous
 62
     7
100
AcDbPolyline
 90
        3
 70
   128
 43
0.0
 10
6313.9533996582
 20
5180.0304469482
 10
6314.852512279
 20
5179.5285527702
 10
6315.0786499694
 20
5178.7338671104
  0
LWPOLYLINE
  5
346
330
1F
100
AcDbEntity
  8
0
  6
Continuous
 62
     7
100
AcDbPolyline
 90
        4
 70
   128
 43
0.0
 10
6314.3768310547
 20
5178.1223532573
 10
6314.3517574096
 20
5178.8261623217
 10
6314.2474310091
 20
5179.159746349
 10
6313.9549832061
 20
5179.3258902446
  0
LWPOLYLINE
  5
347
330
1F
100
AcDbEntity
  8
0
  6
Continuous
 62
     7
100
AcDbPolyline
 90
        4
 70
   128
 43
0.0
 10
6313.6825561523
 20
5179.3258902446
 10
6313.3921318434
 20
5179.1572758641
 10
6313.2882858335
 20
5178.8221569826
 10
6313.2609467223
 20
5178.1157967464
  0
LWPOLYLINE
  5
348
330
1F
100
AcDbEntity
  8
0
  6
Continuous
 62
     7
100
AcDbPolyline
 90
        3
 70
   128
 43
0.0
 10
6312.572479248
 20
5178.7433144466
 10
6312.9389204866
 20
5179.7121019047
 10
6313.6844675258
 20
5180.0304469482
  0
LWPOLYLINE
  5
349
330
1F
100
AcDbEntity
  8
0
  6
Continuous
 62
     7
100
AcDbPolyline
 90
        3
 70
   128
 43
0.0
 10
6309.2918395996
 20
5179.7760543243
 10
6309.4222987423
 20
5178.8575930624
 10
6309.8459880069
 20
5178.2590863125
  0
LWPOLYLINE
  5
34A
330
1F
100
AcDbEntity
  8
0
  6
Continuous
 62
     7
100
AcDbPolyline
 90
        3
 70
   128
 43
0.0
 10
6310.9550476074
 20
5181.2075194732
 10
6309.7079041171
 20
5180.7397831085
 10
6309.2937807754
 20
5179.7760543243
  0
LWPOLYLINE
  5
34B
330
1F
100
AcDbEntity
  8
0
  6
Continuous
 62
     7
100
AcDbPolyline
 90
        3
 70
   128
 43
0.0
 10
6310.0967407227
 20
5179.7238108532
 10
6310.4467944274
 20
5180.3243958357
 10
6311.0063712314
 20
5180.4426428692
  0
LWPOLYLINE
  5
34C
330
1F
100
AcDbEntity
  8
0
  6
Continuous
 62
     7
100
AcDbPolyline
 90
        3
 70
   128
 43
0.0
 10
6310.8329772949
 20
5178.3249494449
 10
6310.2559191629
 20
5179.0313216679
 10
6310.0977878288
 20
5179.7238108532
  0
LWPOLYLINE
  5
34D
330
1F
100
AcDbEntity
  8
0
  6
Continuous
 62
     7
100
AcDbPolyline
 90
        3
 70
   128
 43
0.0
 10
6311.9964599609
 20
5176.0111269371
 10
6311.9167097921
 20
5176.9238517371
 10
6311.5290741637
 20
5177.5340554134
  0
LWPOLYLINE
  5
34E
330
1F
100
AcDbEntity
  8
0
  6
Continuous
 62
     7
100
AcDbPolyline
 90
        3
 70
   128
 43
0.0
 10
6310.5850219727
 20
5174.8084840194
 10
6311.652575175
 20
5175.1809304758
 10
6311.9998912528
 20
5176.0111269371
  0
LWPOLYLINE
  5
34F
330
1F
100
AcDbEntity
  8
0
  6
Continuous
 62
     7
100
AcDbPolyline
 90
        3
 70
   128
 43
0.0
 10
6311.1991882324
 20
5176.162910165
 10
6310.9455081292
 20
5175.6847425062
 10
6310.5226497367
 20
5175.5862650291
  0
LWPOLYLINE
  5
350
330
1F
100
AcDbEntity
  8
0
  6
Continuous
 62
     7
100
AcDbPolyline
 90
        3
 70
   128
 43
0.0
 10
6310.7872009277
 20
5177.1904942409
 10
6311.1636503222
 20
5176.6645822512
 10
6311.200831385
 20
5176.162910165
  0
LWPOLYLINE
  5
351
330
1F
100
AcDbEntity
  8
0
  6
Continuous
 62
     7
100
AcDbPolyline
 90
        3
 70
   128
 43
0.0
 10
6329.9980163574
 20
5179.1052934543
 10
6330.0228052965
 20
5179.0624366748
 10
6330.0609330848
 20
5179.0520963089
  0
LWPOLYLINE
  5
352
330
1F
100
AcDbEntity
  8
0
  6
Continuous
 62
     7
100
AcDbPolyline
 90
        3
 70
   128
 43
0.0
 10
6330.0590515137
 20
5179.1585204021
 10
6330.0172084808
 20
5179.1382131352
 10
6329.9988548473
 20
5179.1052934543
  0
LWPOLYLINE
  5
353
330
1F
100
AcDbEntity
  8
0
  6
Continuous
 62
     7
100
AcDbPolyline
 90
        3
 70
   128
 43
0.0
 10
6328.3653259277
 20
5179.7972139732
 10
6329.1713213463
 20
5180.8856343307
 10
6330.2073220924
 20
5181.1632332222
  0
LWPOLYLINE
  5
354
330
1F
100
AcDbEntity
  8
0
  6
Continuous
 62
     7
100
AcDbPolyline
 90
        3
 70
   128
 43
0.0
 10
6329.776763916
 20
5181.1854359524
 10
6329.6133944185
 20
5181.1488939891
 10
6329.4888477042
 20
5181.1055657284
  0
LWPOLYLINE
  5
355
330
1F
100
AcDbEntity
  8
0
  6
Continuous
 62
     7
100
AcDbPolyline
 90
        3
 70
   128
 43
0.0
 10
6331.1309814453
 20
5178.4325060264
 10
6331.4321378903
 20
5178.4292209508
 10
6331.6608111575
 20
5178.4810242073
  0
LWPOLYLINE
  5
356
330
1F
100
AcDbEntity
  8
0
  6
Continuous
 62
     7
100
AcDbPolyline
 90
        3
 70
   128
 43
0.0
 10
6330.8753967285
 20
5177.3780402557
 10
6331.6407438986
 20
5177.2881913042
 10
6332.226697655
 20
5177.4321314708
  0
LWPOLYLINE
  5
357
330
1F
100
AcDbEntity
  8
0
  6
Continuous
 62
     7
100
AcDbPolyline
 90
        3
 70
   128
 43
0.0
 10
6330.810546875
 20
5176.822763385
 10
6330.8437360408
 20
5177.1342972238
 10
6330.8769504741
 20
5177.3780402557
  0
LWPOLYLINE
  5
358
330
1F
100
AcDbEntity
  8
0
  6
Continuous
 62
     7
100
AcDbPolyline
 90
        3
 70
   128
 43
0.0
 10
6332.3440551758
 20
5176.8609997646
 10
6331.4860710067
 20
5176.692973201
 10
6330.8125774577
 20
5176.822763385
  0
LWPOLYLINE
  5
359
330
1F
100
AcDbEntity
  8
0
  6
Continuous
 62
     7
100
AcDbPolyline
 90
        3
 70
   128
 43
0.0
 10
6331.0775756836
 20
5178.9743122474
 10
6331.1507149318
 20
5178.9119368088
 10
6331.2068919852
 20
5178.8636562244
  0
LWPOLYLINE
  5
35A
330
1F
100
AcDbEntity
  8
0
  6
Continuous
 62
     7
100
AcDbPolyline
 90
        3
 70
   128
 43
0.0
 10
6331.2034606934
 20
5178.8636562244
 10
6331.2540286444
 20
5178.9428914555
 10
6331.2940339759
 20
5179.0032801048
  0
LWPOLYLINE
  5
35B
330
1F
100
AcDbEntity
  8
0
  6
Continuous
 62
     7
100
AcDbPolyline
 90
        3
 70
   128
 43
0.0
 10
6331.2911987305
 20
5179.0032801048
 10
6332.2764573838
 20
5177.6261928392
 10
6332.4452976897
 20
5176.3059613125
  0
LWPOLYLINE
  5
35C
330
1F
100
AcDbEntity
  8
0
  6
Continuous
 62
     7
100
AcDbPolyline
 90
        3
 70
   128
 43
0.0
 10
6332.4432373047
 20
5176.3059613125
 10
6331.6219531551
 20
5174.6741631426
 10
6330.2650193885
 20
5174.1837379352
  0
LWPOLYLINE
  5
35D
330
1F
100
AcDbEntity
  8
0
  6
Continuous
 62
     7
100
AcDbPolyline
 90
        3
 70
   128
 43
0.0
 10
6330.2612304688
 20
5174.1837379352
 10
6328.6860195696
 20
5175.0167280843
 10
6328.4953276828
 20
5176.4397439377
  0
LWPOLYLINE
  5
35E
330
1F
100
AcDbEntity
  8
0
  6
Continuous
 62
     7
100
AcDbPolyline
 90
        3
 70
   128
 43
0.0
 10
6328.4950256348
 20
5176.4397439377
 10
6328.9171342913
 20
5177.5924722098
 10
6329.3292562679
 20
5178.4666892902
  0
LWPOLYLINE
  5
35F
330
1F
100
AcDbEntity
  8
0
  6
Continuous
 62
     7
100
AcDbPolyline
 90
        4
 70
   128
 43
0.0
 10
6329.3266296387
 20
5178.4666892902
 10
6329.3560919416
 20
5178.9115764233
 10
6329.0767957113
 20
5179.2574600883
 10
6328.2159607127
 20
5179.5311090366
  0
LWPOLYLINE
  5
360
330
1F
100
AcDbEntity
  8
0
  6
Continuous
 62
     7
100
AcDbPolyline
 90
        3
 70
   128
 43
0.0
 10
6328.2127380371
 20
5179.5311090366
 10
6328.3536778126
 20
5179.9685810958
 10
6328.5087089256
 20
5180.2939590828
  0
LWPOLYLINE
  5
361
330
1F
100
AcDbEntity
  8
0
  6
Continuous
 62
     7
100
AcDbPolyline
 90
        3
 70
   128
 43
0.0
 10
6328.5064697266
 20
5180.2939590828
 10
6328.1381602199
 20
5181.1855991789
 10
6328.0652205661
 20
5181.9438454525
  0
LWPOLYLINE
  5
362
330
1F
100
AcDbEntity
  8
0
  6
Continuous
 62
     7
100
AcDbPolyline
 90
        3
 70
   128
 43
0.0
 10
6328.0639648438
 20
5181.9438454525
 10
6329.1013668477
 20
5181.6387737452
 10
6329.8303525165
 20
5181.2031385318
  0
LWPOLYLINE
  5
363
330
1F
100
AcDbEntity
  8
0
  6
Continuous
 62
     7
100
AcDbPolyline
 90
        3
 70
   128
 43
0.0
 10
6329.8301696777
 20
5181.2031385318
 10
6330.2253332605
 20
5181.237277899
 10
6330.5356244758
 20
5181.2075790779
  0
LWPOLYLINE
  5
364
330
1F
100
AcDbEntity
  8
0
  6
Continuous
 62
     7
100
AcDbPolyline
 90
        3
 70
   128
 43
0.0
 10
6330.5320739746
 20
5181.2075790779
 10
6331.5259275383
 20
5181.7687833057
 10
6332.4071507171
 20
5181.9527265445
  0
LWPOLYLINE
  5
365
330
1F
100
AcDbEntity
  8
0
  6
Continuous
 62
     7
100
AcDbPolyline
 90
        3
 70
   128
 43
0.0
 10
6332.405090332
 20
5181.9527265445
 10
6332.24489202
 20
5180.9896652952
 10
6331.9105844215
 20
5180.2983698265
  0
LWPOLYLINE
  5
366
330
1F
100
AcDbEntity
  8
0
  6
Continuous
 62
     7
100
AcDbPolyline
 90
        3
 70
   128
 43
0.0
 10
6331.9091796875
 20
5180.2983698265
 10
6332.158965171
 20
5179.8275290385
 10
6332.2044651225
 20
5179.4176813976
  0
LWPOLYLINE
  5
367
330
1F
100
AcDbEntity
  8
0
  6
Continuous
 62
     7
100
AcDbPolyline
 90
        3
 70
   128
 43
0.0
 10
6330.7571411133
 20
5178.324681224
 10
6330.572857744
 20
5176.0821866247
 10
6330.6373994067
 20
5174.3154343979
  0
LWPOLYLINE
  5
368
330
1F
100
AcDbEntity
  8
0
  6
Continuous
 62
     7
100
AcDbPolyline
 90
        3
 70
   128
 43
0.0
 10
6330.6350708008
 20
5174.3154343979
 10
6330.6529474441
 20
5174.3169901552
 10
6330.6651453689
 20
5174.3183848278
  0
LWPOLYLINE
  5
369
330
1F
100
AcDbEntity
  8
0
  6
Continuous
 62
     7
100
AcDbPolyline
 90
        3
 70
   128
 43
0.0
 10
6330.6617736816
 20
5174.3183848278
 10
6331.8850467902
 20
5175.1136200796
 10
6332.3281447604
 20
5176.1832651512
  0
LWPOLYLINE
  5
36A
330
1F
100
AcDbEntity
  8
0
  6
Continuous
 62
     7
100
AcDbPolyline
 90
        3
 70
   128
 43
0.0
 10
6332.3249816895
 20
5176.1832651512
 10
6331.4612983532
 20
5176.0544107422
 10
6330.7835499957
 20
5176.1706885711
  0
LWPOLYLINE
  5
36B
330
1F
100
AcDbEntity
  8
0
  6
Continuous
 62
     7
100
AcDbPolyline
 90
        3
 70
   128
 43
0.0
 10
6330.7800292969
 20
5176.1706885711
 10
6330.8108909125
 20
5175.4444129834
 10
6330.8415155128
 20
5174.8741981403
  0
LWPOLYLINE
  5
36C
330
1F
100
AcDbEntity
  8
0
  6
Continuous
 62
     7
100
AcDbPolyline
 90
        3
 70
   128
 43
0.0
 10
6330.8410644531
 20
5174.8741981403
 10
6330.7335923905
 20
5177.1113112257
 10
6331.1787883952
 20
5178.8123962299
  0
LWPOLYLINE
  5
36D
330
1F
100
AcDbEntity
  8
0
  6
Continuous
 62
     7
100
AcDbPolyline
 90
        3
 70
   128
 43
0.0
 10
6331.1767578125
 20
5178.8123962299
 10
6331.1021030494
 20
5178.8779037016
 10
6331.0426215842
 20
5178.930264415
  0
LWPOLYLINE
  5
36E
330
1F
100
AcDbEntity
  8
0
  6
Continuous
 62
     7
100
AcDbPolyline
 90
        3
 70
   128
 43
0.0
 10
6329.8721313477
 20
5174.3063446895
 10
6330.0478616391
 20
5174.2789733255
 10
6330.1852981761
 20
5174.2709395305
  0
LWPOLYLINE
  5
36F
330
1F
100
AcDbEntity
  8
0
  6
Continuous
 62
     7
100
AcDbPolyline
 90
        3
 70
   128
 43
0.0
 10
6330.1849365234
 20
5174.2709395305
 10
6330.1518962837
 20
5175.275942087
 10
6330.2206437305
 20
5176.0627743618
  0
LWPOLYLINE
  5
370
330
1F
100
AcDbEntity
  8
0
  6
Continuous
 62
     7
100
AcDbPolyline
 90
        3
 70
   128
 43
0.0
 10
6330.2192687988
 20
5176.0627743618
 10
6330.2374835176
 20
5175.0567500384
 10
6330.2605788425
 20
5174.2665287868
  0
LWPOLYLINE
  5
371
330
1F
100
AcDbEntity
  8
0
  6
Continuous
 62
     7
100
AcDbPolyline
 90
        3
 70
   128
 43
0.0
 10
6330.2574157715
 20
5174.2665287868
 10
6330.4405564886
 20
5174.2771072533
 10
6330.5798809245
 20
5174.3019935505
  0
LWPOLYLINE
  5
372
330
1F
100
AcDbEntity
  8
0
  6
Continuous
 62
     7
100
AcDbPolyline
 90
        3
 70
   128
 43
0.0
 10
6330.5778503418
 20
5174.3019935505
 10
6330.5171193964
 20
5177.0648754105
 10
6331.0944180206
 20
5179.1142043487
  0
LWPOLYLINE
  5
373
330
1F
100
AcDbEntity
  8
0
  6
Continuous
 62
     7
100
AcDbPolyline
 90
        3
 70
   128
 43
0.0
 10
6331.0928344727
 20
5179.1142043487
 10
6330.6422084988
 20
5178.8272440182
 10
6330.247316809
 20
5178.6927995102
  0
LWPOLYLINE
  5
374
330
1F
100
AcDbEntity
  8
0
  6
Continuous
 62
     7
100
AcDbPolyline
 90
        3
 70
   128
 43
0.0
 10
6330.2459716797
 20
5178.6927995102
 10
6329.7353591467
 20
5178.9090225461
 10
6329.3558101371
 20
5179.1319069282
  0
LWPOLYLINE
  5
375
330
1F
100
AcDbEntity
  8
0
  6
Continuous
 62
     7
100
AcDbPolyline
 90
        3
 70
   128
 43
0.0
 10
6329.4792175293
 20
5178.790402116
 10
6329.4146954845
 20
5178.4123576563
 10
6329.2937020972
 20
5178.1340059654
  0
LWPOLYLINE
  5
376
330
1F
100
AcDbEntity
  8
0
  6
Continuous
 62
     7
100
AcDbPolyline
 90
        4
 70
   128
 43
0.0
 10
6329.2922973633
 20
5178.1340059654
 10
6328.5387226
 20
5176.0076652501
 10
6328.8599175787
 20
5174.9378457973
 10
6329.7993282989
 20
5174.3197557346
  0
LWPOLYLINE
  5
377
330
1F
100
AcDbEntity
  8
0
  6
Continuous
 62
     7
100
AcDbPolyline
 90
        3
 70
   128
 43
0.0
 10
6329.9446105957
 20
5179.8237976448
 10
6329.8892401838
 20
5179.9365183383
 10
6329.7948877528
 20
5179.97015685
  0
LWPOLYLINE
  5
378
330
1F
100
AcDbEntity
  8
0
  6
Continuous
 62
     7
100
AcDbPolyline
 90
        3
 70
   128
 43
0.0
 10
6329.7920227051
 20
5179.97015685
 10
6329.6801316265
 20
5179.9170464267
 10
6329.6440880016
 20
5179.8237976448
  0
LWPOLYLINE
  5
379
330
1F
100
AcDbEntity
  8
0
  6
Continuous
 62
     7
100
AcDbPolyline
 90
        3
 70
   128
 43
0.0
 10
6329.6432495117
 20
5179.8237976448
 10
6329.7000689869
 20
5179.7087992754
 10
6329.7948877528
 20
5179.6729978935
  0
LWPOLYLINE
  5
37A
330
1F
100
AcDbEntity
  8
0
  6
Continuous
 62
     7
100
AcDbPolyline
 90
        3
 70
   128
 43
0.0
 10
6330.9478759766
 20
5179.8237976448
 10
6330.893553287
 20
5179.940483969
 10
6330.7972292617
 20
5179.9745973961
  0
LWPOLYLINE
  5
37B
330
1F
100
AcDbEntity
  8
0
  6
Continuous
 62
     7
100
AcDbPolyline
 90
        3
 70
   128
 43
0.0
 10
6330.7952880859
 20
5179.9745973961
 10
6330.6836205304
 20
5179.9188978465
 10
6330.6508700565
 20
5179.8237976448
  0
LWPOLYLINE
  5
37C
330
1F
100
AcDbEntity
  8
0
  6
Continuous
 62
     7
100
AcDbPolyline
 90
        3
 70
   128
 43
0.0
 10
6330.6503295898
 20
5179.8237976448
 10
6330.7032069985
 20
5179.7082427763
 10
6330.7972292617
 20
5179.6729978935
  0
LWPOLYLINE
  5
37D
330
1F
100
AcDbEntity
  8
0
  6
Continuous
 62
     7
100
AcDbPolyline
 90
        3
 70
   128
 43
0.0
 10
6328.6018371582
 20
5180.4270264522
 10
6328.3242945261
 20
5181.1387230647
 10
6328.2603363708
 20
5181.7354080097
  0
LWPOLYLINE
  5
37E
330
1F
100
AcDbEntity
  8
0
  6
Continuous
 62
     7
100
AcDbPolyline
 90
        3
 70
   128
 43
0.0
 10
6328.2585144043
 20
5181.7354080097
 10
6328.8805644037
 20
5181.3881180095
 10
6329.2980830386
 20
5181.0168442146
  0
LWPOLYLINE
  5
37F
330
1F
100
AcDbEntity
  8
0
  6
Continuous
 62
     7
100
AcDbPolyline
 90
        3
 70
   128
 43
0.0
 10
6329.2961120605
 20
5181.0168442146
 10
6329.379123336
 20
5181.0562075884
 10
6329.4444720462
 20
5181.0834226028
  0
LWPOLYLINE
  5
380
330
1F
100
AcDbEntity
  8
0
  6
Continuous
 62
     7
100
AcDbPolyline
 90
        3
 70
   128
 43
0.0
 10
6329.4410705566
 20
5181.0834226028
 10
6328.7813097607
 20
5181.6341245533
 10
6328.1449715808
 20
5181.8595346824
  0
LWPOLYLINE
  5
381
330
1F
100
AcDbEntity
  8
0
  6
Continuous
 62
     7
100
AcDbPolyline
 90
        3
 70
   128
 43
0.0
 10
6331.7794799805
 20
5180.5112776176
 10
6331.8349350813
 20
5180.4389722924
 10
6331.8705301002
 20
5180.3781804458
  0
LWPOLYLINE
  5
382
330
1F
100
AcDbEntity
  8
0
  6
Continuous
 62
     7
100
AcDbPolyline
 90
        3
 70
   128
 43
0.0
 10
6331.8672180176
 20
5180.3781804458
 10
6332.2491185667
 20
5181.1837415634
 10
6332.3584537223
 20
5181.8728563205
  0
LWPOLYLINE
  5
383
330
1F
100
AcDbEntity
  8
0
  6
Continuous
 62
     7
100
AcDbPolyline
 90
        3
 70
   128
 43
0.0
 10
6332.3554992676
 20
5181.8728563205
 10
6331.4876920967
 20
5181.5503581412
 10
6330.9169749931
 20
5181.0967144386
  0
LWPOLYLINE
  5
384
330
1F
100
AcDbEntity
  8
0
  6
Continuous
 62
     7
100
AcDbPolyline
 90
        3
 70
   128
 43
0.0
 10
6332.0693969727
 20
5179.4867631809
 10
6331.3232150398
 20
5179.3221977152
 10
6330.8018188194
 20
5179.0254232303
  0
ARC
  5
385
330
1F
100
AcDbEntity
  8
0
  6
Continuous
 62
     7
100
AcDbCircle
 10
6330.6708851247
 20
5178.9333750994
 30
0.0
 40
1.585905121670798
100
AcDbArc
 50
20.0209845427
 51
78.7940830617
  0
LWPOLYLINE
  5
386
330
1F
100
AcDbEntity
  8
0
  6
Continuous
 62
     7
100
AcDbPolyline
 90
        3
 70
   128
 43
0.0
 10
6330.9135437012
 20
5181.0967144386
 10
6330.9944769387
 20
5181.0630160284
 10
6331.0544829086
 20
5181.0345765964
  0
LWPOLYLINE
  5
387
330
1F
100
AcDbEntity
  8
0
  6
Continuous
 62
     7
100
AcDbPolyline
 90
        3
 70
   128
 43
0.0
 10
6330.7952880859
 20
5179.6729978935
 10
6330.9139331504
 20
5179.7274647863
 10
6330.948029013
 20
5179.8237976448
  0
LWPOLYLINE
  5
388
330
1F
100
AcDbEntity
  8
0
  6
Continuous
 62
     7
100
AcDbPolyline
 90
        3
 70
   128
 43
0.0
 10
6329.7920227051
 20
5179.6729978935
 10
6329.9098660364
 20
5179.728990406
 10
6329.9456577018
 20
5179.8237976448
  0
LWPOLYLINE
  5
389
330
1F
100
AcDbEntity
  8
0
  6
Continuous
 62
     7
100
AcDbPolyline
 90
        3
 70
   128
 43
0.0
 10
6329.7958374023
 20
5174.3197557346
 10
6329.7890238469
 20
5176.8368865473
 10
6329.4800262168
 20
5178.790402116
  0
LWPOLYLINE
  5
38A
330
1F
100
AcDbEntity
  8
0
  6
Continuous
 62
     7
100
AcDbPolyline
 90
        3
 70
   128
 43
0.0
 10
6329.3533325195
 20
5179.1319069282
 10
6329.8899413344
 20
5176.4701650081
 10
6329.8747579768
 20
5174.3063446895
  0
LWPOLYLINE
  5
38B
330
1F
100
AcDbEntity
  8
0
  6
Continuous
 62
     7
100
AcDbPolyline
 90
        3
 70
   128
 43
0.0
 10
6331.0394287109
 20
5178.930264415
 10
6330.8486160908
 20
5178.6067209341
 10
6330.757323952
 20
5178.324681224
  0
LWPOLYLINE
  5
38C
330
1F
100
AcDbEntity
  8
0
  6
Continuous
 62
     7
100
AcDbPolyline
 90
        3
 70
   128
 43
0.0
 10
6332.202911377
 20
5179.4176813976
 10
6331.5224910982
 20
5179.2939165232
 10
6331.0800234988
 20
5178.9743122474
  0
LWPOLYLINE
  5
38D
330
1F
100
AcDbEntity
  8
0
  6
Continuous
 62
     7
100
AcDbPolyline
 90
        3
 70
   128
 43
0.0
 10
6332.2257995605
 20
5177.4321314708
 10
6332.3080153757
 20
5177.1152220385
 10
6332.3461453632
 20
5176.8609997646
  0
LWPOLYLINE
  5
38E
330
1F
100
AcDbEntity
  8
0
  6
Continuous
 62
     7
100
AcDbPolyline
 90
        3
 70
   128
 43
0.0
 10
6331.657409668
 20
5178.4810242073
 10
6331.8329024784
 20
5178.2458049021
 10
6331.953529568
 20
5178.0511555092
  0
LWPOLYLINE
  5
38F
330
1F
100
AcDbEntity
  8
0
  6
Continuous
 62
     7
100
AcDbPolyline
 90
        3
 70
   128
 43
0.0
 10
6328.5636901855
 20
5181.7841944114
 10
6329.268817018
 20
5181.4991644641
 10
6329.777244778
 20
5181.1854359524
  0
LWPOLYLINE
  5
390
330
1F
100
AcDbEntity
  8
0
  6
Continuous
 62
     7
100
AcDbPolyline
 90
        3
 70
   128
 43
0.0
 10
6330.2040100098
 20
5181.1632332222
 10
6331.4284933625
 20
5180.7412119804
 10
6332.0212702468
 20
5179.9125191585
  0
LWPOLYLINE
  5
391
330
1F
100
AcDbEntity
  8
0
  6
Continuous
 62
     7
100
AcDbPolyline
 90
        3
 70
   128
 43
0.0
 10
6330.6083679199
 20
5181.1943170444
 10
6331.1653002739
 20
5181.5603727261
 10
6331.6576819137
 20
5181.730997266
  0
LWPOLYLINE
  5
392
330
1F
100
AcDbEntity
  8
0
  6
Continuous
 62
     7
100
AcDbPolyline
 90
       11
 70
   128
 43
0.0
 10
6330.9783935547
 20
5180.4890450851
 10
6330.4490497516
 20
5180.2252679987
 10
6329.8656006633
 20
5180.3098734203
 10
6329.692283601
 20
5180.4086548271
 10
6329.6125780567
 20
5180.4686587272
 10
6329.5750983847
 20
5180.5012452006
 10
6329.5571707689
 20
5180.5183358727
 10
6329.5488278541
 20
5180.5275858914
 10
6329.5449301818
 20
5180.5325328671
 10
6329.5430647819
 20
5180.5351052674
 10
6329.542074652
 20
5180.5379208938
  0
LWPOLYLINE
  5
393
330
1F
100
AcDbEntity
  8
0
  6
Continuous
 62
     7
100
AcDbPolyline
 90
        3
 70
   128
 43
0.0
 10
6329.5402526855
 20
5180.5379208938
 10
6328.7788496553
 20
5180.057426201
 10
6328.2829265311
 20
5179.5646366493
  0
LWPOLYLINE
  5
394
330
1F
100
AcDbEntity
  8
0
  6
Continuous
 62
     7
100
AcDbPolyline
 90
        3
 70
   128
 43
0.0
 10
6328.2814025879
 20
5179.5646366493
 10
6329.3568256629
 20
5180.0011048619
 10
6330.2649597839
 20
5180.089962186
  0
LWPOLYLINE
  5
395
330
1F
100
AcDbEntity
  8
0
  6
Continuous
 62
     7
100
AcDbPolyline
 90
        3
 70
   128
 43
0.0
 10
6330.2612304688
 20
5180.089962186
 10
6331.3868168888
 20
5179.9020560906
 10
6332.1637849525
 20
5179.4763323681
  0
LWPOLYLINE
  5
396
330
1F
100
AcDbEntity
  8
0
  6
Continuous
 62
     7
100
AcDbPolyline
 90
        3
 70
   128
 43
0.0
 10
6331.0508728027
 20
5181.0345765964
 10
6331.6522597005
 20
5181.4932808751
 10
6332.203302832
 20
5181.7087647335
  0
LWPOLYLINE
  5
397
330
1F
100
AcDbEntity
  8
0
  6
Continuous
 62
     7
100
AcDbPolyline
 90
        3
 70
   128
 43
0.0
 10
6332.202911377
 20
5181.7087647335
 10
6332.0452984718
 20
5181.0097837298
 10
6331.7818979934
 20
5180.5112776176
  0
LWPOLYLINE
  5
398
330
1F
100
AcDbEntity
  8
0
  6
Continuous
 62
     7
100
AcDbPolyline
 90
        3
 70
   128
 43
0.0
 10
6328.1440734863
 20
5181.8595346824
 10
6328.270009634
 20
5180.9872507762
 10
6328.5486738399
 20
5180.3515967743
  0
LWPOLYLINE
  5
399
330
1F
100
AcDbEntity
  8
0
  6
Continuous
 62
     7
100
AcDbPolyline
 90
        3
 70
   128
 43
0.0
 10
6330.8601379395
 20
5181.1189767734
 10
6330.7227781832
 20
5181.1631555773
 10
6330.6109647468
 20
5181.1943170444
  0
LWPOLYLINE
  5
39A
330
1F
100
AcDbEntity
  8
0
  6
Continuous
 62
     7
100
AcDbPolyline
 90
        3
 70
   128
 43
0.0
 10
6331.657409668
 20
5181.730997266
 10
6331.1833243153
 20
5181.4256434046
 10
6330.8637480453
 20
5181.1189767734
  0
LWPOLYLINE
  5
39B
330
1F
100
AcDbEntity
  8
0
  6
Continuous
 62
     7
100
AcDbPolyline
 90
        3
 70
   128
 43
0.0
 10
6330.8715820312
 20
5179.3093201534
 10
6331.5298792535
 20
5179.5124811912
 10
6332.0702652648
 20
5179.4867631809
  0
LWPOLYLINE
  5
39C
330
1F
100
AcDbEntity
  8
0
  6
Continuous
 62
     7
100
AcDbPolyline
 90
        3
 70
   128
 43
0.0
 10
6329.6852111816
 20
5179.2560932056
 10
6330.3507242088
 20
5179.7099297298
 10
6330.8725695327
 20
5179.3093201534
  0
LWPOLYLINE
  5
39D
330
1F
100
AcDbEntity
  8
0
  6
Continuous
 62
     7
100
AcDbPolyline
 90
        3
 70
   128
 43
0.0
 10
6328.3576965332
 20
5179.5488414184
 10
6329.1207365423
 20
5179.47378358
 10
6329.6884040549
 20
5179.2560932056
  0
LWPOLYLINE
  5
39E
330
1F
100
AcDbEntity
  8
0
  6
Continuous
 62
     7
100
AcDbPolyline
 90
        3
 70
   128
 43
0.0
 10
6329.2617797852
 20
5179.2649444954
 10
6328.7708207087
 20
5179.4737632496
 10
6328.3579985812
 20
5179.5488414184
  0
LWPOLYLINE
  5
39F
330
1F
100
AcDbEntity
  8
0
  6
Continuous
 62
     7
100
AcDbPolyline
 90
        3
 70
   128
 43
0.0
 10
6330.1582336426
 20
5178.8924154655
 10
6329.640825047
 20
5179.0600870321
 10
6329.2626778796
 20
5179.2649444954
  0
LWPOLYLINE
  5
3A0
330
1F
100
AcDbEntity
  8
0
  6
Continuous
 62
     7
100
AcDbPolyline
 90
        7
 70
   128
 43
0.0
 10
6330.1582336426
 20
5179.0520963089
 10
6330.1816662765
 20
5179.0429057997
 10
6330.195917553
 20
5179.0219080378
 10
6330.2050869189
 20
5178.9722434679
 10
6330.1959195741
 20
5178.922577914
 10
6330.1816696907
 20
5178.9015806745
 10
6330.1585356906
 20
5178.8924154655
  0
LWPOLYLINE
  5
3A1
330
1F
100
AcDbEntity
  8
0
  6
Continuous
 62
     7
100
AcDbPolyline
 90
        3
 70
   128
 43
0.0
 10
6330.5282592773
 20
5179.1052934543
 10
6330.5059769291
 20
5179.1465400038
 10
6330.4690758899
 20
5179.1585204021
  0
LWPOLYLINE
  5
3A2
330
1F
100
AcDbEntity
  8
0
  6
Continuous
 62
     7
100
AcDbPolyline
 90
        3
 70
   128
 43
0.0
 10
6330.4672241211
 20
5179.0520963089
 10
6330.5145378357
 20
5179.0707515468
 10
6330.5312137321
 20
5179.1052934543
  0
LWPOLYLINE
  5
3A3
330
1F
100
AcDbEntity
  8
0
  6
Continuous
 62
     7
100
AcDbPolyline
 90
        6
 70
   128
 43
0.0
 10
6330.3489685059
 20
5178.8880047218
 10
6330.3278409768
 20
5178.9009664547
 10
6330.3170409012
 20
5178.9244249939
 10
6330.3118568547
 20
5178.9758515801
 10
6330.3251460813
 20
5179.0256474149
 10
6330.3670625404
 20
5179.0520963089
  0
LWPOLYLINE
  5
3A4
330
1F
100
AcDbEntity
  8
0
  6
Continuous
 62
     7
100
AcDbPolyline
 90
        3
 70
   128
 43
0.0
 10
6330.7991027832
 20
5179.0254232303
 10
6330.5615879991
 20
5178.899936311
 10
6330.3492705539
 20
5178.8880047218
  0
LWPOLYLINE
  5
3A5
330
1F
100
AcDbEntity
  8
0
  6
Continuous
 62
     7
100
AcDbPolyline
 90
        3
 70
   128
 43
0.0
 10
6329.5669555664
 20
5180.6132909672
 10
6328.8632632527
 20
5180.2037927324
 10
6328.3667008594
 20
5179.7972139732
  0
LWPOLYLINE
  5
3A6
330
1F
100
AcDbEntity
  8
0
  6
Continuous
 62
     7
100
AcDbPolyline
 90
        3
 70
   128
 43
0.0
 10
6330.9669494629
 20
5180.5689153091
 10
6330.1636490662
 20
5180.2872627225
 10
6329.5686285213
 20
5180.6132909672
  0
LWPOLYLINE
  5
3A7
330
1F
100
AcDbEntity
  8
0
  6
Continuous
 62
     7
100
AcDbPolyline
 90
        3
 70
   128
 43
0.0
 10
6330.9936523438
 20
5177.9712852852
 10
6331.0679124713
 20
5178.2311300774
 10
6331.1337868884
 20
5178.4325060264
  0
LWPOLYLINE
  5
3A8
330
1F
100
AcDbEntity
  8
0
  6
Continuous
 62
     7
100
AcDbPolyline
 90
        3
 70
   128
 43
0.0
 10
6331.9511413574
 20
5178.0511555092
 10
6331.4219498988
 20
5177.9203541767
 10
6330.9958021358
 20
5177.9712852852
  0
LWPOLYLINE
  5
3A9
330
1F
100
AcDbEntity
  8
0
  6
Continuous
 62
     7
100
AcDbPolyline
 90
        3
 70
   128
 43
0.0
 10
6329.4868469238
 20
5181.1055657284
 10
6329.0161002431
 20
5181.5468500709
 10
6328.5663466171
 20
5181.7841944114
  0
LWPOLYLINE
  5
3AA
330
1F
100
AcDbEntity
  8
0
  6
Continuous
 62
     7
100
AcDbPolyline
 90
        3
 70
   128
 43
0.0
 10
6332.0198059082
 20
5179.9125191585
 10
6331.4636723623
 20
5180.3288445035
 10
6330.9701721385
 20
5180.5689153091
  0
LWPOLYLINE
  5
3AB
330
1F
100
AcDbEntity
  8
0
  6
Continuous
 62
     7
100
AcDbPolyline
 90
        3
 70
   128
 43
0.0
 10
6330.8563232422
 20
5179.8237678425
 10
6330.8371013899
 20
5179.870440522
 10
6330.7986001685
 20
5179.8840579406
  0
LWPOLYLINE
  5
3AC
330
1F
100
AcDbEntity
  8
0
  6
Continuous
 62
     7
100
AcDbPolyline
 90
        3
 70
   128
 43
0.0
 10
6330.7952880859
 20
5179.7634777443
 10
6330.8451977518
 20
5179.7852783983
 10
6330.8588008598
 20
5179.8237678425
  0
LWPOLYLINE
  5
3AD
330
1F
100
AcDbEntity
  8
0
  6
Continuous
 62
     7
100
AcDbPolyline
 90
        3
 70
   128
 43
0.0
 10
6330.738067627
 20
5179.8237678425
 10
6330.7609653586
 20
5179.7775522677
 10
6330.7986001685
 20
5179.7634777443
  0
LWPOLYLINE
  5
3AE
330
1F
100
AcDbEntity
  8
0
  6
Continuous
 62
     7
100
AcDbPolyline
 90
        3
 70
   128
 43
0.0
 10
6330.7952880859
 20
5179.8840579406
 10
6330.7530974
 20
5179.8618234005
 10
6330.7399790004
 20
5179.8237678425
  0
LWPOLYLINE
  5
3AF
330
1F
100
AcDbEntity
  8
0
  6
Continuous
 62
     7
100
AcDbPolyline
 90
        3
 70
   128
 43
0.0
 10
6333.6143493652
 20
5181.4113971607
 10
6333.6392976796
 20
5181.4695041932
 10
6333.6446027473
 20
5181.5187451259
  0
LWPOLYLINE
  5
3B0
330
1F
100
AcDbEntity
  8
0
  6
Continuous
 62
     7
100
AcDbPolyline
 90
        3
 70
   128
 43
0.0
 10
6333.5266113281
 20
5181.3387092964
 10
6333.583044337
 20
5181.3734916124
 10
6333.6150388435
 20
5181.4113971607
  0
LWPOLYLINE
  5
3B1
330
1F
100
AcDbEntity
  8
0
  6
Continuous
 62
     7
100
AcDbPolyline
 90
        3
 70
   128
 43
0.0
 10
6333.5838317871
 20
5181.6657897846
 10
6333.4922202702
 20
5181.7063368249
 10
6333.4132175163
 20
5181.7135331051
  0
LWPOLYLINE
  5
3B2
330
1F
100
AcDbEntity
  8
0
  6
Continuous
 62
     7
100
AcDbPolyline
 90
        3
 70
   128
 43
0.0
 10
6333.6410522461
 20
5181.5187451259
 10
6333.6281258524
 20
5181.608742438
 10
6333.5841338351
 20
5181.6657897846
  0
LWPOLYLINE
  5
3B3
330
1F
100
AcDbEntity
  8
0
  6
Continuous
 62
     7
100
AcDbPolyline
 90
        3
 70
   128
 43
0.0
 10
6333.5227966309
 20
5181.410592498
 10
6333.4663779867
 20
5181.3806036299
 10
6333.4148268417
 20
5181.3749489204
  0
LWPOLYLINE
  5
3B4
330
1F
100
AcDbEntity
  8
0
  6
Continuous
 62
     7
100
AcDbPolyline
 90
        3
 70
   128
 43
0.0
 10
6333.5609436035
 20
5181.5151092426
 10
6333.553671498
 20
5181.4517133364
 10
6333.5247974113
 20
5181.410592498
  0
LWPOLYLINE
  5
3B5
330
1F
100
AcDbEntity
  8
0
  6
Continuous
 62
     7
100
AcDbPolyline
 90
        3
 70
   128
 43
0.0
 10
6333.4121704102
 20
5181.6473719494
 10
6333.5326547978
 20
5181.6087533775
 10
6333.5646431163
 20
5181.5151092426
  0
LWPOLYLINE
  5
3B6
330
1F
100
AcDbEntity
  8
0
  6
Continuous
 62
     7
100
AcDbPolyline
 90
        4
 70
   128
 43
0.0
 10
6325.9162902832
 20
5179.3258902446
 10
6325.6273570791
 20
5179.1572736508
 10
6325.523464523
 20
5178.8221683271
 10
6325.4961709693
 20
5178.1157967464
  0
LWPOLYLINE
  5
3B7
330
1F
100
AcDbEntity
  8
0
  6
Continuous
 62
     7
100
AcDbPolyline
 90
        3
 70
   128
 43
0.0
 10
6326.1871337891
 20
5180.0304469482
 10
6327.0877617363
 20
5179.5285645493
 10
6327.313933821
 20
5178.7338671104
  0
LWPOLYLINE
  5
3B8
330
1F
100
AcDbEntity
  8
0
  6
Continuous
 62
     7
100
AcDbPolyline
 90
        3
 70
   128
 43
0.0
 10
6324.8100280762
 20
5178.7433144466
 10
6325.1741614652
 20
5179.7120881958
 10
6325.9196917728
 20
5180.0304469482
  0
LWPOLYLINE
  5
3B9
330
1F
100
AcDbEntity
  8
0
  6
Continuous
 62
     7
100
AcDbPolyline
 90
        4
 70
   128
 43
0.0
 10
6326.6105651855
 20
5178.1223532573
 10
6326.5869518542
 20
5178.8261623217
 10
6326.4826254538
 20
5179.159746349
 10
6326.1901776508
 20
5179.3258902446
  0
LWPOLYLINE
  5
3BA
330
1F
100
AcDbEntity
  8
0
  6
Continuous
 62
     7
100
AcDbPolyline
 90
        3
 70
   128
 43
0.0
 10
6329.8530578613
 20
5179.8224863426
 10
6329.8326414574
 20
5179.867564363
 10
6329.7948877528
 20
5179.8810181038
  0
LWPOLYLINE
  5
3BB
330
1F
100
AcDbEntity
  8
0
  6
Continuous
 62
     7
100
AcDbPolyline
 90
        3
 70
   128
 43
0.0
 10
6329.7920227051
 20
5179.7621962444
 10
6329.840912097
 20
5179.7845649389
 10
6329.855267258
 20
5179.8224863426
  0
LWPOLYLINE
  5
3BC
330
1F
100
AcDbEntity
  8
0
  6
Continuous
 62
     7
100
AcDbPolyline
 90
        3
 70
   128
 43
0.0
 10
6329.7309875488
 20
5179.8224863426
 10
6329.7569483269
 20
5179.7764819967
 10
6329.7948877528
 20
5179.7621962444
  0
LWPOLYLINE
  5
3BD
330
1F
100
AcDbEntity
  8
0
  6
Continuous
 62
     7
100
AcDbPolyline
 90
        3
 70
   128
 43
0.0
 10
6329.7920227051
 20
5179.8810181038
 10
6329.7489738011
 20
5179.8597906392
 10
6329.7345678523
 20
5179.8224863426
  0
LWPOLYLINE
  5
3BE
330
1F
100
AcDbEntity
  8
0
  6
Continuous
 62
     7
100
AcDbPolyline
 90
        6
 70
   128
 43
0.0
 10
6229.7325134277
 20
5155.4614421741
 10
6231.3404018777
 20
5155.588176968
 10
6231.8376303454
 20
5155.8092033468
 10
6232.0180606486
 20
5156.1351797039
 10
6231.4906032757
 20
5156.9398839371
 10
6230.0187687591
 20
5157.4225243942
  0
LWPOLYLINE
  5
3BF
330
1F
100
AcDbEntity
  8
0
  6
Continuous
 62
     7
100
AcDbPolyline
 90
        6
 70
   128
 43
0.0
 10
6230.0186157227
 20
5157.4225243942
 10
6228.5147475921
 20
5156.915981051
 10
6228.1231685708
 20
5156.4926072539
 10
6228.0246679617
 20
5156.0892448817
 10
6228.4134617373
 20
5155.6835492279
 10
6229.7329644874
 20
5155.4614421741
  0
LWPOLYLINE
  5
3C0
330
1F
100
AcDbEntity
  8
0
  6
Continuous
 62
     7
100
AcDbPolyline
 90
        6
 70
   128
 43
0.0
 10
6317.7299499512
 20
5155.4614421741
 10
6319.3404014009
 20
5155.588176968
 10
6319.8376298686
 20
5155.8092033468
 10
6320.0180601718
 20
5156.1351797039
 10
6319.4906027989
 20
5156.9398839371
 10
6318.0187682822
 20
5157.4225243942
  0
LWPOLYLINE
  5
3C1
330
1F
100
AcDbEntity
  8
0
  6
Continuous
 62
     7
100
AcDbPolyline
 90
        6
 70
   128
 43
0.0
 10
6318.0160522461
 20
5157.4225243942
 10
6316.5147471153
 20
5156.915981051
 10
6316.1231680939
 20
5156.4926072539
 10
6316.0246674849
 20
5156.0892448817
 10
6316.4134612605
 20
5155.6835492279
 10
6317.7329640105
 20
5155.4614421741
  0
LWPOLYLINE
  5
3C2
330
1F
100
AcDbEntity
  8
0
  6
Continuous
 62
     7
100
AcDbPolyline
 90
        3
 70
   128
 43
0.0
 10
6228.3821105957
 20
5156.782430114
 10
6230.2710294113
 20
5156.4911371553
 10
6231.6730360702
 20
5156.786036195
  0
LWPOLYLINE
  5
3C3
330
1F
100
AcDbEntity
  8
0
  6
Continuous
 62
     7
100
AcDbPolyline
 90
        3
 70
   128
 43
0.0
 10
6316.3833618164
 20
5156.782430114
 10
6318.2710289345
 20
5156.4911371553
 10
6319.6730355933
 20
5156.786036195
  0
LWPOLYLINE
  5
3C4
330
1F
100
AcDbEntity
  8
0
  6
Continuous
 62
     7
100
AcDbPolyline
 90
        5
 70
   128
 43
0.0
 10
6287.6319885254
 20
5182.2314080612
 10
6285.7491143086
 20
5181.5322492097
 10
6284.0740883899
 20
5182.3166375528
 10
6283.3979602087
 20
5184.1107379521
 10
6284.3359152988
 20
5185.9808680431
  0
LWPOLYLINE
  5
3C5
330
1F
100
AcDbEntity
  8
0
  6
Continuous
 62
     7
100
AcDbPolyline
 90
        5
 70
   128
 43
0.0
 10
6284.3322753906
 20
5185.9808680431
 10
6286.1654070215
 20
5186.5126120098
 10
6287.734208771
 20
5185.7230738694
 10
6288.3965913485
 20
5184.0520569411
 10
6287.635211201
 20
5182.2314080612
  0
LWPOLYLINE
  5
3C6
330
1F
100
AcDbEntity
  8
0
  6
Continuous
 62
     7
100
AcDbPolyline
 90
        5
 70
   128
 43
0.0
 10
6263.8969421387
 20
5182.8485545532
 10
6262.3607257296
 20
5181.8937166314
 10
6260.4703708459
 20
5182.299178951
 10
6259.4151013972
 20
5184.0656634436
 10
6259.9224786475
 20
5185.8817753212
  0
LWPOLYLINE
  5
3C7
330
1F
100
AcDbEntity
  8
0
  6
Continuous
 62
     7
100
AcDbPolyline
 90
        5
 70
   128
 43
0.0
 10
6259.9220275879
 20
5185.8817753212
 10
6261.4472106795
 20
5186.811941251
 10
6263.3276589219
 20
5186.4020066542
 10
6264.3790721513
 20
5184.663591712
 10
6263.8971845821
 20
5182.8485545532
  0
LWPOLYLINE
  5
3C8
330
1F
100
AcDbEntity
  8
0
  6
Continuous
 62
     7
100
AcDbPolyline
 90
        9
 70
   128
 43
0.0
 10
6370.0180053711
 20
5206.3886341469
 10
6370.2634382417
 20
5193.0190008444
 10
6370.4511722508
 20
5181.3719272193
 10
6370.4970079961
 20
5180.4933540945
 10
6370.5009519978
 20
5180.4782327882
 10
6370.5024401643
 20
5180.4761897519
 10
6370.5031862034
 20
5180.475948307
 10
6370.5039335326
 20
5180.4762227231
 10
6370.5129663661
 20
5180.5054661648
  0
LWPOLYLINE
  5
3C9
330
1F
100
AcDbEntity
  8
0
  6
Continuous
 62
     7
100
AcDbPolyline
 90
       14
 70
   128
 43
0.0
 10
6369.6060180664
 20
5180.0187644378
 10
6369.5934123092
 20
5179.9762482887
 10
6369.5910695894
 20
5179.9763747184
 10
6369.5887354272
 20
5179.9788486833
 10
6369.5825494763
 20
5179.9963416871
 10
6369.5098900652
 20
5180.9830829066
 10
6369.2106728752
 20
5193.188901024
 10
6368.91479361
 20
5205.3951935728
 10
6368.8388685725
 20
5206.3971600477
 10
6368.8281856462
 20
5206.4322188646
 10
6368.8264221487
 20
5206.4335520677
 10
6368.8246644101
 20
5206.4334891863
 10
6368.8200078414
 20
5206.4261895341
 10
6368.8138763622
 20
5206.3995119945
  0
LWPOLYLINE
  5
3CA
330
1F
100
AcDbEntity
  8
0
  6
Continuous
 62
     7
100
AcDbPolyline
 90
       14
 70
   128
 43
0.0
 10
6368.0191040039
 20
5180.0187644378
 10
6368.0059029066
 20
5179.9762482926
 10
6368.0035609507
 20
5179.9763747264
 10
6368.001227739
 20
5179.9788486966
 10
6367.9950450828
 20
5179.9963417183
 10
6367.9223956341
 20
5180.9830829936
 10
6367.6231629149
 20
5193.1889010297
 10
6367.327258733
 20
5205.3951936112
 10
6367.2515416628
 20
5206.3971597259
 10
6367.2408414327
 20
5206.4322185729
 10
6367.2390676063
 20
5206.433551794
 10
6367.237297064
 20
5206.4334889349
 10
6367.2325932619
 20
5206.4261893647
 10
6367.2263662532
 20
5206.3995119945
  0
LWPOLYLINE
  5
3CB
330
1F
100
AcDbEntity
  8
0
  6
Continuous
 62
     7
100
AcDbPolyline
 90
       14
 70
   128
 43
0.0
 10
6366.4321899414
 20
5180.0187644378
 10
6366.4183863159
 20
5179.9762483105
 10
6366.4160404628
 20
5179.9763747408
 10
6366.4137040219
 20
5179.9788487065
 10
6366.4075157103
 20
5179.9963417126
 10
6366.3348900655
 20
5180.98308279
 10
6366.035680431
 20
5193.1889012629
 10
6365.7397716915
 20
5205.3951937667
 10
6365.6640296852
 20
5206.3971597102
 10
6365.6533305611
 20
5206.432218567
 10
6365.6515569004
 20
5206.4335517895
 10
6365.6497865101
 20
5206.4334889316
 10
6365.6450830215
 20
5206.426189364
 10
6365.6388561443
 20
5206.3995119945
  0
LWPOLYLINE
  5
3CC
330
1F
100
AcDbEntity
  8
0
  6
Continuous
 62
     7
100
AcDbPolyline
 90
       14
 70
   128
 43
0.0
 10
6364.8414611816
 20
5180.0187644378
 10
6364.8309117847
 20
5179.9762482887
 10
6364.8285690649
 20
5179.9763747184
 10
6364.8262349027
 20
5179.9788486833
 10
6364.8200489518
 20
5179.9963416871
 10
6364.7473895407
 20
5180.9830829066
 10
6364.4481723507
 20
5193.188901024
 10
6364.1522930855
 20
5205.3951935728
 10
6364.0763680479
 20
5206.3971600477
 10
6364.0656851217
 20
5206.4322188646
 10
6364.0639216242
 20
5206.4335520677
 10
6364.0621638856
 20
5206.4334891863
 10
6364.0575073169
 20
5206.4261895341
 10
6364.0513758376
 20
5206.3995119945
  0
LWPOLYLINE
  5
3CD
330
1F
100
AcDbEntity
  8
0
  6
Continuous
 62
     7
100
AcDbPolyline
 90
        8
 70
   128
 43
0.0
 10
6363.2545471191
 20
5180.0187644378
 10
6363.2443544882
 20
5179.9768833133
 10
6363.2421670692
 20
5179.9760176599
 10
6363.2399874422
 20
5179.9772244265
 10
6363.2342103547
 20
5179.9901032396
 10
6363.1664857398
 20
5180.8548092484
 10
6362.8880671074
 20
5191.7882700142
 10
6362.5187616065
 20
5206.1120387928
  0
LWPOLYLINE
  5
3CE
330
1F
100
AcDbEntity
  8
0
  6
Continuous
 62
     7
100
AcDbPolyline
 90
        9
 70
   128
 43
0.0
 10
6370.0180053711
 20
5206.3886341469
 10
6370.0129909909
 20
5206.4063408043
 10
6370.0108386803
 20
5206.4102238454
 10
6370.0097655729
 20
5206.4112304414
 10
6370.0086948846
 20
5206.4114950338
 10
6370.0070940227
 20
5206.4103058899
 10
6370.0055002087
 20
5206.4069549408
 10
6370.0023326513
 20
5206.3940965709
 10
6369.9960450843
 20
5206.353795232
  0
LWPOLYLINE
  5
3CF
330
1F
100
AcDbEntity
  8
0
  6
Continuous
 62
     7
100
AcDbPolyline
 90
       10
 70
   128
 43
0.0
 10
6369.2016601562
 20
5180.0535139457
 10
6369.1775351807
 20
5180.102512944
 10
6369.1058809549
 20
5181.1323049035
 10
6368.8093900106
 20
5193.4130666153
 10
6368.5166023429
 20
5205.4241331526
 10
6368.4420464313
 20
5206.3361154695
 10
6368.4231214963
 20
5206.4159126576
 10
6368.4223435735
 20
5206.4163047772
 10
6368.421568771
 20
5206.4160775886
 10
6368.4169988349
 20
5206.3995119945
  0
LWPOLYLINE
  5
3D0
330
1F
100
AcDbEntity
  8
0
  6
Continuous
 62
     7
100
AcDbPolyline
 90
       10
 70
   128
 43
0.0
 10
6367.6147460938
 20
5180.0535139457
 10
6367.5900568274
 20
5180.1025129596
 10
6367.5183720949
 20
5181.1323047313
 10
6367.2218930873
 20
5193.4130666221
 10
6366.9291115396
 20
5205.4241332979
 10
6366.8545325511
 20
5206.3361155998
 10
6366.8356750024
 20
5206.4159125906
 10
6366.8348954635
 20
5206.4163047055
 10
6366.8341174905
 20
5206.416077515
 10
6366.829488726
 20
5206.3995119945
  0
LWPOLYLINE
  5
3D1
330
1F
100
AcDbEntity
  8
0
  6
Continuous
 62
     7
100
AcDbPolyline
 90
       10
 70
   128
 43
0.0
 10
6366.024017334
 20
5180.0535139457
 10
6366.0025447647
 20
5180.1025129454
 10
6365.9308905378
 20
5181.1323049343
 10
6365.6343997763
 20
5193.4130669148
 10
6365.3416014676
 20
5205.4241332986
 10
6365.2670224434
 20
5206.3361155998
 10
6365.2481648934
 20
5206.4159125906
 10
6365.2473853545
 20
5206.4163047055
 10
6365.2466073815
 20
5206.416077515
 10
6365.241978617
 20
5206.3995119945
  0
LWPOLYLINE
  5
3D2
330
1F
100
AcDbEntity
  8
0
  6
Continuous
 62
     7
100
AcDbPolyline
 90
       10
 70
   128
 43
0.0
 10
6364.4371032715
 20
5180.0535139457
 10
6364.4150346561
 20
5180.102512944
 10
6364.3433804304
 20
5181.1323049035
 10
6364.0468894861
 20
5193.4130666153
 10
6363.7541018184
 20
5205.4241331526
 10
6363.6795459068
 20
5206.3361154695
 10
6363.6606209717
 20
5206.4159126576
 10
6363.659843049
 20
5206.4163047772
 10
6363.6590682465
 20
5206.4160775886
 10
6363.6544983104
 20
5206.3995119945
  0
ARC
  5
3D3
330
1F
100
AcDbEntity
  8
0
  6
Continuous
 62
     7
100
AcDbCircle
 10
6402.0246120625
 20
5186.4877632207
 30
0.0
 40
39.69930691635548
100
AcDbArc
 50
174.3413308085
 51
189.327333964
  0
LWPOLYLINE
  5
3D4
330
1F
100
AcDbEntity
  8
0
  6
Continuous
 62
     7
100
AcDbPolyline
 90
       14
 70
   128
 43
0.0
 10
6370.2926635742
 20
5180.8443185703
 10
6370.286612713
 20
5180.8298313868
 10
6370.2842710617
 20
5180.8291874342
 10
6370.2819388176
 20
5180.8310624864
 10
6370.2681138275
 20
5180.8899259687
 10
6370.1954999148
 20
5181.9509813969
 10
6369.8961223466
 20
5193.6277382286
 10
6369.6004333974
 20
5204.7603358292
 10
6369.5244442519
 20
5205.5585805008
 10
6369.5212898674
 20
5205.5632150874
 10
6369.518146174
 20
5205.5642850409
 10
6369.5134532971
 20
5205.5588538994
 10
6369.5087911369
 20
5205.5445129634
 10
6369.4995383933
 20
5205.4959651844
  0
LWPOLYLINE
  5
3D5
330
1F
100
AcDbEntity
  8
0
  6
Continuous
 62
     7
100
AcDbPolyline
 90
       14
 70
   128
 43
0.0
 10
6368.7019348145
 20
5180.8443185703
 10
6368.6991317882
 20
5180.8298313829
 10
6368.6967894637
 20
5180.8291874263
 10
6368.6944563349
 20
5180.8310624733
 10
6368.6806228488
 20
5180.8899259067
 10
6368.6080105296
 20
5181.9509813718
 10
6368.3086400068
 20
5193.6277384954
 10
6368.0129394663
 20
5204.7603358908
 10
6367.9369398098
 20
5205.5585805309
 10
6367.9337836827
 20
5205.5632151086
 10
6367.9306384896
 20
5205.5642850542
 10
6367.9259439191
 20
5205.5588539039
 10
6367.9212808681
 20
5205.5445129632
 10
6367.9120282844
 20
5205.4959651844
  0
LWPOLYLINE
  5
3D6
330
1F
100
AcDbEntity
  8
0
  6
Continuous
 62
     7
100
AcDbPolyline
 90
       14
 70
   128
 43
0.0
 10
6367.115020752
 20
5180.8443185703
 10
6367.1116222974
 20
5180.8298313867
 10
6367.1092806461
 20
5180.8291874343
 10
6367.106948402
 20
5180.8310624866
 10
6367.0931234124
 20
5180.8899259714
 10
6367.0205094928
 20
5181.9509814284
 10
6366.7211297823
 20
5193.6277384985
 10
6366.4254214261
 20
5204.760335895
 10
6366.349474908
 20
5205.5585804782
 10
6366.346317826
 20
5205.5632150557
 10
6366.3431704402
 20
5205.5642850023
 10
6366.3384699849
 20
5205.5588538556
 10
6366.3337975654
 20
5205.5445129219
 10
6366.3245181754
 20
5205.4959651844
  0
LWPOLYLINE
  5
3D7
330
1F
100
AcDbEntity
  8
0
  6
Continuous
 62
     7
100
AcDbPolyline
 90
       14
 70
   128
 43
0.0
 10
6365.5281066895
 20
5180.8443185703
 10
6365.5241121887
 20
5180.8298313868
 10
6365.5217705376
 20
5180.8291874342
 10
6365.5194382938
 20
5180.8310624864
 10
6365.5056133061
 20
5180.8899259687
 10
6365.4329993723
 20
5181.9509813954
 10
6365.1336511717
 20
5193.6277388358
 10
6364.8379328522
 20
5204.7603358297
 10
6364.7619437293
 20
5205.5585805008
 10
6364.7587893442
 20
5205.5632150875
 10
6364.7556456504
 20
5205.5642850409
 10
6364.7509527728
 20
5205.5588538994
 10
6364.7462906123
 20
5205.5445129634
 10
6364.7370378688
 20
5205.4959651844
  0
LWPOLYLINE
  5
3D8
330
1F
100
AcDbEntity
  8
0
  6
Continuous
 62
     7
100
AcDbPolyline
 90
       14
 70
   128
 43
0.0
 10
6363.941192627
 20
5180.8443185703
 10
6363.9366312637
 20
5180.8298313829
 10
6363.9342889392
 20
5180.8291874263
 10
6363.9319558104
 20
5180.8310624733
 10
6363.9181223243
 20
5180.8899259067
 10
6363.8455100051
 20
5181.9509813718
 10
6363.5461394822
 20
5193.6277384954
 10
6363.2504389418
 20
5204.7603358908
 10
6363.1744392853
 20
5205.5585805309
 10
6363.1712831582
 20
5205.5632151086
 10
6363.1681379651
 20
5205.5642850542
 10
6363.1634433945
 20
5205.5588539039
 10
6363.1587803435
 20
5205.5445129632
 10
6363.1495277599
 20
5205.4959651844
  0
LWPOLYLINE
  5
3D9
330
1F
100
AcDbEntity
  8
0
  6
Continuous
 62
     7
100
AcDbPolyline
 90
       14
 70
   128
 43
0.0
 10
6370.1019287109
 20
5180.8730480091
 10
6370.0960510627
 20
5180.8466725316
 10
6370.0889464511
 20
5180.8346084494
 10
6370.0865966748
 20
5180.8351585592
 10
6370.0842555592
 20
5180.8379194897
 10
6370.078051464
 20
5180.8555330369
 10
6370.0051424007
 20
5181.7922263076
 10
6369.7048302127
 20
5193.2821324906
 10
6369.407916346
 20
5204.6607912983
 10
6369.3318637047
 20
5205.5192449967
 10
6369.3175798659
 20
5205.551611598
 10
6369.3152162345
 20
5205.551912895
 10
6369.312858582
 20
5205.5506840345
 10
6369.3065981582
 20
5205.5409666912
  0
LWPOLYLINE
  5
3DA
330
1F
100
AcDbEntity
  8
0
  6
Continuous
 62
     7
100
AcDbPolyline
 90
       14
 70
   128
 43
0.0
 10
6368.5150146484
 20
5180.8730480091
 10
6368.5085406734
 20
5180.84667253
 10
6368.5014371911
 20
5180.8346084544
 10
6368.4990882179
 20
5180.835158569
 10
6368.4967480903
 20
5180.8379195052
 10
6368.4905473782
 20
5180.8555330722
 10
6368.4176473495
 20
5181.7922263987
 10
6368.1173201829
 20
5193.2821325104
 10
6367.820419343
 20
5204.6607915137
 10
6367.7444257389
 20
5205.5192449514
 10
6367.7301244959
 20
5205.5516115725
 10
6367.7277524224
 20
5205.5519128736
 10
6367.7253844302
 20
5205.5506840172
 10
6367.7190880492
 20
5205.5409666912
  0
LWPOLYLINE
  5
3DB
330
1F
100
AcDbEntity
  8
0
  6
Continuous
 62
     7
100
AcDbPolyline
 90
       14
 70
   128
 43
0.0
 10
6366.9281005859
 20
5180.8730480091
 10
6366.9210606667
 20
5180.8466725316
 10
6366.9139559765
 20
5180.8346084486
 10
6366.9116061461
 20
5180.8351585579
 10
6366.9092649658
 20
5180.8379194877
 10
6366.9030606648
 20
5180.8555330333
 10
6366.8301558393
 20
5181.7922263873
 10
6366.5298383292
 20
5193.2821327579
 10
6366.2329174914
 20
5204.6607915118
 10
6366.1569247844
 20
5205.5192449987
 10
6366.1426156805
 20
5205.5516115794
 10
6366.1402429105
 20
5205.5519128768
 10
6366.1378744589
 20
5205.550684018
 10
6366.1315779403
 20
5205.5409666912
  0
LWPOLYLINE
  5
3DC
330
1F
100
AcDbEntity
  8
0
  6
Continuous
 62
     7
100
AcDbPolyline
 90
       14
 70
   128
 43
0.0
 10
6365.3373718262
 20
5180.8730480091
 10
6365.3335505382
 20
5180.8466725316
 10
6365.3264459266
 20
5180.8346084494
 10
6365.3240961503
 20
5180.8351585592
 10
6365.3217550347
 20
5180.8379194897
 10
6365.3155509395
 20
5180.8555330369
 10
6365.2426418762
 20
5181.7922263076
 10
6364.9423296882
 20
5193.2821324906
 10
6364.6454158215
 20
5204.6607912983
 10
6364.5693631802
 20
5205.5192449967
 10
6364.5550793414
 20
5205.551611598
 10
6364.55271571
 20
5205.551912895
 10
6364.5503580575
 20
5205.5506840345
 10
6364.5440976337
 20
5205.5409666912
  0
LWPOLYLINE
  5
3DD
330
1F
100
AcDbEntity
  8
0
  6
Continuous
 62
     7
100
AcDbPolyline
 90
       14
 70
   128
 43
0.0
 10
6363.7504577637
 20
5180.8730480091
 10
6363.7460401489
 20
5180.84667253
 10
6363.7389366666
 20
5180.8346084544
 10
6363.7365876934
 20
5180.835158569
 10
6363.7342475658
 20
5180.8379195052
 10
6363.7280468537
 20
5180.8555330722
 10
6363.655146825
 20
5181.7922263987
 10
6363.3548196584
 20
5193.2821325104
 10
6363.0579188184
 20
5204.6607915137
 10
6362.9819252144
 20
5205.5192449514
 10
6362.9676239714
 20
5205.5516115725
 10
6362.9652518978
 20
5205.5519128736
 10
6362.9628839057
 20
5205.5506840172
 10
6362.9565875247
 20
5205.5409666912
  0
LWPOLYLINE
  5
3DE
330
1F
100
AcDbEntity
  8
0
  6
Continuous
 62
     7
100
AcDbPolyline
 90
       18
 70
   128
 43
0.0
 10
6260.9558105469
 20
5338.3483704941
 10
6260.9581697945
 20
5338.3481954885
 10
6260.9576907535
 20
5338.3482461555
 10
6260.955657989
 20
5338.3486758943
 10
6260.9493073931
 20
5338.3503660707
 10
6260.9457118662
 20
5338.3520123782
 10
6260.9447481034
 20
5338.3532200663
 10
6260.9459612128
 20
5338.3549910711
 10
6260.9502067573
 20
5338.3567171174
 10
6261.2350689863
 20
5338.3788115559
 10
6264.7668051657
 20
5338.4720628655
 10
6273.8215299516
 20
5338.5972259328
 10
6285.6463243755
 20
5338.7862391786
 10
6286.5331477372
 20
5338.8349682133
 10
6286.5451728066
 20
5338.8390576671
 10
6286.5466824384
 20
5338.8405887777
 10
6286.5468485524
 20
5338.8421187949
 10
6286.5303795055
 20
5338.8512846843
  0
LWPOLYLINE
  5
3DF
330
1F
100
AcDbEntity
  8
0
  6
Continuous
 62
     7
100
AcDbPolyline
 90
        8
 70
   128
 43
0.0
 10
6287.2123718262
 20
5338.0434033291
 10
6274.0196650216
 20
5337.6466188003
 10
6261.8132627107
 20
5337.3473019967
 10
6260.8414004691
 20
5337.2746903945
 10
6260.8289138002
 20
5337.2684898004
 10
6260.8282752198
 20
5337.2661458683
 10
6260.8298055158
 20
5337.2637915474
 10
6260.8674506858
 20
5337.2495290653
  0
LWPOLYLINE
  5
3E0
330
1F
100
AcDbEntity
  8
0
  6
Continuous
 62
     7
100
AcDbPolyline
 90
        8
 70
   128
 43
0.0
 10
6287.2123718262
 20
5336.4558932201
 10
6274.0196651628
 20
5336.0591152838
 10
6261.8132629501
 20
5335.7597848807
 10
6260.8414004778
 20
5335.6872079939
 10
6260.8289138014
 20
5335.6810091941
 10
6260.8282752193
 20
5335.6786656722
 10
6260.8298055143
 20
5335.6763116135
 10
6260.8674506858
 20
5335.6620487587
  0
LWPOLYLINE
  5
3E1
330
1F
100
AcDbEntity
  8
0
  6
Continuous
 62
     7
100
AcDbPolyline
 90
        8
 70
   128
 43
0.0
 10
6287.2123718262
 20
5334.8683831112
 10
6274.0196652735
 20
5334.4716004408
 10
6261.8132629547
 20
5334.1722745095
 10
6260.8414004775
 20
5334.0996978991
 10
6260.8289138014
 20
5334.0934990872
 10
6260.8282752193
 20
5334.0911555625
 10
6260.8298055143
 20
5334.0888015019
 10
6260.8674506858
 20
5334.0745386497
  0
LWPOLYLINE
  5
3E2
330
1F
100
AcDbEntity
  8
0
  6
Continuous
 62
     7
100
AcDbPolyline
 90
        8
 70
   128
 43
0.0
 10
6287.2123718262
 20
5333.2809028045
 10
6274.019665313
 20
5332.8841182797
 10
6261.8132629099
 20
5332.5848045911
 10
6260.8414004903
 20
5332.5121821126
 10
6260.828913805
 20
5332.5059873159
 10
6260.8282752192
 20
5332.5036463081
 10
6260.8298055114
 20
5332.5012953269
 10
6260.8674506858
 20
5332.4870583431
  0
LWPOLYLINE
  5
3E3
330
1F
100
AcDbEntity
  8
0
  6
Continuous
 62
     7
100
AcDbPolyline
 90
        8
 70
   128
 43
0.0
 10
6287.2123718262
 20
5331.6933926956
 10
6274.0196651628
 20
5331.2966147593
 10
6261.8132629501
 20
5330.9972843562
 10
6260.8414004778
 20
5330.9247074694
 10
6260.8289138014
 20
5330.9185086696
 10
6260.8282752193
 20
5330.9161651477
 10
6260.8298055143
 20
5330.913811089
 10
6260.8674506858
 20
5330.8995482341
  0
LWPOLYLINE
  5
3E4
330
1F
100
AcDbEntity
  8
0
  6
Continuous
 62
     7
100
AcDbPolyline
 90
       10
 70
   128
 43
0.0
 10
6287.1589660645
 20
5337.637763919
 10
6287.1685086548
 20
5337.6315465254
 10
6287.1718415761
 20
5337.6253195979
 10
6287.1648493724
 20
5337.6190736026
 10
6287.1434453553
 20
5337.6128022219
 10
6286.0714051202
 20
5337.5385099867
 10
6273.7972203206
 20
5337.2453976788
 10
6261.7837209113
 20
5336.9492084129
 10
6260.8955425078
 20
5336.8774436623
 10
6260.8596424773
 20
5336.8525621311
  0
LWPOLYLINE
  5
3E5
330
1F
100
AcDbEntity
  8
0
  6
Continuous
 62
     7
100
AcDbPolyline
 90
       10
 70
   128
 43
0.0
 10
6287.1589660645
 20
5336.0502538101
 10
6287.168508659
 20
5336.0440357905
 10
6287.1718415813
 20
5336.0378087101
 10
6287.1648493723
 20
5336.0315635081
 10
6287.1434453413
 20
5336.025294202
 10
6286.0714049649
 20
5335.9510218059
 10
6273.7972197855
 20
5335.6579130239
 10
6261.7837209077
 20
5335.3616975015
 10
6260.8955424587
 20
5335.289956083
 10
6260.8596424773
 20
5335.2650520221
  0
LWPOLYLINE
  5
3E6
330
1F
100
AcDbEntity
  8
0
  6
Continuous
 62
     7
100
AcDbPolyline
 90
       10
 70
   128
 43
0.0
 10
6287.1589660645
 20
5334.4627437011
 10
6287.1685086518
 20
5334.4565374808
 10
6287.1718415662
 20
5334.4503208129
 10
6287.164849348
 20
5334.4440832498
 10
6287.1434453111
 20
5334.4378177821
 10
6286.0714049111
 20
5334.3635165874
 10
6273.7972202068
 20
5334.070396571
 10
6261.7837210944
 20
5333.7741881704
 10
6260.895542484
 20
5333.7024564324
 10
6260.8596424773
 20
5333.6775717155
  0
LWPOLYLINE
  5
3E7
330
1F
100
AcDbEntity
  8
0
  6
Continuous
 62
     7
100
AcDbPolyline
 90
       10
 70
   128
 43
0.0
 10
6287.1589660645
 20
5332.8752633945
 10
6287.1685086548
 20
5332.8690460009
 10
6287.1718415761
 20
5332.8628190734
 10
6287.1648493724
 20
5332.8565730781
 10
6287.1434453553
 20
5332.8503016974
 10
6286.0714051202
 20
5332.7760094622
 10
6273.7972203206
 20
5332.4828971542
 10
6261.7837209113
 20
5332.1867078884
 10
6260.8955425078
 20
5332.1149431378
 10
6260.8596424773
 20
5332.0900616066
  0
LWPOLYLINE
  5
3E8
330
1F
100
AcDbEntity
  8
0
  6
Continuous
 62
     7
100
AcDbPolyline
 90
        8
 70
   128
 43
0.0
 10
6287.1589660645
 20
5331.2877532856
 10
6287.1694333501
 20
5331.2806338772
 10
6287.1717224552
 20
5331.2770699251
 10
6287.1711063788
 20
5331.2735008756
 10
6287.1640922686
 20
5331.2687312775
 10
6286.525784324
 20
5331.2114287409
 10
6278.5665443564
 20
5330.9868321144
 10
6264.2197649196
 20
5330.688488187
  0
LWPOLYLINE
  5
3E9
330
1F
100
AcDbEntity
  8
0
  6
Continuous
 62
     7
100
AcDbPolyline
 90
        8
 70
   128
 43
0.0
 10
6286.3159179688
 20
5338.728767337
 10
6273.813281803
 20
5338.3368501175
 10
6262.5941223842
 20
5338.0411365437
 10
6261.6982015393
 20
5337.9694405779
 10
6261.6863207606
 20
5337.9633159831
 10
6261.6855738723
 20
5337.961000563
 10
6261.6868455783
 20
5337.9586745815
 10
6261.7211382106
 20
5337.944578828
  0
LWPOLYLINE
  5
3EA
330
1F
100
AcDbEntity
  8
0
  6
Continuous
 62
     7
100
AcDbPolyline
 90
        8
 70
   128
 43
0.0
 10
6286.3159179688
 20
5337.1412870304
 10
6273.8132819143
 20
5336.7493657287
 10
6262.5941223534
 20
5336.453665801
 10
6261.6982015517
 20
5336.3819244495
 10
6261.6863207641
 20
5336.3758038632
 10
6261.6855738721
 20
5336.3734909631
 10
6261.6868455751
 20
5336.3711680772
 10
6261.7211382106
 20
5336.3570985214
  0
LWPOLYLINE
  5
3EB
330
1F
100
AcDbEntity
  8
0
  6
Continuous
 62
     7
100
AcDbPolyline
 90
        8
 70
   128
 43
0.0
 10
6286.3159179688
 20
5335.5537769214
 10
6273.8132816606
 20
5335.1618656827
 10
6262.5941223794
 20
5334.866146386
 10
6261.6982015396
 20
5334.7944501479
 10
6261.6863207606
 20
5334.7883255651
 10
6261.6855738723
 20
5334.7860101479
 10
6261.6868455782
 20
5334.7836841682
 10
6261.7211382106
 20
5334.7695884124
  0
LWPOLYLINE
  5
3EC
330
1F
100
AcDbEntity
  8
0
  6
Continuous
 62
     7
100
AcDbPolyline
 90
        8
 70
   128
 43
0.0
 10
6286.3159179688
 20
5333.9662668125
 10
6273.813281803
 20
5333.574349593
 10
6262.5941223842
 20
5333.2786360192
 10
6261.6982015393
 20
5333.2069400534
 10
6261.6863207606
 20
5333.2008154586
 10
6261.6855738723
 20
5333.1985000385
 10
6261.6868455783
 20
5333.196174057
 10
6261.7211382106
 20
5333.1820783035
  0
LWPOLYLINE
  5
3ED
330
1F
100
AcDbEntity
  8
0
  6
Continuous
 62
     7
100
AcDbPolyline
 90
        8
 70
   128
 43
0.0
 10
6286.3159179688
 20
5332.3787865059
 10
6273.8132818927
 20
5331.986865799
 10
6262.5941223384
 20
5331.6911662455
 10
6261.6982015527
 20
5331.6194238708
 10
6261.6863207643
 20
5331.6133033294
 10
6261.6855738721
 20
5331.6109904403
 10
6261.6868455749
 20
5331.6086675614
 10
6261.7211382106
 20
5331.5945979969
  0
LWPOLYLINE
  5
3EE
330
1F
100
AcDbEntity
  8
0
  6
Continuous
 62
     7
100
AcDbPolyline
 90
        9
 70
   128
 43
0.0
 10
6286.3578796387
 20
5338.5400292293
 10
6274.2531910817
 20
5338.1475447982
 10
6262.7615672594
 20
5337.8512754342
 10
6261.7283514762
 20
5337.7795100359
 10
6261.6970192276
 20
5337.772693244
 10
6261.6846977167
 20
5337.7657881354
 10
6261.6851689782
 20
5337.7634635476
 10
6261.6879898967
 20
5337.7611267247
 10
6261.7027501777
 20
5337.7548572437
  0
LWPOLYLINE
  5
3EF
330
1F
100
AcDbEntity
  8
0
  6
Continuous
 62
     7
100
AcDbPolyline
 90
        9
 70
   128
 43
0.0
 10
6286.3578796387
 20
5336.9525191204
 10
6274.2531911521
 20
5336.5600317378
 10
6262.7615672634
 20
5336.2637650396
 10
6261.7283514755
 20
5336.191999959
 10
6261.6970192273
 20
5336.18518315
 10
6261.6846977167
 20
5336.178278029
 10
6261.6851689782
 20
5336.175953439
 10
6261.6879898967
 20
5336.173616615
 10
6261.7027501777
 20
5336.1673471348
  0
LWPOLYLINE
  5
3F0
330
1F
100
AcDbEntity
  8
0
  6
Continuous
 62
     7
100
AcDbPolyline
 90
        9
 70
   128
 43
0.0
 10
6286.3578796387
 20
5335.3650090114
 10
6274.2531911636
 20
5334.9725216686
 10
6262.7615671891
 20
5334.6762683017
 10
6261.7283514288
 20
5334.6044969884
 10
6261.6970192068
 20
5334.5976761524
 10
6261.6846977133
 20
5334.5907684336
 10
6261.6851689778
 20
5334.5884433924
 10
6261.6879898978
 20
5334.5861063514
 10
6261.7027501777
 20
5334.5798370258
  0
LWPOLYLINE
  5
3F1
330
1F
100
AcDbEntity
  8
0
  6
Continuous
 62
     7
100
AcDbPolyline
 90
        9
 70
   128
 43
0.0
 10
6286.3578796387
 20
5333.7775287048
 10
6274.2531910817
 20
5333.3850442736
 10
6262.7615672594
 20
5333.0887749097
 10
6261.7283514762
 20
5333.0170095114
 10
6261.6970192276
 20
5333.0101927195
 10
6261.6846977167
 20
5333.0032876109
 10
6261.6851689782
 20
5333.0009630231
 10
6261.6879898967
 20
5332.9986262002
 10
6261.7027501777
 20
5332.9923567192
  0
LWPOLYLINE
  5
3F2
330
1F
100
AcDbEntity
  8
0
  6
Continuous
 62
     7
100
AcDbPolyline
 90
        9
 70
   128
 43
0.0
 10
6286.3578796387
 20
5332.1900185959
 10
6274.2531911521
 20
5331.7975312133
 10
6262.7615672634
 20
5331.5012645151
 10
6261.7283514755
 20
5331.4294994345
 10
6261.6970192273
 20
5331.4226826255
 10
6261.6846977167
 20
5331.4157775045
 10
6261.6851689782
 20
5331.4134529145
 10
6261.6879898967
 20
5331.4111160905
 10
6261.7027501777
 20
5331.4048466102
  0
LWPOLYLINE
  5
3F3
330
1F
100
AcDbEntity
  8
0
  6
Continuous
 62
     7
100
AcDbPolyline
 90
        5
 70
   128
 43
0.0
 10
6177.5207519531
 20
5180.5054661648
 10
6177.401657312
 20
5184.1223752158
 10
6177.3206490049
 20
5189.46423873
 10
6177.2398530724
 20
5195.6863862748
 10
6177.159492226
 20
5201.2410876171
  0
LWPOLYLINE
  5
3F4
330
1F
100
AcDbEntity
  8
0
  6
Continuous
 62
     7
100
AcDbPolyline
 90
        3
 70
   128
 43
0.0
 10
6177.1583557129
 20
5205.5141147987
 10
6177.6483562616
 20
5201.2411648552
 10
6178.018752785
 20
5193.9217862503
  0
LWPOLYLINE
  5
3F5
330
1F
100
AcDbEntity
  8
0
  6
Continuous
 62
     7
100
AcDbPolyline
 90
        3
 70
   128
 43
0.0
 10
6177.1583557129
 20
5201.2410876171
 10
6177.159492226
 20
5204.4667741061
 10
6177.159492226
 20
5205.5141147987
  0
LWPOLYLINE
  5
3F6
330
1F
100
AcDbEntity
  8
0
  6
Continuous
 62
     7
100
AcDbPolyline
 90
        5
 70
   128
 43
0.0
 10
6177.1583557129
 20
5205.5141147987
 10
6177.4184158638
 20
5198.7265184497
 10
6177.5875759903
 20
5190.707486616
 10
6177.7567146432
 20
5183.7494586119
 10
6177.9246072486
 20
5180.904936494
  0
LWPOLYLINE
  5
3F7
330
1F
100
AcDbEntity
  8
0
  6
Continuous
 62
     7
100
AcDbPolyline
 90
        5
 70
   128
 43
0.0
 10
6178.7300109863
 20
5205.5409666912
 10
6178.7792740437
 20
5205.2939789593
 10
6178.8268885575
 20
5204.5737122322
 10
6179.12169127
 20
5193.3270707509
 10
6179.5121173576
 20
5180.904936494
  0
LWPOLYLINE
  5
3F8
330
1F
100
AcDbEntity
  8
0
  6
Continuous
 62
     7
100
AcDbPolyline
 90
        5
 70
   128
 43
0.0
 10
6180.3169250488
 20
5205.5409666912
 10
6180.3667576801
 20
5205.2939789246
 10
6180.4144055442
 20
5204.5737122671
 10
6180.7091782929
 20
5193.3270705866
 10
6181.0995976642
 20
5180.904936494
  0
LWPOLYLINE
  5
3F9
330
1F
100
AcDbEntity
  8
0
  6
Continuous
 62
     7
100
AcDbPolyline
 90
        5
 70
   128
 43
0.0
 10
6181.9038391113
 20
5205.5409666912
 10
6181.9542667253
 20
5205.2939789089
 10
6182.0019190381
 20
5204.5737123151
 10
6182.2966824971
 20
5193.3270704636
 10
6182.6871077731
 20
5180.904936494
  0
LWPOLYLINE
  5
3FA
330
1F
100
AcDbEntity
  8
0
  6
Continuous
 62
     7
100
AcDbPolyline
 90
        5
 70
   128
 43
0.0
 10
6183.4907531738
 20
5205.5409666912
 10
6183.5417745682
 20
5205.2939789593
 10
6183.5893890821
 20
5204.5737122322
 10
6183.8841917945
 20
5193.3270707509
 10
6184.2746178821
 20
5180.904936494
  0
LWPOLYLINE
  5
3FB
330
1F
100
AcDbEntity
  8
0
  6
Continuous
 62
     7
100
AcDbPolyline
 90
        3
 70
   128
 43
0.0
 10
6185.0776672363
 20
5205.5409666912
 10
6185.3259875477
 20
5200.0373336998
 10
6185.5187456325
 20
5191.0340604202
  0
ARC
  5
3FC
330
1F
100
AcDbEntity
  8
0
  6
Continuous
 62
     7
100
AcDbCircle
 10
6230.7692654526
 20
5188.5320006183
 30
0.0
 40
53.02722788461613
100
AcDbArc
 50
174.1662765533
 51
189.2385093498
  0
LWPOLYLINE
  5
3FD
330
1F
100
AcDbEntity
  8
0
  6
Continuous
 62
     7
100
AcDbPolyline
 90
        5
 70
   128
 43
0.0
 10
6179.2221069336
 20
5206.3995119945
 10
6179.6206039933
 20
5193.1885240979
 10
6179.9165032789
 20
5180.9731780598
 10
6179.9920365458
 20
5180.0694120925
 10
6180.0173859313
 20
5180.0187644378
  0
LWPOLYLINE
  5
3FE
330
1F
100
AcDbEntity
  8
0
  6
Continuous
 62
     7
100
AcDbPolyline
 90
        5
 70
   128
 43
0.0
 10
6180.8090209961
 20
5206.3995119945
 10
6181.2080960368
 20
5193.1885242878
 10
6181.5039839353
 20
5180.9731780563
 10
6181.5795394521
 20
5180.0694121592
 10
6181.6048662379
 20
5180.0187644378
  0
LWPOLYLINE
  5
3FF
330
1F
100
AcDbEntity
  8
0
  6
Continuous
 62
     7
100
AcDbPolyline
 90
        5
 70
   128
 43
0.0
 10
6182.3959350586
 20
5206.3995119945
 10
6182.7955928528
 20
5193.1885240606
 10
6183.0914937145
 20
5180.9731780585
 10
6183.1670269421
 20
5180.0694120921
 10
6183.1923763469
 20
5180.0187644378
  0
LWPOLYLINE
  5
400
330
1F
100
AcDbEntity
  8
0
  6
Continuous
 62
     7
100
AcDbPolyline
 90
        5
 70
   128
 43
0.0
 10
6183.9828491211
 20
5206.3995119945
 10
6184.3831045179
 20
5193.1885240979
 10
6184.6790038034
 20
5180.9731780598
 10
6184.7545370703
 20
5180.0694120925
 10
6184.7798864558
 20
5180.0187644378
  0
LWPOLYLINE
  5
401
330
1F
100
AcDbEntity
  8
0
  6
Continuous
 62
     7
100
AcDbPolyline
 90
        8
 70
   128
 43
0.0
 10
6178.0395507812
 20
5206.353795232
 10
6178.4342353224
 20
5192.9674339382
 10
6178.7270130384
 20
5180.9624714463
 10
6178.8017961235
 20
5180.0032411713
 10
6178.8080490031
 20
5179.9894772228
 10
6178.8103846733
 20
5179.988269137
 10
6178.8127145931
 20
5179.9893170732
 10
6178.826604338
 20
5180.0293740646
  0
LWPOLYLINE
  5
402
330
1F
100
AcDbEntity
  8
0
  6
Continuous
 62
     7
100
AcDbPolyline
 90
        8
 70
   128
 43
0.0
 10
6179.6264648438
 20
5206.353795232
 10
6180.0217181031
 20
5192.9674337097
 10
6180.3145292876
 20
5180.9624716771
 10
6180.3892793089
 20
5180.0032411848
 10
6180.3955301495
 20
5179.9894772269
 10
6180.397865298
 20
5179.9882691386
 10
6180.4001948447
 20
5179.9893170731
 10
6180.4140846446
 20
5180.0293740646
  0
LWPOLYLINE
  5
403
330
1F
100
AcDbEntity
  8
0
  6
Continuous
 62
     7
100
AcDbPolyline
 90
        8
 70
   128
 43
0.0
 10
6181.2133789062
 20
5206.353795232
 10
6181.6092233184
 20
5192.9674338626
 10
6181.9020034577
 20
5180.9624714438
 10
6181.9767865388
 20
5180.0032411711
 10
6181.9830394186
 20
5179.9894772228
 10
6181.9853750889
 20
5179.988269137
 10
6181.9877050087
 20
5179.9893170732
 10
6182.0015947536
 20
5180.0293740646
  0
LWPOLYLINE
  5
404
330
1F
100
AcDbEntity
  8
0
  6
Continuous
 62
     7
100
AcDbPolyline
 90
        8
 70
   128
 43
0.0
 10
6182.8002929688
 20
5206.353795232
 10
6183.196735847
 20
5192.9674339382
 10
6183.4895135629
 20
5180.9624714463
 10
6183.564296648
 20
5180.0032411713
 10
6183.5705495277
 20
5179.9894772228
 10
6183.5728851979
 20
5179.988269137
 10
6183.5752151176
 20
5179.9893170732
 10
6183.5891048625
 20
5180.0293740646
  0
LWPOLYLINE
  5
405
330
1F
100
AcDbEntity
  8
0
  6
Continuous
 62
     7
100
AcDbPolyline
 90
        8
 70
   128
 43
0.0
 10
6184.3910217285
 20
5206.353795232
 10
6184.7842186277
 20
5192.9674337097
 10
6185.0770298121
 20
5180.9624716771
 10
6185.1517798334
 20
5180.0032411848
 10
6185.158030674
 20
5179.9894772269
 10
6185.1603658226
 20
5179.9882691386
 10
6185.1626953692
 20
5179.9893170731
 10
6185.1765851691
 20
5180.0293740646
  0
LWPOLYLINE
  5
406
330
1F
100
AcDbEntity
  8
0
  6
Continuous
 62
     7
100
AcDbPolyline
 90
        5
 70
   128
 43
0.0
 10
6177.1583557129
 20
5201.2410876171
 10
6177.3555370914
 20
5192.3678712436
 10
6177.4808470938
 20
5186.5327351759
 10
6177.6081085724
 20
5182.3437660827
 10
6177.7358691409
 20
5180.8729884044
  0
LWPOLYLINE
  5
407
330
1F
100
AcDbEntity
  8
0
  6
Continuous
 62
     7
100
AcDbPolyline
 90
        5
 70
   128
 43
0.0
 10
6178.5354614258
 20
5205.4959651844
 10
6178.9308723465
 20
5192.9590269205
 10
6179.2235107905
 20
5181.7373299861
 10
6179.2982953512
 20
5180.9189804399
 10
6179.3233792499
 20
5180.8729884044
  0
LWPOLYLINE
  5
408
330
1F
100
AcDbEntity
  8
0
  6
Continuous
 62
     7
100
AcDbPolyline
 90
        5
 70
   128
 43
0.0
 10
6180.1223754883
 20
5205.4959651844
 10
6180.5183796465
 20
5192.9590268589
 10
6180.8110209776
 20
5181.7373299902
 10
6180.8858054101
 20
5180.9189804391
 10
6180.9108893588
 20
5180.8729884044
  0
LWPOLYLINE
  5
409
330
1F
100
AcDbEntity
  8
0
  6
Continuous
 62
     7
100
AcDbPolyline
 90
        5
 70
   128
 43
0.0
 10
6181.7092895508
 20
5205.4959651844
 10
6182.1058897664
 20
5192.959027151
 10
6182.3985019893
 20
5181.7373299571
 10
6182.4733080139
 20
5180.9189805086
 10
6182.4983696655
 20
5180.8729884044
  0
LWPOLYLINE
  5
40A
330
1F
100
AcDbEntity
  8
0
  6
Continuous
 62
     7
100
AcDbPolyline
 90
        5
 70
   128
 43
0.0
 10
6183.3000183105
 20
5205.4959651844
 10
6183.6933660358
 20
5192.959026781
 10
6183.9860113129
 20
5181.7373299862
 10
6184.0607958771
 20
5180.9189804399
 10
6184.0858797744
 20
5180.8729884044
  0
LWPOLYLINE
  5
40B
330
1F
100
AcDbEntity
  8
0
  6
Continuous
 62
     7
100
AcDbPolyline
 90
        5
 70
   128
 43
0.0
 10
6184.886932373
 20
5205.4959651844
 10
6185.1026924738
 20
5201.0272329086
 10
6185.240412421
 20
5194.886847856
 10
6185.3783392338
 20
5188.2455039799
 10
6185.5187456325
 20
5183.0581244842
  0
LWPOLYLINE
  5
40C
330
1F
100
AcDbEntity
  8
0
  6
Continuous
 62
     7
100
AcDbPolyline
 90
        3
 70
   128
 43
0.0
 10
6709.3467712402
 20
5168.2847854511
 10
6711.3627694647
 20
5167.2734054473
 10
6713.0974792225
 20
5166.940849723
  0
LWPOLYLINE
  5
40D
330
1F
100
AcDbEntity
  8
0
  6
Continuous
 62
     7
100
AcDbPolyline
 90
        3
 70
   128
 43
0.0
 10
6713.0966186523
 20
5166.940849723
 10
6715.2884471303
 20
5167.4384928492
 10
6716.8468646986
 20
5168.2849344627
  0
LWPOLYLINE
  5
40E
330
1F
100
AcDbEntity
  8
0
  6
Continuous
 62
     7
100
AcDbPolyline
 90
        3
 70
   128
 43
0.0
 10
6615.6768798828
 20
5336.4594098942
 10
6616.1592373065
 20
5336.1814400671
 10
6616.5372096283
 20
5335.9630522148
  0
LWPOLYLINE
  5
40F
330
1F
100
AcDbEntity
  8
0
  6
Continuous
 62
     7
100
AcDbPolyline
 90
        3
 70
   128
 43
0.0
 10
6615.6768798828
 20
5334.8719295875
 10
6616.1592451185
 20
5334.5939536662
 10
6616.5372096283
 20
5334.3755421058
  0
LWPOLYLINE
  5
410
330
1F
100
AcDbEntity
  8
0
  6
Continuous
 62
     7
100
AcDbPolyline
 90
        3
 70
   128
 43
0.0
 10
6615.6768798828
 20
5333.2844194786
 10
6616.1592451185
 20
5333.0064435573
 10
6616.5372096283
 20
5332.7880319969
  0
LWPOLYLINE
  5
411
330
1F
100
AcDbEntity
  8
0
  6
Continuous
 62
     7
100
AcDbPolyline
 90
        3
 70
   128
 43
0.0
 10
6615.6768798828
 20
5331.6969093696
 10
6616.1592373065
 20
5331.4189395426
 10
6616.5372096283
 20
5331.2005516903
  0
LWPOLYLINE
  5
412
330
1F
100
AcDbEntity
  8
0
  6
Continuous
 62
     7
100
AcDbPolyline
 90
        3
 70
   128
 43
0.0
 10
6641.2506103516
 20
5336.7443797008
 10
6641.7323269223
 20
5337.0225283969
 10
6642.1106271726
 20
5337.2410652057
  0
LWPOLYLINE
  5
413
330
1F
100
AcDbEntity
  8
0
  6
Continuous
 62
     7
100
AcDbPolyline
 90
        3
 70
   128
 43
0.0
 10
6641.2506103516
 20
5335.1568695919
 10
6641.7323316932
 20
5335.435026719
 10
6642.1106271726
 20
5335.6535848991
  0
LWPOLYLINE
  5
414
330
1F
100
AcDbEntity
  8
0
  6
Continuous
 62
     7
100
AcDbPolyline
 90
        3
 70
   128
 43
0.0
 10
6641.2506103516
 20
5333.5693892853
 10
6641.7323269223
 20
5333.8475379814
 10
6642.1106271726
 20
5334.0660747902
  0
LWPOLYLINE
  5
415
330
1F
100
AcDbEntity
  8
0
  6
Continuous
 62
     7
100
AcDbPolyline
 90
        3
 70
   128
 43
0.0
 10
6641.2506103516
 20
5331.9818791763
 10
6641.7323269223
 20
5332.2600278724
 10
6642.1106271726
 20
5332.4785646812
  0
LWPOLYLINE
  5
416
330
1F
100
AcDbEntity
  8
0
  6
Continuous
 62
     7
100
AcDbPolyline
 90
        3
 70
   128
 43
0.0
 10
6641.2506103516
 20
5338.3318898098
 10
6641.5012394217
 20
5338.4766279951
 10
6641.6980438215
 20
5338.5902163402
  0
LWPOLYLINE
  5
417
330
1F
100
AcDbEntity
  8
0
  6
Continuous
 62
     7
100
AcDbPolyline
 90
        3
 70
   128
 43
0.0
 10
6615.6768798828
 20
5338.0469200031
 10
6616.1592451185
 20
5337.7689440818
 10
6616.5372096283
 20
5337.5505325214
  0
LWPOLYLINE
  5
418
330
1F
100
AcDbEntity
  8
0
  6
Continuous
 62
     7
100
AcDbPolyline
 90
        3
 70
   128
 43
0.0
 10
6616.5428161621
 20
5337.3580095188
 10
6616.0626072883
 20
5337.0798620353
 10
6615.6843044144
 20
5336.8613240139
  0
LWPOLYLINE
  5
419
330
1F
100
AcDbEntity
  8
0
  6
Continuous
 62
     7
100
AcDbPolyline
 90
        3
 70
   128
 43
0.0
 10
6616.5428161621
 20
5335.7704994098
 10
6616.0626072883
 20
5335.4923519263
 10
6615.6843044144
 20
5335.2738139049
  0
LWPOLYLINE
  5
41A
330
1F
100
AcDbEntity
  8
0
  6
Continuous
 62
     7
100
AcDbPolyline
 90
        3
 70
   128
 43
0.0
 10
6616.5428161621
 20
5334.1830191032
 10
6616.0626072883
 20
5333.9048716197
 10
6615.6843044144
 20
5333.6863335983
  0
LWPOLYLINE
  5
41B
330
1F
100
AcDbEntity
  8
0
  6
Continuous
 62
     7
100
AcDbPolyline
 90
        3
 70
   128
 43
0.0
 10
6616.5428161621
 20
5332.5955089943
 10
6616.0626072883
 20
5332.3173615108
 10
6615.6843044144
 20
5332.0988234894
  0
LWPOLYLINE
  5
41C
330
1F
100
AcDbEntity
  8
0
  6
Continuous
 62
     7
100
AcDbPolyline
 90
        3
 70
   128
 43
0.0
 10
6616.5428161621
 20
5331.0079988853
 10
6616.249720909
 20
5330.8379309506
 10
6616.0184182507
 20
5330.7043430225
  0
LWPOLYLINE
  5
41D
330
1F
100
AcDbEntity
  8
0
  6
Continuous
 62
     7
100
AcDbPolyline
 90
        3
 70
   128
 43
0.0
 10
6642.1089172363
 20
5336.0675689594
 10
6641.6335503101
 20
5336.3431873534
 10
6641.2586979848
 20
5336.5597543136
  0
LWPOLYLINE
  5
41E
330
1F
100
AcDbEntity
  8
0
  6
Continuous
 62
     7
100
AcDbPolyline
 90
        3
 70
   128
 43
0.0
 10
6642.1089172363
 20
5334.4800886528
 10
6641.6335551271
 20
5334.7556986957
 10
6641.2586979848
 20
5334.9722442047
  0
LWPOLYLINE
  5
41F
330
1F
100
AcDbEntity
  8
0
  6
Continuous
 62
     7
100
AcDbPolyline
 90
        3
 70
   128
 43
0.0
 10
6642.1089172363
 20
5332.8925785438
 10
6641.6335551271
 20
5333.1681885868
 10
6641.2586979848
 20
5333.3847340957
  0
LWPOLYLINE
  5
420
330
1F
100
AcDbEntity
  8
0
  6
Continuous
 62
     7
100
AcDbPolyline
 90
        3
 70
   128
 43
0.0
 10
6642.1089172363
 20
5331.3050684349
 10
6641.6335503101
 20
5331.5806868289
 10
6641.2586979848
 20
5331.7972537891
  0
LWPOLYLINE
  5
421
330
1F
100
AcDbEntity
  8
0
  6
Continuous
 62
     7
100
AcDbPolyline
 90
        3
 70
   128
 43
0.0
 10
6642.1089172363
 20
5337.6550790683
 10
6641.6335551271
 20
5337.9306891113
 10
6641.2586979848
 20
5338.1472346203
  0
LWPOLYLINE
  5
422
330
1F
100
AcDbEntity
  8
0
  6
Continuous
 62
     7
100
AcDbPolyline
 90
        4
 70
   128
 43
0.0
 10
6632.6637268066
 20
5189.1817566768
 10
6631.1967918685
 20
5189.1228287727
 10
6630.614133995
 20
5188.6906444203
 10
6630.4772757274
 20
5187.9786667244
  0
LWPOLYLINE
  5
423
330
1F
100
AcDbEntity
  8
0
  6
Continuous
 62
     7
100
AcDbPolyline
 90
        4
 70
   128
 43
0.0
 10
6624.5231628418
 20
5189.9203476326
 10
6625.9359127506
 20
5189.5858418681
 10
6626.4132311427
 20
5189.0510949935
 10
6626.3745688182
 20
5188.3381125347
  0
LWPOLYLINE
  5
424
330
1F
100
AcDbEntity
  8
0
  6
Continuous
 62
     7
100
AcDbPolyline
 90
        3
 70
   128
 43
0.0
 10
6710.033416748
 20
5168.6682221309
 10
6713.5469321219
 20
5168.8885939269
 10
6716.1474786979
 20
5168.6714705841
  0
LWPOLYLINE
  5
425
330
1F
100
AcDbEntity
  8
0
  6
Continuous
 62
     7
100
AcDbPolyline
 90
        6
 70
   128
 43
0.0
 10
6729.0115356445
 20
5182.8485545532
 10
6727.9272584431
 20
5181.8937166314
 10
6727.559889528
 20
5181.8636184329
 10
6727.2637650695
 20
5182.0487226639
 10
6727.1720738739
 20
5183.8112523217
 10
6728.1591408235
 20
5185.8817753212
  0
LWPOLYLINE
  5
426
330
1F
100
AcDbEntity
  8
0
  6
Continuous
 62
     7
100
AcDbPolyline
 90
        6
 70
   128
 43
0.0
 10
6728.157043457
 20
5185.8817753212
 10
6729.224301223
 20
5186.811941251
 10
6729.5707161126
 20
5186.835981295
 10
6729.8439796345
 20
5186.6506360378
 10
6729.9329323485
 20
5184.9153423604
 10
6729.014184354
 20
5182.8485545532
  0
LWPOLYLINE
  5
427
330
1F
100
AcDbEntity
  8
0
  6
Continuous
 62
     7
100
AcDbPolyline
 90
        6
 70
   128
 43
0.0
 10
6727.6191711426
 20
5181.8508324043
 10
6729.2047166266
 20
5183.2337178642
 10
6729.9807040411
 20
5186.0721700618
 10
6729.7815444662
 20
5186.6568511485
 10
6729.6101063757
 20
5186.8165208265
 10
6729.3885462267
 20
5186.8300852195
  0
LWPOLYLINE
  5
428
330
1F
100
AcDbEntity
  8
0
  6
Continuous
 62
     7
100
AcDbPolyline
 90
        8
 70
   128
 43
0.0
 10
6617.8321838379
 20
5338.1884810344
 10
6639.1903630205
 20
5338.4958972554
 10
6641.5751498636
 20
5338.5731165296
 10
6641.7001365467
 20
5338.5881415461
 10
6641.7035804424
 20
5338.5906221704
 10
6641.7030727796
 20
5338.5918584515
 10
6641.7010154203
 20
5338.5930917816
 10
6641.671743272
 20
5338.5996338741
  0
LWPOLYLINE
  5
429
330
1F
100
AcDbEntity
  8
0
  6
Continuous
 62
     7
100
AcDbPolyline
 90
        3
 70
   128
 43
0.0
 10
6617.7520751953
 20
5339.0477415935
 10
6616.6157629451
 20
5338.9005500191
 10
6616.3150333149
 20
5338.784050645
  0
LINE
  5
42A
330
1F
100
AcDbEntity
  8
0
  6
Continuous
 62
     7
100
AcDbLine
 10
6616.5428161621
 20
5339.0477415935
 30
0.0
 11
6617.7543960792
 21
5339.0477415935
 31
0.0
  0
LWPOLYLINE
  5
42B
330
1F
100
AcDbEntity
  8
0
  6
Continuous
 62
     7
100
AcDbPolyline
 90
       11
 70
   128
 43
0.0
 10
6642.0669555664
 20
5337.6464661972
 10
6642.0165456488
 20
5337.6211204514
 10
6641.1129863663
 20
5337.5455925974
 10
6628.8983375997
 20
5337.2497625911
 10
6616.6908266238
 20
5336.9503354436
 10
6615.7364160379
 20
5336.8778379025
 10
6615.7275793477
 20
5336.8716093687
 10
6615.7275343298
 20
5336.8692558432
 10
6615.7289503984
 20
5336.8668943462
 10
6615.7353308888
 20
5336.862151993
 10
6615.7564409358
 20
5336.8526217357
  0
LWPOLYLINE
  5
42C
330
1F
100
AcDbEntity
  8
0
  6
Continuous
 62
     7
100
AcDbPolyline
 90
       11
 70
   128
 43
0.0
 10
6642.0669555664
 20
5336.0589858906
 10
6642.0165456309
 20
5336.033642748
 10
6641.1129865543
 20
5335.9580836844
 10
6628.8983374252
 20
5335.6622771508
 10
6616.6908266534
 20
5335.362825321
 10
6615.7364160388
 20
5335.2903277941
 10
6615.7275793478
 20
5335.2840992597
 10
6615.7275343297
 20
5335.281745734
 10
6615.7289503983
 20
5335.279384237
 10
6615.7353308886
 20
5335.2746418838
 10
6615.7564409358
 20
5335.2651116268
  0
LWPOLYLINE
  5
42D
330
1F
100
AcDbEntity
  8
0
  6
Continuous
 62
     7
100
AcDbPolyline
 90
       11
 70
   128
 43
0.0
 10
6642.0669555664
 20
5334.4714757816
 10
6642.0165456592
 20
5334.4461289944
 10
6641.1129863262
 20
5334.3706032571
 10
6628.8983374075
 20
5334.0747677332
 10
6616.6908263859
 20
5333.7753517242
 10
6615.736416037
 20
5333.7028180395
 10
6615.727579351
 20
5333.6965884733
 10
6615.7275343337
 20
5333.6942347833
 10
6615.7289504026
 20
5333.6918732216
 10
6615.7353308924
 20
5333.6871309809
 10
6615.7564409358
 20
5333.6776015178
  0
LWPOLYLINE
  5
42E
330
1F
100
AcDbEntity
  8
0
  6
Continuous
 62
     7
100
AcDbPolyline
 90
       11
 70
   128
 43
0.0
 10
6642.0669555664
 20
5332.8839656727
 10
6642.0165456488
 20
5332.8586199269
 10
6641.1129863663
 20
5332.7830920729
 10
6628.8983375997
 20
5332.4872620666
 10
6616.6908266238
 20
5332.1878349191
 10
6615.7364160379
 20
5332.115337378
 10
6615.7275793477
 20
5332.1091088442
 10
6615.7275343298
 20
5332.1067553186
 10
6615.7289503984
 20
5332.1043938217
 10
6615.7353308888
 20
5332.0996514685
 10
6615.7564409358
 20
5332.0901212112
  0
LWPOLYLINE
  5
42F
330
1F
100
AcDbEntity
  8
0
  6
Continuous
 62
     7
100
AcDbPolyline
 90
        5
 70
   128
 43
0.0
 10
6642.0669555664
 20
5331.296485366
 10
6637.9374810706
 20
5331.0897535181
 10
6631.8296163893
 20
5330.9555625331
 10
6624.9194291901
 20
5330.8206517037
 10
6619.0984957201
 20
5330.688488187
  0
LWPOLYLINE
  5
430
330
1F
100
AcDbEntity
  8
0
  6
Continuous
 62
     7
100
AcDbPolyline
 90
        9
 70
   128
 43
0.0
 10
6617.8321838379
 20
5338.1884810344
 10
6615.7921575333
 20
5338.0800771514
 10
6615.7445698453
 20
5338.0710619633
 10
6615.7321377761
 20
5338.0664992819
 10
6615.7274223089
 20
5338.0618956482
 10
6615.7275583512
 20
5338.0595804669
 10
6615.7290909078
 20
5338.0572578015
 10
6615.7355475563
 20
5338.0525942948
 10
6615.7564409358
 20
5338.0432245151
  0
LWPOLYLINE
  5
431
330
1F
100
AcDbEntity
  8
0
  6
Continuous
 62
     7
100
AcDbPolyline
 90
       16
 70
   128
 43
0.0
 10
6642.0555114746
 20
5337.2409161941
 10
6642.0693087894
 20
5337.2347190512
 10
6642.0734625305
 20
5337.2316144573
 10
6642.074391025
 20
5337.2300596008
 10
6642.0743738485
 20
5337.2285026366
 10
6642.0639654216
 20
5337.2222529423
 10
6642.0378847809
 20
5337.2159751346
 10
6640.9494926451
 20
5337.1416281744
 10
6628.6742063387
 20
5336.8484549448
 10
6616.6695102742
 20
5336.5524325834
 10
6615.735764149
 20
5336.4807001302
 10
6615.7275016786
 20
5336.4745345613
 10
6615.7275759376
 20
5336.4722051351
 10
6615.7290674559
 20
5336.4698679617
 10
6615.7354924077
 20
5336.4651748004
 10
6615.7564409358
 20
5336.4557442085
  0
LWPOLYLINE
  5
432
330
1F
100
AcDbEntity
  8
0
  6
Continuous
 62
     7
100
AcDbPolyline
 90
       16
 70
   128
 43
0.0
 10
6642.0555114746
 20
5335.6534060852
 10
6642.0693087916
 20
5335.6472254636
 10
6642.0734625315
 20
5335.6441282245
 10
6642.0743910243
 20
5335.6425766604
 10
6642.0743738453
 20
5335.6410226716
 10
6642.0639654084
 20
5335.6347814827
 10
6642.0378847604
 20
5335.6285073232
 10
6640.9494927003
 20
5335.5541066592
 10
6628.6742063275
 20
5335.2609479243
 10
6616.6695103205
 20
5334.9649283619
 10
6615.7357641446
 20
5334.8931906041
 10
6615.727501689
 20
5334.8870230616
 10
6615.7275759503
 20
5334.8846933269
 10
6615.7290674694
 20
5334.882356038
 10
6615.7354924195
 20
5334.8776631141
 10
6615.7564409358
 20
5334.8682340996
  0
LWPOLYLINE
  5
433
330
1F
100
AcDbEntity
  8
0
  6
Continuous
 62
     7
100
AcDbPolyline
 90
       16
 70
   128
 43
0.0
 10
6642.0555114746
 20
5334.0659257786
 10
6642.0693087905
 20
5334.059728532
 10
6642.0734625314
 20
5334.0566239538
 10
6642.0743910255
 20
5334.0550691338
 10
6642.0743738484
 20
5334.0535122298
 10
6642.0639654165
 20
5334.0472630116
 10
6642.0378847679
 20
5334.0409859419
 10
6640.9494927877
 20
5333.9666188987
 10
6628.6742060486
 20
5333.6734659226
 10
6616.669510082
 20
5333.3774453014
 10
6615.735764148
 20
5333.3056802385
 10
6615.727501683
 20
5333.2995135665
 10
6615.7275759429
 20
5333.2971839678
 10
6615.7290674614
 20
5333.2948467298
 10
6615.7354924124
 20
5333.2901537012
 10
6615.7564409358
 20
5333.2807239906
  0
LWPOLYLINE
  5
434
330
1F
100
AcDbEntity
  8
0
  6
Continuous
 62
     7
100
AcDbPolyline
 90
       16
 70
   128
 43
0.0
 10
6642.0555114746
 20
5332.4784156696
 10
6642.0693087894
 20
5332.4722185267
 10
6642.0734625305
 20
5332.4691139328
 10
6642.074391025
 20
5332.4675590763
 10
6642.0743738485
 20
5332.4660021121
 10
6642.0639654216
 20
5332.4597524178
 10
6642.0378847809
 20
5332.4534746101
 10
6640.9494926451
 20
5332.3791276499
 10
6628.6742063387
 20
5332.0859544203
 10
6616.6695102742
 20
5331.7899320589
 10
6615.735764149
 20
5331.7181996057
 10
6615.7275016786
 20
5331.7120340368
 10
6615.7275759376
 20
5331.7097046106
 10
6615.7290674559
 20
5331.7073674372
 10
6615.7354924077
 20
5331.7026742759
 10
6615.7564409358
 20
5331.693243684
  0
LWPOLYLINE
  5
435
330
1F
100
AcDbEntity
  8
0
  6
Continuous
 62
     7
100
AcDbPolyline
 90
        7
 70
   128
 43
0.0
 10
6642.0555114746
 20
5330.8909055607
 10
6642.0737002063
 20
5330.8813345847
 10
6642.0744712586
 20
5330.879733676
 10
6642.0742070269
 20
5330.8781301199
 10
6641.9899562997
 20
5330.8587176584
 10
6641.7826575875
 20
5330.8392031267
 10
6637.7722583992
 20
5330.688488187
  0
LWPOLYLINE
  5
436
330
1F
100
AcDbEntity
  8
0
  6
Continuous
 62
     7
100
AcDbPolyline
 90
        8
 70
   128
 43
0.0
 10
6641.1781311035
 20
5338.3318302051
 10
6628.7571456346
 20
5337.9413679926
 10
6617.5166489314
 20
5337.6465527946
 10
6616.5989733373
 20
5337.5751703638
 10
6616.586324324
 20
5337.5690646642
 10
6616.5850073661
 20
5337.5667557433
 10
6616.5852751505
 20
5337.5644378232
 10
6616.6074835044
 20
5337.5504133121
  0
LWPOLYLINE
  5
437
330
1F
100
AcDbEntity
  8
0
  6
Continuous
 62
     7
100
AcDbPolyline
 90
        8
 70
   128
 43
0.0
 10
6641.1781311035
 20
5336.7443200962
 10
6628.7571454671
 20
5336.3538647335
 10
6617.5166489157
 20
5336.0590370919
 10
6616.5989733102
 20
5335.9876928535
 10
6616.5863243072
 20
5335.9815827809
 10
6616.5850073529
 20
5335.9792713485
 10
6616.5852751402
 20
5335.9769505102
 10
6616.6074835044
 20
5335.9629032032
  0
LWPOLYLINE
  5
438
330
1F
100
AcDbEntity
  8
0
  6
Continuous
 62
     7
100
AcDbPolyline
 90
        8
 70
   128
 43
0.0
 10
6641.1781311035
 20
5335.1568397896
 10
6628.7571453212
 20
5334.7663775551
 10
6617.5166489952
 20
5334.4715237913
 10
6616.5989733101
 20
5334.4001828477
 10
6616.5863243079
 20
5334.3940726456
 10
6616.5850073537
 20
5334.3917611882
 10
6616.5852751411
 20
5334.3894403363
 10
6616.6074835044
 20
5334.3753930942
  0
LWPOLYLINE
  5
439
330
1F
100
AcDbEntity
  8
0
  6
Continuous
 62
     7
100
AcDbPolyline
 90
        8
 70
   128
 43
0.0
 10
6641.1781311035
 20
5333.5693296806
 10
6628.7571456115
 20
5333.1788682597
 10
6617.5166489177
 20
5332.8840531362
 10
6616.5989733378
 20
5332.8126698115
 10
6616.5863243239
 20
5332.8065641469
 10
6616.5850073659
 20
5332.8042552328
 10
6616.5852751502
 20
5332.8019373164
 10
6616.6074835044
 20
5332.7879127876
  0
LWPOLYLINE
  5
43A
330
1F
100
AcDbEntity
  8
0
  6
Continuous
 62
     7
100
AcDbPolyline
 90
        8
 70
   128
 43
0.0
 10
6641.1781311035
 20
5331.9818195717
 10
6628.7571454781
 20
5331.5913642887
 10
6617.5166489169
 20
5331.2965365674
 10
6616.5989733102
 20
5331.225192329
 10
6616.5863243072
 20
5331.2190822564
 10
6616.5850073529
 20
5331.216770824
 10
6616.5852751402
 20
5331.2144499856
 10
6616.6074835044
 20
5331.2004026787
  0
LWPOLYLINE
  5
43B
330
1F
100
AcDbEntity
  8
0
  6
Continuous
 62
     7
100
AcDbPolyline
 90
        3
 70
   128
 43
0.0
 10
6617.7520751953
 20
5339.0477415935
 10
6616.8247949788
 20
5338.99086233
 10
6616.58997464
 20
5338.9451918022
  0
LWPOLYLINE
  5
43C
330
1F
100
AcDbEntity
  8
0
  6
Continuous
 62
     7
100
AcDbPolyline
 90
        5
 70
   128
 43
0.0
 10
6641.2124633789
 20
5338.1430920974
 10
6641.1669893426
 20
5338.1180328053
 10
6640.348746496
 20
5338.0432308749
 10
6629.1279453999
 20
5337.7506334075
 10
6616.58997464
 20
5337.3577114956
  0
LWPOLYLINE
  5
43D
330
1F
100
AcDbEntity
  8
0
  6
Continuous
 62
     7
100
AcDbPolyline
 90
        5
 70
   128
 43
0.0
 10
6641.2124633789
 20
5336.5556117908
 10
6641.1669894121
 20
5336.5305302027
 10
6640.3487464634
 20
5336.4557498615
 10
6629.1279456962
 20
5336.1631233413
 10
6616.58997464
 20
5335.7702013866
  0
LWPOLYLINE
  5
43E
330
1F
100
AcDbEntity
  8
0
  6
Continuous
 62
     7
100
AcDbPolyline
 90
        5
 70
   128
 43
0.0
 10
6641.2124633789
 20
5334.9681016819
 10
6641.1669894125
 20
5334.9430200749
 10
6640.3487464646
 20
5334.8682397823
 10
6629.1279458014
 20
5334.5756083938
 10
6616.58997464
 20
5334.1826912777
  0
LWPOLYLINE
  5
43F
330
1F
100
AcDbEntity
  8
0
  6
Continuous
 62
     7
100
AcDbPolyline
 90
        5
 70
   128
 43
0.0
 10
6641.2124633789
 20
5333.3805915729
 10
6641.1669893426
 20
5333.3555322808
 10
6640.348746496
 20
5333.2807303504
 10
6629.1279453999
 20
5332.988132883
 10
6616.58997464
 20
5332.595210971
  0
LWPOLYLINE
  5
440
330
1F
100
AcDbEntity
  8
0
  6
Continuous
 62
     7
100
AcDbPolyline
 90
        5
 70
   128
 43
0.0
 10
6641.2124633789
 20
5331.7931112663
 10
6641.1669894121
 20
5331.7680296782
 10
6640.3487464634
 20
5331.693249337
 10
6629.1279456962
 20
5331.4006228168
 10
6616.58997464
 20
5331.0077008621
  0
LWPOLYLINE
  5
441
330
1F
100
AcDbEntity
  8
0
  6
Continuous
 62
     7
100
AcDbPolyline
 90
        9
 70
   128
 43
0.0
 10
6628.1623840332
 20
5206.3886220154
 10
6620.3782851496
 20
5203.1599083893
 10
6616.165635426
 20
5195.8618596305
 10
6617.3081606811
 20
5187.5158704044
 10
6623.3550195594
 20
5181.6550427582
 10
6631.731968645
 20
5180.820710646
 10
6638.7856013444
 20
5185.4113535916
 10
6641.3659663005
 20
5193.4191075929
 10
6638.275962351
 20
5201.2410876171
  0
LWPOLYLINE
  5
442
330
1F
100
AcDbEntity
  8
0
  6
Continuous
 62
     7
100
AcDbPolyline
 90
        3
 70
   128
 43
0.0
 10
6629.8332214355
 20
5205.5141147987
 10
6638.911680167
 20
5201.2409539545
 10
6642.0976184589
 20
5193.9217862503
  0
LWPOLYLINE
  5
443
330
1F
100
AcDbEntity
  8
0
  6
Continuous
 62
     7
100
AcDbPolyline
 90
        3
 70
   128
 43
0.0
 10
6638.2751464844
 20
5201.2410876171
 10
6633.9543149154
 20
5204.4664925068
 10
6629.8350207788
 20
5205.5141147987
  0
ARC
  5
444
330
1F
100
AcDbEntity
  8
0
  6
Continuous
 62
     7
100
AcDbCircle
 10
6628.9164854064
 20
5193.1432839036
 30
0.0
 40
13.20395787846017
100
AcDbArc
 50
112.2768719998
 51
3.3801063838
  0
LWPOLYLINE
  5
445
330
1F
100
AcDbEntity
  8
0
  6
Continuous
 62
     7
100
AcDbPolyline
 90
        3
 70
   128
 43
0.0
 10
6629.8332214355
 20
5205.5141147987
 10
6635.3339814602
 20
5203.7429534331
 10
6638.6729739887
 20
5200.6596443073
  0
LWPOLYLINE
  5
446
330
1F
100
AcDbEntity
  8
0
  6
Continuous
 62
     7
100
AcDbPolyline
 90
        3
 70
   128
 43
0.0
 10
6679.3937683105
 20
5161.1929950134
 10
6678.6381083083
 20
5161.196058372
 10
6677.8974794132
 20
5161.1984786407
  0
LWPOLYLINE
  5
447
330
1F
100
AcDbEntity
  8
0
  6
Continuous
 62
     7
100
AcDbPolyline
 90
        3
 70
   128
 43
0.0
 10
6677.8945922852
 20
5318.1784865276
 10
6678.8339033646
 20
5318.1815570423
 10
6679.3974750024
 20
5318.1839701549
  0
LWPOLYLINE
  5
448
330
1F
100
AcDbEntity
  8
0
  6
Continuous
 62
     7
100
AcDbPolyline
 90
        3
 70
   128
 43
0.0
 10
6369.5983886719
 20
4888.8754563276
 10
6369.3208782573
 20
4888.3939804853
 10
6369.1023330405
 20
4888.0156816785
  0
LWPOLYLINE
  5
449
330
1F
100
AcDbEntity
  8
0
  6
Continuous
 62
     7
100
AcDbPolyline
 90
        3
 70
   128
 43
0.0
 10
6368.0114746094
 20
4888.8754563276
 10
6367.7333979507
 20
4888.3939804853
 10
6367.5148527339
 20
4888.0156816785
  0
LWPOLYLINE
  5
44A
330
1F
100
AcDbEntity
  8
0
  6
Continuous
 62
     7
100
AcDbPolyline
 90
        3
 70
   128
 43
0.0
 10
6366.4207458496
 20
4888.8754563276
 10
6366.1458878418
 20
4888.3939804853
 10
6365.927342625
 20
4888.0156816785
  0
LWPOLYLINE
  5
44B
330
1F
100
AcDbEntity
  8
0
  6
Continuous
 62
     7
100
AcDbPolyline
 90
        3
 70
   128
 43
0.0
 10
6364.8338317871
 20
4888.8754563276
 10
6364.5583777328
 20
4888.3939804853
 10
6364.339832516
 20
4888.0156816785
  0
LWPOLYLINE
  5
44C
330
1F
100
AcDbEntity
  8
0
  6
Continuous
 62
     7
100
AcDbPolyline
 90
        3
 70
   128
 43
0.0
 10
6363.2469177246
 20
4888.8754563276
 10
6362.9708974262
 20
4888.3939804853
 10
6362.7523522094
 20
4888.0156816785
  0
LWPOLYLINE
  5
44D
330
1F
100
AcDbEntity
  8
0
  6
Continuous
 62
     7
100
AcDbPolyline
 90
        3
 70
   128
 43
0.0
 10
6368.3052062988
 20
4863.3088858668
 10
6368.5867540791
 20
4862.8274092301
 10
6368.8052932933
 20
4862.4491037671
  0
LWPOLYLINE
  5
44E
330
1F
100
AcDbEntity
  8
0
  6
Continuous
 62
     7
100
AcDbPolyline
 90
        3
 70
   128
 43
0.0
 10
6366.7182922363
 20
4863.3088858668
 10
6366.9992439702
 20
4862.8274092301
 10
6367.2177831844
 20
4862.4491037671
  0
LWPOLYLINE
  5
44F
330
1F
100
AcDbEntity
  8
0
  6
Continuous
 62
     7
100
AcDbPolyline
 90
        3
 70
   128
 43
0.0
 10
6365.1313781738
 20
4863.3088858668
 10
6365.4117338612
 20
4862.8274092301
 10
6365.6302730754
 20
4862.4491037671
  0
LWPOLYLINE
  5
450
330
1F
100
AcDbEntity
  8
0
  6
Continuous
 62
     7
100
AcDbPolyline
 90
        3
 70
   128
 43
0.0
 10
6363.5444641113
 20
4863.3088858668
 10
6363.8242535546
 20
4862.8274092301
 10
6364.0427927688
 20
4862.4491037671
  0
LWPOLYLINE
  5
451
330
1F
100
AcDbEntity
  8
0
  6
Continuous
 62
     7
100
AcDbPolyline
 90
        3
 70
   128
 43
0.0
 10
6369.8959350586
 20
4863.3088858668
 10
6370.0923381172
 20
4862.9691754226
 10
6370.246533604
 20
4862.7022595946
  0
LWPOLYLINE
  5
452
330
1F
100
AcDbEntity
  8
0
  6
Continuous
 62
     7
100
AcDbPolyline
 90
        3
 70
   128
 43
0.0
 10
6368.9193725586
 20
4888.0156667773
 10
6368.6440612882
 20
4888.4971316341
 10
6368.4255222991
 20
4888.8754414264
  0
LWPOLYLINE
  5
453
330
1F
100
AcDbEntity
  8
0
  6
Continuous
 62
     7
100
AcDbPolyline
 90
        3
 70
   128
 43
0.0
 10
6367.3324584961
 20
4888.0156667773
 10
6367.0565799873
 20
4888.4971385987
 10
6366.8380419925
 20
4888.8754414264
  0
LWPOLYLINE
  5
454
330
1F
100
AcDbEntity
  8
0
  6
Continuous
 62
     7
100
AcDbPolyline
 90
        3
 70
   128
 43
0.0
 10
6365.7455444336
 20
4888.0156667773
 10
6365.4690698783
 20
4888.4971385987
 10
6365.2505318835
 20
4888.8754414264
  0
LWPOLYLINE
  5
455
330
1F
100
AcDbEntity
  8
0
  6
Continuous
 62
     7
100
AcDbPolyline
 90
        3
 70
   128
 43
0.0
 10
6364.1586303711
 20
4888.0156667773
 10
6363.8815607637
 20
4888.4971316341
 10
6363.6630217746
 20
4888.8754414264
  0
LWPOLYLINE
  5
456
330
1F
100
AcDbEntity
  8
0
  6
Continuous
 62
     7
100
AcDbPolyline
 90
        3
 70
   128
 43
0.0
 10
6367.6300048828
 20
4862.4491186682
 10
6367.9099336447
 20
4862.9305931733
 10
6368.1284825519
 20
4863.308900768
  0
LWPOLYLINE
  5
457
330
1F
100
AcDbEntity
  8
0
  6
Continuous
 62
     7
100
AcDbPolyline
 90
        3
 70
   128
 43
0.0
 10
6366.0430908203
 20
4862.4491186682
 10
6366.3224283903
 20
4862.9305979443
 10
6366.5409724429
 20
4863.308900768
  0
LWPOLYLINE
  5
458
330
1F
100
AcDbEntity
  8
0
  6
Continuous
 62
     7
100
AcDbPolyline
 90
        3
 70
   128
 43
0.0
 10
6364.4561767578
 20
4862.4491186682
 10
6364.7349182813
 20
4862.9305979443
 10
6364.953462334
 20
4863.308900768
  0
LWPOLYLINE
  5
459
330
1F
100
AcDbEntity
  8
0
  6
Continuous
 62
     7
100
AcDbPolyline
 90
        3
 70
   128
 43
0.0
 10
6362.8692626953
 20
4862.4491186682
 10
6363.1474331202
 20
4862.9305931733
 10
6363.3659820274
 20
4863.308900768
  0
LWPOLYLINE
  5
45A
330
1F
100
AcDbEntity
  8
0
  6
Continuous
 62
     7
100
AcDbPolyline
 90
        3
 70
   128
 43
0.0
 10
6369.2169189453
 20
4862.4491186682
 10
6369.4974188059
 20
4862.9305979443
 10
6369.7159628585
 20
4863.308900768
  0
LWPOLYLINE
  5
45B
330
1F
100
AcDbEntity
  8
0
  6
Continuous
 62
     7
100
AcDbPolyline
 90
        3
 70
   128
 43
0.0
 10
6370.5062866211
 20
4888.0156667773
 10
6370.2315704029
 20
4888.4971385987
 10
6370.0130324081
 20
4888.8754414264
  0
LWPOLYLINE
  5
45C
330
1F
100
AcDbEntity
  8
0
  6
Continuous
 62
     7
100
AcDbPolyline
 90
        3
 70
   128
 43
0.0
 10
6179.1114807129
 20
4863.308900768
 10
6179.3934443707
 20
4862.8274308259
 10
6179.6119849399
 20
4862.4491186682
  0
LWPOLYLINE
  5
45D
330
1F
100
AcDbEntity
  8
0
  6
Continuous
 62
     7
100
AcDbPolyline
 90
        3
 70
   128
 43
0.0
 10
6180.7022094727
 20
4863.308900768
 10
6180.9809344898
 20
4862.8274193142
 10
6181.1994950488
 20
4862.4491186682
  0
LWPOLYLINE
  5
45E
330
1F
100
AcDbEntity
  8
0
  6
Continuous
 62
     7
100
AcDbPolyline
 90
        3
 70
   128
 43
0.0
 10
6182.2891235352
 20
4863.308900768
 10
6182.5684361679
 20
4862.8274240852
 10
6182.7869753555
 20
4862.4491186682
  0
LWPOLYLINE
  5
45F
330
1F
100
AcDbEntity
  8
0
  6
Continuous
 62
     7
100
AcDbPolyline
 90
        3
 70
   128
 43
0.0
 10
6183.8760375977
 20
4863.308900768
 10
6184.1559448952
 20
4862.8274308259
 10
6184.3744854644
 20
4862.4491186682
  0
LWPOLYLINE
  5
460
330
1F
100
AcDbEntity
  8
0
  6
Continuous
 62
     7
100
AcDbPolyline
 90
        3
 70
   128
 43
0.0
 10
6180.4046630859
 20
4888.8754414264
 10
6180.127595163
 20
4888.3939586667
 10
6179.9090246871
 20
4888.0156667773
  0
LWPOLYLINE
  5
461
330
1F
100
AcDbEntity
  8
0
  6
Continuous
 62
     7
100
AcDbPolyline
 90
        3
 70
   128
 43
0.0
 10
6181.9915771484
 20
4888.8754414264
 10
6181.7150800415
 20
4888.3939656336
 10
6181.4965347961
 20
4888.0156667773
  0
LWPOLYLINE
  5
462
330
1F
100
AcDbEntity
  8
0
  6
Continuous
 62
     7
100
AcDbPolyline
 90
        3
 70
   128
 43
0.0
 10
6183.5784912109
 20
4888.8754414264
 10
6183.3025901504
 20
4888.3939656336
 10
6183.084044905
 20
4888.0156667773
  0
LWPOLYLINE
  5
463
330
1F
100
AcDbEntity
  8
0
  6
Continuous
 62
     7
100
AcDbPolyline
 90
        3
 70
   128
 43
0.0
 10
6185.1654052734
 20
4888.8754414264
 10
6184.8900956875
 20
4888.3939586667
 10
6184.6715252116
 20
4888.0156667773
  0
LWPOLYLINE
  5
464
330
1F
100
AcDbEntity
  8
0
  6
Continuous
 62
     7
100
AcDbPolyline
 90
        3
 70
   128
 43
0.0
 10
6178.8177490234
 20
4888.8754414264
 10
6178.5400896259
 20
4888.3939656336
 10
6178.3215443805
 20
4888.0156667773
  0
LWPOLYLINE
  5
465
330
1F
100
AcDbEntity
  8
0
  6
Continuous
 62
     7
100
AcDbPolyline
 90
        3
 70
   128
 43
0.0
 10
6177.5245666504
 20
4863.308900768
 10
6177.8059356434
 20
4862.8274240852
 10
6178.0244748309
 20
4862.4491186682
  0
LWPOLYLINE
  5
466
330
1F
100
AcDbEntity
  8
0
  6
Continuous
 62
     7
100
AcDbPolyline
 90
        3
 70
   128
 43
0.0
 10
6178.4362792969
 20
4862.4491037671
 10
6178.7166301744
 20
4862.9305830927
 10
6178.9351741985
 20
4863.3088858668
  0
LWPOLYLINE
  5
467
330
1F
100
AcDbEntity
  8
0
  6
Continuous
 62
     7
100
AcDbPolyline
 90
        3
 70
   128
 43
0.0
 10
6180.0231933594
 20
4862.4491037671
 10
6180.3041104811
 20
4862.9305830927
 10
6180.5226545051
 20
4863.3088858668
  0
LWPOLYLINE
  5
468
330
1F
100
AcDbEntity
  8
0
  6
Continuous
 62
     7
100
AcDbPolyline
 90
        3
 70
   128
 43
0.0
 10
6181.6101074219
 20
4862.4491037671
 10
6181.89162059
 20
4862.9305830927
 10
6182.110164614
 20
4863.3088858668
  0
LWPOLYLINE
  5
469
330
1F
100
AcDbEntity
  8
0
  6
Continuous
 62
     7
100
AcDbPolyline
 90
        3
 70
   128
 43
0.0
 10
6183.2008361816
 20
4862.4491037671
 10
6183.4791306989
 20
4862.9305830927
 10
6183.697674723
 20
4863.3088858668
  0
LWPOLYLINE
  5
46A
330
1F
100
AcDbEntity
  8
0
  6
Continuous
 62
     7
100
AcDbPolyline
 90
        3
 70
   128
 43
0.0
 10
6184.7877502441
 20
4862.4491037671
 10
6185.0666110056
 20
4862.9305830927
 10
6185.2851550296
 20
4863.3088858668
  0
LWPOLYLINE
  5
46B
330
1F
100
AcDbEntity
  8
0
  6
Continuous
 62
     7
100
AcDbPolyline
 90
        3
 70
   128
 43
0.0
 10
6179.7256469727
 20
4888.0156816785
 10
6179.4507733385
 20
4888.4971582247
 10
6179.2322139457
 20
4888.8754563276
  0
LWPOLYLINE
  5
46C
330
1F
100
AcDbEntity
  8
0
  6
Continuous
 62
     7
100
AcDbPolyline
 90
        3
 70
   128
 43
0.0
 10
6181.3163757324
 20
4888.0156816785
 10
6181.0382620761
 20
4888.4971534538
 10
6180.8197240546
 20
4888.8754563276
  0
LWPOLYLINE
  5
46D
330
1F
100
AcDbEntity
  8
0
  6
Continuous
 62
     7
100
AcDbPolyline
 90
        3
 70
   128
 43
0.0
 10
6182.9032897949
 20
4888.0156816785
 10
6182.625772185
 20
4888.4971534538
 10
6182.4072341636
 20
4888.8754563276
  0
LWPOLYLINE
  5
46E
330
1F
100
AcDbEntity
  8
0
  6
Continuous
 62
     7
100
AcDbPolyline
 90
        3
 70
   128
 43
0.0
 10
6184.4902038574
 20
4888.0156816785
 10
6184.213273863
 20
4888.4971582247
 10
6183.9947144702
 20
4888.8754563276
  0
LWPOLYLINE
  5
46F
330
1F
100
AcDbEntity
  8
0
  6
Continuous
 62
     7
100
AcDbPolyline
 90
        3
 70
   128
 43
0.0
 10
6178.1387329102
 20
4888.0156816785
 10
6177.9451661851
 20
4888.3553904262
 10
6177.790973635
 20
4888.6223079507
  0
LINE
  5
470
330
1F
100
AcDbEntity
  8
0
  6
Continuous
 62
     7
100
AcDbLine
 10
6329.8301696777
 20
4815.1372762267
 30
0.0
 11
6330.5356244758
 21
4815.1372762267
 31
0.0
  0
LINE
  5
471
330
1F
100
AcDbEntity
  8
0
  6
Continuous
 62
     7
100
AcDbLine
 10
6333.5838317871
 20
4815.1372762267
 30
0.0
 11
6333.4132175163
 21
4815.1372762267
 31
0.0
  0
LINE
  5
472
330
1F
100
AcDbEntity
  8
0
  6
Continuous
 62
     7
100
AcDbLine
 10
6333.6410522461
 20
4815.1372762267
 30
0.0
 11
6333.5841338351
 21
4815.1372762267
 31
0.0
  0
LWPOLYLINE
  5
473
330
1F
100
AcDbEntity
  8
0
  6
Continuous
 62
     7
100
AcDbPolyline
 90
        9
 70
   128
 43
0.0
 10
6370.0180053711
 20
4874.9289603774
 10
6370.2012766076
 20
4863.5600045894
 10
6370.2458295979
 20
4862.7018132161
 10
6370.2523216234
 20
4862.6701790299
 10
6370.2534099391
 20
4862.6687676841
 10
6370.2539547247
 20
4862.6685159928
 10
6370.2544999203
 20
4862.6685741206
 10
6370.2574142867
 20
4862.6743384725
 10
6370.2613155559
 20
4862.6965375487
  0
LWPOLYLINE
  5
474
330
1F
100
AcDbEntity
  8
0
  6
Continuous
 62
     7
100
AcDbPolyline
 90
        8
 70
   128
 43
0.0
 10
6370.7618713379
 20
4888.096341664
 10
6370.7681640038
 20
4888.1033070285
 10
6370.7699540685
 20
4888.1055165513
 10
6370.7717462332
 20
4888.1061982825
 10
6370.7744399488
 20
4888.1032422558
 10
6370.7771418778
 20
4888.0942449502
 10
6370.793472778
 20
4887.9249779177
 10
6370.878015013
 20
4885.0407691542
  0
LWPOLYLINE
  5
475
330
1F
100
AcDbEntity
  8
0
  6
Continuous
 62
     7
100
AcDbPolyline
 90
        3
 70
   128
 43
0.0
 10
6370.8763122559
 20
4876.5998275821
 10
6370.3891508458
 20
4885.6765094663
 10
6370.018754454
 20
4888.8624327127
  0
LWPOLYLINE
  5
476
330
1F
100
AcDbEntity
  8
0
  6
Continuous
 62
     7
100
AcDbPolyline
 90
        3
 70
   128
 43
0.0
 10
6370.8763122559
 20
4885.0407691542
 10
6370.878015013
 20
4880.7191217186
 10
6370.878015013
 20
4876.5998275821
  0
LWPOLYLINE
  5
477
330
1F
100
AcDbEntity
  8
0
  6
Continuous
 62
     7
100
AcDbPolyline
 90
       13
 70
   128
 43
0.0
 10
6369.2169189453
 20
4862.5076355283
 10
6369.2002255468
 20
4862.4343215279
 10
6369.1986433464
 20
4862.4341519907
 10
6369.197064144
 20
4862.4349852028
 10
6369.1939144496
 20
4862.4395732633
 10
6369.1203033879
 20
4863.3129654697
 10
6368.8181088649
 20
4875.4413162426
 10
6368.5188358974
 20
4887.8524624804
 10
6368.4425109775
 20
4888.8301948672
 10
6368.4297131565
 20
4888.8638887122
 10
6368.4265290237
 20
4888.8649152896
 10
6368.4233496501
 20
4888.8638175566
 10
6368.4169988349
 20
4888.8580815737
  0
LWPOLYLINE
  5
478
330
1F
100
AcDbEntity
  8
0
  6
Continuous
 62
     7
100
AcDbPolyline
 90
       13
 70
   128
 43
0.0
 10
6367.6300048828
 20
4862.5076355283
 10
6367.6127154386
 20
4862.434321528
 10
6367.6111332384
 20
4862.4341519907
 10
6367.6095540362
 20
4862.4349852026
 10
6367.6064043422
 20
4862.4395732625
 10
6367.5327932662
 20
4863.3129654414
 10
6367.2306273828
 20
4875.4413164856
 10
6366.9313198652
 20
4887.8524622486
 10
6366.855026867
 20
4888.8301948523
 10
6366.8422330646
 20
4888.8638887133
 10
6366.8390491552
 20
4888.8649152914
 10
6366.8358697675
 20
4888.8638175584
 10
6366.8295185283
 20
4888.8580815737
  0
LWPOLYLINE
  5
479
330
1F
100
AcDbEntity
  8
0
  6
Continuous
 62
     7
100
AcDbPolyline
 90
       13
 70
   128
 43
0.0
 10
6366.0430908203
 20
4862.5076355283
 10
6366.0252441558
 20
4862.4343215049
 10
6366.0236638784
 20
4862.4341519717
 10
6366.0220863849
 20
4862.4349851882
 10
6366.0189394942
 20
4862.4395732591
 10
6365.9452886875
 20
4863.3129654888
 10
6365.6431172909
 20
4875.4413165317
 10
6365.3438454749
 20
4887.8524625101
 10
6365.2675205619
 20
4888.8301948689
 10
6365.2547227407
 20
4888.8638887123
 10
6365.2515386079
 20
4888.8649152896
 10
6365.2483592344
 20
4888.8638175566
 10
6365.2420084193
 20
4888.8580815737
  0
LWPOLYLINE
  5
47A
330
1F
100
AcDbEntity
  8
0
  6
Continuous
 62
     7
100
AcDbPolyline
 90
       13
 70
   128
 43
0.0
 10
6364.4561767578
 20
4862.5076355283
 10
6364.4377250223
 20
4862.4343215279
 10
6364.4361428219
 20
4862.4341519907
 10
6364.4345636195
 20
4862.4349852028
 10
6364.431413925
 20
4862.4395732633
 10
6364.3578028634
 20
4863.3129654697
 10
6364.0556083404
 20
4875.4413162426
 10
6363.7563353729
 20
4887.8524624804
 10
6363.680010453
 20
4888.8301948672
 10
6363.667212632
 20
4888.8638887122
 10
6363.6640284992
 20
4888.8649152896
 10
6363.6608491256
 20
4888.8638175566
 10
6363.6544983104
 20
4888.8580815737
  0
LWPOLYLINE
  5
47B
330
1F
100
AcDbEntity
  8
0
  6
Continuous
 62
     7
100
AcDbPolyline
 90
        6
 70
   128
 43
0.0
 10
6362.8692626953
 20
4862.5076355283
 10
6362.8525595159
 20
4862.4364549534
 10
6362.8497789993
 20
4862.4341734712
 10
6362.8470078604
 20
4862.4350238607
 10
6362.7823069886
 20
4863.0996725879
 10
6362.5187616065
 20
4872.8759975974
  0
LWPOLYLINE
  5
47C
330
1F
100
AcDbEntity
  8
0
  6
Continuous
 62
     7
100
AcDbPolyline
 90
        7
 70
   128
 43
0.0
 10
6370.0180053711
 20
4874.9289603774
 10
6369.705646112
 20
4887.925286779
 10
6369.6255767161
 20
4888.8746505759
 10
6369.6222440433
 20
4888.8793664401
 10
6369.620581952
 20
4888.8801696023
 10
6369.6189229217
 20
4888.8799075113
 10
6369.5992271617
 20
4888.808423454
  0
LWPOLYLINE
  5
47D
330
1F
100
AcDbEntity
  8
0
  6
Continuous
 62
     7
100
AcDbPolyline
 90
       13
 70
   128
 43
0.0
 10
6368.8049316406
 20
4862.5305088107
 10
6368.7929993264
 20
4862.5335957277
 10
6368.7806386657
 20
4862.5614255639
 10
6368.7089918167
 20
4863.6080145855
 10
6368.4127187977
 20
4875.8797764592
 10
6368.1199410411
 20
4887.8879180069
 10
6368.0450499914
 20
4888.8615745598
 10
6368.0387861634
 20
4888.8806813589
 10
6368.0364464216
 20
4888.883872097
 10
6368.034112483
 20
4888.8847753165
 10
6368.0306235647
 20
4888.8816727029
 10
6368.0271505124
 20
4888.8730029691
 10
6368.020240517
 20
4888.8434635345
  0
LWPOLYLINE
  5
47E
330
1F
100
AcDbEntity
  8
0
  6
Continuous
 62
     7
100
AcDbPolyline
 90
       13
 70
   128
 43
0.0
 10
6367.2142028809
 20
4862.5305088107
 10
6367.205488079
 20
4862.533595721
 10
6367.1931280351
 20
4862.561425561
 10
6367.1215165421
 20
4863.6080148502
 10
6366.8252389205
 20
4875.8797770154
 10
6366.5324462744
 20
4887.8879180985
 10
6366.4575467027
 20
4888.8615745977
 10
6366.4512793921
 20
4888.8806813775
 10
6366.4489385936
 20
4888.8838721097
 10
6366.4466037639
 20
4888.8847753242
 10
6366.4431138616
 20
4888.8816727052
 10
6366.4396403045
 20
4888.8730029686
 10
6366.432730408
 20
4888.8434635345
  0
LWPOLYLINE
  5
47F
330
1F
100
AcDbEntity
  8
0
  6
Continuous
 62
     7
100
AcDbPolyline
 90
       13
 70
   128
 43
0.0
 10
6365.6272888184
 20
4862.5305088107
 10
6365.6179946008
 20
4862.5335957452
 10
6365.6056463145
 20
4862.5614256094
 10
6365.5340013441
 20
4863.6080148498
 10
6365.2377283813
 20
4875.8797770399
 10
6364.9449576077
 20
4887.8879182776
 10
6364.8700349364
 20
4888.861574584
 10
6364.8637684227
 20
4888.8806813704
 10
6364.8614278858
 20
4888.8838721048
 10
6364.8590932842
 20
4888.8847753212
 10
6364.8556036424
 20
4888.8816727043
 10
6364.8521302226
 20
4888.8730029688
 10
6364.8452202991
 20
4888.8434635345
  0
LWPOLYLINE
  5
480
330
1F
100
AcDbEntity
  8
0
  6
Continuous
 62
     7
100
AcDbPolyline
 90
       13
 70
   128
 43
0.0
 10
6364.0403747559
 20
4862.5305088107
 10
6364.0304988019
 20
4862.5335957277
 10
6364.0181381412
 20
4862.5614255639
 10
6363.9464912922
 20
4863.6080145855
 10
6363.6502182731
 20
4875.8797764592
 10
6363.3574405166
 20
4887.8879180069
 10
6363.2825494669
 20
4888.8615745598
 10
6363.2762856389
 20
4888.8806813589
 10
6363.2739458971
 20
4888.883872097
 10
6363.2716119585
 20
4888.8847753165
 10
6363.2681230402
 20
4888.8816727029
 10
6363.2646499878
 20
4888.8730029691
 10
6363.2577399924
 20
4888.8434635345
  0
LWPOLYLINE
  5
481
330
1F
100
AcDbEntity
  8
0
  6
Continuous
 62
     7
100
AcDbPolyline
 90
        5
 70
   128
 43
0.0
 10
6369.8959350586
 20
4863.3298667018
 10
6369.503569409
 20
4875.8935302582
 10
6369.2108632792
 20
4887.1109421247
 10
6369.1360850325
 20
4887.9363571409
 10
6369.111065121
 20
4887.9599364344
  0
LWPOLYLINE
  5
482
330
1F
100
AcDbEntity
  8
0
  6
Continuous
 62
     7
100
AcDbPolyline
 90
        5
 70
   128
 43
0.0
 10
6368.3052062988
 20
4863.3298667018
 10
6367.9160570802
 20
4875.8935298772
 10
6367.6233539398
 20
4887.1109421028
 10
6367.5485755693
 20
4887.9363571463
 10
6367.5235550121
 20
4887.9599364344
  0
LWPOLYLINE
  5
483
330
1F
100
AcDbEntity
  8
0
  6
Continuous
 62
     7
100
AcDbPolyline
 90
        5
 70
   128
 43
0.0
 10
6366.7182922363
 20
4863.3298667018
 10
6366.3285791917
 20
4875.8935302244
 10
6366.0358440511
 20
4887.1109418945
 10
6365.9610743645
 20
4887.9363571114
 10
6365.9360747054
 20
4887.9599364344
  0
LWPOLYLINE
  5
484
330
1F
100
AcDbEntity
  8
0
  6
Continuous
 62
     7
100
AcDbPolyline
 90
        5
 70
   128
 43
0.0
 10
6365.1313781738
 20
4863.3298667018
 10
6364.7410688845
 20
4875.8935302582
 10
6364.4483627547
 20
4887.1109421247
 10
6364.373584508
 20
4887.9363571409
 10
6364.3485645965
 20
4887.9599364344
  0
LWPOLYLINE
  5
485
330
1F
100
AcDbEntity
  8
0
  6
Continuous
 62
     7
100
AcDbPolyline
 90
        5
 70
   128
 43
0.0
 10
6363.5444641113
 20
4863.3298667018
 10
6363.1535565557
 20
4875.8935298772
 10
6362.8608534152
 20
4887.1109421028
 10
6362.7860750447
 20
4887.9363571463
 10
6362.7610544875
 20
4887.9599364344
  0
ARC
  5
486
330
1F
100
AcDbEntity
  8
0
  6
Continuous
 62
     7
100
AcDbCircle
 10
6330.0259961808
 20
4880.9553266132
 30
0.0
 40
41.0818536003741
100
AcDbArc
 50
353.9140624239
 51
9.7880467872
  0
LWPOLYLINE
  5
487
330
1F
100
AcDbEntity
  8
0
  6
Continuous
 62
     7
100
AcDbPolyline
 90
       12
 70
   128
 43
0.0
 10
6369.7052001953
 20
4863.3214922492
 10
6369.7000274334
 20
4863.295944429
 10
6369.6969089602
 20
4863.2893009646
 10
6369.6938052913
 20
4863.286950767
 10
6369.6907156613
 20
4863.2886948184
 10
6369.6876393049
 20
4863.294334101
 10
6369.6815233512
 20
4863.3165022882
 10
6369.6098027489
 20
4864.2367938525
 10
6369.3142055522
 20
4875.4557980647
 10
6369.0215783534
 20
4886.9267474324
 10
6368.9473235869
 20
4887.9005695738
 10
6368.9223270133
 20
4887.9394026343
  0
LWPOLYLINE
  5
488
330
1F
100
AcDbEntity
  8
0
  6
Continuous
 62
     7
100
AcDbPolyline
 90
       12
 70
   128
 43
0.0
 10
6368.1182861328
 20
4863.3214922492
 10
6368.1125173259
 20
4863.2959444294
 10
6368.1093988566
 20
4863.2893009649
 10
6368.1062951934
 20
4863.2869507672
 10
6368.1032055705
 20
4863.2886948184
 10
6368.1001292221
 20
4863.2943341007
 10
6368.0940132854
 20
4863.3165022871
 10
6368.0222923452
 20
4864.2367938171
 10
6367.726724331
 20
4875.4557983285
 10
6367.4340679009
 20
4886.9267471826
 10
6367.3598175302
 20
4887.9005695246
 10
6367.3348467067
 20
4887.9394026343
  0
LWPOLYLINE
  5
489
330
1F
100
AcDbEntity
  8
0
  6
Continuous
 62
     7
100
AcDbPolyline
 90
       12
 70
   128
 43
0.0
 10
6366.527557373
 20
4863.3214922492
 10
6366.5250503902
 20
4863.2959443631
 10
6366.5219484539
 20
4863.2893008818
 10
6366.5188578928
 20
4863.286950675
 10
6366.5157781988
 20
4863.2886947241
 10
6366.5127088638
 20
4863.2943340105
 10
6366.5065992388
 20
4863.3165022205
 10
6366.4347773901
 20
4864.2367938639
 10
6366.1392149834
 20
4875.455798372
 10
6365.846587625
 20
4886.9267474624
 10
6365.7723331514
 20
4887.9005695751
 10
6365.7473365978
 20
4887.9394026343
  0
LWPOLYLINE
  5
48A
330
1F
100
AcDbEntity
  8
0
  6
Continuous
 62
     7
100
AcDbPolyline
 90
       12
 70
   128
 43
0.0
 10
6364.9406433105
 20
4863.3214922492
 10
6364.9375269088
 20
4863.295944429
 10
6364.9344084357
 20
4863.2893009646
 10
6364.9313047668
 20
4863.286950767
 10
6364.9282151368
 20
4863.2886948184
 10
6364.9251387804
 20
4863.294334101
 10
6364.9190228267
 20
4863.3165022882
 10
6364.8473022244
 20
4864.2367938525
 10
6364.5517050277
 20
4875.4557980647
 10
6364.2590778289
 20
4886.9267474324
 10
6364.1848230624
 20
4887.9005695738
 10
6364.1598264888
 20
4887.9394026343
  0
LWPOLYLINE
  5
48B
330
1F
100
AcDbEntity
  8
0
  6
Continuous
 62
     7
100
AcDbPolyline
 90
       12
 70
   128
 43
0.0
 10
6363.353729248
 20
4863.3214922492
 10
6363.3499410697
 20
4863.2957311837
 10
6363.3467852895
 20
4863.2891415875
 10
6363.3436446478
 20
4863.2869424918
 10
6363.3405183505
 20
4863.2889275582
 10
6363.3374056037
 20
4863.2948904487
 10
6363.3312175858
 20
4863.3179243493
 10
6363.2586267526
 20
4864.2584715999
 10
6362.9593847105
 20
4875.6878546448
 10
6362.6634374359
 20
4887.0909821558
 10
6362.5879410506
 20
4887.9356523022
 10
6362.5626604274
 20
4887.959891731
  0
LWPOLYLINE
  5
48C
330
1F
100
AcDbEntity
  8
0
  6
Continuous
 62
     7
100
AcDbPolyline
 90
        9
 70
   128
 43
0.0
 10
6266.7808532715
 20
4886.7272854566
 10
6261.6539088283
 20
4880.0385767048
 10
6261.6545758087
 20
4871.6110313368
 10
6266.8178893881
 20
4864.9541106028
 10
6274.9857021384
 20
4862.9019058966
 10
6282.6580957086
 20
4866.3680584965
 10
6286.4716550293
 20
4873.8710074902
 10
6284.7023945295
 20
4882.0967532392
 10
6278.1144718841
 20
4887.325281078
  0
LWPOLYLINE
  5
48D
330
1F
100
AcDbEntity
  8
0
  6
Continuous
 62
     7
100
AcDbPolyline
 90
        3
 70
   128
 43
0.0
 10
6268.6653137207
 20
4886.8053646628
 10
6278.6649762154
 20
4887.6432340032
 10
6285.0837449744
 20
4882.8974308316
  0
LWPOLYLINE
  5
48E
330
1F
100
AcDbEntity
  8
0
  6
Continuous
 62
     7
100
AcDbPolyline
 90
        3
 70
   128
 43
0.0
 10
6278.1143188477
 20
4887.325281078
 10
6272.7591064065
 20
4887.9577679872
 10
6268.6678807452
 20
4886.8053646628
  0
ARC
  5
48F
330
1F
100
AcDbEntity
  8
0
  6
Continuous
 62
     7
100
AcDbCircle
 10
6274.0561668299
 20
4875.6312293
 30
0.0
 40
13.20309106122312
100
AcDbArc
 50
142.2284216235
 51
33.3904059487
  0
LWPOLYLINE
  5
490
330
1F
100
AcDbEntity
  8
0
  6
Continuous
 62
     7
100
AcDbPolyline
 90
        3
 70
   128
 43
0.0
 10
6268.6653137207
 20
4886.8053646628
 10
6274.2454666952
 20
4888.0221628202
 10
6278.6315719798
 20
4887.0618881528
  0
LWPOLYLINE
  5
491
330
1F
100
AcDbEntity
  8
0
  6
Continuous
 62
     7
100
AcDbPolyline
 90
        9
 70
   128
 43
0.0
 10
6178.0166625977
 20
4876.3956071679
 10
6177.8362348811
 20
4887.7645656037
 10
6177.7917582213
 20
4888.6227900001
 10
6177.7852708396
 20
4888.654424443
 10
6177.7841786904
 20
4888.6558336228
 10
6177.7836313881
 20
4888.6560839446
 10
6177.7830832569
 20
4888.6560242475
 10
6177.7801455746
 20
4888.6502478754
 10
6177.7761916831
 20
4888.628022546
  0
LWPOLYLINE
  5
492
330
1F
100
AcDbEntity
  8
0
  6
Continuous
 62
     7
100
AcDbPolyline
 90
        8
 70
   128
 43
0.0
 10
6177.2727966309
 20
4863.2282258813
 10
6177.2693432346
 20
4863.2212605365
 10
6177.2675531695
 20
4863.2190510188
 10
6177.2657610044
 20
4863.2183692868
 10
6177.2630672881
 20
4863.2213252974
 10
6177.260365358
 20
4863.2303225643
 10
6177.2440344514
 20
4863.3995893582
 10
6177.159492226
 20
4866.283798391
  0
LWPOLYLINE
  5
493
330
1F
100
AcDbEntity
  8
0
  6
Continuous
 62
     7
100
AcDbPolyline
 90
        3
 70
   128
 43
0.0
 10
6177.1583557129
 20
4874.7247399632
 10
6177.6483562616
 20
4865.6480587074
 10
6178.018752785
 20
4862.4621422831
  0
LWPOLYLINE
  5
494
330
1F
100
AcDbEntity
  8
0
  6
Continuous
 62
     7
100
AcDbPolyline
 90
        3
 70
   128
 43
0.0
 10
6177.1583557129
 20
4866.283798391
 10
6177.159492226
 20
4870.6054458267
 10
6177.159492226
 20
4874.7247399632
  0
LWPOLYLINE
  5
495
330
1F
100
AcDbEntity
  8
0
  6
Continuous
 62
     7
100
AcDbPolyline
 90
       13
 70
   128
 43
0.0
 10
6178.8177490234
 20
4888.8169245664
 10
6178.8372730886
 20
4888.8902578024
 10
6178.8388535356
 20
4888.8904282475
 10
6178.8404312141
 20
4888.8895958317
 10
6178.8435785098
 20
4888.8850090466
 10
6178.9172075893
 20
4888.0116039655
 10
6179.2193983581
 20
4875.8832521047
 10
6179.5186712231
 20
4863.4720956146
 10
6179.5949962595
 20
4862.4943796233
 10
6179.6077940809
 20
4862.4606863121
 10
6179.610978214
 20
4862.459659762
 10
6179.614157588
 20
4862.4607574928
 10
6179.6205084041
 20
4862.4664934222
  0
LWPOLYLINE
  5
496
330
1F
100
AcDbEntity
  8
0
  6
Continuous
 62
     7
100
AcDbPolyline
 90
       13
 70
   128
 43
0.0
 10
6180.4046630859
 20
4888.8169245664
 10
6180.4247917693
 20
4888.8902577755
 10
6180.4263739685
 20
4888.8904282234
 10
6180.4279531701
 20
4888.8895958108
 10
6180.4311028635
 20
4888.8850090332
 10
6180.5047139161
 20
4888.0116041815
 10
6180.8069094487
 20
4875.8832527278
 10
6181.1061882873
 20
4863.4720958911
 10
6181.1824802934
 20
4862.4943796386
 10
6181.1952741773
 20
4862.4606863113
 10
6181.1984580919
 20
4862.4596597603
 10
6181.2016374797
 20
4862.4607574911
 10
6181.2079887107
 20
4862.4664934222
  0
LWPOLYLINE
  5
497
330
1F
100
AcDbEntity
  8
0
  6
Continuous
 62
     7
100
AcDbPolyline
 90
       13
 70
   128
 43
0.0
 10
6181.9915771484
 20
4888.8169245664
 10
6182.0123001526
 20
4888.8902577665
 10
6182.0138816786
 20
4888.8904282108
 10
6182.0154601314
 20
4888.8895957943
 10
6182.0186081256
 20
4888.8850090078
 10
6182.0922088525
 20
4888.0116041133
 10
6182.3943902615
 20
4875.8832521506
 10
6182.6936613597
 20
4863.472095609
 10
6182.7699866956
 20
4862.4943796236
 10
6182.7827844952
 20
4862.4606863121
 10
6182.785968627
 20
4862.459659762
 10
6182.7891480011
 20
4862.4607574927
 10
6182.7954988197
 20
4862.4664934222
  0
LWPOLYLINE
  5
498
330
1F
100
AcDbEntity
  8
0
  6
Continuous
 62
     7
100
AcDbPolyline
 90
       14
 70
   128
 43
0.0
 10
6183.5861206055
 20
4888.8584764544
 10
6183.599968465
 20
4888.8960076564
 10
6183.6017336987
 20
4888.8972530336
 10
6183.6034945501
 20
4888.8970794769
 10
6183.6081697247
 20
4888.8899737375
 10
6183.6143605535
 20
4888.8664987735
 10
6183.6869722623
 20
4887.8686854178
 10
6183.9862203916
 20
4875.6608295914
 10
6184.2822243436
 20
4863.4508761923
 10
6184.3577688769
 20
4862.4931724463
 10
6184.3704296909
 20
4862.4605903082
 10
6184.373579878
 20
4862.459665715
 10
6184.3767254557
 20
4862.4607985832
 10
6184.3830089286
 20
4862.4664934222
  0
LWPOLYLINE
  5
499
330
1F
100
AcDbEntity
  8
0
  6
Continuous
 62
     7
100
AcDbPolyline
 90
        6
 70
   128
 43
0.0
 10
6185.1654052734
 20
4888.8169245664
 10
6185.1849476948
 20
4888.8881227928
 10
6185.1877282091
 20
4888.8904060948
 10
6185.1904993465
 20
4888.8895571726
 10
6185.2552002316
 20
4888.224898244
 10
6185.5187456325
 20
4878.4485699479
  0
LWPOLYLINE
  5
49A
330
1F
100
AcDbEntity
  8
0
  6
Continuous
 62
     7
100
AcDbPolyline
 90
        8
 70
   128
 43
0.0
 10
6178.0166625977
 20
4876.3956071679
 10
6178.32554684
 20
4863.527129558
 10
6178.4038058811
 20
4862.4681704695
 10
6178.4103685329
 20
4862.4456556996
 10
6178.4152644375
 20
4862.4398251583
 10
6178.417093534
 20
4862.4402458931
 10
6178.4189184954
 20
4862.4421465709
 10
6178.4297864154
 20
4862.4810965602
  0
LWPOLYLINE
  5
49B
330
1F
100
AcDbEntity
  8
0
  6
Continuous
 62
     7
100
AcDbPolyline
 90
       13
 70
   128
 43
0.0
 10
6179.2297363281
 20
4888.7940587346
 10
6179.2445222184
 20
4888.7909676743
 10
6179.2568705029
 20
4888.7631348714
 10
6179.3285155103
 20
4887.7165533987
 10
6179.6247884684
 20
4875.4447892119
 10
6179.9175620214
 20
4863.4366374058
 10
6179.9924576606
 20
4862.4630145785
 10
6179.9987212732
 20
4862.4439051697
 10
6180.0010609455
 20
4862.4407127116
 10
6180.0033948245
 20
4862.4398073264
 10
6180.0068836772
 20
4862.4429057982
 10
6180.0103566996
 20
4862.4515702423
 10
6180.017266722
 20
4862.4810965602
  0
LWPOLYLINE
  5
49C
330
1F
100
AcDbEntity
  8
0
  6
Continuous
 62
     7
100
AcDbPolyline
 90
       13
 70
   128
 43
0.0
 10
6180.8166503906
 20
4888.7940587346
 10
6180.8320195473
 20
4888.7909677024
 10
6180.8443793775
 20
4888.7631349204
 10
6180.9159998473
 20
4887.7165534647
 10
6181.2122682868
 20
4875.444788935
 10
6181.5050761306
 20
4863.4366374783
 10
6181.5799673216
 20
4862.4630145745
 10
6181.5862311496
 20
4862.4439051674
 10
6181.5885708925
 20
4862.4407127098
 10
6181.5909048331
 20
4862.4398073252
 10
6181.5943937563
 20
4862.4429057976
 10
6181.5978668158
 20
4862.4515702421
 10
6181.604776831
 20
4862.4810965602
  0
LWPOLYLINE
  5
49D
330
1F
100
AcDbEntity
  8
0
  6
Continuous
 62
     7
100
AcDbPolyline
 90
       13
 70
   128
 43
0.0
 10
6182.4035644531
 20
4888.7940587346
 10
6182.4195292649
 20
4888.7909676983
 10
6182.4318893072
 20
4888.7631349184
 10
6182.5035008381
 20
4887.7165533662
 10
6182.7997788901
 20
4875.4447889318
 10
6183.0925495175
 20
4863.43663721
 10
6183.1674722607
 20
4862.4630145503
 10
6183.1737387777
 20
4862.4439051559
 10
6183.1760793168
 20
4862.440712702
 10
6183.1784139214
 20
4862.4398073205
 10
6183.1819035691
 20
4862.4429057962
 10
6183.1853769967
 20
4862.4515702424
 10
6183.1922869399
 20
4862.4810965602
  0
LWPOLYLINE
  5
49E
330
1F
100
AcDbEntity
  8
0
  6
Continuous
 62
     7
100
AcDbPolyline
 90
       13
 70
   128
 43
0.0
 10
6183.9942932129
 20
4888.7940587346
 10
6184.0070227429
 20
4888.7909676743
 10
6184.0193710275
 20
4888.7631348714
 10
6184.0910160348
 20
4887.7165533987
 10
6184.3872889929
 20
4875.4447892119
 10
6184.680062546
 20
4863.4366374058
 10
6184.7549581851
 20
4862.4630145785
 10
6184.7612217978
 20
4862.4439051697
 10
6184.76356147
 20
4862.4407127116
 10
6184.765895349
 20
4862.4398073264
 10
6184.7693842018
 20
4862.4429057982
 10
6184.7728572241
 20
4862.4515702423
 10
6184.7797672466
 20
4862.4810965602
  0
ARC
  5
49F
330
1F
100
AcDbEntity
  8
0
  6
Continuous
 62
     7
100
AcDbCircle
 10
6218.1418590782
 20
4870.3837148888
 30
0.0
 40
41.21276558049778
100
AcDbArc
 50
173.9537023023
 51
189.7770688559
  0
LWPOLYLINE
  5
4A0
330
1F
100
AcDbEntity
  8
0
  6
Continuous
 62
     7
100
AcDbPolyline
 90
       12
 70
   128
 43
0.0
 10
6178.3294677734
 20
4888.0030752961
 10
6178.3374798056
 20
4888.0286231162
 10
6178.3405982788
 20
4888.0352665807
 10
6178.3437019477
 20
4888.0376167783
 10
6178.3467915777
 20
4888.0358727269
 10
6178.3498679341
 20
4888.0302334443
 10
6178.3559838878
 20
4888.008065257
 10
6178.4277044901
 20
4887.0877736928
 10
6178.7233016868
 20
4875.8687694805
 10
6179.0159288856
 20
4864.3978201128
 10
6179.0901836521
 20
4863.4239979715
 10
6179.1151802257
 20
4863.385164911
  0
LWPOLYLINE
  5
4A1
330
1F
100
AcDbEntity
  8
0
  6
Continuous
 62
     7
100
AcDbPolyline
 90
       12
 70
   128
 43
0.0
 10
6179.9163818359
 20
4888.0030752961
 10
6179.9249899144
 20
4888.0286231159
 10
6179.9281083873
 20
4888.0352665805
 10
6179.9312120558
 20
4888.0376167783
 10
6179.9343016854
 20
4888.0358727272
 10
6179.9373780413
 20
4888.030233445
 10
6179.943493994
 20
4888.008065259
 10
6180.0152146137
 20
4887.0877737234
 10
6180.3107827264
 20
4875.8687691967
 10
6180.6034377291
 20
4864.3978203381
 10
6180.6776896077
 20
4863.4239980192
 10
6180.7026605323
 20
4863.385164911
  0
LWPOLYLINE
  5
4A2
330
1F
100
AcDbEntity
  8
0
  6
Continuous
 62
     7
100
AcDbPolyline
 90
       12
 70
   128
 43
0.0
 10
6181.5032958984
 20
4888.0030752961
 10
6181.5124568485
 20
4888.0286231822
 10
6181.5155587838
 20
4888.0352666635
 10
6181.5186493435
 20
4888.0376168702
 10
6181.5217290357
 20
4888.035872821
 10
6181.5247983686
 20
4888.0302335346
 10
6181.5309079893
 20
4888.0080653246
 10
6181.6027299244
 20
4887.0877736826
 10
6181.8982929774
 20
4875.8687691712
 10
6182.1909260156
 20
4864.3978201544
 10
6182.2651744728
 20
4863.4239979745
 10
6182.2901706413
 20
4863.385164911
  0
LWPOLYLINE
  5
4A3
330
1F
100
AcDbEntity
  8
0
  6
Continuous
 62
     7
100
AcDbPolyline
 90
       12
 70
   128
 43
0.0
 10
6183.0902099609
 20
4888.0030752961
 10
6183.0999803302
 20
4888.0286231162
 10
6183.1030988033
 20
4888.0352665807
 10
6183.1062024722
 20
4888.0376167783
 10
6183.1092921022
 20
4888.0358727269
 10
6183.1123684586
 20
4888.0302334443
 10
6183.1184844123
 20
4888.008065257
 10
6183.1902050146
 20
4887.0877736928
 10
6183.4858022113
 20
4875.8687694805
 10
6183.7784294101
 20
4864.3978201128
 10
6183.8526841766
 20
4863.4239979715
 10
6183.8776807502
 20
4863.385164911
  0
LWPOLYLINE
  5
4A4
330
1F
100
AcDbEntity
  8
0
  6
Continuous
 62
     7
100
AcDbPolyline
 90
       12
 70
   128
 43
0.0
 10
6184.6809387207
 20
4888.0030752961
 10
6184.6875661707
 20
4888.0288363619
 10
6184.6907219547
 20
4888.035425958
 10
6184.693862602
 20
4888.0376250537
 10
6184.6969889061
 20
4888.0356399871
 10
6184.7001016605
 20
4888.0296770962
 10
6184.7062896947
 20
4888.0066431948
 10
6184.7788802141
 20
4887.0660959117
 10
6185.0781226431
 20
4875.6367125762
 10
6185.3740684592
 20
4864.2335851688
 10
6185.4495980864
 20
4863.3889152576
 10
6185.4748766139
 20
4863.3646758143
  0
LWPOLYLINE
  5
4A5
330
1F
100
AcDbEntity
  8
0
  6
Continuous
 62
     7
100
AcDbPolyline
 90
        5
 70
   128
 43
0.0
 10
6178.1387329102
 20
4887.9947008435
 10
6178.5339367906
 20
4875.4310373155
 10
6178.8266727062
 20
4864.2136256507
 10
6178.9014424033
 20
4863.3882104329
 10
6178.926442118
 20
4863.3646311108
  0
LWPOLYLINE
  5
4A6
330
1F
100
AcDbEntity
  8
0
  6
Continuous
 62
     7
100
AcDbPolyline
 90
        5
 70
   128
 43
0.0
 10
6179.7256469727
 20
4887.9947008435
 10
6180.1214501476
 20
4875.4310376549
 10
6180.4141532993
 20
4864.2136254412
 10
6180.4889316698
 20
4863.388210399
 10
6180.5139522269
 20
4863.3646311108
  0
LWPOLYLINE
  5
4A7
330
1F
100
AcDbEntity
  8
0
  6
Continuous
 62
     7
100
AcDbPolyline
 90
        5
 70
   128
 43
0.0
 10
6181.3125610352
 20
4887.9947008435
 10
6181.7089569772
 20
4875.4310376099
 10
6182.0016634037
 20
4864.2136254417
 10
6182.0764417749
 20
4863.3882103989
 10
6182.1014623359
 20
4863.3646311108
  0
LWPOLYLINE
  5
4A8
330
1F
100
AcDbEntity
  8
0
  6
Continuous
 62
     7
100
AcDbPolyline
 90
        5
 70
   128
 43
0.0
 10
6182.9032897949
 20
4887.9947008435
 10
6183.296437314
 20
4875.4310373138
 10
6183.5891740832
 20
4864.2136256522
 10
6183.6639196989
 20
4863.3882103802
 10
6183.6889426425
 20
4863.3646311108
  0
LWPOLYLINE
  5
4A9
330
1F
100
AcDbEntity
  8
0
  6
Continuous
 62
     7
100
AcDbPolyline
 90
        5
 70
   128
 43
0.0
 10
6184.4902038574
 20
4887.9947008435
 10
6184.8839506722
 20
4875.4310376549
 10
6185.1766538238
 20
4864.2136254412
 10
6185.2514321943
 20
4863.388210399
 10
6185.2764527515
 20
4863.3646311108
  0
LWPOLYLINE
  5
4AA
330
1F
100
AcDbEntity
  8
0
  6
Continuous
 62
     7
100
AcDbPolyline
 90
        3
 70
   128
 43
0.0
 10
6350.2922058105
 20
4825.1622857396
 10
6350.8648801737
 20
4825.9216597889
 10
6351.0087470725
 20
4826.6622813288
  0
LWPOLYLINE
  5
4AB
330
1F
100
AcDbEntity
  8
0
  6
Continuous
 62
     7
100
AcDbPolyline
 90
        3
 70
   128
 43
0.0
 10
6349.006652832
 20
4825.6622793023
 10
6349.7802172431
 20
4826.0253623541
 10
6350.0087599471
 20
4826.6622813288
  0
LWPOLYLINE
  5
4AC
330
1F
100
AcDbEntity
  8
0
  6
Continuous
 62
     7
100
AcDbPolyline
 90
        3
 70
   128
 43
0.0
 10
6198.0285644531
 20
4826.6622813288
 10
6198.3918406052
 20
4825.8908194035
 10
6199.0287642196
 20
4825.6622793023
  0
LWPOLYLINE
  5
4AD
330
1F
100
AcDbEntity
  8
0
  6
Continuous
 62
     7
100
AcDbPolyline
 90
        3
 70
   128
 43
0.0
 10
6197.0252990723
 20
4826.6622813288
 10
6197.2495132278
 20
4825.7258573775
 10
6197.7429430202
 20
4825.1622857396
  0
ENDSEC
  0
SECTION
  2
OBJECTS
  0
DICTIONARY
  5
C
330
0
100
AcDbDictionary
281
     1
  3
ACAD_GROUP
350
D
  3
ACAD_LAYOUT
350
1A
  3
ACAD_MLINESTYLE
350
17
  3
ACAD_PLOTSETTINGS
350
19
  3
ACAD_PLOTSTYLENAME
350
E
  3
ACAD_SCALELIST
350
47
  3
DWGPROPS
350
4AE
  0
DICTIONARY
  5
D
102
{ACAD_REACTORS
330
C
102
}
330
C
100
AcDbDictionary
281
     1
  0
DICTIONARY
  5
1A
102
{ACAD_REACTORS
330
C
102
}
330
C
100
AcDbDictionary
281
     1
  3
Layout1
350
1E
  3
Layout2
350
26
  3
Model
350
22
  0
DICTIONARY
  5
17
102
{ACAD_REACTORS
330
C
102
}
330
C
100
AcDbDictionary
281
     1
  3
Standard
350
18
  0
DICTIONARY
  5
19
102
{ACAD_REACTORS
330
C
102
}
330
C
100
AcDbDictionary
281
     1
  0
ACDBDICTIONARYWDFLT
  5
E
102
{ACAD_REACTORS
330
C
102
}
330
C
100
AcDbDictionary
281
     1
  3
Normal
350
F
100
AcDbDictionaryWithDefault
340
F
  0
DICTIONARY
  5
47
102
{ACAD_REACTORS
330
C
102
}
330
C
100
AcDbDictionary
281
     1
  3
A0
350
48
  3
A1
350
49
  3
A2
350
4A
  3
A3
350
4B
  3
A4
350
4C
  3
A5
350
4D
  3
A6
350
4E
  3
A7
350
4F
  3
A8
350
50
  3
A9
350
51
  3
B0
350
52
  3
B1
350
53
  3
B2
350
54
  3
B3
350
55
  3
B4
350
56
  3
B5
350
57
  3
B6
350
58
  3
B7
350
59
  3
B8
350
5A
  3
B9
350
5B
  3
C0
350
5C
  3
C1
350
5D
  3
C2
350
5E
  3
C3
350
5F
  3
C4
350
60
  3
C5
350
61
  3
C6
350
62
  3
C7
350
63
  3
C8
350
64
  3
C9
350
65
  3
D0
350
66
  3
D1
350
67
  3
D2
350
68
  0
XRECORD
  5
4AE
102
{ACAD_REACTORS
330
C
102
}
330
C
100
AcDbXrecord
280
     1
  1
DWGPROPS COOKIE
  2

  3

  4

  6

  7

  8
radek.stransky
  9

300
=
301
=
302
=
303
=
304
=
305
=
306
=
307
=
308
=
309
=
 40
0.0
 41
2459103.372236782
 42
2459103.372298773
  1

 90
        0
  0
LAYOUT
  5
1E
102
{ACAD_REACTORS
330
1A
102
}
330
1A
100
AcDbPlotSettings
  1

  2
none_device
  4

  6

 40
0.0
 41
0.0
 42
0.0
 43
0.0
 44
0.0
 45
0.0
 46
0.0
 47
0.0
 48
0.0
 49
0.0
140
0.0
141
0.0
142
1.0
143
1.0
 70
   688
 72
     1
 73
     0
 74
     5
  7

 75
    16
147
1.0
148
0.0
149
0.0
100
AcDbLayout
  1
Layout1
 70
     1
 71
     1
 10
0.0
 20
0.0
 11
420.0
 21
297.0
 12
0.0
 22
0.0
 32
0.0
 14
1.0000000000E+20
 24
1.0000000000E+20
 34
1.0000000000E+20
 15
-1.0000000000E+20
 25
-1.0000000000E+20
 35
-1.0000000000E+20
146
0.0
 13
0.0
 23
0.0
 33
0.0
 16
1.0
 26
0.0
 36
0.0
 17
0.0
 27
1.0
 37
0.0
 76
     0
330
1B
  0
LAYOUT
  5
26
102
{ACAD_REACTORS
330
1A
102
}
330
1A
100
AcDbPlotSettings
  1

  2
none_device
  4

  6

 40
0.0
 41
0.0
 42
0.0
 43
0.0
 44
0.0
 45
0.0
 46
0.0
 47
0.0
 48
0.0
 49
0.0
140
0.0
141
0.0
142
1.0
143
1.0
 70
   688
 72
     1
 73
     0
 74
     5
  7

 75
    16
147
1.0
148
0.0
149
0.0
100
AcDbLayout
  1
Layout2
 70
     1
 71
     2
 10
0.0
 20
0.0
 11
0.0
 21
0.0
 12
0.0
 22
0.0
 32
0.0
 14
0.0
 24
0.0
 34
0.0
 15
0.0
 25
0.0
 35
0.0
146
0.0
 13
0.0
 23
0.0
 33
0.0
 16
1.0
 26
0.0
 36
0.0
 17
0.0
 27
1.0
 37
0.0
 76
     0
330
23
  0
LAYOUT
  5
22
102
{ACAD_REACTORS
330
1A
102
}
330
1A
100
AcDbPlotSettings
  1

  2
none_device
  4
ANSI_A_(11.00_x_8.50_Inches)
  6

 40
6.35
 41
19.05
 42
6.35000508
 43
19.05000254
 44
279.4
 45
215.9
 46
-2294.657005417
 47
-1812.778904701
 48
0.0
 49
0.0
140
0.0
141
0.0
142
0.0148092438
143
1.0
 70
  1696
 72
     0
 73
     0
 74
     0
  7

 75
     0
147
0.0179189148
148
-1300.4909072572
149
0.0
100
AcDbLayout
  1
Model
 70
     1
 71
     0
 10
0.0
 20
0.0
 11
420.0
 21
297.0
 12
0.0
 22
0.0
 32
0.0
 14
6176.5187422946
 24
4771.4622833933
 34
0.0
 15
6733.0974773487
 25
5339.6884617225
 35
0.0
146
0.0
 13
0.0
 23
0.0
 33
0.0
 16
1.0
 26
0.0
 36
0.0
 17
0.0
 27
1.0
 37
0.0
 76
     0
330
1F
331
29
  0
MLINESTYLE
  5
18
102
{ACAD_REACTORS
330
17
102
}
330
17
100
AcDbMlineStyle
  2
Standard
 70
     0
  3

 62
   256
 51
90.0
 52
90.0
 71
     2
 49
0.5
 62
   256
  6
BYLAYER
 49
-0.5
 62
   256
  6
BYLAYER
  0
ACDBPLACEHOLDER
  5
F
102
{ACAD_REACTORS
330
E
102
}
330
E
  0
SCALE
  5
48
102
{ACAD_REACTORS
330
47
102
}
330
47
100
AcDbScale
 70
     0
300
1:1
140
1.0
141
1.0
290
     1
  0
SCALE
  5
49
102
{ACAD_REACTORS
330
47
102
}
330
47
100
AcDbScale
 70
     0
300
1:2
140
1.0
141
2.0
290
     0
  0
SCALE
  5
4A
102
{ACAD_REACTORS
330
47
102
}
330
47
100
AcDbScale
 70
     0
300
1:4
140
1.0
141
4.0
290
     0
  0
SCALE
  5
4B
102
{ACAD_REACTORS
330
47
102
}
330
47
100
AcDbScale
 70
     0
300
1:5
140
1.0
141
5.0
290
     0
  0
SCALE
  5
4C
102
{ACAD_REACTORS
330
47
102
}
330
47
100
AcDbScale
 70
     0
300
1:8
140
1.0
141
8.0
290
     0
  0
SCALE
  5
4D
102
{ACAD_REACTORS
330
47
102
}
330
47
100
AcDbScale
 70
     0
300
1:10
140
1.0
141
10.0
290
     0
  0
SCALE
  5
4E
102
{ACAD_REACTORS
330
47
102
}
330
47
100
AcDbScale
 70
     0
300
1:16
140
1.0
141
16.0
290
     0
  0
SCALE
  5
4F
102
{ACAD_REACTORS
330
47
102
}
330
47
100
AcDbScale
 70
     0
300
1:20
140
1.0
141
20.0
290
     0
  0
SCALE
  5
50
102
{ACAD_REACTORS
330
47
102
}
330
47
100
AcDbScale
 70
     0
300
1:30
140
1.0
141
30.0
290
     0
  0
SCALE
  5
51
102
{ACAD_REACTORS
330
47
102
}
330
47
100
AcDbScale
 70
     0
300
1:40
140
1.0
141
40.0
290
     0
  0
SCALE
  5
52
102
{ACAD_REACTORS
330
47
102
}
330
47
100
AcDbScale
 70
     0
300
1:50
140
1.0
141
50.0
290
     0
  0
SCALE
  5
53
102
{ACAD_REACTORS
330
47
102
}
330
47
100
AcDbScale
 70
     0
300
1:100
140
1.0
141
100.0
290
     0
  0
SCALE
  5
54
102
{ACAD_REACTORS
330
47
102
}
330
47
100
AcDbScale
 70
     0
300
2:1
140
2.0
141
1.0
290
     0
  0
SCALE
  5
55
102
{ACAD_REACTORS
330
47
102
}
330
47
100
AcDbScale
 70
     0
300
4:1
140
4.0
141
1.0
290
     0
  0
SCALE
  5
56
102
{ACAD_REACTORS
330
47
102
}
330
47
100
AcDbScale
 70
     0
300
8:1
140
8.0
141
1.0
290
     0
  0
SCALE
  5
57
102
{ACAD_REACTORS
330
47
102
}
330
47
100
AcDbScale
 70
     0
300
10:1
140
10.0
141
1.0
290
     0
  0
SCALE
  5
58
102
{ACAD_REACTORS
330
47
102
}
330
47
100
AcDbScale
 70
     0
300
100:1
140
100.0
141
1.0
290
     0
  0
SCALE
  5
59
102
{ACAD_REACTORS
330
47
102
}
330
47
100
AcDbScale
 70
     0
300
1/128" = 1'-0"
140
0.0078125
141
12.0
290
     0
  0
SCALE
  5
5A
102
{ACAD_REACTORS
330
47
102
}
330
47
100
AcDbScale
 70
     0
300
1/64" = 1'-0"
140
0.015625
141
12.0
290
     0
  0
SCALE
  5
5B
102
{ACAD_REACTORS
330
47
102
}
330
47
100
AcDbScale
 70
     0
300
1/32" = 1'-0"
140
0.03125
141
12.0
290
     0
  0
SCALE
  5
5C
102
{ACAD_REACTORS
330
47
102
}
330
47
100
AcDbScale
 70
     0
300
1/16" = 1'-0"
140
0.0625
141
12.0
290
     0
  0
SCALE
  5
5D
102
{ACAD_REACTORS
330
47
102
}
330
47
100
AcDbScale
 70
     0
300
3/32" = 1'-0"
140
0.09375
141
12.0
290
     0
  0
SCALE
  5
5E
102
{ACAD_REACTORS
330
47
102
}
330
47
100
AcDbScale
 70
     0
300
1/8" = 1'-0"
140
0.125
141
12.0
290
     0
  0
SCALE
  5
5F
102
{ACAD_REACTORS
330
47
102
}
330
47
100
AcDbScale
 70
     0
300
3/16" = 1'-0"
140
0.1875
141
12.0
290
     0
  0
SCALE
  5
60
102
{ACAD_REACTORS
330
47
102
}
330
47
100
AcDbScale
 70
     0
300
1/4" = 1'-0"
140
0.25
141
12.0
290
     0
  0
SCALE
  5
61
102
{ACAD_REACTORS
330
47
102
}
330
47
100
AcDbScale
 70
     0
300
3/8" = 1'-0"
140
0.375
141
12.0
290
     0
  0
SCALE
  5
62
102
{ACAD_REACTORS
330
47
102
}
330
47
100
AcDbScale
 70
     0
300
1/2" = 1'-0"
140
0.5
141
12.0
290
     0
  0
SCALE
  5
63
102
{ACAD_REACTORS
330
47
102
}
330
47
100
AcDbScale
 70
     0
300
3/4" = 1'-0"
140
0.75
141
12.0
290
     0
  0
SCALE
  5
64
102
{ACAD_REACTORS
330
47
102
}
330
47
100
AcDbScale
 70
     0
300
1" = 1'-0"
140
1.0
141
12.0
290
     0
  0
SCALE
  5
65
102
{ACAD_REACTORS
330
47
102
}
330
47
100
AcDbScale
 70
     0
300
1-1/2" = 1'-0"
140
1.5
141
12.0
290
     0
  0
SCALE
  5
66
102
{ACAD_REACTORS
330
47
102
}
330
47
100
AcDbScale
 70
     0
300
3" = 1'-0"
140
3.0
141
12.0
290
     0
  0
SCALE
  5
67
102
{ACAD_REACTORS
330
47
102
}
330
47
100
AcDbScale
 70
     0
300
6" = 1'-0"
140
6.0
141
12.0
290
     0
  0
SCALE
  5
68
102
{ACAD_REACTORS
330
47
102
}
330
47
100
AcDbScale
 70
     0
300
1'-0" = 1'-0"
140
12.0
141
12.0
290
     0
  0
ENDSEC
  0
EOF
