  0
SECTION
  2
HEADER
  9
$ACADVER
  1
AC1015
  9
$ACADMAINTVER
 70
     6
  9
$DWGCODEPAGE
  3
ANSI_1250
  9
$INSBASE
 10
0.0
 20
0.0
 30
0.0
  9
$EXTMIN
 10
6072.294532275
 20
4137.3276569642
 30
0.0
  9
$EXTMAX
 10
7396.4530815253
 20
5393.6994545927
 30
0.0
  9
$LIMMIN
 10
0.0
 20
0.0
  9
$LIMMAX
 10
420.0
 20
297.0
  9
$ORTHOMODE
 70
     0
  9
$REGENMODE
 70
     1
  9
$FILLMODE
 70
     1
  9
$QTEXTMODE
 70
     0
  9
$MIRRTEXT
 70
     1
  9
$LTSCALE
 40
1.0
  9
$ATTMODE
 70
     1
  9
$TEXTSIZE
 40
3.5
  9
$TRACEWID
 40
1.0
  9
$TEXTSTYLE
  7
Standard
  9
$CLAYER
  8
0
  9
$CELTYPE
  6
ByLayer
  9
$CECOLOR
 62
   256
  9
$CELTSCALE
 40
1.0
  9
$DISPSILH
 70
     0
  9
$DIMSCALE
 40
1.0
  9
$DIMASZ
 40
3.302
  9
$DIMEXO
 40
0.0
  9
$DIMDLI
 40
3.75
  9
$DIMRND
 40
0.0
  9
$DIMDLE
 40
0.0
  9
$DIMEXE
 40
1.0
  9
$DIMTP
 40
0.0
  9
$DIMTM
 40
0.0
  9
$DIMTXT
 40
3.5
  9
$DIMCEN
 40
2.5
  9
$DIMTSZ
 40
0.0
  9
$DIMTOL
 70
     0
  9
$DIMLIM
 70
     0
  9
$DIMTIH
 70
     1
  9
$DIMTOH
 70
     1
  9
$DIMSE1
 70
     0
  9
$DIMSE2
 70
     0
  9
$DIMTAD
 70
     1
  9
$DIMZIN
 70
     0
  9
$DIMBLK
  1

  9
$DIMASO
 70
     1
  9
$DIMSHO
 70
     1
  9
$DIMPOST
  1

  9
$DIMAPOST
  1

  9
$DIMALT
 70
     0
  9
$DIMALTD
 70
     3
  9
$DIMALTF
 40
0.0393700787
  9
$DIMLFAC
 40
1.0
  9
$DIMTOFL
 70
     1
  9
$DIMTVP
 40
0.0
  9
$DIMTIX
 70
     0
  9
$DIMSOXD
 70
     0
  9
$DIMSAH
 70
     0
  9
$DIMBLK1
  1

  9
$DIMBLK2
  1

  9
$DIMSTYLE
  2
ISO-25
  9
$DIMCLRD
 70
     0
  9
$DIMCLRE
 70
     0
  9
$DIMCLRT
 70
     0
  9
$DIMTFAC
 40
1.0
  9
$DIMGAP
 40
1.524
  9
$DIMJUST
 70
     0
  9
$DIMSD1
 70
     0
  9
$DIMSD2
 70
     0
  9
$DIMTOLJ
 70
     0
  9
$DIMTZIN
 70
     0
  9
$DIMALTZ
 70
     0
  9
$DIMALTTZ
 70
     0
  9
$DIMUPT
 70
     0
  9
$DIMDEC
 70
     2
  9
$DIMTDEC
 70
     2
  9
$DIMALTU
 70
     2
  9
$DIMALTTD
 70
     3
  9
$DIMTXSTY
  7
Standard
  9
$DIMAUNIT
 70
     0
  9
$DIMADEC
 70
     2
  9
$DIMALTRND
 40
0.0
  9
$DIMAZIN
 70
     0
  9
$DIMDSEP
 70
    44
  9
$DIMATFIT
 70
     3
  9
$DIMFRAC
 70
     0
  9
$DIMLDRBLK
  1

  9
$DIMLUNIT
 70
     2
  9
$DIMLWD
 70
    -2
  9
$DIMLWE
 70
    -2
  9
$DIMTMOVE
 70
     0
  9
$LUNITS
 70
     2
  9
$LUPREC
 70
     2
  9
$SKETCHINC
 40
1.0
  9
$FILLETRAD
 40
10.0
  9
$AUNITS
 70
     0
  9
$AUPREC
 70
     2
  9
$MENU
  1
.
  9
$ELEVATION
 40
0.0
  9
$PELEVATION
 40
0.0
  9
$THICKNESS
 40
0.0
  9
$LIMCHECK
 70
     0
  9
$CHAMFERA
 40
0.0
  9
$CHAMFERB
 40
0.0
  9
$CHAMFERC
 40
0.0
  9
$CHAMFERD
 40
0.0
  9
$SKPOLY
 70
     0
  9
$TDCREATE
 40
2459100.396733982
  9
$TDUCREATE
 40
2459100.313400648
  9
$TDUPDATE
 40
2459100.39677507
  9
$TDUUPDATE
 40
2459100.313441736
  9
$TDINDWG
 40
0.0000000116
  9
$TDUSRTIMER
 40
0.0000000116
  9
$USRTIMER
 70
     1
  9
$ANGBASE
 50
0.0
  9
$ANGDIR
 70
     0
  9
$PDMODE
 70
     0
  9
$PDSIZE
 40
-1.0
  9
$PLINEWID
 40
0.0
  9
$SPLFRAME
 70
     0
  9
$SPLINETYPE
 70
     6
  9
$SPLINESEGS
 70
     8
  9
$HANDSEED
  5
3C8
  9
$SURFTAB1
 70
     6
  9
$SURFTAB2
 70
     6
  9
$SURFTYPE
 70
     6
  9
$SURFU
 70
     6
  9
$SURFV
 70
     6
  9
$UCSBASE
  2

  9
$UCSNAME
  2

  9
$UCSORG
 10
0.0
 20
0.0
 30
0.0
  9
$UCSXDIR
 10
1.0
 20
0.0
 30
0.0
  9
$UCSYDIR
 10
0.0
 20
1.0
 30
0.0
  9
$UCSORTHOREF
  2

  9
$UCSORTHOVIEW
 70
     0
  9
$UCSORGTOP
 10
0.0
 20
0.0
 30
0.0
  9
$UCSORGBOTTOM
 10
0.0
 20
0.0
 30
0.0
  9
$UCSORGLEFT
 10
0.0
 20
0.0
 30
0.0
  9
$UCSORGRIGHT
 10
0.0
 20
0.0
 30
0.0
  9
$UCSORGFRONT
 10
0.0
 20
0.0
 30
0.0
  9
$UCSORGBACK
 10
0.0
 20
0.0
 30
0.0
  9
$PUCSBASE
  2

  9
$PUCSNAME
  2

  9
$PUCSORG
 10
0.0
 20
0.0
 30
0.0
  9
$PUCSXDIR
 10
1.0
 20
0.0
 30
0.0
  9
$PUCSYDIR
 10
0.0
 20
1.0
 30
0.0
  9
$PUCSORTHOREF
  2

  9
$PUCSORTHOVIEW
 70
     0
  9
$PUCSORGTOP
 10
0.0
 20
0.0
 30
0.0
  9
$PUCSORGBOTTOM
 10
0.0
 20
0.0
 30
0.0
  9
$PUCSORGLEFT
 10
0.0
 20
0.0
 30
0.0
  9
$PUCSORGRIGHT
 10
0.0
 20
0.0
 30
0.0
  9
$PUCSORGFRONT
 10
0.0
 20
0.0
 30
0.0
  9
$PUCSORGBACK
 10
0.0
 20
0.0
 30
0.0
  9
$USERI1
 70
     0
  9
$USERI2
 70
     0
  9
$USERI3
 70
     0
  9
$USERI4
 70
     0
  9
$USERI5
 70
     0
  9
$USERR1
 40
0.0
  9
$USERR2
 40
0.0
  9
$USERR3
 40
0.0
  9
$USERR4
 40
0.0
  9
$USERR5
 40
0.0
  9
$WORLDVIEW
 70
     1
  9
$SHADEDGE
 70
     3
  9
$SHADEDIF
 70
    70
  9
$TILEMODE
 70
     1
  9
$MAXACTVP
 70
    64
  9
$PINSBASE
 10
0.0
 20
0.0
 30
0.0
  9
$PLIMCHECK
 70
     0
  9
$PEXTMIN
 10
1.0000000000E+20
 20
1.0000000000E+20
 30
1.0000000000E+20
  9
$PEXTMAX
 10
-1.0000000000E+20
 20
-1.0000000000E+20
 30
-1.0000000000E+20
  9
$PLIMMIN
 10
0.0
 20
0.0
  9
$PLIMMAX
 10
420.0
 20
297.0
  9
$UNITMODE
 70
     0
  9
$VISRETAIN
 70
     1
  9
$PLINEGEN
 70
     0
  9
$PSLTSCALE
 70
     1
  9
$TREEDEPTH
 70
  3020
  9
$CMLSTYLE
  2
Standard
  9
$CMLJUST
 70
     0
  9
$CMLSCALE
 40
20.0
  9
$PROXYGRAPHICS
 70
     1
  9
$MEASUREMENT
 70
     1
  9
$CELWEIGHT
370
    -1
  9
$ENDCAPS
280
     0
  9
$JOINSTYLE
280
     0
  9
$LWDISPLAY
290
     1
  9
$INSUNITS
 70
     4
  9
$HYPERLINKBASE
  1

  9
$STYLESHEET
  1

  9
$XEDIT
290
     1
  9
$CEPSNTYPE
380
     0
  9
$PSTYLEMODE
290
     1
  9
$FINGERPRINTGUID
  2
{c429a06a-99b1-46aa-8745-d00860e74537}
  9
$VERSIONGUID
  2
{FAEB1C32-E019-11D5-929B-00C0DF256EC4}
  9
$EXTNAMES
290
     1
  9
$PSVPSCALE
 40
0.0
  9
$OLESTARTUP
290
     0
  0
ENDSEC
  0
SECTION
  2
CLASSES
  0
CLASS
  1
ACDBDICTIONARYWDFLT
  2
AcDbDictionaryWithDefault
  3
ObjectDBX Classes
 90
        0
280
     0
281
     0
  0
CLASS
  1
VISUALSTYLE
  2
AcDbVisualStyle
  3
ObjectDBX Classes
 90
     4095
280
     0
281
     0
  0
CLASS
  1
MATERIAL
  2
AcDbMaterial
  3
ObjectDBX Classes
 90
     1153
280
     0
281
     0
  0
CLASS
  1
SCALE
  2
AcDbScale
  3
ObjectDBX Classes
 90
     1153
280
     0
281
     0
  0
CLASS
  1
TABLESTYLE
  2
AcDbTableStyle
  3
ObjectDBX Classes
 90
     4095
280
     0
281
     0
  0
CLASS
  1
MLEADERSTYLE
  2
AcDbMLeaderStyle
  3
ACDB_MLEADERSTYLE_CLASS
 90
     4095
280
     0
281
     0
  0
CLASS
  1
SUN
  2
AcDbSun
  3
SCENEOE
 90
     1153
280
     0
281
     0
  0
CLASS
  1
ACDBPLACEHOLDER
  2
AcDbPlaceHolder
  3
ObjectDBX Classes
 90
        0
280
     0
281
     0
  0
CLASS
  1
LAYOUT
  2
AcDbLayout
  3
ObjectDBX Classes
 90
        0
280
     0
281
     0
  0
ENDSEC
  0
SECTION
  2
TABLES
  0
TABLE
  2
VPORT
  5
8
330
0
100
AcDbSymbolTable
 70
     1
  0
VPORT
  5
29
330
8
100
AcDbSymbolTableRecord
100
AcDbViewportTableRecord
  2
*Active
 70
     0
 10
0.0
 20
0.0
 11
1.0
 21
1.0
 12
6734.3738069002
 22
4765.5135557784
 13
0.0
 23
0.0
 14
10.0
 24
10.0
 15
10.0
 25
10.0
 16
0.0
 26
0.0
 36
1.0
 17
0.0
 27
0.0
 37
0.0
 40
1281.4992335811
 41
1.0539543722
 42
50.0
 43
0.0
 44
0.0
 50
0.0
 51
0.0
 71
     0
 72
   100
 73
     1
 74
     3
 75
     0
 76
     0
 77
     0
 78
     0
281
     0
 65
     1
110
0.0
120
0.0
130
0.0
111
1.0
121
0.0
131
0.0
112
0.0
122
1.0
132
0.0
 79
     0
146
0.0
  0
ENDTAB
  0
TABLE
  2
LTYPE
  5
5
330
0
100
AcDbSymbolTable
 70
     6
  0
LTYPE
  5
14
330
5
100
AcDbSymbolTableRecord
100
AcDbLinetypeTableRecord
  2
ByBlock
 70
     0
  3

 72
    65
 73
     0
 40
0.0
  0
LTYPE
  5
15
330
5
100
AcDbSymbolTableRecord
100
AcDbLinetypeTableRecord
  2
ByLayer
 70
     0
  3

 72
    65
 73
     0
 40
0.0
  0
LTYPE
  5
16
330
5
100
AcDbSymbolTableRecord
100
AcDbLinetypeTableRecord
  2
Continuous
 70
     0
  3
Solid line
 72
    65
 73
     0
 40
0.0
  0
LTYPE
  5
6E
330
5
100
AcDbSymbolTableRecord
100
AcDbLinetypeTableRecord
  2
HIDDEN
 70
     0
  3
Hidden __ __ __ __ __ __ __ __ __ __ __ __ __ __
 72
    65
 73
     2
 40
1.905
 49
1.27
 74
     0
 49
-0.635
 74
     0
  0
LTYPE
  5
6F
330
5
100
AcDbSymbolTableRecord
100
AcDbLinetypeTableRecord
  2
PHANTOM
 70
     0
  3
Phantom ______  __  __  ______  __  __  ______
 72
    65
 73
     6
 40
12.7
 49
6.35
 74
     0
 49
-1.27
 74
     0
 49
1.27
 74
     0
 49
-1.27
 74
     0
 49
1.27
 74
     0
 49
-1.27
 74
     0
  0
LTYPE
  5
70
330
5
100
AcDbSymbolTableRecord
100
AcDbLinetypeTableRecord
  2
CENTER
 70
     0
  3
Center ____ _ ____ _ ____ _ ____ _ ____ _ ____
 72
    65
 73
     4
 40
10.16
 49
6.35
 74
     0
 49
-1.27
 74
     0
 49
1.27
 74
     0
 49
-1.27
 74
     0
  0
LTYPE
  5
71
330
5
100
AcDbSymbolTableRecord
100
AcDbLinetypeTableRecord
  2
CENTERX2
 70
     0
  3
Center (2x) ________  __  ________  __  _____
 72
    65
 73
     4
 40
20.32
 49
12.7
 74
     0
 49
-2.54
 74
     0
 49
2.54
 74
     0
 49
-2.54
 74
     0
  0
LTYPE
  5
72
330
5
100
AcDbSymbolTableRecord
100
AcDbLinetypeTableRecord
  2
DOT2
 70
     0
  3
Dot (.5x) ........................................
 72
    65
 73
     2
 40
0.635
 49
0.0
 74
     0
 49
-0.635
 74
     0
  0
ENDTAB
  0
TABLE
  2
LAYER
  5
2
330
0
100
AcDbSymbolTable
 70
     1
  0
LAYER
  5
10
330
2
100
AcDbSymbolTableRecord
100
AcDbLayerTableRecord
  2
0
 70
     0
 62
     7
  6
Continuous
370
    -3
390
F
  0
ENDTAB
  0
TABLE
  2
STYLE
  5
3
330
0
100
AcDbSymbolTable
 70
     1
  0
STYLE
  5
11
330
3
100
AcDbSymbolTableRecord
100
AcDbTextStyleTableRecord
  2
Standard
 70
     0
 40
0.0
 41
1.0
 50
0.0
 71
     0
 42
3.5
  3
txt
  4

  0
ENDTAB
  0
TABLE
  2
VIEW
  5
6
330
0
100
AcDbSymbolTable
 70
     0
  0
ENDTAB
  0
TABLE
  2
UCS
  5
7
330
0
100
AcDbSymbolTable
 70
     0
  0
ENDTAB
  0
TABLE
  2
APPID
  5
9
330
0
100
AcDbSymbolTable
 70
     1
  0
APPID
  5
12
330
9
100
AcDbSymbolTableRecord
100
AcDbRegAppTableRecord
  2
ACAD
 70
     0
  0
ENDTAB
  0
TABLE
  2
DIMSTYLE
  5
A
330
0
100
AcDbSymbolTable
 70
     1
100
AcDbDimStyleTable
  0
DIMSTYLE
105
27
330
A
100
AcDbSymbolTableRecord
100
AcDbDimStyleTableRecord
  2
ISO-25
 70
     0
 41
2.5
 42
0.625
 43
3.75
 44
1.25
 73
     0
 74
     0
 77
     1
 78
     8
140
2.5
141
2.5
143
0.0393700787
147
0.625
171
     3
172
     1
178
     0
271
     2
272
     2
274
     3
278
    44
283
     0
284
     8
340
11
  0
ENDTAB
  0
TABLE
  2
BLOCK_RECORD
  5
1
330
0
100
AcDbSymbolTable
 70
     1
  0
BLOCK_RECORD
  5
1F
330
1
100
AcDbSymbolTableRecord
100
AcDbBlockTableRecord
  2
*Model_Space
340
22
  0
BLOCK_RECORD
  5
1B
330
1
100
AcDbSymbolTableRecord
100
AcDbBlockTableRecord
  2
*Paper_Space
340
1E
  0
BLOCK_RECORD
  5
23
330
1
100
AcDbSymbolTableRecord
100
AcDbBlockTableRecord
  2
*Paper_Space0
340
26
  0
ENDTAB
  0
ENDSEC
  0
SECTION
  2
BLOCKS
  0
BLOCK
  5
20
330
1F
100
AcDbEntity
  8
0
100
AcDbBlockBegin
  2
*Model_Space
 70
     0
 10
0.0
 20
0.0
 30
0.0
  3
*Model_Space
  1

  0
ENDBLK
  5
21
330
1F
100
AcDbEntity
  8
0
100
AcDbBlockEnd
  0
BLOCK
  5
1C
330
1B
100
AcDbEntity
 67
     1
  8
0
100
AcDbBlockBegin
  2
*Paper_Space
 70
     0
 10
0.0
 20
0.0
 30
0.0
  3
*Paper_Space
  1

  0
ENDBLK
  5
1D
330
1B
100
AcDbEntity
 67
     1
  8
0
100
AcDbBlockEnd
  0
BLOCK
  5
24
330
23
100
AcDbEntity
  8
0
100
AcDbBlockBegin
  2
*Paper_Space0
 70
     0
 10
0.0
 20
0.0
 30
0.0
  3
*Paper_Space0
  1

  0
ENDBLK
  5
25
330
23
100
AcDbEntity
  8
0
100
AcDbBlockEnd
  0
ENDSEC
  0
SECTION
  2
ENTITIES
  0
ARC
  5
73
330
1F
100
AcDbEntity
  8
0
  6
Continuous
 62
     7
100
AcDbCircle
 10
6366.5346035884
 20
5167.1724079525
 30
0.0
 40
4.87500000000061
100
AcDbArc
 50
7.3008611752
 51
51.6752647567
  0
ARC
  5
74
330
1F
100
AcDbEntity
  8
0
  6
Continuous
 62
     7
100
AcDbCircle
 10
6366.5346211389
 20
5167.1723596843
 30
0.0
 40
4.875000000000115
100
AcDbArc
 50
276.9145435314
 51
321.6166188446
  0
ARC
  5
75
330
1F
100
AcDbEntity
  8
0
  6
Continuous
 62
     7
100
AcDbCircle
 10
6366.534424896
 20
5167.1716693525
 30
0.0
 40
4.874999999999344
100
AcDbArc
 50
335.4544441159
 51
353.1538961272
  0
ARC
  5
76
330
1F
100
AcDbEntity
  8
0
  6
Continuous
 62
     7
100
AcDbCircle
 10
6104.2805433488
 20
5282.7422861284
 30
0.0
 40
4.874999999999618
100
AcDbArc
 50
225.1312511814
 51
263.0842609634
  0
ARC
  5
77
330
1F
100
AcDbEntity
  8
0
  6
Continuous
 62
     7
100
AcDbCircle
 10
6104.2805349169
 20
5282.7424059261
 30
0.0
 40
4.875000000000055
100
AcDbArc
 50
128.3258588031
 51
166.2198311365
  0
ARC
  5
78
330
1F
100
AcDbEntity
  8
0
  6
Continuous
 62
     7
100
AcDbCircle
 10
6104.2805349169
 20
5282.7424059261
 30
0.0
 40
4.874993891730728
100
AcDbArc
 50
186.8554336281
 51
204.5549928917
  0
ARC
  5
79
330
1F
100
AcDbEntity
  8
0
  6
Continuous
 62
     7
100
AcDbCircle
 10
6420.6688561757
 20
5359.7066389408
 30
0.0
 40
4.874999999998827
100
AcDbArc
 50
16.4856081112
 51
51.6770940956
  0
ARC
  5
7A
330
1F
100
AcDbEntity
  8
0
  6
Continuous
 62
     7
100
AcDbCircle
 10
6420.6688351991
 20
5359.7067280163
 30
0.0
 40
4.875000000000242
100
AcDbArc
 50
276.9163766552
 51
312.0584980911
  0
ARC
  5
7B
330
1F
100
AcDbEntity
  8
0
  6
Continuous
 62
     7
100
AcDbCircle
 10
6420.6688788719
 20
5359.7067646729
 30
0.0
 40
4.874999999998048
100
AcDbArc
 50
335.445293301
 51
353.145512716
  0
ARC
  5
7C
330
1F
100
AcDbEntity
  8
0
  6
Continuous
 62
     7
100
AcDbCircle
 10
6399.0151498721
 20
5282.6929507091
 30
0.0
 40
4.875000000000298
100
AcDbArc
 50
16.5602340076
 51
51.6762834359
  0
ARC
  5
7D
330
1F
100
AcDbEntity
  8
0
  6
Continuous
 62
     7
100
AcDbCircle
 10
6399.015090607
 20
5282.6929261995
 30
0.0
 40
4.875000000000699
100
AcDbArc
 50
276.9174706035
 51
311.9807190326
  0
ARC
  5
7E
330
1F
100
AcDbEntity
  8
0
  6
Continuous
 62
     7
100
AcDbCircle
 10
6399.0152364047
 20
5282.6930549536
 30
0.0
 40
4.874999999999509
100
AcDbArc
 50
335.4450182858
 51
353.1445551943
  0
ARC
  5
7F
330
1F
100
AcDbEntity
  8
0
  6
Continuous
 62
     7
100
AcDbCircle
 10
6082.6267996251
 20
5359.7560979396
 30
0.0
 40
4.874999999998725
100
AcDbArc
 50
227.9265656386
 51
263.0853098099
  0
ARC
  5
80
330
1F
100
AcDbEntity
  8
0
  6
Continuous
 62
     7
100
AcDbCircle
 10
6082.6268316162
 20
5359.756109312
 30
0.0
 40
4.874999999999594
100
AcDbArc
 50
128.3251371665
 51
163.4316127035
  0
ARC
  5
81
330
1F
100
AcDbEntity
  8
0
  6
Continuous
 62
     7
100
AcDbCircle
 10
6082.6268984009
 20
5359.7561173188
 30
0.0
 40
4.875000000000081
100
AcDbArc
 50
186.8544872841
 51
204.554706699
  0
ARC
  5
82
330
1F
100
AcDbEntity
  8
0
  6
Continuous
 62
     7
100
AcDbCircle
 10
6136.7610446891
 20
5167.2216969303
 30
0.0
 40
4.875000000000512
100
AcDbArc
 50
217.5069509581
 51
263.0839532118
  0
ARC
  5
83
330
1F
100
AcDbEntity
  8
0
  6
Continuous
 62
     7
100
AcDbCircle
 10
6136.7610366624
 20
5167.2216522928
 30
0.0
 40
4.875000000000035
100
AcDbArc
 50
128.3226825002
 51
173.9794707242
  0
ARC
  5
84
330
1F
100
AcDbEntity
  8
0
  6
Continuous
 62
     7
100
AcDbCircle
 10
6136.7610288788
 20
5167.2217302071
 30
0.0
 40
4.875000000000458
100
AcDbArc
 50
186.8544872841
 51
204.554706699
  0
ARC
  5
85
330
1F
100
AcDbEntity
  8
0
  6
Continuous
 62
     7
100
AcDbCircle
 10
6428.9853105649
 20
5391.6997630766
 30
0.0
 40
1.999687920368536
100
AcDbArc
 50
345.9515543697
 51
89.9764878065
  0
ARC
  5
86
330
1F
100
AcDbEntity
  8
0
  6
Continuous
 62
     7
100
AcDbCircle
 10
6074.3241848976
 20
5391.6996628637
 30
0.0
 40
1.999788091116615
100
AcDbArc
 50
90.0203568984
 51
194.0447678001
  0
ARC
  5
87
330
1F
100
AcDbEntity
  8
0
  6
Continuous
 62
     7
100
AcDbCircle
 10
6429.0148730482
 20
5391.6994545927
 30
0.0
 40
2.000000000001109
100
AcDbArc
 50
344.2950567764
 51
89.9997799414
  0
ARC
  5
88
330
1F
100
AcDbEntity
  8
0
  6
Continuous
 62
     7
100
AcDbCircle
 10
6074.2947325016
 20
5391.6994545944
 30
0.0
 40
2.000000000001164
100
AcDbArc
 50
90.0023944453
 51
195.7049432751
  0
ARC
  5
89
330
1F
100
AcDbEntity
  8
0
  6
Continuous
 62
     7
100
AcDbCircle
 10
6367.7738140557
 20
5167.3233928657
 30
0.0
 40
3.626456530642443
100
AcDbArc
 50
8.7591034672
 51
12.3220343613
  0
ARC
  5
8A
330
1F
100
AcDbEntity
  8
0
  6
Continuous
 62
     7
100
AcDbCircle
 10
6366.620313648
 20
5166.951742119
 30
0.0
 40
4.635950763504011
100
AcDbArc
 50
5.8824137065
 51
9.0187003886
  0
ARC
  5
8B
330
1F
100
AcDbEntity
  8
0
  6
Continuous
 62
     7
100
AcDbCircle
 10
6372.500751693
 20
5173.914203373
 30
0.0
 40
7.202076295416258
100
AcDbArc
 50
257.7563117758
 51
258.5508999577
  0
ARC
  5
8C
330
1F
100
AcDbEntity
  8
0
  6
Continuous
 62
     7
100
AcDbCircle
 10
6369.2091104303
 20
5164.5960211632
 30
0.0
 40
1.836421633707272
100
AcDbArc
 50
34.2740359175
 51
38.224938824
  0
ARC
  5
8D
330
1F
100
AcDbEntity
  8
0
  6
Continuous
 62
     7
100
AcDbCircle
 10
6367.5423182302
 20
5167.4143817096
 30
0.0
 40
3.878375569580108
100
AcDbArc
 50
317.0673706992
 51
320.4886320267
  0
ARC
  5
8E
330
1F
100
AcDbEntity
  8
0
  6
Continuous
 62
     7
100
AcDbCircle
 10
6368.4775487948
 20
5166.1010709178
 30
0.0
 40
2.66605271859693
100
AcDbArc
 50
309.637008898
 51
313.5992986805
  0
ARC
  5
8F
330
1F
100
AcDbEntity
  8
0
  6
Continuous
 62
     7
100
AcDbCircle
 10
6366.699193764
 20
5167.336094042
 30
0.0
 40
4.666870432256868
100
AcDbArc
 50
319.5719696828
 51
322.6880967306
  0
ARC
  5
90
330
1F
100
AcDbEntity
  8
0
  6
Continuous
 62
     7
100
AcDbCircle
 10
6103.8701265564
 20
5282.301324498
 30
0.0
 40
4.272583619244067
100
AcDbArc
 50
218.510844914
 51
221.745692864
  0
ARC
  5
91
330
1F
100
AcDbEntity
  8
0
  6
Continuous
 62
     7
100
AcDbCircle
 10
6104.345019028
 20
5282.8265291157
 30
0.0
 40
4.869183889250351
100
AcDbArc
 50
216.9623672864
 51
219.992704967
  0
ARC
  5
92
330
1F
100
AcDbEntity
  8
0
  6
Continuous
 62
     7
100
AcDbCircle
 10
6100.442017682
 20
5282.7631881096
 30
0.0
 40
2.377217438750092
100
AcDbArc
 50
266.9754383682
 51
269.4937477271
  0
ARC
  5
93
330
1F
100
AcDbEntity
  8
0
  6
Continuous
 62
     7
100
AcDbCircle
 10
6101.1502435937
 20
5283.2334408029
 30
0.0
 40
2.032373207493401
100
AcDbArc
 50
235.0145777467
 51
239.2644610446
  0
ARC
  5
94
330
1F
100
AcDbEntity
  8
0
  6
Continuous
 62
     7
100
AcDbCircle
 10
6103.0767662277
 20
5281.6850547952
 30
0.0
 40
3.347550306070547
100
AcDbArc
 50
166.0246170074
 51
169.6693593943
  0
ARC
  5
95
330
1F
100
AcDbEntity
  8
0
  6
Continuous
 62
     7
100
AcDbCircle
 10
6101.6404868062
 20
5282.3958908643
 30
0.0
 40
2.266170160382457
100
AcDbArc
 50
155.0054301859
 51
159.0362623165
  0
ARC
  5
96
330
1F
100
AcDbEntity
  8
0
  6
Continuous
 62
     7
100
AcDbCircle
 10
6103.8361345701
 20
5282.8855283748
 30
0.0
 40
4.409610169881454
100
AcDbArc
 50
169.732292151
 51
172.8658316237
  0
ARC
  5
97
330
1F
100
AcDbEntity
  8
0
  6
Continuous
 62
     7
100
AcDbCircle
 10
6102.608159952
 20
5282.9312420386
 30
0.0
 40
3.220104453807468
100
AcDbArc
 50
221.7101888085
 51
225.499873225
  0
ARC
  5
98
330
1F
100
AcDbEntity
  8
0
  6
Continuous
 62
     7
100
AcDbCircle
 10
6421.2294694656
 20
5359.8935387086
 30
0.0
 40
4.261380219475329
100
AcDbArc
 50
5.8387964918
 51
9.2361524115
  0
ARC
  5
99
330
1F
100
AcDbEntity
  8
0
  6
Continuous
 62
     7
100
AcDbCircle
 10
6423.8628248392
 20
5359.0710697533
 30
0.0
 40
1.761801777356638
100
AcDbArc
 50
31.0956316145
 51
35.396103501
  0
ARC
  5
9A
330
1F
100
AcDbEntity
  8
0
  6
Continuous
 62
     7
100
AcDbCircle
 10
6422.5315221361
 20
5358.2840816861
 30
0.0
 40
2.623990146643441
100
AcDbArc
 50
14.198750903
 51
18.3100478385
  0
ARC
  5
9B
330
1F
100
AcDbEntity
  8
0
  6
Continuous
 62
     7
100
AcDbCircle
 10
6423.1603547878
 20
5360.0669188528
 30
0.0
 40
2.534676136158109
100
AcDbArc
 50
308.3623895008
 51
312.3958555346
  0
ARC
  5
9C
330
1F
100
AcDbEntity
  8
0
  6
Continuous
 62
     7
100
AcDbCircle
 10
6423.9033178736
 20
5358.7013211457
 30
0.0
 40
1.729535215449573
100
AcDbArc
 50
288.3091608379
 51
292.3872268213
  0
ARC
  5
9D
330
1F
100
AcDbEntity
  8
0
  6
Continuous
 62
     7
100
AcDbCircle
 10
6420.7860699973
 20
5359.4902375504
 30
0.0
 40
4.59869099572138
100
AcDbArc
 50
319.7090377984
 51
322.8877144435
  0
ARC
  5
9E
330
1F
100
AcDbEntity
  8
0
  6
Continuous
 62
     7
100
AcDbCircle
 10
6398.831060534
 20
5282.7708578904
 30
0.0
 40
5.001027101411342
100
AcDbArc
 50
5.8514861014
 51
8.7709412526
  0
ARC
  5
9F
330
1F
100
AcDbEntity
  8
0
  6
Continuous
 62
     7
100
AcDbCircle
 10
6402.3129124187
 20
5281.918219776
 30
0.0
 40
1.699135512949358
100
AcDbArc
 50
35.3246491436
 51
39.5321156173
  0
ARC
  5
A0
330
1F
100
AcDbEntity
  8
0
  6
Continuous
 62
     7
100
AcDbCircle
 10
6400.8554785181
 20
5281.0896923084
 30
0.0
 40
2.639420442521021
100
AcDbArc
 50
15.9279119599
 51
19.8387942115
  0
ARC
  5
A1
330
1F
100
AcDbEntity
  8
0
  6
Continuous
 62
     7
100
AcDbCircle
 10
6401.292737104
 20
5283.0461672748
 30
0.0
 40
2.729797703105973
100
AcDbArc
 50
310.0382359304
 51
313.957941445
  0
ARC
  5
A2
330
1F
100
AcDbEntity
  8
0
  6
Continuous
 62
     7
100
AcDbCircle
 10
6402.1317592128
 20
5281.5238290904
 30
0.0
 40
1.683078685835321
100
AcDbArc
 50
292.306037908
 51
296.7590905471
  0
ARC
  5
A3
330
1F
100
AcDbEntity
  8
0
  6
Continuous
 62
     7
100
AcDbCircle
 10
6398.9689950823
 20
5282.5902988103
 30
0.0
 40
4.810604544773432
100
AcDbArc
 50
319.5795456476
 51
322.595234364
  0
ARC
  5
A4
330
1F
100
AcDbEntity
  8
0
  6
Continuous
 62
     7
100
AcDbCircle
 10
6082.6666874921
 20
5359.6643114475
 30
0.0
 40
4.800022716112093
100
AcDbArc
 50
217.1876146438
 51
220.2323776706
  0
ARC
  5
A5
330
1F
100
AcDbEntity
  8
0
  6
Continuous
 62
     7
100
AcDbCircle
 10
6079.4191271573
 20
5358.8021999332
 30
0.0
 40
1.790316456205176
100
AcDbArc
 50
247.5157188713
 51
251.4755834327
  0
ARC
  5
A6
330
1F
100
AcDbEntity
  8
0
  6
Continuous
 62
     7
100
AcDbCircle
 10
6080.2743061333
 20
5360.2677937058
 30
0.0
 40
2.74315861601077
100
AcDbArc
 50
227.6854760547
 51
231.4225362411
  0
ARC
  5
A7
330
1F
100
AcDbEntity
  8
0
  6
Continuous
 62
     7
100
AcDbCircle
 10
6080.8244171063
 20
5358.3054153423
 30
0.0
 40
2.686829352483135
100
AcDbArc
 50
161.6271852376
 51
165.632731059
  0
ARC
  5
A8
330
1F
100
AcDbEntity
  8
0
  6
Continuous
 62
     7
100
AcDbCircle
 10
6079.3710560993
 20
5359.1499626297
 30
0.0
 40
1.69127358159202
100
AcDbArc
 50
144.2917325996
 51
148.7591957597
  0
ARC
  5
A9
330
1F
100
AcDbEntity
  8
0
  6
Continuous
 62
     7
100
AcDbCircle
 10
6082.3119812033
 20
5359.9090962541
 30
0.0
 40
4.508833977054209
100
AcDbArc
 50
170.8584966776
 51
174.0700999063
  0
ARC
  5
AA
330
1F
100
AcDbEntity
  8
0
  6
Continuous
 62
     7
100
AcDbCircle
 10
6135.2894170403
 20
5167.3410131095
 30
0.0
 40
3.39791124875991
100
AcDbArc
 50
166.5968626933
 51
170.2660992659
  0
ARC
  5
AB
330
1F
100
AcDbEntity
  8
0
  6
Continuous
 62
     7
100
AcDbCircle
 10
6136.5750352998
 20
5167.5051762115
 30
0.0
 40
4.689362539806175
100
AcDbArc
 50
217.6155935416
 51
220.6753312302
  0
ARC
  5
AC
330
1F
100
AcDbEntity
  8
0
  6
Continuous
 62
     7
100
AcDbCircle
 10
6135.0684300417
 20
5166.2313228756
 30
0.0
 40
2.919712668319172
100
AcDbArc
 50
224.6318162815
 51
228.4483941973
  0
ARC
  5
AD
330
1F
100
AcDbEntity
  8
0
  6
Continuous
 62
     7
100
AcDbCircle
 10
6136.1245023459
 20
5167.577264698
 30
0.0
 40
4.281902961355894
100
AcDbArc
 50
218.8778392606
 51
222.0633106721
  0
ARC
  5
AE
330
1F
100
AcDbEntity
  8
0
  6
Continuous
 62
     7
100
AcDbCircle
 10
6134.0434861825
 20
5164.334095588
 30
0.0
 40
1.886263823513148
100
AcDbArc
 50
136.1438643767
 51
139.7222325249
  0
ARC
  5
AF
330
1F
100
AcDbEntity
  8
0
  6
Continuous
 62
     7
100
AcDbCircle
 10
6132.1506156493
 20
5169.9723627144
 30
0.0
 40
3.185341077885185
100
AcDbArc
 50
271.9147062541
 51
273.7568135482
  0
ARC
  5
B0
330
1F
100
AcDbEntity
  8
0
  6
Continuous
 62
     7
100
AcDbCircle
 10
6136.491841291
 20
5166.9196611415
 30
0.0
 40
4.428635772749852
100
AcDbArc
 50
170.6645822005
 51
173.9045938348
  0
ARC
  5
B1
330
1F
100
AcDbEntity
  8
0
  6
Continuous
 62
     7
100
AcDbCircle
 10
7394.4530815254
 20
5391.6994508289
 30
0.0
 40
1.99999999991651
100
AcDbArc
 50
345.96376031
 51
89.9991891987
  0
ARC
  5
B2
330
1F
100
AcDbEntity
  8
0
  6
Continuous
 62
     7
100
AcDbCircle
 10
7204.1007162326
 20
5391.9387361465
 30
0.0
 40
19.15744379134813
100
AcDbArc
 50
357.8330138824
 51
5.2733594515
  0
ARC
  5
B3
330
1F
100
AcDbEntity
  8
0
  6
Continuous
 62
     7
100
AcDbCircle
 10
7266.1640137939
 20
5084.6523333125
 30
0.0
 40
36.8025817481215
100
AcDbArc
 50
282.9960955122
 51
331.6989538976
  0
ARC
  5
B4
330
1F
100
AcDbEntity
  8
0
  6
Continuous
 62
     7
100
AcDbCircle
 10
7268.798004348
 20
5082.4326971439
 30
0.0
 40
35.64457848134191
100
AcDbArc
 50
280.3781191717
 51
329.535912328
  0
ARC
  5
B5
330
1F
100
AcDbEntity
  8
0
  6
Continuous
 62
     7
100
AcDbCircle
 10
6883.7995140261
 20
5293.2274262988
 30
0.0
 40
14.75025304306385
100
AcDbArc
 50
294.2110474364
 51
295.0756032842
  0
ARC
  5
B6
330
1F
100
AcDbEntity
  8
0
  6
Continuous
 62
     7
100
AcDbCircle
 10
6910.5701920425
 20
5289.2433349978
 30
0.0
 40
22.0011661103072
100
AcDbArc
 50
205.8775081275
 51
206.412511542
  0
ARC
  5
B7
330
1F
100
AcDbEntity
  8
0
  6
Continuous
 62
     7
100
AcDbCircle
 10
6892.9026588017
 20
5293.869482506
 30
0.0
 40
13.48357310201636
100
AcDbArc
 50
268.7164693371
 51
269.7169609506
  0
ARC
  5
B8
330
1F
100
AcDbEntity
  8
0
  6
Continuous
 62
     7
100
AcDbCircle
 10
6898.2128604691
 20
5294.5814487939
 30
0.0
 40
14.01893071778649
100
AcDbArc
 50
248.1641315137
 51
249.0810647129
  0
ARC
  5
B9
330
1F
100
AcDbEntity
  8
0
  6
Continuous
 62
     7
100
AcDbCircle
 10
6870.0850964927
 20
5298.2811204925
 30
0.0
 40
27.81470103840551
100
AcDbArc
 50
324.8945982536
 51
325.4170125051
  0
ARC
  5
BA
330
1F
100
AcDbEntity
  8
0
  6
Continuous
 62
     7
100
AcDbCircle
 10
6881.3920531185
 20
5298.0133891498
 30
0.0
 40
18.2019188639598
100
AcDbArc
 50
305.5636993173
 51
306.3503950752
  0
ARC
  5
BB
330
1F
100
AcDbEntity
  8
0
  6
Continuous
 62
     7
100
AcDbCircle
 10
6930.440294999
 20
5298.4541971189
 30
0.0
 40
41.9664232486488
100
AcDbArc
 50
200.6249722378
 51
200.9730845809
  0
ARC
  5
BC
330
1F
100
AcDbEntity
  8
0
  6
Continuous
 62
     7
100
AcDbCircle
 10
6892.9352335982
 20
5297.6248390171
 30
0.0
 40
15.34604698810118
100
AcDbArc
 50
255.8866786334
 51
256.7912517483
  0
ARC
  5
BD
330
1F
100
AcDbEntity
  8
0
  6
Continuous
 62
     7
100
AcDbCircle
 10
6898.2806958107
 20
5295.9728757951
 30
0.0
 40
17.17146055459967
100
AcDbArc
 50
236.5748637685
 51
237.4061349099
  0
ARC
  5
BE
330
1F
100
AcDbEntity
  8
0
  6
Continuous
 62
     7
100
AcDbCircle
 10
6877.2909586179
 20
5291.823638755
 30
0.0
 40
16.22763079751967
100
AcDbArc
 50
316.4085739464
 51
317.1556514288
  0
ARC
  5
BF
330
1F
100
AcDbEntity
  8
0
  6
Continuous
 62
     7
100
AcDbCircle
 10
6891.014651981
 20
5282.234831192
 30
0.0
 40
0.7500052452005548
100
AcDbArc
 50
0.0
 51
180.0
  0
ARC
  5
C0
330
1F
100
AcDbEntity
  8
0
  6
Continuous
 62
     7
100
AcDbCircle
 10
6893.2038719125
 20
5282.6894352608
 30
0.0
 40
0.4674950789947755
100
AcDbArc
 50
141.0743877191
 51
179.9853215628
  0
ARC
  5
C1
330
1F
100
AcDbEntity
  8
0
  6
Continuous
 62
     7
100
AcDbCircle
 10
6888.81427441
 20
5281.7765676839
 30
0.0
 40
0.4786657911372294
100
AcDbArc
 50
0.4236989123
 51
63.1101862358
  0
ARC
  5
C2
330
1F
100
AcDbEntity
  8
0
  6
Continuous
 62
     7
100
AcDbCircle
 10
6892.9198716397
 20
5281.6688235047
 30
0.0
 40
0.6176727706266899
100
AcDbArc
 50
262.2006450852
 51
324.9926293299
  0
ARC
  5
C3
330
1F
100
AcDbEntity
  8
0
  6
Continuous
 62
     7
100
AcDbCircle
 10
6892.5279096924
 20
5280.5989412451
 30
0.0
 40
0.4934705222151417
100
AcDbArc
 50
81.5260624247
 51
178.7218111076
  0
ARC
  5
C4
330
1F
100
AcDbEntity
  8
0
  6
Continuous
 62
     7
100
AcDbCircle
 10
6889.5285696356
 20
5280.9801075845
 30
0.0
 40
0.6231672380164213
100
AcDbArc
 50
216.026622826
 51
300.8983706296
  0
ARC
  5
C5
330
1F
100
AcDbEntity
  8
0
  6
Continuous
 62
     7
100
AcDbCircle
 10
6890.3122442817
 20
5280.1298096723
 30
0.0
 40
0.5078055874170183
100
AcDbArc
 50
24.2887682165
 51
120.9776769062
  0
ARC
  5
C6
330
1F
100
AcDbEntity
  8
0
  6
Continuous
 62
     7
100
AcDbCircle
 10
6891.4291315667
 20
5280.3762326259
 30
0.0
 40
0.6160288629721278
100
AcDbArc
 50
203.8312024132
 51
349.3565277934
  0
ARC
  5
C7
330
1F
100
AcDbEntity
  8
0
  6
Continuous
 62
     7
100
AcDbCircle
 10
6891.014651981
 20
5282.2385941548
 30
0.0
 40
4.501923775615637
100
AcDbArc
 50
1.6743365689
 51
178.3256634311
  0
ARC
  5
C8
330
1F
100
AcDbEntity
  8
0
  6
Continuous
 62
     7
100
AcDbCircle
 10
6903.8006703328
 20
5375.1128059282
 30
0.0
 40
21.94211472998943
100
AcDbArc
 50
227.1268917924
 51
227.7836041068
  0
ARC
  5
C9
330
1F
100
AcDbEntity
  8
0
  6
Continuous
 62
     7
100
AcDbCircle
 10
6880.206788781
 20
5370.3321229055
 30
0.0
 40
15.08731113531604
100
AcDbArc
 50
305.1976200972
 51
306.0210131979
  0
ARC
  5
CA
330
1F
100
AcDbEntity
  8
0
  6
Continuous
 62
     7
100
AcDbCircle
 10
6886.4771337604
 20
5369.5737858642
 30
0.0
 40
12.92212876424922
100
AcDbArc
 50
283.6852206761
 51
284.6974725426
  0
ARC
  5
CB
330
1F
100
AcDbEntity
  8
0
  6
Continuous
 62
     7
100
AcDbCircle
 10
6927.7668982472
 20
5366.0677264264
 30
0.0
 40
38.49151591403467
100
AcDbArc
 50
194.0446408917
 51
194.3464671479
  0
ARC
  5
CC
330
1F
100
AcDbEntity
  8
0
  6
Continuous
 62
     7
100
AcDbCircle
 10
6836.7816383087
 20
5366.6052234227
 30
0.0
 40
55.80639254323144
100
AcDbArc
 50
349.6343690144
 51
349.8420221879
  0
ARC
  5
CD
330
1F
100
AcDbEntity
  8
0
  6
Continuous
 62
     7
100
AcDbCircle
 10
6895.1024294915
 20
5370.8327341371
 30
0.0
 40
13.95659044142446
100
AcDbArc
 50
258.6732487058
 51
259.6179179161
  0
ARC
  5
CE
330
1F
100
AcDbEntity
  8
0
  6
Continuous
 62
     7
100
AcDbCircle
 10
6900.6489191164
 20
5370.2906250653
 30
0.0
 40
14.28862657639916
100
AcDbArc
 50
237.5028606118
 51
238.3795798284
  0
ARC
  5
CF
330
1F
100
AcDbEntity
  8
0
  6
Continuous
 62
     7
100
AcDbCircle
 10
6878.1365247451
 20
5373.6396492895
 30
0.0
 40
20.84643416192127
100
AcDbArc
 50
315.2835173635
 51
315.9763114827
  0
ARC
  5
D0
330
1F
100
AcDbEntity
  8
0
  6
Continuous
 62
     7
100
AcDbCircle
 10
6885.0429621613
 20
5374.857261152
 30
0.0
 40
16.49895679703715
100
AcDbArc
 50
295.9922438892
 51
296.8504995518
  0
ARC
  5
D1
330
1F
100
AcDbEntity
  8
0
  6
Continuous
 62
     7
100
AcDbCircle
 10
6973.270402303
 20
5376.7151424744
 30
0.0
 40
83.28577294061836
100
AcDbArc
 50
191.138821642
 51
191.3145259478
  0
ARC
  5
D2
330
1F
100
AcDbEntity
  8
0
  6
Continuous
 62
     7
100
AcDbCircle
 10
6786.5412108857
 20
5375.2454556711
 30
0.0
 40
104.8400114773722
100
AcDbArc
 50
351.8255724844
 51
351.9652456126
  0
ARC
  5
D3
330
1F
100
AcDbEntity
  8
0
  6
Continuous
 62
     7
100
AcDbCircle
 10
6896.4090213808
 20
5375.9158822021
 30
0.0
 40
17.32734407633336
100
AcDbArc
 50
246.291619066
 51
247.105267366
  0
ARC
  5
D4
330
1F
100
AcDbEntity
  8
0
  6
Continuous
 62
     7
100
AcDbCircle
 10
6891.0165707335
 20
5359.2278772712
 30
0.0
 40
0.7483724117082686
100
AcDbArc
 50
1.5838501765
 51
121.928643392
  0
ARC
  5
D5
330
1F
100
AcDbEntity
  8
0
  6
Continuous
 62
     7
100
AcDbCircle
 10
6890.9798896799
 20
5359.2444532698
 30
0.0
 40
0.7152547464768603
100
AcDbArc
 50
120.1367893012
 51
179.6708510405
  0
ARC
  5
D6
330
1F
100
AcDbEntity
  8
0
  6
Continuous
 62
     7
100
AcDbCircle
 10
6893.2585001147
 20
5359.3107446769
 30
0.0
 40
0.4734598558192799
100
AcDbArc
 50
130.6708605357
 51
179.7709770225
  0
ARC
  5
D7
330
1F
100
AcDbEntity
  8
0
  6
Continuous
 62
     7
100
AcDbCircle
 10
6888.7706939041
 20
5359.182821245
 30
0.0
 40
0.4735614964444544
100
AcDbArc
 50
0.2015630207
 51
52.793860693
  0
ARC
  5
D8
330
1F
100
AcDbEntity
  8
0
  6
Continuous
 62
     7
100
AcDbCircle
 10
6892.7758127134
 20
5358.3685191238
 30
0.0
 40
0.6223272567691465
100
AcDbArc
 50
252.3662916647
 51
324.7204194332
  0
ARC
  5
D9
330
1F
100
AcDbEntity
  8
0
  6
Continuous
 62
     7
100
AcDbCircle
 10
6889.3125676472
 20
5358.2719229504
 30
0.0
 40
0.6234025085293569
100
AcDbArc
 50
215.7437187332
 51
290.8399272083
  0
ARC
  5
DA
330
1F
100
AcDbEntity
  8
0
  6
Continuous
 62
     7
100
AcDbCircle
 10
6892.2053252653
 20
5357.370429327
 30
0.0
 40
0.5002737451198628
100
AcDbArc
 50
71.8335733197
 51
169.5950903455
  0
ARC
  5
DB
330
1F
100
AcDbEntity
  8
0
  6
Continuous
 62
     7
100
AcDbCircle
 10
6889.9382488446
 20
5357.304187105
 30
0.0
 40
0.502377350317154
100
AcDbArc
 50
13.8540681944
 51
111.3103355806
  0
ARC
  5
DC
330
1F
100
AcDbEntity
  8
0
  6
Continuous
 62
     7
100
AcDbCircle
 10
6891.072821648
 20
5357.3478844617
 30
0.0
 40
0.6149095552997937
100
AcDbArc
 50
193.8291439686
 51
349.4045740777
  0
ARC
  5
DD
330
1F
100
AcDbEntity
  8
0
  6
Continuous
 62
     7
100
AcDbCircle
 10
6891.014651981
 20
5359.2520926651
 30
0.0
 40
4.501932319730267
100
AcDbArc
 50
1.678052481
 51
178.321947519
  0
ARC
  5
DE
330
1F
100
AcDbEntity
  8
0
  6
Continuous
 62
     7
100
AcDbCircle
 10
6887.1560322722
 20
5178.924415673
 30
0.0
 40
12.5944580708719
100
AcDbArc
 50
277.7782294346
 51
278.8314182056
  0
ARC
  5
DF
330
1F
100
AcDbEntity
  8
0
  6
Continuous
 62
     7
100
AcDbCircle
 10
6892.0588245486
 20
5179.6868504932
 30
0.0
 40
14.72299702378188
100
AcDbArc
 50
257.8638231594
 51
258.803297044
  0
ARC
  5
E0
330
1F
100
AcDbEntity
  8
0
  6
Continuous
 62
     7
100
AcDbCircle
 10
6856.9677119334
 20
5174.6625944351
 30
0.0
 40
34.17008960863078
100
AcDbArc
 50
342.6077975092
 51
342.9486994469
  0
ARC
  5
E1
330
1F
100
AcDbEntity
  8
0
  6
Continuous
 62
     7
100
AcDbCircle
 10
6877.8166986101
 20
5175.2253833434
 30
0.0
 40
17.08830466982269
100
AcDbArc
 50
318.7492630035
 51
319.4554622862
  0
ARC
  5
E2
330
1F
100
AcDbEntity
  8
0
  6
Continuous
 62
     7
100
AcDbCircle
 10
6900.7454285337
 20
5175.6030165558
 30
0.0
 40
14.65745204692355
100
AcDbArc
 50
231.1989026583
 51
232.0410091072
  0
ARC
  5
E3
330
1F
100
AcDbEntity
  8
0
  6
Continuous
 62
     7
100
AcDbCircle
 10
6912.416798811
 20
5175.5456564876
 30
0.0
 40
22.48530343087363
100
AcDbArc
 50
208.2883154826
 51
208.8136122587
  0
ARC
  5
E4
330
1F
100
AcDbEntity
  8
0
  6
Continuous
 62
     7
100
AcDbCircle
 10
6887.2159614267
 20
5180.8923336342
 30
0.0
 40
16.37189837783973
100
AcDbArc
 50
290.4632109678
 51
291.3213191916
  0
ARC
  5
E5
330
1F
100
AcDbEntity
  8
0
  6
Continuous
 62
     7
100
AcDbCircle
 10
6892.6481145358
 20
5180.7653814225
 30
0.0
 40
13.97775645306197
100
AcDbArc
 50
270.7429587602
 51
271.7123020347
  0
ARC
  5
E6
330
1F
100
AcDbEntity
  8
0
  6
Continuous
 62
     7
100
AcDbCircle
 10
6824.9230240069
 20
5183.8864831556
 30
0.0
 40
69.45794507175715
100
AcDbArc
 50
346.2607030521
 51
346.4713237397
  0
ARC
  5
E7
330
1F
100
AcDbEntity
  8
0
  6
Continuous
 62
     7
100
AcDbCircle
 10
6891.0179133029
 20
5166.6870491934
 30
0.0
 40
0.7537548242507999
100
AcDbArc
 50
35.7484909222
 51
177.9376123079
  0
ARC
  5
E8
330
1F
100
AcDbEntity
  8
0
  6
Continuous
 62
     7
100
AcDbCircle
 10
6893.0181019934
 20
5166.8988464945
 30
0.0
 40
0.6060831025881895
100
AcDbArc
 50
284.3922125874
 51
326.3920666751
  0
ARC
  5
E9
330
1F
100
AcDbEntity
  8
0
  6
Continuous
 62
     7
100
AcDbCircle
 10
6889.0159942206
 20
5166.574598257
 30
0.0
 40
0.613154598321226
100
AcDbArc
 50
213.1234313335
 51
265.0907715136
  0
ARC
  5
EA
330
1F
100
AcDbEntity
  8
0
  6
Continuous
 62
     7
100
AcDbCircle
 10
6893.0566631877
 20
5165.7807262017
 30
0.0
 40
0.4849419361347345
100
AcDbArc
 50
103.9600304
 51
179.2417113681
  0
ARC
  5
EB
330
1F
100
AcDbEntity
  8
0
  6
Continuous
 62
     7
100
AcDbCircle
 10
6889.1649935295
 20
5165.4559299382
 30
0.0
 40
0.4871435396696373
100
AcDbArc
 50
0.7981694133
 51
85.8857531035
  0
ARC
  5
EC
330
1F
100
AcDbEntity
  8
0
  6
Continuous
 62
     7
100
AcDbCircle
 10
6891.2096409796
 20
5164.5057926134
 30
0.0
 40
0.5116191886609506
100
AcDbArc
 50
46.6575713037
 51
142.8007909881
  0
ARC
  5
ED
330
1F
100
AcDbEntity
  8
0
  6
Continuous
 62
     7
100
AcDbCircle
 10
6890.1670066559
 20
5165.0026332136
 30
0.0
 40
0.6220080927484067
100
AcDbArc
 50
211.8259176507
 51
323.0700004123
  0
ARC
  5
EE
330
1F
100
AcDbEntity
  8
0
  6
Continuous
 62
     7
100
AcDbCircle
 10
6892.1590521314
 20
5165.1681338927
 30
0.0
 40
0.6227213105690315
100
AcDbArc
 50
226.4073628638
 51
324.123081313
  0
ARC
  5
EF
330
1F
100
AcDbEntity
  8
0
  6
Continuous
 62
     7
100
AcDbCircle
 10
6891.014651981
 20
5166.7184225156
 30
0.0
 40
4.501911381716286
100
AcDbArc
 50
1.6689316246
 51
178.3310683754
  0
ARC
  5
F0
330
1F
100
AcDbEntity
  8
0
  6
Continuous
 62
     7
100
AcDbCircle
 10
6251.6548027752
 20
4316.7661041514
 30
0.0
 40
179.4384471871921
100
AcDbArc
 50
181.9899873328
 51
358.0100126672
  0
ARC
  5
F1
330
1F
100
AcDbEntity
  8
0
  6
Continuous
 62
     7
100
AcDbCircle
 10
6251.6548027751
 20
4316.7691883093
 30
0.0
 40
177.4384471871932
100
AcDbArc
 50
181.9909871479
 51
358.0090128521
  0
ARC
  5
F2
330
1F
100
AcDbEntity
  8
0
  6
Continuous
 62
     7
100
AcDbCircle
 10
6251.6548027752
 20
4381.76700308
 30
0.0
 40
133.9999437333017
100
AcDbArc
 50
0.0
 51
180.0
  0
ARC
  5
F3
330
1F
100
AcDbEntity
  8
0
  6
Continuous
 62
     7
100
AcDbCircle
 10
6251.6548027752
 20
4316.7670054642
 30
0.0
 40
133.9999437333017
100
AcDbArc
 50
180.0
 51
0.0
  0
CIRCLE
  5
F4
330
1F
100
AcDbEntity
  8
0
  6
Continuous
 62
     7
100
AcDbCircle
 10
6171.6547648247
 20
4558.7669975964
 30
0.0
 40
2.500000000000909
  0
CIRCLE
  5
F5
330
1F
100
AcDbEntity
  8
0
  6
Continuous
 62
     7
100
AcDbCircle
 10
6331.6547648247
 20
4558.7669975964
 30
0.0
 40
2.5
  0
ARC
  5
F6
330
1F
100
AcDbEntity
  8
0
  6
Continuous
 62
     7
100
AcDbCircle
 10
6251.6546835658
 20
4381.76700308
 30
0.0
 40
130.1667690277009
100
AcDbArc
 50
0.0
 51
180.0
  0
ARC
  5
F7
330
1F
100
AcDbEntity
  8
0
  6
Continuous
 62
     7
100
AcDbCircle
 10
6251.6546835658
 20
4316.7670054642
 30
0.0
 40
130.1667690277009
100
AcDbArc
 50
180.0
 51
0.0
  0
ARC
  5
F8
330
1F
100
AcDbEntity
  8
0
  6
Continuous
 62
     7
100
AcDbCircle
 10
6251.6548027752
 20
4381.76700308
 30
0.0
 40
127.2917985916001
100
AcDbArc
 50
0.0
 51
180.0
  0
ARC
  5
F9
330
1F
100
AcDbEntity
  8
0
  6
Continuous
 62
     7
100
AcDbCircle
 10
6251.6548027752
 20
4316.7670054642
 30
0.0
 40
127.2917985916001
100
AcDbArc
 50
180.0
 51
0.0
  0
ARC
  5
FA
330
1F
100
AcDbEntity
  8
0
  6
Continuous
 62
     7
100
AcDbCircle
 10
6251.6548027752
 20
4316.7670054642
 30
0.0
 40
123.9999532700003
100
AcDbArc
 50
180.0
 51
0.0
  0
ARC
  5
FB
330
1F
100
AcDbEntity
  8
0
  6
Continuous
 62
     7
100
AcDbCircle
 10
6251.6548027752
 20
4381.76700308
 30
0.0
 40
123.9999532700003
100
AcDbArc
 50
0.0
 51
180.0
  0
ARC
  5
FC
330
1F
100
AcDbEntity
  8
0
  6
Continuous
 62
     7
100
AcDbCircle
 10
6251.6548027752
 20
4381.76700308
 30
0.0
 40
120.0000047683998
100
AcDbArc
 50
0.0
 51
180.0
  0
ARC
  5
FD
330
1F
100
AcDbEntity
  8
0
  6
Continuous
 62
     7
100
AcDbCircle
 10
6251.6548027752
 20
4316.7670054642
 30
0.0
 40
120.0000047683998
100
AcDbArc
 50
180.0
 51
0.0
  0
CIRCLE
  5
FE
330
1F
100
AcDbEntity
  8
0
  6
Continuous
 62
     7
100
AcDbCircle
 10
6251.6575061854
 20
4391.7670519855
 30
0.0
 40
39.99993331267342
  0
ARC
  5
FF
330
1F
100
AcDbEntity
  8
0
  6
Continuous
 62
     7
100
AcDbCircle
 10
7294.5868658111
 20
5115.5570883475
 30
0.0
 40
48.51659462504298
100
AcDbArc
 50
274.7062704661
 51
297.0313172782
  0
ELLIPSE
  5
100
330
1F
100
AcDbEntity
  8
0
  6
Continuous
 62
     7
100
AcDbEllipse
 10
7217.0146566266
 20
5108.9959959277
 30
0.0
 11
0.0
 21
284.2830577562818
 31
0.0
210
0.0
220
0.0
230
1.0
 40
0.1286647142
 41
4.675530348544183
 42
6.160956319227618
  0
LINE
  5
101
330
1F
100
AcDbEntity
  8
0
  6
Continuous
 62
     7
100
AcDbLine
 10
6369.5576777218
 20
5170.9968880196
 30
0.0
 11
6369.0763106106
 21
5171.1321905632
 31
0.0
  0
LINE
  5
102
330
1F
100
AcDbEntity
  8
0
  6
Continuous
 62
     7
100
AcDbLine
 10
6366.6401495693
 20
5162.4681488056
 30
0.0
 11
6367.1215166805
 21
5162.3328164597
 31
0.0
  0
LINE
  5
103
330
1F
100
AcDbEntity
  8
0
  6
Continuous
 62
     7
100
AcDbLine
 10
6370.6970801113
 20
5165.2229264755
 30
0.0
 11
6370.9688772915
 21
5165.1465133209
 31
0.0
  0
LINE
  5
104
330
1F
100
AcDbEntity
  8
0
  6
Continuous
 62
     7
100
AcDbLine
 10
6371.3746657131
 20
5166.5905550499
 30
0.0
 11
6370.762406802
 21
5166.762693264
 31
0.0
  0
LINE
  5
105
330
1F
100
AcDbEntity
  8
0
  6
Continuous
 62
     7
100
AcDbLine
 10
6370.4305281399
 20
5164.2645433922
 30
0.0
 11
6370.0738539455
 21
5164.3647984047
 31
0.0
  0
LINE
  5
106
330
1F
100
AcDbEntity
  8
0
  6
Continuous
 62
     7
100
AcDbLine
 10
6371.1999048946
 20
5167.6730946083
 30
0.0
 11
6371.3749041317
 21
5167.6238015671
 31
0.0
  0
LINE
  5
107
330
1F
100
AcDbEntity
  8
0
  6
Continuous
 62
     7
100
AcDbLine
 10
6103.6935468279
 20
5277.9027551506
 30
0.0
 11
6104.1749139391
 21
5278.0381172988
 31
0.0
  0
LINE
  5
108
330
1F
100
AcDbEntity
  8
0
  6
Continuous
 62
     7
100
AcDbLine
 10
6101.7387528979
 20
5286.7021888588
 30
0.0
 11
6101.2573857867
 21
5286.5668267105
 31
0.0
  0
LINE
  5
109
330
1F
100
AcDbEntity
  8
0
  6
Continuous
 62
     7
100
AcDbLine
 10
6100.5309214351
 20
5280.4540828247
 30
0.0
 11
6100.2944102047
 21
5280.3876236458
 31
0.0
  0
LINE
  5
10A
330
1F
100
AcDbEntity
  8
0
  6
Continuous
 62
     7
100
AcDbLine
 10
6099.4730581997
 20
5283.1151917954
 30
0.0
 11
6099.8604883907
 21
5283.2242086907
 31
0.0
  0
LINE
  5
10B
330
1F
100
AcDbEntity
  8
0
  6
Continuous
 62
     7
100
AcDbLine
 10
6099.7808565853
 20
5282.2562888642
 30
0.0
 11
6099.4403948543
 21
5282.1605042
 31
0.0
  0
LINE
  5
10C
330
1F
100
AcDbEntity
  8
0
  6
Continuous
 62
     7
100
AcDbLine
 10
6099.8464216945
 20
5280.7165220757
 30
0.0
 11
6100.5156626461
 21
5280.9046939392
 31
0.0
  0
LINE
  5
10D
330
1F
100
AcDbEntity
  8
0
  6
Continuous
 62
     7
100
AcDbLine
 10
6100.4286398647
 20
5279.9347475548
 30
0.0
 11
6100.3716578243
 21
5279.9187139054
 31
0.0
  0
LINE
  5
10E
330
1F
100
AcDbEntity
  8
0
  6
Continuous
 62
     7
100
AcDbLine
 10
6099.6513952968
 20
5282.6747134705
 30
0.0
 11
6099.8695482967
 21
5282.7361062546
 31
0.0
  0
LINE
  5
10F
330
1F
100
AcDbEntity
  8
0
  6
Continuous
 62
     7
100
AcDbLine
 10
6423.6918081997
 20
5363.5312155266
 30
0.0
 11
6423.2104410885
 21
5363.6665776749
 31
0.0
  0
LINE
  5
110
330
1F
100
AcDbEntity
  8
0
  6
Continuous
 62
     7
100
AcDbLine
 10
6420.7745184658
 20
5355.002506115
 30
0.0
 11
6421.255885577
 21
5354.8672035713
 31
0.0
  0
LINE
  5
111
330
1F
100
AcDbEntity
  8
0
  6
Continuous
 62
     7
100
AcDbLine
 10
6421.2020029781
 20
5356.9598630448
 30
0.0
 11
6421.3157286403
 21
5356.9278553505
 31
0.0
  0
LINE
  5
112
330
1F
100
AcDbEntity
  8
0
  6
Continuous
 62
     7
100
AcDbLine
 10
6425.0512709377
 20
5360.0351646919
 30
0.0
 11
6425.4174818752
 21
5359.9321678658
 31
0.0
  0
LINE
  5
113
330
1F
100
AcDbEntity
  8
0
  6
Continuous
 62
     7
100
AcDbLine
 10
6424.5205511806
 20
5357.8446343918
 30
0.0
 11
6425.1030077694
 21
5357.6809004326
 31
0.0
  0
LINE
  5
114
330
1F
100
AcDbEntity
  8
0
  6
Continuous
 62
     7
100
AcDbLine
 10
6425.5090346096
 20
5359.1249421616
 30
0.0
 11
6424.9847521541
 21
5359.2722848435
 31
0.0
  0
LINE
  5
115
330
1F
100
AcDbEntity
  8
0
  6
Continuous
 62
     7
100
AcDbLine
 10
6425.023375964
 20
5359.9675730248
 30
0.0
 11
6425.3893484829
 21
5359.8646358032
 31
0.0
  0
LINE
  5
116
330
1F
100
AcDbEntity
  8
0
  6
Continuous
 62
     7
100
AcDbLine
 10
6402.0381560085
 20
5286.5174845238
 30
0.0
 11
6401.5567888973
 21
5286.6528466721
 31
0.0
  0
LINE
  5
117
330
1F
100
AcDbEntity
  8
0
  6
Continuous
 62
     7
100
AcDbLine
 10
6399.1208662746
 20
5277.9887751122
 30
0.0
 11
6399.6022333858
 21
5277.8534129639
 31
0.0
  0
LINE
  5
118
330
1F
100
AcDbEntity
  8
0
  6
Continuous
 62
     7
100
AcDbLine
 10
6402.9520144222
 20
5280.0373271485
 30
0.0
 11
6402.5872339962
 21
5280.1399067421
 31
0.0
  0
LINE
  5
119
330
1F
100
AcDbEntity
  8
0
  6
Continuous
 62
     7
100
AcDbLine
 10
6402.915297961
 20
5280.81731353
 30
0.0
 11
6403.4493555782
 21
5280.6671694298
 31
0.0
  0
LINE
  5
11A
330
1F
100
AcDbEntity
  8
0
  6
Continuous
 62
     7
100
AcDbLine
 10
6403.8553824184
 20
5282.1111515541
 30
0.0
 11
6403.2831778286
 21
5282.2720244904
 31
0.0
  0
LINE
  5
11B
330
1F
100
AcDbEntity
  8
0
  6
Continuous
 62
     7
100
AcDbLine
 10
6402.9620280025
 20
5280.0850108643
 30
0.0
 11
6402.5965323208
 21
5280.1877692719
 31
0.0
  0
LINE
  5
11C
330
1F
100
AcDbEntity
  8
0
  6
Continuous
 62
     7
100
AcDbLine
 10
6082.0398916958
 20
5354.9165562172
 30
0.0
 11
6082.521258807
 21
5355.0518587609
 31
0.0
  0
LINE
  5
11D
330
1F
100
AcDbEntity
  8
0
  6
Continuous
 62
     7
100
AcDbLine
 10
6080.0850977657
 20
5363.7159303208
 30
0.0
 11
6079.6037306545
 21
5363.5805681725
 31
0.0
  0
LINE
  5
11E
330
1F
100
AcDbEntity
  8
0
  6
Continuous
 62
     7
100
AcDbLine
 10
6077.8794874904
 20
5359.9789575119
 30
0.0
 11
6078.2459368465
 21
5360.0819543381
 31
0.0
  0
LINE
  5
11F
330
1F
100
AcDbEntity
  8
0
  6
Continuous
 62
     7
100
AcDbLine
 10
6078.3122172115
 20
5359.3220547219
 30
0.0
 11
6077.7867426632
 21
5359.1742948075
 31
0.0
  0
LINE
  5
120
330
1F
100
AcDbEntity
  8
0
  6
Continuous
 62
     7
100
AcDbLine
 10
6078.1927695034
 20
5357.7302530785
 30
0.0
 11
6078.7714113949
 21
5357.8929737587
 31
0.0
  0
LINE
  5
121
330
1F
100
AcDbEntity
  8
0
  6
Continuous
 62
     7
100
AcDbLine
 10
6077.9030909298
 20
5359.9164322396
 30
0.0
 11
6078.2695402859
 21
5360.0194290657
 31
0.0
  0
LINE
  5
122
330
1F
100
AcDbEntity
  8
0
  6
Continuous
 62
     7
100
AcDbLine
 10
6136.1740221737
 20
5162.3821691056
 30
0.0
 11
6136.6553892849
 21
5162.5175014515
 31
0.0
  0
LINE
  5
123
330
1F
100
AcDbEntity
  8
0
  6
Continuous
 62
     7
100
AcDbLine
 10
6134.2194666622
 20
5171.1815432091
 30
0.0
 11
6133.738099551
 21
5171.0462406655
 31
0.0
  0
LINE
  5
124
330
1F
100
AcDbEntity
  8
0
  6
Continuous
 62
     7
100
AcDbLine
 10
6132.4127306698
 20
5166.7781904717
 30
0.0
 11
6131.9208731411
 21
5166.6399076958
 31
0.0
  0
LINE
  5
125
330
1F
100
AcDbEntity
  8
0
  6
Continuous
 62
     7
100
AcDbLine
 10
6132.3268999813
 20
5165.1958659668
 30
0.0
 11
6132.5946440456
 21
5165.2711466332
 31
0.0
  0
LINE
  5
126
330
1F
100
AcDbEntity
  8
0
  6
Continuous
 62
     7
100
AcDbLine
 10
6133.195458865
 20
5164.3878057976
 30
0.0
 11
6132.8697790859
 21
5164.2961934586
 31
0.0
  0
LINE
  5
127
330
1F
100
AcDbEntity
  8
0
  6
Continuous
 62
     7
100
AcDbLine
 10
6131.9153895138
 20
5167.6906183739
 30
0.0
 11
6132.1385493038
 21
5167.7533820648
 31
0.0
  0
LINE
  5
128
330
1F
100
AcDbEntity
  8
0
  6
Continuous
 62
     7
100
AcDbLine
 10
6074.3234743831
 20
5393.6994508286
 30
0.0
 11
6428.9861311672
 21
5393.6994508286
 31
0.0
  0
LINE
  5
129
330
1F
100
AcDbEntity
  8
0
  6
Continuous
 62
     7
100
AcDbLine
 10
6430.925189471
 20
5391.214354374
 30
0.0
 11
6072.3841776607
 21
5391.214354374
 31
0.0
  0
LINE
  5
12A
330
1F
100
AcDbEntity
  8
0
  6
Continuous
 62
     7
100
AcDbLine
 10
6303.7109961269
 20
5064.3609598656
 30
0.0
 11
6306.6728701351
 21
5067.2040716191
 31
0.0
  0
LINE
  5
12B
330
1F
100
AcDbEntity
  8
0
  6
Continuous
 62
     7
100
AcDbLine
 10
6196.6364969967
 20
5067.2040716191
 30
0.0
 11
6199.5986094234
 21
5064.3609598656
 31
0.0
  0
LINE
  5
12C
330
1F
100
AcDbEntity
  8
0
  6
Continuous
 62
     7
100
AcDbLine
 10
6196.6364969967
 20
5067.2040716191
 30
0.0
 11
6195.731698489
 21
5064.2714634915
 31
0.0
  0
LINE
  5
12D
330
1F
100
AcDbEntity
  8
0
  6
Continuous
 62
     7
100
AcDbLine
 10
6195.731698489
 20
5064.2714634915
 30
0.0
 11
6195.0650801418
 21
5061.4805952091
 31
0.0
  0
LINE
  5
12E
330
1F
100
AcDbEntity
  8
0
  6
Continuous
 62
     7
100
AcDbLine
 10
6195.0650801418
 20
5061.4805952091
 30
0.0
 11
6194.6464171169
 21
5058.8702097912
 31
0.0
  0
LINE
  5
12F
330
1F
100
AcDbEntity
  8
0
  6
Continuous
 62
     7
100
AcDbLine
 10
6194.6464171169
 20
5058.8702097912
 30
0.0
 11
6194.4814314602
 21
5056.4765468617
 31
0.0
  0
LINE
  5
130
330
1F
100
AcDbEntity
  8
0
  6
Continuous
 62
     7
100
AcDbLine
 10
6194.4814314602
 20
5056.4765468617
 30
0.0
 11
6194.5722689388
 21
5054.33283601
 31
0.0
  0
LINE
  5
131
330
1F
100
AcDbEntity
  8
0
  6
Continuous
 62
     7
100
AcDbLine
 10
6194.5722689388
 20
5054.33283601
 30
0.0
 11
6194.9179758785
 21
5052.4688199539
 31
0.0
  0
LINE
  5
132
330
1F
100
AcDbEntity
  8
0
  6
Continuous
 62
     7
100
AcDbLine
 10
6194.9179758785
 20
5052.4688199539
 30
0.0
 11
6195.5133070705
 21
5050.910426714
 31
0.0
  0
LINE
  5
133
330
1F
100
AcDbEntity
  8
0
  6
Continuous
 62
     7
100
AcDbLine
 10
6195.5133070705
 20
5050.910426714
 30
0.0
 11
6196.3501562832
 21
5049.6792629738
 31
0.0
  0
LINE
  5
134
330
1F
100
AcDbEntity
  8
0
  6
Continuous
 62
     7
100
AcDbLine
 10
6196.3501562832
 20
5049.6792629738
 30
0.0
 11
6197.4170794246
 21
5048.7924352665
 31
0.0
  0
LINE
  5
135
330
1F
100
AcDbEntity
  8
0
  6
Continuous
 62
     7
100
AcDbLine
 10
6154.6555151699
 20
5098.4983280678
 30
0.0
 11
6154.6493162868
 21
5098.5200837631
 31
0.0
  0
LINE
  5
136
330
1F
100
AcDbEntity
  8
0
  6
Continuous
 62
     7
100
AcDbLine
 10
6348.6602892635
 20
5098.5200837631
 30
0.0
 11
6348.6540903805
 21
5098.4983280678
 31
0.0
  0
LINE
  5
137
330
1F
100
AcDbEntity
  8
0
  6
Continuous
 62
     7
100
AcDbLine
 10
6305.8925261257
 20
5048.7924352665
 30
0.0
 11
6306.9594492672
 21
5049.6792629738
 31
0.0
  0
LINE
  5
138
330
1F
100
AcDbEntity
  8
0
  6
Continuous
 62
     7
100
AcDbLine
 10
6306.9594492672
 20
5049.6792629738
 30
0.0
 11
6307.7962984798
 21
5050.910426714
 31
0.0
  0
LINE
  5
139
330
1F
100
AcDbEntity
  8
0
  6
Continuous
 62
     7
100
AcDbLine
 10
6307.7962984798
 20
5050.910426714
 30
0.0
 11
6308.3916296718
 21
5052.4688199539
 31
0.0
  0
LINE
  5
13A
330
1F
100
AcDbEntity
  8
0
  6
Continuous
 62
     7
100
AcDbLine
 10
6308.3916296718
 20
5052.4688199539
 30
0.0
 11
6308.737098193
 21
5054.33283601
 31
0.0
  0
LINE
  5
13B
330
1F
100
AcDbEntity
  8
0
  6
Continuous
 62
     7
100
AcDbLine
 10
6308.737098193
 20
5054.33283601
 30
0.0
 11
6308.8279356716
 21
5056.4765468617
 31
0.0
  0
LINE
  5
13C
330
1F
100
AcDbEntity
  8
0
  6
Continuous
 62
     7
100
AcDbLine
 10
6308.8279356716
 20
5056.4765468617
 30
0.0
 11
6308.6629500149
 21
5058.8702097912
 31
0.0
  0
LINE
  5
13D
330
1F
100
AcDbEntity
  8
0
  6
Continuous
 62
     7
100
AcDbLine
 10
6308.6629500149
 20
5058.8702097912
 30
0.0
 11
6308.24428699
 21
5061.4805952091
 31
0.0
  0
LINE
  5
13E
330
1F
100
AcDbEntity
  8
0
  6
Continuous
 62
     7
100
AcDbLine
 10
6308.24428699
 20
5061.4805952091
 30
0.0
 11
6307.5779070614
 21
5064.2714634915
 31
0.0
  0
LINE
  5
13F
330
1F
100
AcDbEntity
  8
0
  6
Continuous
 62
     7
100
AcDbLine
 10
6307.5779070614
 20
5064.2714634915
 30
0.0
 11
6306.6728701351
 21
5067.2040716191
 31
0.0
  0
LINE
  5
140
330
1F
100
AcDbEntity
  8
0
  6
Continuous
 62
     7
100
AcDbLine
 10
6199.5986094234
 20
5064.3609598656
 30
0.0
 11
6198.7500777004
 21
5061.5613893051
 31
0.0
  0
LINE
  5
141
330
1F
100
AcDbEntity
  8
0
  6
Continuous
 62
     7
100
AcDbLine
 10
6198.7500777004
 20
5061.5613893051
 30
0.0
 11
6198.1111159084
 21
5058.9187577744
 31
0.0
  0
LINE
  5
142
330
1F
100
AcDbEntity
  8
0
  6
Continuous
 62
     7
100
AcDbLine
 10
6198.1111159084
 20
5058.9187577744
 30
0.0
 11
6197.6900686977
 21
5056.4678445835
 31
0.0
  0
LINE
  5
143
330
1F
100
AcDbEntity
  8
0
  6
Continuous
 62
     7
100
AcDbLine
 10
6197.6900686977
 20
5056.4678445835
 30
0.0
 11
6197.4926581142
 21
5054.2409852524
 31
0.0
  0
LINE
  5
144
330
1F
100
AcDbEntity
  8
0
  6
Continuous
 62
     7
100
AcDbLine
 10
6197.4926581142
 20
5054.2409852524
 30
0.0
 11
6197.5215067623
 21
5052.2675648709
 31
0.0
  0
LINE
  5
145
330
1F
100
AcDbEntity
  8
0
  6
Continuous
 62
     7
100
AcDbLine
 10
6197.5215067623
 20
5052.2675648709
 30
0.0
 11
6197.7758993862
 21
5050.5735412617
 31
0.0
  0
LINE
  5
146
330
1F
100
AcDbEntity
  8
0
  6
Continuous
 62
     7
100
AcDbLine
 10
6197.7758993862
 20
5050.5735412617
 30
0.0
 11
6198.2527365444
 21
5049.181295969
 31
0.0
  0
LINE
  5
147
330
1F
100
AcDbEntity
  8
0
  6
Continuous
 62
     7
100
AcDbLine
 10
6198.2527365444
 20
5049.181295969
 30
0.0
 11
6198.9458193538
 21
5048.1091574211
 31
0.0
  0
LINE
  5
148
330
1F
100
AcDbEntity
  8
0
  6
Continuous
 62
     7
100
AcDbLine
 10
6198.9458193538
 20
5048.1091574211
 30
0.0
 11
6199.84584949
 21
5047.3712519188
 31
0.0
  0
LINE
  5
149
330
1F
100
AcDbEntity
  8
0
  6
Continuous
 62
     7
100
AcDbLine
 10
6303.4635176418
 20
5047.3712519188
 30
0.0
 11
6304.3637861965
 21
5048.1091574211
 31
0.0
  0
LINE
  5
14A
330
1F
100
AcDbEntity
  8
0
  6
Continuous
 62
     7
100
AcDbLine
 10
6304.3637861965
 20
5048.1091574211
 30
0.0
 11
6305.0566305874
 21
5049.181295969
 31
0.0
  0
LINE
  5
14B
330
1F
100
AcDbEntity
  8
0
  6
Continuous
 62
     7
100
AcDbLine
 10
6305.0566305874
 20
5049.181295969
 30
0.0
 11
6305.5337061642
 21
5050.5735412617
 31
0.0
  0
LINE
  5
14C
330
1F
100
AcDbEntity
  8
0
  6
Continuous
 62
     7
100
AcDbLine
 10
6305.5337061642
 20
5050.5735412617
 30
0.0
 11
6305.7880987881
 21
5052.2675648709
 31
0.0
  0
LINE
  5
14D
330
1F
100
AcDbEntity
  8
0
  6
Continuous
 62
     7
100
AcDbLine
 10
6305.7880987881
 20
5052.2675648709
 30
0.0
 11
6305.8169474361
 21
5054.2409852524
 31
0.0
  0
LINE
  5
14E
330
1F
100
AcDbEntity
  8
0
  6
Continuous
 62
     7
100
AcDbLine
 10
6305.8169474361
 20
5054.2409852524
 30
0.0
 11
6305.6195368526
 21
5056.4678445835
 31
0.0
  0
LINE
  5
14F
330
1F
100
AcDbEntity
  8
0
  6
Continuous
 62
     7
100
AcDbLine
 10
6305.6195368526
 20
5056.4678445835
 30
0.0
 11
6305.1984896419
 21
5058.9187577744
 31
0.0
  0
LINE
  5
150
330
1F
100
AcDbEntity
  8
0
  6
Continuous
 62
     7
100
AcDbLine
 10
6305.1984896419
 20
5058.9187577744
 30
0.0
 11
6304.5595278499
 21
5061.5613893051
 31
0.0
  0
LINE
  5
151
330
1F
100
AcDbEntity
  8
0
  6
Continuous
 62
     7
100
AcDbLine
 10
6304.5595278499
 20
5061.5613893051
 30
0.0
 11
6303.7109961269
 21
5064.3609598656
 31
0.0
  0
LINE
  5
152
330
1F
100
AcDbEntity
  8
0
  6
Continuous
 62
     7
100
AcDbLine
 10
6305.8925261257
 20
5048.7924352665
 30
0.0
 11
6303.4635176418
 21
5047.3712519188
 31
0.0
  0
LINE
  5
153
330
1F
100
AcDbEntity
  8
0
  6
Continuous
 62
     7
100
AcDbLine
 10
6199.84584949
 20
5047.3712519188
 30
0.0
 11
6197.4170794246
 21
5048.7924352665
 31
0.0
  0
LINE
  5
154
330
1F
100
AcDbEntity
  8
0
  6
Continuous
 62
     7
100
AcDbLine
 10
6250.2937903164
 20
5042.778356411
 30
0.0
 11
6253.015815234
 21
5042.778356411
 31
0.0
  0
LINE
  5
155
330
1F
100
AcDbEntity
  8
0
  6
Continuous
 62
     7
100
AcDbLine
 10
6154.6493162868
 20
5098.5200837631
 30
0.0
 11
6151.888905978
 21
5108.3382204552
 31
0.0
  0
LINE
  5
156
330
1F
100
AcDbEntity
  8
0
  6
Continuous
 62
     7
100
AcDbLine
 10
6151.888905978
 20
5108.3382204552
 30
0.0
 11
6149.128018832
 21
5118.1571320076
 31
0.0
  0
LINE
  5
157
330
1F
100
AcDbEntity
  8
0
  6
Continuous
 62
     7
100
AcDbLine
 10
6149.128018832
 20
5118.1571320076
 30
0.0
 11
6146.3704695461
 21
5127.9651061077
 31
0.0
  0
LINE
  5
158
330
1F
100
AcDbEntity
  8
0
  6
Continuous
 62
     7
100
AcDbLine
 10
6146.3704695461
 20
5127.9651061077
 30
0.0
 11
6143.6191191433
 21
5137.7504602452
 31
0.0
  0
LINE
  5
159
330
1F
100
AcDbEntity
  8
0
  6
Continuous
 62
     7
100
AcDbLine
 10
6143.6191191433
 20
5137.7504602452
 30
0.0
 11
6140.8773054836
 21
5147.5014821072
 31
0.0
  0
LINE
  5
15A
330
1F
100
AcDbEntity
  8
0
  6
Continuous
 62
     7
100
AcDbLine
 10
6140.8773054836
 20
5147.5014821072
 30
0.0
 11
6138.1486048458
 21
5157.2065785904
 31
0.0
  0
LINE
  5
15B
330
1F
100
AcDbEntity
  8
0
  6
Continuous
 62
     7
100
AcDbLine
 10
6138.1486048458
 20
5157.2065785904
 30
0.0
 11
6135.4361166714
 21
5166.8541267891
 31
0.0
  0
LINE
  5
15C
330
1F
100
AcDbEntity
  8
0
  6
Continuous
 62
     7
100
AcDbLine
 10
6135.4361166714
 20
5166.8541267891
 30
0.0
 11
6132.7429404018
 21
5176.4326528092
 31
0.0
  0
LINE
  5
15D
330
1F
100
AcDbEntity
  8
0
  6
Continuous
 62
     7
100
AcDbLine
 10
6132.7429404018
 20
5176.4326528092
 30
0.0
 11
6130.0724138973
 21
5185.9307125588
 31
0.0
  0
LINE
  5
15E
330
1F
100
AcDbEntity
  8
0
  6
Continuous
 62
     7
100
AcDbLine
 10
6130.0724138973
 20
5185.9307125588
 30
0.0
 11
6127.4276365993
 21
5195.3369811554
 31
0.0
  0
LINE
  5
15F
330
1F
100
AcDbEntity
  8
0
  6
Continuous
 62
     7
100
AcDbLine
 10
6127.4276365993
 20
5195.3369811554
 30
0.0
 11
6124.811946368
 21
5204.6401933213
 31
0.0
  0
LINE
  5
160
330
1F
100
AcDbEntity
  8
0
  6
Continuous
 62
     7
100
AcDbLine
 10
6124.811946368
 20
5204.6401933213
 30
0.0
 11
6122.2282042263
 21
5213.829322197
 31
0.0
  0
LINE
  5
161
330
1F
100
AcDbEntity
  8
0
  6
Continuous
 62
     7
100
AcDbLine
 10
6122.2282042263
 20
5213.829322197
 30
0.0
 11
6119.6797480343
 21
5222.8933409233
 31
0.0
  0
LINE
  5
162
330
1F
100
AcDbEntity
  8
0
  6
Continuous
 62
     7
100
AcDbLine
 10
6119.6797480343
 20
5222.8933409233
 30
0.0
 11
6117.1694388149
 21
5231.8214610596
 31
0.0
  0
LINE
  5
163
330
1F
100
AcDbEntity
  8
0
  6
Continuous
 62
     7
100
AcDbLine
 10
6117.1694388149
 20
5231.8214610596
 30
0.0
 11
6114.7003760097
 21
5240.6030133744
 31
0.0
  0
LINE
  5
164
330
1F
100
AcDbEntity
  8
0
  6
Continuous
 62
     7
100
AcDbLine
 10
6114.7003760097
 20
5240.6030133744
 30
0.0
 11
6112.2754206417
 21
5249.2275074501
 31
0.0
  0
LINE
  5
165
330
1F
100
AcDbEntity
  8
0
  6
Continuous
 62
     7
100
AcDbLine
 10
6112.2754206417
 20
5249.2275074501
 30
0.0
 11
6109.8974337337
 21
5257.6847508927
 31
0.0
  0
LINE
  5
166
330
1F
100
AcDbEntity
  8
0
  6
Continuous
 62
     7
100
AcDbLine
 10
6109.8974337337
 20
5257.6847508927
 30
0.0
 11
6107.5695147274
 21
5265.9644917031
 31
0.0
  0
LINE
  5
167
330
1F
100
AcDbEntity
  8
0
  6
Continuous
 62
     7
100
AcDbLine
 10
6107.5695147274
 20
5265.9644917031
 30
0.0
 11
6105.294286227
 21
5274.0569547196
 31
0.0
  0
LINE
  5
168
330
1F
100
AcDbEntity
  8
0
  6
Continuous
 62
     7
100
AcDbLine
 10
6105.294286227
 20
5274.0569547196
 30
0.0
 11
6103.074370837
 21
5281.9524839897
 31
0.0
  0
LINE
  5
169
330
1F
100
AcDbEntity
  8
0
  6
Continuous
 62
     7
100
AcDbLine
 10
6103.074370837
 20
5281.9524839897
 30
0.0
 11
6100.9123911617
 21
5289.6416619797
 31
0.0
  0
LINE
  5
16A
330
1F
100
AcDbEntity
  8
0
  6
Continuous
 62
     7
100
AcDbLine
 10
6100.9123911617
 20
5289.6416619797
 30
0.0
 11
6098.8109698055
 21
5297.1152499695
 31
0.0
  0
LINE
  5
16B
330
1F
100
AcDbEntity
  8
0
  6
Continuous
 62
     7
100
AcDbLine
 10
6098.8109698055
 20
5297.1152499695
 30
0.0
 11
6096.7727293728
 21
5304.3643668671
 31
0.0
  0
LINE
  5
16C
330
1F
100
AcDbEntity
  8
0
  6
Continuous
 62
     7
100
AcDbLine
 10
6096.7727293728
 20
5304.3643668671
 30
0.0
 11
6094.8000540493
 21
5311.380369999
 31
0.0
  0
LINE
  5
16D
330
1F
100
AcDbEntity
  8
0
  6
Continuous
 62
     7
100
AcDbLine
 10
6094.8000540493
 20
5311.380369999
 30
0.0
 11
6092.8953280208
 21
5318.1548551102
 31
0.0
  0
LINE
  5
16E
330
1F
100
AcDbEntity
  8
0
  6
Continuous
 62
     7
100
AcDbLine
 10
6092.8953280208
 20
5318.1548551102
 30
0.0
 11
6091.0606970547
 21
5324.6798351784
 31
0.0
  0
LINE
  5
16F
330
1F
100
AcDbEntity
  8
0
  6
Continuous
 62
     7
100
AcDbLine
 10
6091.0606970547
 20
5324.6798351784
 30
0.0
 11
6089.2985453365
 21
5330.9474423905
 31
0.0
  0
LINE
  5
170
330
1F
100
AcDbEntity
  8
0
  6
Continuous
 62
     7
100
AcDbLine
 10
6089.2985453365
 20
5330.9474423905
 30
0.0
 11
6087.6107802151
 21
5336.9501665611
 31
0.0
  0
LINE
  5
171
330
1F
100
AcDbEntity
  8
0
  6
Continuous
 62
     7
100
AcDbLine
 10
6087.6107802151
 20
5336.9501665611
 30
0.0
 11
6085.9995474575
 21
5342.6809147377
 31
0.0
  0
LINE
  5
172
330
1F
100
AcDbEntity
  8
0
  6
Continuous
 62
     7
100
AcDbLine
 10
6085.9995474575
 20
5342.6809147377
 30
0.0
 11
6084.4665159939
 21
5348.132832386
 31
0.0
  0
LINE
  5
173
330
1F
100
AcDbEntity
  8
0
  6
Continuous
 62
     7
100
AcDbLine
 10
6084.4665159939
 20
5348.132832386
 30
0.0
 11
6083.0138315914
 21
5353.2993629952
 31
0.0
  0
LINE
  5
174
330
1F
100
AcDbEntity
  8
0
  6
Continuous
 62
     7
100
AcDbLine
 10
6083.0138315914
 20
5353.2993629952
 30
0.0
 11
6081.6431631801
 21
5358.1744268913
 31
0.0
  0
LINE
  5
175
330
1F
100
AcDbEntity
  8
0
  6
Continuous
 62
     7
100
AcDbLine
 10
6081.6431631801
 20
5358.1744268913
 30
0.0
 11
6080.3561796902
 21
5362.7521828194
 31
0.0
  0
LINE
  5
176
330
1F
100
AcDbEntity
  8
0
  6
Continuous
 62
     7
100
AcDbLine
 10
6080.3561796902
 20
5362.7521828194
 30
0.0
 11
6079.1540732143
 21
5367.0270875473
 31
0.0
  0
LINE
  5
177
330
1F
100
AcDbEntity
  8
0
  6
Continuous
 62
     7
100
AcDbLine
 10
6079.1540732143
 20
5367.0270875473
 30
0.0
 11
6078.0387511013
 21
5370.994134285
 31
0.0
  0
LINE
  5
178
330
1F
100
AcDbEntity
  8
0
  6
Continuous
 62
     7
100
AcDbLine
 10
6078.0387511013
 20
5370.994134285
 30
0.0
 11
6077.0111670254
 21
5374.6486142655
 31
0.0
  0
LINE
  5
179
330
1F
100
AcDbEntity
  8
0
  6
Continuous
 62
     7
100
AcDbLine
 10
6077.0111670254
 20
5374.6486142655
 30
0.0
 11
6076.072751498
 21
5377.9860571404
 31
0.0
  0
LINE
  5
17A
330
1F
100
AcDbEntity
  8
0
  6
Continuous
 62
     7
100
AcDbLine
 10
6076.072751498
 20
5377.9860571404
 30
0.0
 11
6075.2246966121
 21
5381.0025290032
 31
0.0
  0
LINE
  5
17B
330
1F
100
AcDbEntity
  8
0
  6
Continuous
 62
     7
100
AcDbLine
 10
6075.2246966121
 20
5381.0025290032
 30
0.0
 11
6074.4679560421
 21
5383.6944535752
 31
0.0
  0
LINE
  5
17C
330
1F
100
AcDbEntity
  8
0
  6
Continuous
 62
     7
100
AcDbLine
 10
6074.4679560421
 20
5383.6944535752
 30
0.0
 11
6073.803006625
 21
5386.0586122055
 31
0.0
  0
LINE
  5
17D
330
1F
100
AcDbEntity
  8
0
  6
Continuous
 62
     7
100
AcDbLine
 10
6073.803006625
 20
5386.0586122055
 30
0.0
 11
6073.2312788723
 21
5388.0921438713
 31
0.0
  0
LINE
  5
17E
330
1F
100
AcDbEntity
  8
0
  6
Continuous
 62
     7
100
AcDbLine
 10
6073.2312788723
 20
5388.0921438713
 30
0.0
 11
6072.7532496212
 21
5389.7926643868
 31
0.0
  0
LINE
  5
17F
330
1F
100
AcDbEntity
  8
0
  6
Continuous
 62
     7
100
AcDbLine
 10
6072.7532496212
 20
5389.7926643868
 30
0.0
 11
6072.3693957088
 21
5391.1580875893
 31
0.0
  0
LINE
  5
180
330
1F
100
AcDbEntity
  8
0
  6
Continuous
 62
     7
100
AcDbLine
 10
6072.3841776607
 20
5391.214354374
 30
0.0
 11
6072.3693957088
 21
5391.1580875893
 31
0.0
  0
LINE
  5
181
330
1F
100
AcDbEntity
  8
0
  6
Continuous
 62
     7
100
AcDbLine
 10
6430.9402098415
 20
5391.1580875893
 30
0.0
 11
6430.925189471
 21
5391.214354374
 31
0.0
  0
LINE
  5
182
330
1F
100
AcDbEntity
  8
0
  6
Continuous
 62
     7
100
AcDbLine
 10
6430.9402098415
 20
5391.1580875893
 30
0.0
 11
6430.5563559292
 21
5389.7926643868
 31
0.0
  0
LINE
  5
183
330
1F
100
AcDbEntity
  8
0
  6
Continuous
 62
     7
100
AcDbLine
 10
6430.5563559292
 20
5389.7926643868
 30
0.0
 11
6430.0780882595
 21
5388.0921438713
 31
0.0
  0
LINE
  5
184
330
1F
100
AcDbEntity
  8
0
  6
Continuous
 62
     7
100
AcDbLine
 10
6430.0780882595
 20
5388.0921438713
 30
0.0
 11
6429.5063605068
 21
5386.0586122055
 31
0.0
  0
LINE
  5
185
330
1F
100
AcDbEntity
  8
0
  6
Continuous
 62
     7
100
AcDbLine
 10
6429.5063605068
 20
5386.0586122055
 30
0.0
 11
6428.8416495083
 21
5383.6944535752
 31
0.0
  0
LINE
  5
186
330
1F
100
AcDbEntity
  8
0
  6
Continuous
 62
     7
100
AcDbLine
 10
6428.8416495083
 20
5383.6944535752
 30
0.0
 11
6428.0849089382
 21
5381.0025290032
 31
0.0
  0
LINE
  5
187
330
1F
100
AcDbEntity
  8
0
  6
Continuous
 62
     7
100
AcDbLine
 10
6428.0849089382
 20
5381.0025290032
 30
0.0
 11
6427.2366156338
 21
5377.9860571404
 31
0.0
  0
LINE
  5
188
330
1F
100
AcDbEntity
  8
0
  6
Continuous
 62
     7
100
AcDbLine
 10
6427.2366156338
 20
5377.9860571404
 30
0.0
 11
6426.2982001064
 21
5374.6486142655
 31
0.0
  0
LINE
  5
189
330
1F
100
AcDbEntity
  8
0
  6
Continuous
 62
     7
100
AcDbLine
 10
6426.2982001064
 20
5374.6486142655
 30
0.0
 11
6425.2708544491
 21
5370.994134285
 31
0.0
  0
LINE
  5
18A
330
1F
100
AcDbEntity
  8
0
  6
Continuous
 62
     7
100
AcDbLine
 10
6425.2708544491
 20
5370.994134285
 30
0.0
 11
6424.1552939174
 21
5367.0270875473
 31
0.0
  0
LINE
  5
18B
330
1F
100
AcDbEntity
  8
0
  6
Continuous
 62
     7
100
AcDbLine
 10
6424.1552939174
 20
5367.0270875473
 30
0.0
 11
6422.9534258602
 21
5362.7521828194
 31
0.0
  0
LINE
  5
18C
330
1F
100
AcDbEntity
  8
0
  6
Continuous
 62
     7
100
AcDbLine
 10
6422.9534258602
 20
5362.7521828194
 30
0.0
 11
6421.6662039516
 21
5358.1744268913
 31
0.0
  0
LINE
  5
18D
330
1F
100
AcDbEntity
  8
0
  6
Continuous
 62
     7
100
AcDbLine
 10
6421.6662039516
 20
5358.1744268913
 30
0.0
 11
6420.2955355404
 21
5353.2993629952
 31
0.0
  0
LINE
  5
18E
330
1F
100
AcDbEntity
  8
0
  6
Continuous
 62
     7
100
AcDbLine
 10
6420.2955355404
 20
5353.2993629952
 30
0.0
 11
6418.8428511379
 21
5348.132832386
 31
0.0
  0
LINE
  5
18F
330
1F
100
AcDbEntity
  8
0
  6
Continuous
 62
     7
100
AcDbLine
 10
6418.8428511379
 20
5348.132832386
 30
0.0
 11
6417.3100580929
 21
5342.6809147377
 31
0.0
  0
LINE
  5
190
330
1F
100
AcDbEntity
  8
0
  6
Continuous
 62
     7
100
AcDbLine
 10
6417.3100580929
 20
5342.6809147377
 30
0.0
 11
6415.6988253353
 21
5336.9501665611
 31
0.0
  0
LINE
  5
191
330
1F
100
AcDbEntity
  8
0
  6
Continuous
 62
     7
100
AcDbLine
 10
6415.6988253353
 20
5336.9501665611
 30
0.0
 11
6414.0110602138
 21
5330.9474423905
 31
0.0
  0
LINE
  5
192
330
1F
100
AcDbEntity
  8
0
  6
Continuous
 62
     7
100
AcDbLine
 10
6414.0110602138
 20
5330.9474423905
 30
0.0
 11
6412.2486700771
 21
5324.6798351784
 31
0.0
  0
LINE
  5
193
330
1F
100
AcDbEntity
  8
0
  6
Continuous
 62
     7
100
AcDbLine
 10
6412.2486700771
 20
5324.6798351784
 30
0.0
 11
6410.4142775295
 21
5318.1548551102
 31
0.0
  0
LINE
  5
194
330
1F
100
AcDbEntity
  8
0
  6
Continuous
 62
     7
100
AcDbLine
 10
6410.4142775295
 20
5318.1548551102
 30
0.0
 11
6408.5093130825
 21
5311.380369999
 31
0.0
  0
LINE
  5
195
330
1F
100
AcDbEntity
  8
0
  6
Continuous
 62
     7
100
AcDbLine
 10
6408.5093130825
 20
5311.380369999
 30
0.0
 11
6406.536637759
 21
5304.3643668671
 31
0.0
  0
LINE
  5
196
330
1F
100
AcDbEntity
  8
0
  6
Continuous
 62
     7
100
AcDbLine
 10
6406.536637759
 20
5304.3643668671
 30
0.0
 11
6404.4983973263
 21
5297.1152499695
 31
0.0
  0
LINE
  5
197
330
1F
100
AcDbEntity
  8
0
  6
Continuous
 62
     7
100
AcDbLine
 10
6404.4983973263
 20
5297.1152499695
 30
0.0
 11
6402.3972143886
 21
5289.6416619797
 31
0.0
  0
LINE
  5
198
330
1F
100
AcDbEntity
  8
0
  6
Continuous
 62
     7
100
AcDbLine
 10
6402.3972143886
 20
5289.6416619797
 30
0.0
 11
6400.2352347133
 21
5281.9524839897
 31
0.0
  0
LINE
  5
199
330
1F
100
AcDbEntity
  8
0
  6
Continuous
 62
     7
100
AcDbLine
 10
6400.2352347133
 20
5281.9524839897
 30
0.0
 11
6398.0153193233
 21
5274.0569547196
 31
0.0
  0
LINE
  5
19A
330
1F
100
AcDbEntity
  8
0
  6
Continuous
 62
     7
100
AcDbLine
 10
6398.0153193233
 20
5274.0569547196
 30
0.0
 11
6395.740090823
 21
5265.9644917031
 31
0.0
  0
LINE
  5
19B
330
1F
100
AcDbEntity
  8
0
  6
Continuous
 62
     7
100
AcDbLine
 10
6395.740090823
 20
5265.9644917031
 30
0.0
 11
6393.411933398
 21
5257.6847508927
 31
0.0
  0
LINE
  5
19C
330
1F
100
AcDbEntity
  8
0
  6
Continuous
 62
     7
100
AcDbLine
 10
6393.411933398
 20
5257.6847508927
 30
0.0
 11
6391.0341849087
 21
5249.2275074501
 31
0.0
  0
LINE
  5
19D
330
1F
100
AcDbEntity
  8
0
  6
Continuous
 62
     7
100
AcDbLine
 10
6391.0341849087
 20
5249.2275074501
 30
0.0
 11
6388.6092295406
 21
5240.6030133744
 31
0.0
  0
LINE
  5
19E
330
1F
100
AcDbEntity
  8
0
  6
Continuous
 62
     7
100
AcDbLine
 10
6388.6092295406
 20
5240.6030133744
 30
0.0
 11
6386.1401667354
 21
5231.8214610596
 31
0.0
  0
LINE
  5
19F
330
1F
100
AcDbEntity
  8
0
  6
Continuous
 62
     7
100
AcDbLine
 10
6386.1401667354
 20
5231.8214610596
 30
0.0
 11
6383.6298575161
 21
5222.8933409233
 31
0.0
  0
LINE
  5
1A0
330
1F
100
AcDbEntity
  8
0
  6
Continuous
 62
     7
100
AcDbLine
 10
6383.6298575161
 20
5222.8933409233
 30
0.0
 11
6381.0814013241
 21
5213.829322197
 31
0.0
  0
LINE
  5
1A1
330
1F
100
AcDbEntity
  8
0
  6
Continuous
 62
     7
100
AcDbLine
 10
6381.0814013241
 20
5213.829322197
 30
0.0
 11
6378.4976591823
 21
5204.6401933213
 31
0.0
  0
LINE
  5
1A2
330
1F
100
AcDbEntity
  8
0
  6
Continuous
 62
     7
100
AcDbLine
 10
6378.4976591823
 20
5204.6401933213
 30
0.0
 11
6375.881968951
 21
5195.3369811554
 31
0.0
  0
LINE
  5
1A3
330
1F
100
AcDbEntity
  8
0
  6
Continuous
 62
     7
100
AcDbLine
 10
6375.881968951
 20
5195.3369811554
 30
0.0
 11
6373.237191653
 21
5185.9307125588
 31
0.0
  0
LINE
  5
1A4
330
1F
100
AcDbEntity
  8
0
  6
Continuous
 62
     7
100
AcDbLine
 10
6373.237191653
 20
5185.9307125588
 30
0.0
 11
6370.5666651485
 21
5176.4326528092
 31
0.0
  0
LINE
  5
1A5
330
1F
100
AcDbEntity
  8
0
  6
Continuous
 62
     7
100
AcDbLine
 10
6370.5666651485
 20
5176.4326528092
 30
0.0
 11
6367.873488879
 21
5166.8541267891
 31
0.0
  0
LINE
  5
1A6
330
1F
100
AcDbEntity
  8
0
  6
Continuous
 62
     7
100
AcDbLine
 10
6367.873488879
 20
5166.8541267891
 30
0.0
 11
6365.1610007046
 21
5157.2065785904
 31
0.0
  0
LINE
  5
1A7
330
1F
100
AcDbEntity
  8
0
  6
Continuous
 62
     7
100
AcDbLine
 10
6365.1610007046
 20
5157.2065785904
 30
0.0
 11
6362.4320616482
 21
5147.5014821072
 31
0.0
  0
LINE
  5
1A8
330
1F
100
AcDbEntity
  8
0
  6
Continuous
 62
     7
100
AcDbLine
 10
6362.4320616482
 20
5147.5014821072
 30
0.0
 11
6359.6904864071
 21
5137.7504602452
 31
0.0
  0
LINE
  5
1A9
330
1F
100
AcDbEntity
  8
0
  6
Continuous
 62
     7
100
AcDbLine
 10
6359.6904864071
 20
5137.7504602452
 30
0.0
 11
6356.9391360042
 21
5127.9651061077
 31
0.0
  0
LINE
  5
1AA
330
1F
100
AcDbEntity
  8
0
  6
Continuous
 62
     7
100
AcDbLine
 10
6356.9391360042
 20
5127.9651061077
 30
0.0
 11
6354.1815867184
 21
5118.1571320076
 31
0.0
  0
LINE
  5
1AB
330
1F
100
AcDbEntity
  8
0
  6
Continuous
 62
     7
100
AcDbLine
 10
6354.1815867184
 20
5118.1571320076
 30
0.0
 11
6351.4206995724
 21
5108.3382204552
 31
0.0
  0
LINE
  5
1AC
330
1F
100
AcDbEntity
  8
0
  6
Continuous
 62
     7
100
AcDbLine
 10
6351.4206995724
 20
5108.3382204552
 30
0.0
 11
6348.6602892635
 21
5098.5200837631
 31
0.0
  0
LINE
  5
1AD
330
1F
100
AcDbEntity
  8
0
  6
Continuous
 62
     7
100
AcDbLine
 10
6369.1025366543
 20
5169.3780854721
 30
0.0
 11
6368.8040365932
 21
5168.3167651673
 31
0.0
  0
LINE
  5
1AE
330
1F
100
AcDbEntity
  8
0
  6
Continuous
 62
     7
100
AcDbLine
 10
6368.8040365932
 20
5168.3167651673
 30
0.0
 11
6368.4681048153
 21
5167.1215728302
 31
0.0
  0
LINE
  5
1AF
330
1F
100
AcDbEntity
  8
0
  6
Continuous
 62
     7
100
AcDbLine
 10
6368.4681048153
 20
5167.1215728302
 30
0.0
 11
6368.1216826198
 21
5165.8894256134
 31
0.0
  0
LINE
  5
1B0
330
1F
100
AcDbEntity
  8
0
  6
Continuous
 62
     7
100
AcDbLine
 10
6368.1216826198
 20
5165.8894256134
 30
0.0
 11
6367.7929033993
 21
5164.7200420876
 31
0.0
  0
LINE
  5
1B1
330
1F
100
AcDbEntity
  8
0
  6
Continuous
 62
     7
100
AcDbLine
 10
6367.7929033993
 20
5164.7200420876
 30
0.0
 11
6367.5082316158
 21
5163.7082532425
 31
0.0
  0
LINE
  5
1B2
330
1F
100
AcDbEntity
  8
0
  6
Continuous
 62
     7
100
AcDbLine
 10
6367.5082316158
 20
5163.7082532425
 30
0.0
 11
6367.2912707088
 21
5162.9359856625
 31
0.0
  0
LINE
  5
1B3
330
1F
100
AcDbEntity
  8
0
  6
Continuous
 62
     7
100
AcDbLine
 10
6367.2912707088
 20
5162.9359856625
 30
0.0
 11
6367.1589483974
 21
5162.4657944222
 31
0.0
  0
LINE
  5
1B4
330
1F
100
AcDbEntity
  8
0
  6
Continuous
 62
     7
100
AcDbLine
 10
6367.1589483974
 20
5162.4657944222
 30
0.0
 11
6367.1215166805
 21
5162.3328164597
 31
0.0
  0
LINE
  5
1B5
330
1F
100
AcDbEntity
  8
0
  6
Continuous
 62
     7
100
AcDbLine
 10
6369.5576777218
 20
5170.9968880196
 30
0.0
 11
6369.5567240475
 21
5170.9938481827
 31
0.0
  0
LINE
  5
1B6
330
1F
100
AcDbEntity
  8
0
  6
Continuous
 62
     7
100
AcDbLine
 10
6369.5567240475
 20
5170.9938481827
 30
0.0
 11
6369.4947352169
 21
5170.7731321831
 31
0.0
  0
LINE
  5
1B7
330
1F
100
AcDbEntity
  8
0
  6
Continuous
 62
     7
100
AcDbLine
 10
6369.4947352169
 20
5170.7731321831
 30
0.0
 11
6369.3390478847
 21
5170.2196434517
 31
0.0
  0
LINE
  5
1B8
330
1F
100
AcDbEntity
  8
0
  6
Continuous
 62
     7
100
AcDbLine
 10
6369.3390478847
 20
5170.2196434517
 30
0.0
 11
6369.1025366543
 21
5169.3780854721
 31
0.0
  0
LINE
  5
1B9
330
1F
100
AcDbEntity
  8
0
  6
Continuous
 62
     7
100
AcDbLine
 10
6370.9688772915
 20
5165.1465133209
 30
0.0
 11
6370.9769835232
 21
5165.1754811783
 31
0.0
  0
LINE
  5
1BA
330
1F
100
AcDbEntity
  8
0
  6
Continuous
 62
     7
100
AcDbLine
 10
6370.9769835232
 20
5165.1754811783
 30
0.0
 11
6371.0134615658
 21
5165.3056577225
 31
0.0
  0
LINE
  5
1BB
330
1F
100
AcDbEntity
  8
0
  6
Continuous
 62
     7
100
AcDbLine
 10
6371.0134615658
 20
5165.3056577225
 30
0.0
 11
6371.0742583034
 21
5165.5216053505
 31
0.0
  0
LINE
  5
1BC
330
1F
100
AcDbEntity
  8
0
  6
Continuous
 62
     7
100
AcDbLine
 10
6371.0742583034
 20
5165.5216053505
 30
0.0
 11
6371.149836993
 21
5165.7903030892
 31
0.0
  0
LINE
  5
1BD
330
1F
100
AcDbEntity
  8
0
  6
Continuous
 62
     7
100
AcDbLine
 10
6371.149836993
 20
5165.7903030892
 30
0.0
 11
6371.2287535427
 21
5166.0709217568
 31
0.0
  0
LINE
  5
1BE
330
1F
100
AcDbEntity
  8
0
  6
Continuous
 62
     7
100
AcDbLine
 10
6371.2287535427
 20
5166.0709217568
 30
0.0
 11
6371.2988486049
 21
5166.320724823
 31
0.0
  0
LINE
  5
1BF
330
1F
100
AcDbEntity
  8
0
  6
Continuous
 62
     7
100
AcDbLine
 10
6371.2988486049
 20
5166.320724823
 30
0.0
 11
6371.3498701809
 21
5166.5016845246
 31
0.0
  0
LINE
  5
1C0
330
1F
100
AcDbEntity
  8
0
  6
Continuous
 62
     7
100
AcDbLine
 10
6371.3498701809
 20
5166.5016845246
 30
0.0
 11
6371.3734736202
 21
5166.5862635155
 31
0.0
  0
LINE
  5
1C1
330
1F
100
AcDbEntity
  8
0
  6
Continuous
 62
     7
100
AcDbLine
 10
6371.3734736202
 20
5166.5862635155
 30
0.0
 11
6371.3746657131
 21
5166.5905550499
 31
0.0
  0
LINE
  5
1C2
330
1F
100
AcDbEntity
  8
0
  6
Continuous
 62
     7
100
AcDbLine
 10
6102.2222657763
 20
5283.135685334
 30
0.0
 11
6101.8968244158
 21
5284.2929691169
 31
0.0
  0
LINE
  5
1C3
330
1F
100
AcDbEntity
  8
0
  6
Continuous
 62
     7
100
AcDbLine
 10
6101.8968244158
 20
5284.2929691169
 30
0.0
 11
6101.6183515154
 21
5285.2835387085
 31
0.0
  0
LINE
  5
1C4
330
1F
100
AcDbEntity
  8
0
  6
Continuous
 62
     7
100
AcDbLine
 10
6101.6183515154
 20
5285.2835387085
 30
0.0
 11
6101.4092584216
 21
5286.027106652
 31
0.0
  0
LINE
  5
1C5
330
1F
100
AcDbEntity
  8
0
  6
Continuous
 62
     7
100
AcDbLine
 10
6101.4092584216
 20
5286.027106652
 30
0.0
 11
6101.2864728533
 21
5286.4634126519
 31
0.0
  0
LINE
  5
1C6
330
1F
100
AcDbEntity
  8
0
  6
Continuous
 62
     7
100
AcDbLine
 10
6101.2864728533
 20
5286.4634126519
 30
0.0
 11
6101.2573857867
 21
5286.5668267105
 31
0.0
  0
LINE
  5
1C7
330
1F
100
AcDbEntity
  8
0
  6
Continuous
 62
     7
100
AcDbLine
 10
6103.6935468279
 20
5277.9027551506
 30
0.0
 11
6103.6909242236
 21
5277.912411103
 31
0.0
  0
LINE
  5
1C8
330
1F
100
AcDbEntity
  8
0
  6
Continuous
 62
     7
100
AcDbLine
 10
6103.6909242236
 20
5277.912411103
 30
0.0
 11
6103.6186833941
 21
5278.1688302848
 31
0.0
  0
LINE
  5
1C9
330
1F
100
AcDbEntity
  8
0
  6
Continuous
 62
     7
100
AcDbLine
 10
6103.6186833941
 20
5278.1688302848
 30
0.0
 11
6103.4539361559
 21
5278.7546247337
 31
0.0
  0
LINE
  5
1CA
330
1F
100
AcDbEntity
  8
0
  6
Continuous
 62
     7
100
AcDbLine
 10
6103.4539361559
 20
5278.7546247337
 30
0.0
 11
6103.2100339495
 21
5279.622408757
 31
0.0
  0
LINE
  5
1CB
330
1F
100
AcDbEntity
  8
0
  6
Continuous
 62
     7
100
AcDbLine
 10
6103.2100339495
 20
5279.622408757
 30
0.0
 11
6102.9065270983
 21
5280.7017892692
 31
0.0
  0
LINE
  5
1CC
330
1F
100
AcDbEntity
  8
0
  6
Continuous
 62
     7
100
AcDbLine
 10
6102.9065270983
 20
5280.7017892692
 30
0.0
 11
6102.5682111346
 21
5281.9053858612
 31
0.0
  0
LINE
  5
1CD
330
1F
100
AcDbEntity
  8
0
  6
Continuous
 62
     7
100
AcDbLine
 10
6102.5682111346
 20
5281.9053858612
 30
0.0
 11
6102.2222657763
 21
5283.135685334
 31
0.0
  0
LINE
  5
1CE
330
1F
100
AcDbEntity
  8
0
  6
Continuous
 62
     7
100
AcDbLine
 10
6099.4403948543
 20
5282.1605042
 30
0.0
 11
6099.4437327144
 21
5282.1484044571
 31
0.0
  0
LINE
  5
1CF
330
1F
100
AcDbEntity
  8
0
  6
Continuous
 62
     7
100
AcDbLine
 10
6099.4437327144
 20
5282.1484044571
 30
0.0
 11
6099.4730581997
 21
5282.0440367241
 31
0.0
  0
LINE
  5
1D0
330
1F
100
AcDbEntity
  8
0
  6
Continuous
 62
     7
100
AcDbLine
 10
6099.4730581997
 20
5282.0440367241
 30
0.0
 11
6099.52837131
 21
5281.8474606056
 31
0.0
  0
LINE
  5
1D1
330
1F
100
AcDbEntity
  8
0
  6
Continuous
 62
     7
100
AcDbLine
 10
6099.52837131
 20
5281.8474606056
 30
0.0
 11
6099.6010889767
 21
5281.588657238
 31
0.0
  0
LINE
  5
1D2
330
1F
100
AcDbEntity
  8
0
  6
Continuous
 62
     7
100
AcDbLine
 10
6099.6010889767
 20
5281.588657238
 30
0.0
 11
6099.6802439449
 21
5281.3069656868
 31
0.0
  0
LINE
  5
1D3
330
1F
100
AcDbEntity
  8
0
  6
Continuous
 62
     7
100
AcDbLine
 10
6099.6802439449
 20
5281.3069656868
 30
0.0
 11
6099.7539152859
 21
5281.0453012963
 31
0.0
  0
LINE
  5
1D4
330
1F
100
AcDbEntity
  8
0
  6
Continuous
 62
     7
100
AcDbLine
 10
6099.7539152859
 20
5281.0453012963
 30
0.0
 11
6099.8106589077
 21
5280.843479969
 31
0.0
  0
LINE
  5
1D5
330
1F
100
AcDbEntity
  8
0
  6
Continuous
 62
     7
100
AcDbLine
 10
6099.8106589077
 20
5280.843479969
 30
0.0
 11
6099.8418917415
 21
5280.7323173065
 31
0.0
  0
LINE
  5
1D6
330
1F
100
AcDbEntity
  8
0
  6
Continuous
 62
     7
100
AcDbLine
 10
6099.8418917415
 20
5280.7323173065
 30
0.0
 11
6099.8464216945
 21
5280.7165220757
 31
0.0
  0
LINE
  5
1D7
330
1F
100
AcDbEntity
  8
0
  6
Continuous
 62
     7
100
AcDbLine
 10
6422.512828326
 20
5359.3377307434
 30
0.0
 11
6422.1683134792
 21
5358.1123188515
 31
0.0
  0
LINE
  5
1D8
330
1F
100
AcDbEntity
  8
0
  6
Continuous
 62
     7
100
AcDbLine
 10
6422.1683134792
 20
5358.1123188515
 30
0.0
 11
6421.8483557461
 21
5356.9748834152
 31
0.0
  0
LINE
  5
1D9
330
1F
100
AcDbEntity
  8
0
  6
Continuous
 62
     7
100
AcDbLine
 10
6421.8483557461
 20
5356.9748834152
 30
0.0
 11
6421.5794195888
 21
5356.0176924248
 31
0.0
  0
LINE
  5
1DA
330
1F
100
AcDbEntity
  8
0
  6
Continuous
 62
     7
100
AcDbLine
 10
6421.5794195888
 20
5356.0176924248
 30
0.0
 11
6421.3827242611
 21
5355.3182319184
 31
0.0
  0
LINE
  5
1DB
330
1F
100
AcDbEntity
  8
0
  6
Continuous
 62
     7
100
AcDbLine
 10
6421.3827242611
 20
5355.3182319184
 30
0.0
 11
6421.2744822262
 21
5354.9331859131
 31
0.0
  0
LINE
  5
1DC
330
1F
100
AcDbEntity
  8
0
  6
Continuous
 62
     7
100
AcDbLine
 10
6421.2744822262
 20
5354.9331859131
 30
0.0
 11
6421.255885577
 21
5354.8672035713
 31
0.0
  0
LINE
  5
1DD
330
1F
100
AcDbEntity
  8
0
  6
Continuous
 62
     7
100
AcDbLine
 10
6423.6918081997
 20
5363.5312155266
 30
0.0
 11
6423.6844172237
 21
5363.5046914597
 31
0.0
  0
LINE
  5
1DE
330
1F
100
AcDbEntity
  8
0
  6
Continuous
 62
     7
100
AcDbLine
 10
6423.6844172237
 20
5363.5046914597
 30
0.0
 11
6423.5973944423
 21
5363.1952837486
 31
0.0
  0
LINE
  5
1DF
330
1F
100
AcDbEntity
  8
0
  6
Continuous
 62
     7
100
AcDbLine
 10
6423.5973944423
 20
5363.1952837486
 30
0.0
 11
6423.4192957638
 21
5362.5621632118
 31
0.0
  0
LINE
  5
1E0
330
1F
100
AcDbEntity
  8
0
  6
Continuous
 62
     7
100
AcDbLine
 10
6423.4192957638
 20
5362.5621632118
 30
0.0
 11
6423.1646647213
 21
5361.6566494484
 31
0.0
  0
LINE
  5
1E1
330
1F
100
AcDbEntity
  8
0
  6
Continuous
 62
     7
100
AcDbLine
 10
6423.1646647213
 20
5361.6566494484
 30
0.0
 11
6422.8542437313
 21
5360.5519965668
 31
0.0
  0
LINE
  5
1E2
330
1F
100
AcDbEntity
  8
0
  6
Continuous
 62
     7
100
AcDbLine
 10
6422.8542437313
 20
5360.5519965668
 30
0.0
 11
6422.512828326
 21
5359.3377307434
 31
0.0
  0
LINE
  5
1E3
330
1F
100
AcDbEntity
  8
0
  6
Continuous
 62
     7
100
AcDbLine
 10
6425.1030077694
 20
5357.6809004326
 30
0.0
 11
6425.1030077694
 21
5357.6812580605
 31
0.0
  0
LINE
  5
1E4
330
1F
100
AcDbEntity
  8
0
  6
Continuous
 62
     7
100
AcDbLine
 10
6425.1030077694
 20
5357.6812580605
 30
0.0
 11
6425.1211275814
 21
5357.7450350304
 31
0.0
  0
LINE
  5
1E5
330
1F
100
AcDbEntity
  8
0
  6
Continuous
 62
     7
100
AcDbLine
 10
6425.1211275814
 20
5357.7450350304
 30
0.0
 11
6425.1671423672
 21
5357.9089478035
 31
0.0
  0
LINE
  5
1E6
330
1F
100
AcDbEntity
  8
0
  6
Continuous
 62
     7
100
AcDbLine
 10
6425.1671423672
 20
5357.9089478035
 30
0.0
 11
6425.2343764065
 21
5358.1480816384
 31
0.0
  0
LINE
  5
1E7
330
1F
100
AcDbEntity
  8
0
  6
Continuous
 62
     7
100
AcDbLine
 10
6425.2343764065
 20
5358.1480816384
 30
0.0
 11
6425.3125777004
 21
5358.4260180969
 31
0.0
  0
LINE
  5
1E8
330
1F
100
AcDbEntity
  8
0
  6
Continuous
 62
     7
100
AcDbLine
 10
6425.3125777004
 20
5358.4260180969
 30
0.0
 11
6425.3895869015
 21
5358.7003782768
 31
0.0
  0
LINE
  5
1E9
330
1F
100
AcDbEntity
  8
0
  6
Continuous
 62
     7
100
AcDbLine
 10
6425.3895869015
 20
5358.7003782768
 30
0.0
 11
6425.4539599178
 21
5358.9294985314
 31
0.0
  0
LINE
  5
1EA
330
1F
100
AcDbEntity
  8
0
  6
Continuous
 62
     7
100
AcDbLine
 10
6425.4539599178
 20
5358.9294985314
 30
0.0
 11
6425.4959215877
 21
5359.0784505387
 31
0.0
  0
LINE
  5
1EB
330
1F
100
AcDbEntity
  8
0
  6
Continuous
 62
     7
100
AcDbLine
 10
6425.4959215877
 20
5359.0784505387
 30
0.0
 11
6425.5090346096
 21
5359.1249421616
 31
0.0
  0
LINE
  5
1EC
330
1F
100
AcDbEntity
  8
0
  6
Continuous
 62
     7
100
AcDbLine
 10
6401.86172626
 20
5285.889907219
 30
0.0
 11
6401.6416659115
 21
5285.1071194191
 31
0.0
  0
LINE
  5
1ED
330
1F
100
AcDbEntity
  8
0
  6
Continuous
 62
     7
100
AcDbLine
 10
6401.6416659115
 20
5285.1071194191
 30
0.0
 11
6401.3550867794
 21
5284.0876415749
 31
0.0
  0
LINE
  5
1EE
330
1F
100
AcDbEntity
  8
0
  6
Continuous
 62
     7
100
AcDbLine
 10
6401.3550867794
 20
5284.0876415749
 30
0.0
 11
6401.0251154659
 21
5282.9140857239
 31
0.0
  0
LINE
  5
1EF
330
1F
100
AcDbEntity
  8
0
  6
Continuous
 62
     7
100
AcDbLine
 10
6401.0251154659
 20
5282.9140857239
 30
0.0
 11
6400.6784548519
 21
5281.6814616699
 31
0.0
  0
LINE
  5
1F0
330
1F
100
AcDbEntity
  8
0
  6
Continuous
 62
     7
100
AcDbLine
 10
6400.6784548519
 20
5281.6814616699
 30
0.0
 11
6400.3434767483
 21
5280.4897264023
 31
0.0
  0
LINE
  5
1F1
330
1F
100
AcDbEntity
  8
0
  6
Continuous
 62
     7
100
AcDbLine
 10
6400.3434767483
 20
5280.4897264023
 30
0.0
 11
6400.0468840359
 21
5279.4353202362
 31
0.0
  0
LINE
  5
1F2
330
1F
100
AcDbEntity
  8
0
  6
Continuous
 62
     7
100
AcDbLine
 10
6400.0468840359
 20
5279.4353202362
 30
0.0
 11
6399.8129954098
 21
5278.6037162323
 31
0.0
  0
LINE
  5
1F3
330
1F
100
AcDbEntity
  8
0
  6
Continuous
 62
     7
100
AcDbLine
 10
6399.8129954098
 20
5278.6037162323
 30
0.0
 11
6399.6608843563
 21
5278.0623272438
 31
0.0
  0
LINE
  5
1F4
330
1F
100
AcDbEntity
  8
0
  6
Continuous
 62
     7
100
AcDbLine
 10
6399.6608843563
 20
5278.0623272438
 30
0.0
 11
6399.6024718044
 21
5277.85490308
 31
0.0
  0
LINE
  5
1F5
330
1F
100
AcDbEntity
  8
0
  6
Continuous
 62
     7
100
AcDbLine
 10
6399.6024718044
 20
5277.85490308
 30
0.0
 11
6399.6022333858
 21
5277.8534129639
 31
0.0
  0
LINE
  5
1F6
330
1F
100
AcDbEntity
  8
0
  6
Continuous
 62
     7
100
AcDbLine
 10
6402.0381560085
 20
5286.5174845238
 30
0.0
 11
6401.9973864315
 21
5286.3725856323
 31
0.0
  0
LINE
  5
1F7
330
1F
100
AcDbEntity
  8
0
  6
Continuous
 62
     7
100
AcDbLine
 10
6401.9973864315
 20
5286.3725856323
 30
0.0
 11
6401.86172626
 21
5285.889907219
 31
0.0
  0
LINE
  5
1F8
330
1F
100
AcDbEntity
  8
0
  6
Continuous
 62
     7
100
AcDbLine
 10
6403.4493555782
 20
5280.6671694298
 30
0.0
 11
6403.4550776241
 21
5280.6879118462
 31
0.0
  0
LINE
  5
1F9
330
1F
100
AcDbEntity
  8
0
  6
Continuous
 62
     7
100
AcDbLine
 10
6403.4550776241
 20
5280.6879118462
 30
0.0
 11
6403.4886946438
 21
5280.8070615311
 31
0.0
  0
LINE
  5
1FA
330
1F
100
AcDbEntity
  8
0
  6
Continuous
 62
     7
100
AcDbLine
 10
6403.4886946438
 20
5280.8070615311
 30
0.0
 11
6403.5471071956
 21
5281.0148433228
 31
0.0
  0
LINE
  5
1FB
330
1F
100
AcDbEntity
  8
0
  6
Continuous
 62
     7
100
AcDbLine
 10
6403.5471071956
 20
5281.0148433228
 30
0.0
 11
6403.6214937923
 21
5281.2796071549
 31
0.0
  0
LINE
  5
1FC
330
1F
100
AcDbEntity
  8
0
  6
Continuous
 62
     7
100
AcDbLine
 10
6403.6214937923
 20
5281.2796071549
 30
0.0
 11
6403.7006487606
 21
5281.5610602875
 31
0.0
  0
LINE
  5
1FD
330
1F
100
AcDbEntity
  8
0
  6
Continuous
 62
     7
100
AcDbLine
 10
6403.7006487606
 20
5281.5610602875
 30
0.0
 11
6403.7724127529
 21
5281.8163469811
 31
0.0
  0
LINE
  5
1FE
330
1F
100
AcDbEntity
  8
0
  6
Continuous
 62
     7
100
AcDbLine
 10
6403.7724127529
 20
5281.8163469811
 30
0.0
 11
6403.8258185146
 21
5282.0065454025
 31
0.0
  0
LINE
  5
1FF
330
1F
100
AcDbEntity
  8
0
  6
Continuous
 62
     7
100
AcDbLine
 10
6403.8258185146
 20
5282.0065454025
 30
0.0
 11
6403.8529982326
 21
5282.1028069039
 31
0.0
  0
LINE
  5
200
330
1F
100
AcDbEntity
  8
0
  6
Continuous
 62
     7
100
AcDbLine
 10
6403.8529982326
 20
5282.1028069039
 30
0.0
 11
6403.8553824184
 21
5282.1111515541
 31
0.0
  0
LINE
  5
201
330
1F
100
AcDbEntity
  8
0
  6
Continuous
 62
     7
100
AcDbLine
 10
6081.8584551571
 20
5355.5620149155
 30
0.0
 11
6081.6362490413
 21
5356.3522532959
 31
0.0
  0
LINE
  5
202
330
1F
100
AcDbEntity
  8
0
  6
Continuous
 62
     7
100
AcDbLine
 10
6081.6362490413
 20
5356.3522532959
 30
0.0
 11
6081.3480009792
 21
5357.3772147675
 31
0.0
  0
LINE
  5
203
330
1F
100
AcDbEntity
  8
0
  6
Continuous
 62
     7
100
AcDbLine
 10
6081.3480009792
 20
5357.3772147675
 30
0.0
 11
6081.0170759914
 21
5358.5536912461
 31
0.0
  0
LINE
  5
204
330
1F
100
AcDbEntity
  8
0
  6
Continuous
 62
     7
100
AcDbLine
 10
6081.0170759914
 20
5358.5536912461
 30
0.0
 11
6080.670653796
 21
5359.7865537186
 31
0.0
  0
LINE
  5
205
330
1F
100
AcDbEntity
  8
0
  6
Continuous
 62
     7
100
AcDbLine
 10
6080.670653796
 20
5359.7865537186
 30
0.0
 11
6080.3361525295
 21
5360.9757855911
 31
0.0
  0
LINE
  5
206
330
1F
100
AcDbEntity
  8
0
  6
Continuous
 62
     7
100
AcDbLine
 10
6080.3361525295
 20
5360.9757855911
 30
0.0
 11
6080.0412287472
 21
5362.0250657578
 31
0.0
  0
LINE
  5
207
330
1F
100
AcDbEntity
  8
0
  6
Continuous
 62
     7
100
AcDbLine
 10
6080.0412287472
 20
5362.0250657578
 30
0.0
 11
6079.8094858883
 21
5362.8494575997
 31
0.0
  0
LINE
  5
208
330
1F
100
AcDbEntity
  8
0
  6
Continuous
 62
     7
100
AcDbLine
 10
6079.8094858883
 20
5362.8494575997
 30
0.0
 11
6079.659520602
 21
5363.3820847054
 31
0.0
  0
LINE
  5
209
330
1F
100
AcDbEntity
  8
0
  6
Continuous
 62
     7
100
AcDbLine
 10
6079.659520602
 20
5363.3820847054
 30
0.0
 11
6079.6039690731
 21
5363.5798529167
 31
0.0
  0
LINE
  5
20A
330
1F
100
AcDbEntity
  8
0
  6
Continuous
 62
     7
100
AcDbLine
 10
6079.6039690731
 20
5363.5798529167
 30
0.0
 11
6079.6037306545
 21
5363.5805681725
 31
0.0
  0
LINE
  5
20B
330
1F
100
AcDbEntity
  8
0
  6
Continuous
 62
     7
100
AcDbLine
 10
6082.0398916958
 20
5354.9165562172
 30
0.0
 11
6081.9964995144
 21
5355.0703958054
 31
0.0
  0
LINE
  5
20C
330
1F
100
AcDbEntity
  8
0
  6
Continuous
 62
     7
100
AcDbLine
 10
6081.9964995144
 20
5355.0703958054
 30
0.0
 11
6081.8584551571
 21
5355.5620149155
 31
0.0
  0
LINE
  5
20D
330
1F
100
AcDbEntity
  8
0
  6
Continuous
 62
     7
100
AcDbLine
 10
6077.7867426632
 20
5359.1742948075
 30
0.0
 11
6077.7922262905
 21
5359.1548636933
 31
0.0
  0
LINE
  5
20E
330
1F
100
AcDbEntity
  8
0
  6
Continuous
 62
     7
100
AcDbLine
 10
6077.7922262905
 20
5359.1548636933
 30
0.0
 11
6077.8251280544
 21
5359.0376809616
 31
0.0
  0
LINE
  5
20F
330
1F
100
AcDbEntity
  8
0
  6
Continuous
 62
     7
100
AcDbLine
 10
6077.8251280544
 20
5359.0376809616
 30
0.0
 11
6077.8830637691
 21
5358.8314488907
 31
0.0
  0
LINE
  5
210
330
1F
100
AcDbEntity
  8
0
  6
Continuous
 62
     7
100
AcDbLine
 10
6077.8830637691
 20
5358.8314488907
 30
0.0
 11
6077.9572119472
 21
5358.567459919
 31
0.0
  0
LINE
  5
211
330
1F
100
AcDbEntity
  8
0
  6
Continuous
 62
     7
100
AcDbLine
 10
6077.9572119472
 20
5358.567459919
 30
0.0
 11
6078.0363669155
 21
5358.2858875771
 31
0.0
  0
LINE
  5
212
330
1F
100
AcDbEntity
  8
0
  6
Continuous
 62
     7
100
AcDbLine
 10
6078.0363669155
 20
5358.2858875771
 30
0.0
 11
6078.1083693264
 21
5358.0297068138
 31
0.0
  0
LINE
  5
213
330
1F
100
AcDbEntity
  8
0
  6
Continuous
 62
     7
100
AcDbLine
 10
6078.1083693264
 20
5358.0297068138
 30
0.0
 11
6078.1624903438
 21
5357.8378394623
 31
0.0
  0
LINE
  5
214
330
1F
100
AcDbEntity
  8
0
  6
Continuous
 62
     7
100
AcDbLine
 10
6078.1624903438
 20
5357.8378394623
 30
0.0
 11
6078.190146899
 21
5357.7394917984
 31
0.0
  0
LINE
  5
215
330
1F
100
AcDbEntity
  8
0
  6
Continuous
 62
     7
100
AcDbLine
 10
6078.190146899
 20
5357.7394917984
 30
0.0
 11
6078.1927695034
 21
5357.7302530785
 31
0.0
  0
LINE
  5
216
330
1F
100
AcDbEntity
  8
0
  6
Continuous
 62
     7
100
AcDbLine
 10
6136.1740221737
 20
5162.3821691056
 30
0.0
 11
6136.1542334316
 21
5162.4529198189
 31
0.0
  0
LINE
  5
217
330
1F
100
AcDbEntity
  8
0
  6
Continuous
 62
     7
100
AcDbLine
 10
6136.1542334316
 20
5162.4529198189
 30
0.0
 11
6136.0438456295
 21
5162.8451779862
 31
0.0
  0
LINE
  5
218
330
1F
100
AcDbEntity
  8
0
  6
Continuous
 62
     7
100
AcDbLine
 10
6136.0438456295
 20
5162.8451779862
 30
0.0
 11
6135.8454813717
 21
5163.5508969803
 31
0.0
  0
LINE
  5
219
330
1F
100
AcDbEntity
  8
0
  6
Continuous
 62
     7
100
AcDbLine
 10
6135.8454813717
 20
5163.5508969803
 30
0.0
 11
6135.5748762844
 21
5164.5128563423
 31
0.0
  0
LINE
  5
21A
330
1F
100
AcDbEntity
  8
0
  6
Continuous
 62
     7
100
AcDbLine
 10
6135.5748762844
 20
5164.5128563423
 30
0.0
 11
6135.2544417141
 21
5165.6532124062
 31
0.0
  0
LINE
  5
21B
330
1F
100
AcDbEntity
  8
0
  6
Continuous
 62
     7
100
AcDbLine
 10
6135.2544417141
 20
5165.6532124062
 30
0.0
 11
6134.9094500301
 21
5166.8794587631
 31
0.0
  0
LINE
  5
21C
330
1F
100
AcDbEntity
  8
0
  6
Continuous
 62
     7
100
AcDbLine
 10
6134.9094500301
 20
5166.8794587631
 30
0.0
 11
6134.568511462
 21
5168.0923536797
 31
0.0
  0
LINE
  5
21D
330
1F
100
AcDbEntity
  8
0
  6
Continuous
 62
     7
100
AcDbLine
 10
6134.568511462
 20
5168.0923536797
 30
0.0
 11
6134.2588057277
 21
5169.1936090965
 31
0.0
  0
LINE
  5
21E
330
1F
100
AcDbEntity
  8
0
  6
Continuous
 62
     7
100
AcDbLine
 10
6134.2588057277
 20
5169.1936090965
 30
0.0
 11
6134.0058436153
 21
5170.0939968605
 31
0.0
  0
LINE
  5
21F
330
1F
100
AcDbEntity
  8
0
  6
Continuous
 62
     7
100
AcDbLine
 10
6134.0058436153
 20
5170.0939968605
 30
0.0
 11
6133.8296522854
 21
5170.7205608864
 31
0.0
  0
LINE
  5
220
330
1F
100
AcDbEntity
  8
0
  6
Continuous
 62
     7
100
AcDbLine
 10
6133.8296522854
 20
5170.7205608864
 30
0.0
 11
6133.7447752712
 21
5171.0225180168
 31
0.0
  0
LINE
  5
221
330
1F
100
AcDbEntity
  8
0
  6
Continuous
 62
     7
100
AcDbLine
 10
6133.7447752712
 20
5171.0225180168
 30
0.0
 11
6133.738099551
 21
5171.0462406655
 31
0.0
  0
LINE
  5
222
330
1F
100
AcDbEntity
  8
0
  6
Continuous
 62
     7
100
AcDbLine
 10
6132.0076575039
 20
5166.3310960312
 30
0.0
 11
6132.0801367519
 21
5166.0731271286
 31
0.0
  0
LINE
  5
223
330
1F
100
AcDbEntity
  8
0
  6
Continuous
 62
     7
100
AcDbLine
 10
6132.0801367519
 20
5166.0731271286
 30
0.0
 11
6132.1595301388
 21
5165.7914355774
 31
0.0
  0
LINE
  5
224
330
1F
100
AcDbEntity
  8
0
  6
Continuous
 62
     7
100
AcDbLine
 10
6132.1595301388
 20
5165.7914355774
 30
0.0
 11
6132.2332014797
 21
5165.5290559311
 31
0.0
  0
LINE
  5
225
330
1F
100
AcDbEntity
  8
0
  6
Continuous
 62
     7
100
AcDbLine
 10
6132.2332014797
 20
5165.5290559311
 30
0.0
 11
6132.2904219387
 21
5165.3258636971
 31
0.0
  0
LINE
  5
226
330
1F
100
AcDbEntity
  8
0
  6
Continuous
 62
     7
100
AcDbLine
 10
6132.2904219387
 20
5165.3258636971
 30
0.0
 11
6132.3221316097
 21
5165.2127936859
 31
0.0
  0
LINE
  5
227
330
1F
100
AcDbEntity
  8
0
  6
Continuous
 62
     7
100
AcDbLine
 10
6132.3221316097
 20
5165.2127936859
 30
0.0
 11
6132.3268999813
 21
5165.1958659668
 31
0.0
  0
LINE
  5
228
330
1F
100
AcDbEntity
  8
0
  6
Continuous
 62
     7
100
AcDbLine
 10
6131.9208731411
 20
5166.6399076958
 30
0.0
 11
6131.9239725826
 21
5166.6287616272
 31
0.0
  0
LINE
  5
229
330
1F
100
AcDbEntity
  8
0
  6
Continuous
 62
     7
100
AcDbLine
 10
6131.9239725826
 20
5166.6287616272
 30
0.0
 11
6131.9528212307
 21
5166.5262416382
 31
0.0
  0
LINE
  5
22A
330
1F
100
AcDbEntity
  8
0
  6
Continuous
 62
     7
100
AcDbLine
 10
6131.9528212307
 20
5166.5262416382
 30
0.0
 11
6132.0076575039
 21
5166.3310960312
 31
0.0
  0
LINE
  5
22B
330
1F
100
AcDbEntity
  8
0
  6
Continuous
 62
     7
100
AcDbLine
 10
6370.1782812831
 20
5164.047940113
 30
0.0
 11
6369.9510683773
 21
5164.1117766876
 31
0.0
  0
LINE
  5
22C
330
1F
100
AcDbEntity
  8
0
  6
Continuous
 62
     7
100
AcDbLine
 10
6371.3167299984
 20
5168.0973008652
 30
0.0
 11
6371.1469759701
 21
5168.1450441857
 31
0.0
  0
LINE
  5
22D
330
1F
100
AcDbEntity
  8
0
  6
Continuous
 62
     7
100
AcDbLine
 10
6370.3160872219
 20
5164.1703680534
 30
0.0
 11
6370.0123419521
 21
5164.2557815094
 31
0.0
  0
LINE
  5
22E
330
1F
100
AcDbEntity
  8
0
  6
Continuous
 62
     7
100
AcDbLine
 10
6371.1653342007
 20
5167.9298118134
 30
0.0
 11
6371.3579764126
 21
5167.8756311913
 31
0.0
  0
LINE
  5
22F
330
1F
100
AcDbEntity
  8
0
  6
Continuous
 62
     7
100
AcDbLine
 10
6370.4109778164
 20
5164.5072535057
 30
0.0
 11
6370.2087988613
 21
5164.5640567322
 31
0.0
  0
LINE
  5
230
330
1F
100
AcDbEntity
  8
0
  6
Continuous
 62
     7
100
AcDbLine
 10
6100.4210134112
 20
5280.3860634658
 30
0.0
 11
6100.4658361041
 21
5280.3986400459
 31
0.0
  0
LINE
  5
231
330
1F
100
AcDbEntity
  8
0
  6
Continuous
 62
     7
100
AcDbLine
 10
6099.5865483843
 20
5283.3534211013
 30
0.0
 11
6099.8018403613
 21
5283.4139794204
 31
0.0
  0
LINE
  5
232
330
1F
100
AcDbEntity
  8
0
  6
Continuous
 62
     7
100
AcDbLine
 10
6100.5287786089
 20
5280.4489463661
 30
0.0
 11
6100.3165860735
 21
5280.3892821167
 31
0.0
  0
LINE
  5
233
330
1F
100
AcDbEntity
  8
0
  6
Continuous
 62
     7
100
AcDbLine
 10
6099.5243211352
 20
5283.2066744659
 30
0.0
 11
6099.847855147
 21
5283.2976311538
 31
0.0
  0
LINE
  5
234
330
1F
100
AcDbEntity
  8
0
  6
Continuous
 62
     7
100
AcDbLine
 10
6100.6823201739
 20
5279.4565290307
 30
0.0
 11
6100.7869859301
 21
5279.4859737251
 31
0.0
  0
LINE
  5
235
330
1F
100
AcDbEntity
  8
0
  6
Continuous
 62
     7
100
AcDbLine
 10
6100.635828551
 20
5279.6715229843
 30
0.0
 11
6100.5268712603
 21
5279.6409458015
 31
0.0
  0
LINE
  5
236
330
1F
100
AcDbEntity
  8
0
  6
Continuous
 62
     7
100
AcDbLine
 10
6100.3511538265
 20
5280.6345060845
 30
0.0
 11
6100.565015292
 21
5280.694647171
 31
0.0
  0
LINE
  5
237
330
1F
100
AcDbEntity
  8
0
  6
Continuous
 62
     7
100
AcDbLine
 10
6100.5247225521
 20
5280.8788255234
 30
0.0
 11
6100.2042879818
 21
5280.7887033005
 31
0.0
  0
LINE
  5
238
330
1F
100
AcDbEntity
  8
0
  6
Continuous
 62
     7
100
AcDbLine
 10
6424.4466414211
 20
5357.0593431969
 30
0.0
 11
6424.313603854
 21
5357.0967153092
 31
0.0
  0
LINE
  5
239
330
1F
100
AcDbEntity
  8
0
  6
Continuous
 62
     7
100
AcDbLine
 10
6425.2989878414
 20
5360.0915506859
 30
0.0
 11
6425.1292338131
 21
5360.1392940064
 31
0.0
  0
LINE
  5
23A
330
1F
100
AcDbEntity
  8
0
  6
Continuous
 62
     7
100
AcDbLine
 10
6424.5620360134
 20
5357.1021393318
 30
0.0
 11
6424.2795099972
 21
5357.1815923233
 31
0.0
  0
LINE
  5
23B
330
1F
100
AcDbEntity
  8
0
  6
Continuous
 62
     7
100
AcDbLine
 10
6425.0670065639
 20
5360.0666359444
 30
0.0
 11
6425.3714670895
 21
5359.9809840698
 31
0.0
  0
LINE
  5
23C
330
1F
100
AcDbEntity
  8
0
  6
Continuous
 62
     7
100
AcDbLine
 10
6424.4423498867
 20
5356.6758469124
 30
0.0
 11
6424.4263758419
 21
5356.6802576561
 31
0.0
  0
LINE
  5
23D
330
1F
100
AcDbEntity
  8
0
  6
Continuous
 62
     7
100
AcDbLine
 10
6403.623401141
 20
5282.9997375984
 30
0.0
 11
6403.4813036678
 21
5283.0397323151
 31
0.0
  0
LINE
  5
23E
330
1F
100
AcDbEntity
  8
0
  6
Continuous
 62
     7
100
AcDbLine
 10
6402.7705778835
 20
5279.9666956444
 30
0.0
 11
6402.6039232967
 21
5280.0135448952
 31
0.0
  0
LINE
  5
23F
330
1F
100
AcDbEntity
  8
0
  6
Continuous
 62
     7
100
AcDbLine
 10
6403.4114470241
 20
5282.9815581818
 30
0.0
 11
6403.6992182491
 21
5282.9006746788
 31
0.0
  0
LINE
  5
240
330
1F
100
AcDbEntity
  8
0
  6
Continuous
 62
     7
100
AcDbLine
 10
6402.8895487545
 20
5280.0209954758
 30
0.0
 11
6402.5908102749
 21
5280.1049784203
 31
0.0
  0
LINE
  5
241
330
1F
100
AcDbEntity
  8
0
  6
Continuous
 62
     7
100
AcDbLine
 10
6078.8503279446
 20
5357.1046427269
 30
0.0
 11
6078.9893259762
 21
5357.1437433739
 31
0.0
  0
LINE
  5
242
330
1F
100
AcDbEntity
  8
0
  6
Continuous
 62
     7
100
AcDbLine
 10
6077.9977431057
 20
5360.1370886345
 30
0.0
 11
6078.1670202968
 21
5360.1847127457
 31
0.0
  0
LINE
  5
243
330
1F
100
AcDbEntity
  8
0
  6
Continuous
 62
     7
100
AcDbLine
 10
6079.0198435543
 20
5357.2282627602
 30
0.0
 11
6078.7344565151
 21
5357.1479753037
 31
0.0
  0
LINE
  5
244
330
1F
100
AcDbEntity
  8
0
  6
Continuous
 62
     7
100
AcDbLine
 10
6077.9250254391
 20
5360.0271180649
 30
0.0
 11
6078.226386523
 21
5360.1118162651
 31
0.0
  0
LINE
  5
245
330
1F
100
AcDbEntity
  8
0
  6
Continuous
 62
     7
100
AcDbLine
 10
6078.8674940822
 20
5356.7307427902
 30
0.0
 11
6078.8529505489
 21
5356.7266896744
 31
0.0
  0
LINE
  5
246
330
1F
100
AcDbEntity
  8
0
  6
Continuous
 62
     7
100
AcDbLine
 10
6133.1318011043
 20
5164.0463307876
 30
0.0
 11
6133.3520998714
 21
5164.1083196182
 31
0.0
  0
LINE
  5
247
330
1F
100
AcDbEntity
  8
0
  6
Continuous
 62
     7
100
AcDbLine
 10
6131.9840540645
 20
5168.1286529084
 30
0.0
 11
6132.1733584163
 21
5168.1818798561
 31
0.0
  0
LINE
  5
248
330
1F
100
AcDbEntity
  8
0
  6
Continuous
 62
     7
100
AcDbLine
 10
6133.2755675075
 20
5164.2601922531
 30
0.0
 11
6132.9906573055
 21
5164.1800836106
 31
0.0
  0
LINE
  5
249
330
1F
100
AcDbEntity
  8
0
  6
Continuous
 62
     7
100
AcDbLine
 10
6131.9404234645
 20
5167.9155066987
 30
0.0
 11
6132.1635832546
 21
5167.9782703896
 31
0.0
  0
LINE
  5
24A
330
1F
100
AcDbEntity
  8
0
  6
Continuous
 62
     7
100
AcDbLine
 10
6133.0185522793
 20
5164.4487813492
 30
0.0
 11
6133.1301321743
 21
5164.4800737877
 31
0.0
  0
LINE
  5
24B
330
1F
100
AcDbEntity
  8
0
  6
Continuous
 62
     7
100
AcDbLine
 10
6132.9737295864
 20
5164.6748021622
 30
0.0
 11
6132.8604807613
 21
5164.6429732819
 31
0.0
  0
LINE
  5
24C
330
1F
100
AcDbEntity
  8
0
  6
Continuous
 62
     7
100
AcDbLine
 10
7316.6365638644
 20
5072.3405316849
 30
0.0
 11
7396.3933665576
 21
5391.2143797068
 31
0.0
  0
LINE
  5
24D
330
1F
100
AcDbEntity
  8
0
  6
Continuous
 62
     7
100
AcDbLine
 10
6867.0146480471
 20
5033.6994663258
 30
0.0
 11
7267.1612516314
 21
5033.6994663258
 31
0.0
  0
LINE
  5
24E
330
1F
100
AcDbEntity
  8
0
  6
Continuous
 62
     7
100
AcDbLine
 10
7296.0476294428
 20
5042.6880553742
 30
0.0
 11
7296.3798657328
 21
5042.9113343735
 31
0.0
  0
LINE
  5
24F
330
1F
100
AcDbEntity
  8
0
  6
Continuous
 62
     7
100
AcDbLine
 10
6890.2646467358
 20
5282.234831192
 30
0.0
 11
6890.2646467358
 21
5281.4385131378
 31
0.0
  0
LINE
  5
250
330
1F
100
AcDbEntity
  8
0
  6
Continuous
 62
     7
100
AcDbLine
 10
6891.7646572262
 20
5281.4385131378
 30
0.0
 11
6891.7646572262
 21
5282.234831192
 31
0.0
  0
LINE
  5
251
330
1F
100
AcDbEntity
  8
0
  6
Continuous
 62
     7
100
AcDbLine
 10
6892.7363768488
 20
5282.689555027
 30
0.0
 11
6892.7363768488
 21
5281.9692328949
 31
0.0
  0
LINE
  5
252
330
1F
100
AcDbEntity
  8
0
  6
Continuous
 62
     7
100
AcDbLine
 10
6889.2929271132
 20
5281.0597852249
 30
0.0
 11
6889.2929271132
 21
5281.780107357
 31
0.0
  0
LINE
  5
253
330
1F
100
AcDbEntity
  8
0
  6
Continuous
 62
     7
100
AcDbLine
 10
6892.0345619588
 20
5280.6099489708
 30
0.0
 11
6892.0345619588
 21
5279.9107864876
 31
0.0
  0
LINE
  5
254
330
1F
100
AcDbEntity
  8
0
  6
Continuous
 62
     7
100
AcDbLine
 10
6895.5146536499
 20
5282.234831192
 30
0.0
 11
6895.5146536499
 21
5282.3701337357
 31
0.0
  0
LINE
  5
255
330
1F
100
AcDbEntity
  8
0
  6
Continuous
 62
     7
100
AcDbLine
 10
6886.5146503121
 20
5282.3701337357
 30
0.0
 11
6886.5146503121
 21
5282.234831192
 31
0.0
  0
LINE
  5
256
330
1F
100
AcDbEntity
  8
0
  6
Continuous
 62
     7
100
AcDbLine
 10
6890.2646467358
 20
5359.2485621948
 30
0.0
 11
6890.2646467358
 21
5358.4522441406
 31
0.0
  0
LINE
  5
257
330
1F
100
AcDbEntity
  8
0
  6
Continuous
 62
     7
100
AcDbLine
 10
6891.7646572262
 20
5358.4522441406
 30
0.0
 11
6891.7646572262
 21
5359.2485621948
 31
0.0
  0
LINE
  5
258
330
1F
100
AcDbEntity
  8
0
  6
Continuous
 62
     7
100
AcDbLine
 10
6892.7850440413
 20
5359.312637188
 30
0.0
 11
6892.7850440413
 21
5358.5916594048
 31
0.0
  0
LINE
  5
259
330
1F
100
AcDbEntity
  8
0
  6
Continuous
 62
     7
100
AcDbLine
 10
6889.2442524702
 20
5358.4635690232
 30
0.0
 11
6889.2442524702
 21
5359.1844872017
 31
0.0
  0
LINE
  5
25A
330
1F
100
AcDbEntity
  8
0
  6
Continuous
 62
     7
100
AcDbLine
 10
6895.5146536499
 20
5359.2485621948
 30
0.0
 11
6895.5146536499
 21
5359.3839243431
 31
0.0
  0
LINE
  5
25B
330
1F
100
AcDbEntity
  8
0
  6
Continuous
 62
     7
100
AcDbLine
 10
6886.5146503121
 20
5359.3839243431
 30
0.0
 11
6886.5146503121
 21
5359.2485621948
 31
0.0
  0
LINE
  5
25C
330
1F
100
AcDbEntity
  8
0
  6
Continuous
 62
     7
100
AcDbLine
 10
6890.2646467358
 20
5166.7141750832
 30
0.0
 11
6890.2646467358
 21
5165.9179166336
 31
0.0
  0
LINE
  5
25D
330
1F
100
AcDbEntity
  8
0
  6
Continuous
 62
     7
100
AcDbLine
 10
6891.7646572262
 20
5165.9179166336
 30
0.0
 11
6891.7646572262
 21
5166.7141750832
 31
0.0
  0
LINE
  5
25E
330
1F
100
AcDbEntity
  8
0
  6
Continuous
 62
     7
100
AcDbLine
 10
6889.4575253397
 20
5166.9260695954
 30
0.0
 11
6889.4575253397
 21
5167.641265728
 31
0.0
  0
LINE
  5
25F
330
1F
100
AcDbEntity
  8
0
  6
Continuous
 62
     7
100
AcDbLine
 10
6892.5717637211
 20
5165.787144043
 30
0.0
 11
6892.5717637211
 21
5165.0719479103
 31
0.0
  0
LINE
  5
260
330
1F
100
AcDbEntity
  8
0
  6
Continuous
 62
     7
100
AcDbLine
 10
6889.6520898014
 20
5164.7535995026
 30
0.0
 11
6889.6520898014
 21
5165.4627159615
 31
0.0
  0
LINE
  5
261
330
1F
100
AcDbEntity
  8
0
  6
Continuous
 62
     7
100
AcDbLine
 10
6895.5146536499
 20
5166.7141750832
 30
0.0
 11
6895.5146536499
 21
5166.8495372315
 31
0.0
  0
LINE
  5
262
330
1F
100
AcDbEntity
  8
0
  6
Continuous
 62
     7
100
AcDbLine
 10
6886.5146503121
 20
5166.8495372315
 30
0.0
 11
6886.5146503121
 21
5166.7141750832
 31
0.0
  0
LINE
  5
263
330
1F
100
AcDbEntity
  8
0
  6
Continuous
 62
     7
100
AcDbLine
 10
7223.2444599539
 20
5391.214354374
 30
0.0
 11
7221.4743212134
 21
5391.1580875893
 31
0.0
  0
LINE
  5
264
330
1F
100
AcDbEntity
  8
0
  6
Continuous
 62
     7
100
AcDbLine
 10
6867.0146480471
 20
5393.6994508286
 30
0.0
 11
7221.4743212134
 21
5393.6994508286
 31
0.0
  0
LINE
  5
265
330
1F
100
AcDbEntity
  8
0
  6
Continuous
 62
     7
100
AcDbLine
 10
7221.4743212134
 20
5393.6994508286
 30
0.0
 11
7221.4743212134
 21
5391.1580875893
 31
0.0
  0
LINE
  5
266
330
1F
100
AcDbEntity
  8
0
  6
Continuous
 62
     7
100
AcDbLine
 10
7221.4743212134
 20
5391.1580875893
 30
0.0
 11
6867.0146480471
 21
5391.1580875893
 31
0.0
  0
LINE
  5
267
330
1F
100
AcDbEntity
  8
0
  6
Continuous
 62
     7
100
AcDbLine
 10
6867.0146480471
 20
5391.1580875893
 30
0.0
 11
6867.0146480471
 21
5393.6994508286
 31
0.0
  0
LINE
  5
268
330
1F
100
AcDbEntity
  8
0
  6
Continuous
 62
     7
100
AcDbLine
 10
7221.4743212134
 20
5393.6994508286
 30
0.0
 11
7223.177076903
 21
5393.6994508286
 31
0.0
  0
LINE
  5
269
330
1F
100
AcDbEntity
  8
0
  6
Continuous
 62
     7
100
AcDbLine
 10
7223.177076903
 20
5393.6994508286
 30
0.0
 11
7394.4531098277
 21
5393.6994508286
 31
0.0
  0
LINE
  5
26A
330
1F
100
AcDbEntity
  8
0
  6
Continuous
 62
     7
100
AcDbLine
 10
7253.1623557478
 20
5098.4983280678
 30
0.0
 11
7253.5670116812
 21
5098.5200837631
 31
0.0
  0
LINE
  5
26B
330
1F
100
AcDbEntity
  8
0
  6
Continuous
 62
     7
100
AcDbLine
 10
6867.0146480471
 20
5098.4983280678
 30
0.0
 11
7253.1623557478
 21
5098.4983280678
 31
0.0
  0
LINE
  5
26C
330
1F
100
AcDbEntity
  8
0
  6
Continuous
 62
     7
100
AcDbLine
 10
6867.0146480471
 20
5098.4983280678
 30
0.0
 11
6867.0146480471
 21
5391.1580875893
 31
0.0
  0
LINE
  5
26D
330
1F
100
AcDbEntity
  8
0
  6
Continuous
 62
     7
100
AcDbLine
 10
7275.2191439539
 20
5047.3712519188
 30
0.0
 11
7274.4403496653
 21
5048.7924352665
 31
0.0
  0
LINE
  5
26E
330
1F
100
AcDbEntity
  8
0
  6
Continuous
 62
     7
100
AcDbLine
 10
6867.0146480471
 20
5033.6994663258
 30
0.0
 11
6867.0146480471
 21
5098.4983280678
 31
0.0
  0
LINE
  5
26F
330
1F
100
AcDbEntity
  8
0
  6
Continuous
 62
     7
100
AcDbLine
 10
7298.56753501
 20
5067.2040716191
 30
0.0
 11
7299.5217457682
 21
5064.3609598656
 31
0.0
  0
LINE
  5
270
330
1F
100
AcDbEntity
  8
0
  6
Continuous
 62
     7
100
AcDbLine
 10
6895.4162761837
 20
5283.1356957932
 30
0.0
 11
6894.9743375451
 21
5284.2929795761
 31
0.0
  0
LINE
  5
271
330
1F
100
AcDbEntity
  8
0
  6
Continuous
 62
     7
100
AcDbLine
 10
6894.9743375451
 20
5284.2929795761
 30
0.0
 11
6894.2116067082
 21
5285.2835491677
 31
0.0
  0
LINE
  5
272
330
1F
100
AcDbEntity
  8
0
  6
Continuous
 62
     7
100
AcDbLine
 10
6894.2116067082
 20
5285.2835491677
 30
0.0
 11
6893.1898787886
 21
5286.0271171112
 31
0.0
  0
LINE
  5
273
330
1F
100
AcDbEntity
  8
0
  6
Continuous
 62
     7
100
AcDbLine
 10
6893.1898787886
 20
5286.0271171112
 30
0.0
 11
6891.9919297368
 21
5286.463423111
 31
0.0
  0
LINE
  5
274
330
1F
100
AcDbEntity
  8
0
  6
Continuous
 62
     7
100
AcDbLine
 10
6891.9919297368
 20
5286.463423111
 30
0.0
 11
6890.7147959143
 21
5286.5572408219
 31
0.0
  0
LINE
  5
275
330
1F
100
AcDbEntity
  8
0
  6
Continuous
 62
     7
100
AcDbLine
 10
6890.7147959143
 20
5286.5572408219
 30
0.0
 11
6889.4619733364
 21
5286.30082164
 31
0.0
  0
LINE
  5
276
330
1F
100
AcDbEntity
  8
0
  6
Continuous
 62
     7
100
AcDbLine
 10
6889.4619733364
 20
5286.30082164
 30
0.0
 11
6888.3349240095
 21
5285.7149675865
 31
0.0
  0
LINE
  5
277
330
1F
100
AcDbEntity
  8
0
  6
Continuous
 62
     7
100
AcDbLine
 10
6888.3349240095
 20
5285.7149675865
 30
0.0
 11
6887.4249771506
 21
5284.8472431679
 31
0.0
  0
LINE
  5
278
330
1F
100
AcDbEntity
  8
0
  6
Continuous
 62
     7
100
AcDbLine
 10
6887.4249771506
 20
5284.8472431679
 30
0.0
 11
6886.8058413536
 21
5283.7678626557
 31
0.0
  0
LINE
  5
279
330
1F
100
AcDbEntity
  8
0
  6
Continuous
 62
     7
100
AcDbLine
 10
6886.8058413536
 20
5283.7678626557
 30
0.0
 11
6886.5276813775
 21
5282.5642660637
 31
0.0
  0
LINE
  5
27A
330
1F
100
AcDbEntity
  8
0
  6
Continuous
 62
     7
100
AcDbLine
 10
6886.5276813775
 20
5282.5642660637
 30
0.0
 11
6886.6130277783
 21
5281.3339665909
 31
0.0
  0
LINE
  5
27B
330
1F
100
AcDbEntity
  8
0
  6
Continuous
 62
     7
100
AcDbLine
 10
6886.6130277783
 20
5281.3339665909
 30
0.0
 11
6887.054966417
 21
5280.1766828079
 31
0.0
  0
LINE
  5
27C
330
1F
100
AcDbEntity
  8
0
  6
Continuous
 62
     7
100
AcDbLine
 10
6887.054966417
 20
5280.1766828079
 30
0.0
 11
6887.8176898033
 21
5279.1861132164
 31
0.0
  0
LINE
  5
27D
330
1F
100
AcDbEntity
  8
0
  6
Continuous
 62
     7
100
AcDbLine
 10
6887.8176898033
 20
5279.1861132164
 30
0.0
 11
6888.8394177228
 21
5278.4425452728
 31
0.0
  0
LINE
  5
27E
330
1F
100
AcDbEntity
  8
0
  6
Continuous
 62
     7
100
AcDbLine
 10
6888.8394177228
 20
5278.4425452728
 30
0.0
 11
6890.0373742253
 21
5278.0061796684
 31
0.0
  0
LINE
  5
27F
330
1F
100
AcDbEntity
  8
0
  6
Continuous
 62
     7
100
AcDbLine
 10
6890.0373742253
 20
5278.0061796684
 30
0.0
 11
6891.3144931466
 21
5277.9124215622
 31
0.0
  0
LINE
  5
280
330
1F
100
AcDbEntity
  8
0
  6
Continuous
 62
     7
100
AcDbLine
 10
6891.3144931466
 20
5277.9124215622
 30
0.0
 11
6892.5673231751
 21
5278.168840744
 31
0.0
  0
LINE
  5
281
330
1F
100
AcDbEntity
  8
0
  6
Continuous
 62
     7
100
AcDbLine
 10
6892.5673231751
 20
5278.168840744
 30
0.0
 11
6893.694372502
 21
5278.7546351929
 31
0.0
  0
LINE
  5
282
330
1F
100
AcDbEntity
  8
0
  6
Continuous
 62
     7
100
AcDbLine
 10
6893.694372502
 20
5278.7546351929
 30
0.0
 11
6894.6043268115
 21
5279.6224192162
 31
0.0
  0
LINE
  5
283
330
1F
100
AcDbEntity
  8
0
  6
Continuous
 62
     7
100
AcDbLine
 10
6894.6043268115
 20
5279.6224192162
 30
0.0
 11
6895.2234551579
 21
5280.7017997284
 31
0.0
  0
LINE
  5
284
330
1F
100
AcDbEntity
  8
0
  6
Continuous
 62
     7
100
AcDbLine
 10
6895.2234551579
 20
5280.7017997284
 30
0.0
 11
6895.5016151339
 21
5281.9053963204
 31
0.0
  0
LINE
  5
285
330
1F
100
AcDbEntity
  8
0
  6
Continuous
 62
     7
100
AcDbLine
 10
6895.5016151339
 20
5281.9053963204
 30
0.0
 11
6895.4162761837
 21
5283.1356957932
 31
0.0
  0
LINE
  5
286
330
1F
100
AcDbEntity
  8
0
  6
Continuous
 62
     7
100
AcDbLine
 10
6892.0347556739
 20
5279.8987463494
 30
0.0
 11
6892.0355901389
 21
5279.8730567475
 31
0.0
  0
LINE
  5
287
330
1F
100
AcDbEntity
  8
0
  6
Continuous
 62
     7
100
AcDbLine
 10
6892.0355901389
 20
5279.8730567475
 30
0.0
 11
6892.036424604
 21
5279.8475459595
 31
0.0
  0
LINE
  5
288
330
1F
100
AcDbEntity
  8
0
  6
Continuous
 62
     7
100
AcDbLine
 10
6892.036424604
 20
5279.8475459595
 30
0.0
 11
6892.037259069
 21
5279.8221543808
 31
0.0
  0
LINE
  5
289
330
1F
100
AcDbEntity
  8
0
  6
Continuous
 62
     7
100
AcDbLine
 10
6892.037259069
 20
5279.8221543808
 30
0.0
 11
6892.038093534
 21
5279.7968820114
 31
0.0
  0
LINE
  5
28A
330
1F
100
AcDbEntity
  8
0
  6
Continuous
 62
     7
100
AcDbLine
 10
6892.038093534
 20
5279.7968820114
 30
0.0
 11
6892.0389130979
 21
5279.7717288513
 31
0.0
  0
LINE
  5
28B
330
1F
100
AcDbEntity
  8
0
  6
Continuous
 62
     7
100
AcDbLine
 10
6892.0389130979
 20
5279.7717288513
 30
0.0
 11
6892.0397475629
 21
5279.7467545052
 31
0.0
  0
LINE
  5
28C
330
1F
100
AcDbEntity
  8
0
  6
Continuous
 62
     7
100
AcDbLine
 10
6892.0397475629
 20
5279.7467545052
 30
0.0
 11
6892.0405671268
 21
5279.7218993683
 31
0.0
  0
LINE
  5
28D
330
1F
100
AcDbEntity
  8
0
  6
Continuous
 62
     7
100
AcDbLine
 10
6892.0405671268
 20
5279.7218993683
 30
0.0
 11
6892.0413866907
 21
5279.6971634407
 31
0.0
  0
LINE
  5
28E
330
1F
100
AcDbEntity
  8
0
  6
Continuous
 62
     7
100
AcDbLine
 10
6889.9945408374
 20
5283.1753328819
 30
0.0
 11
6889.9936989218
 21
5283.2074001808
 31
0.0
  0
LINE
  5
28F
330
1F
100
AcDbEntity
  8
0
  6
Continuous
 62
     7
100
AcDbLine
 10
6889.9936989218
 20
5283.2074001808
 30
0.0
 11
6889.9928719074
 21
5283.2394078751
 31
0.0
  0
LINE
  5
290
330
1F
100
AcDbEntity
  8
0
  6
Continuous
 62
     7
100
AcDbLine
 10
6889.9928719074
 20
5283.2394078751
 30
0.0
 11
6889.9920374423
 21
5283.2713559647
 31
0.0
  0
LINE
  5
291
330
1F
100
AcDbEntity
  8
0
  6
Continuous
 62
     7
100
AcDbLine
 10
6889.9920374423
 20
5283.2713559647
 30
0.0
 11
6889.9912104279
 21
5283.3033040543
 31
0.0
  0
LINE
  5
292
330
1F
100
AcDbEntity
  8
0
  6
Continuous
 62
     7
100
AcDbLine
 10
6889.9912104279
 20
5283.3033040543
 30
0.0
 11
6889.9903834135
 21
5283.3352521439
 31
0.0
  0
LINE
  5
293
330
1F
100
AcDbEntity
  8
0
  6
Continuous
 62
     7
100
AcDbLine
 10
6889.9903834135
 20
5283.3352521439
 30
0.0
 11
6889.989556399
 21
5283.3671406288
 31
0.0
  0
LINE
  5
294
330
1F
100
AcDbEntity
  8
0
  6
Continuous
 62
     7
100
AcDbLine
 10
6889.989556399
 20
5283.3671406288
 30
0.0
 11
6889.9887368351
 21
5283.3990291138
 31
0.0
  0
LINE
  5
295
330
1F
100
AcDbEntity
  8
0
  6
Continuous
 62
     7
100
AcDbLine
 10
6889.9887368351
 20
5283.3990291138
 30
0.0
 11
6889.9879172713
 21
5283.4309175987
 31
0.0
  0
LINE
  5
296
330
1F
100
AcDbEntity
  8
0
  6
Continuous
 62
     7
100
AcDbLine
 10
6890.2810529143
 20
5281.2883690377
 30
0.0
 11
6890.2772084147
 21
5281.5700605889
 31
0.0
  0
LINE
  5
297
330
1F
100
AcDbEntity
  8
0
  6
Continuous
 62
     7
100
AcDbLine
 10
6890.2772084147
 20
5281.5700605889
 30
0.0
 11
6890.3856292635
 21
5281.8317249794
 31
0.0
  0
LINE
  5
298
330
1F
100
AcDbEntity
  8
0
  6
Continuous
 62
     7
100
AcDbLine
 10
6890.3856292635
 20
5281.8317249794
 30
0.0
 11
6890.5898198754
 21
5282.0335463066
 31
0.0
  0
LINE
  5
299
330
1F
100
AcDbEntity
  8
0
  6
Continuous
 62
     7
100
AcDbLine
 10
6890.5898198754
 20
5282.0335463066
 30
0.0
 11
6890.8586815268
 21
5282.1447089691
 31
0.0
  0
LINE
  5
29A
330
1F
100
AcDbEntity
  8
0
  6
Continuous
 62
     7
100
AcDbLine
 10
6890.8586815268
 20
5282.1447089691
 30
0.0
 11
6891.1512956292
 21
5282.1484044571
 31
0.0
  0
LINE
  5
29B
330
1F
100
AcDbEntity
  8
0
  6
Continuous
 62
     7
100
AcDbLine
 10
6891.1512956292
 20
5282.1484044571
 30
0.0
 11
6891.4231077105
 21
5282.0440367241
 31
0.0
  0
LINE
  5
29C
330
1F
100
AcDbEntity
  8
0
  6
Continuous
 62
     7
100
AcDbLine
 10
6891.4231077105
 20
5282.0440367241
 30
0.0
 11
6891.632722345
 21
5281.8474606056
 31
0.0
  0
LINE
  5
29D
330
1F
100
AcDbEntity
  8
0
  6
Continuous
 62
     7
100
AcDbLine
 10
6891.632722345
 20
5281.8474606056
 30
0.0
 11
6891.7482510477
 21
5281.588657238
 31
0.0
  0
LINE
  5
29E
330
1F
100
AcDbEntity
  8
0
  6
Continuous
 62
     7
100
AcDbLine
 10
6891.7482510477
 20
5281.588657238
 30
0.0
 11
6891.7520955473
 21
5281.3069656868
 31
0.0
  0
LINE
  5
29F
330
1F
100
AcDbEntity
  8
0
  6
Continuous
 62
     7
100
AcDbLine
 10
6891.7520955473
 20
5281.3069656868
 30
0.0
 11
6891.6436746985
 21
5281.0453012963
 31
0.0
  0
LINE
  5
2A0
330
1F
100
AcDbEntity
  8
0
  6
Continuous
 62
     7
100
AcDbLine
 10
6891.6436746985
 20
5281.0453012963
 30
0.0
 11
6891.4394840867
 21
5280.843479969
 31
0.0
  0
LINE
  5
2A1
330
1F
100
AcDbEntity
  8
0
  6
Continuous
 62
     7
100
AcDbLine
 10
6891.4394840867
 20
5280.843479969
 30
0.0
 11
6891.1706075341
 21
5280.7323173065
 31
0.0
  0
LINE
  5
2A2
330
1F
100
AcDbEntity
  8
0
  6
Continuous
 62
     7
100
AcDbLine
 10
6891.1706075341
 20
5280.7323173065
 30
0.0
 11
6890.8780083329
 21
5280.7286218186
 31
0.0
  0
LINE
  5
2A3
330
1F
100
AcDbEntity
  8
0
  6
Continuous
 62
     7
100
AcDbLine
 10
6890.8780083329
 20
5280.7286218186
 30
0.0
 11
6890.6061962515
 21
5280.8329895516
 31
0.0
  0
LINE
  5
2A4
330
1F
100
AcDbEntity
  8
0
  6
Continuous
 62
     7
100
AcDbLine
 10
6890.6061962515
 20
5280.8329895516
 30
0.0
 11
6890.3965667159
 21
5281.02956567
 31
0.0
  0
LINE
  5
2A5
330
1F
100
AcDbEntity
  8
0
  6
Continuous
 62
     7
100
AcDbLine
 10
6890.3965667159
 20
5281.02956567
 30
0.0
 11
6890.2810529143
 21
5281.2883690377
 31
0.0
  0
LINE
  5
2A6
330
1F
100
AcDbEntity
  8
0
  6
Continuous
 62
     7
100
AcDbLine
 10
6892.8401783377
 20
5282.9831675072
 30
0.0
 11
6892.8401783377
 21
5282.2853759308
 31
0.0
  0
LINE
  5
2A7
330
1F
100
AcDbEntity
  8
0
  6
Continuous
 62
     7
100
AcDbLine
 10
6888.8218492538
 20
5282.3122576256
 30
0.0
 11
6888.6562526494
 21
5282.4383810539
 31
0.0
  0
LINE
  5
2A8
330
1F
100
AcDbEntity
  8
0
  6
Continuous
 62
     7
100
AcDbLine
 10
6888.6562526494
 20
5282.4383810539
 30
0.0
 11
6888.5902777583
 21
5282.5242713471
 31
0.0
  0
LINE
  5
2A9
330
1F
100
AcDbEntity
  8
0
  6
Continuous
 62
     7
100
AcDbLine
 10
6888.8218492538
 20
5281.6414669533
 30
0.0
 11
6888.8218492538
 21
5282.3122576256
 31
0.0
  0
LINE
  5
2AA
330
1F
100
AcDbEntity
  8
0
  6
Continuous
 62
     7
100
AcDbLine
 10
6892.9850772292
 20
5283.1643060227
 30
0.0
 11
6892.8401783377
 21
5282.9831675072
 31
0.0
  0
LINE
  5
2AB
330
1F
100
AcDbEntity
  8
0
  6
Continuous
 62
     7
100
AcDbLine
 10
6889.0307635337
 20
5281.5057471771
 30
0.0
 11
6889.0307635337
 21
5282.2034791489
 31
0.0
  0
LINE
  5
2AC
330
1F
100
AcDbEntity
  8
0
  6
Continuous
 62
     7
100
AcDbLine
 10
6889.0307635337
 20
5282.2034791489
 30
0.0
 11
6888.8218492538
 21
5282.3122576256
 31
0.0
  0
LINE
  5
2AD
330
1F
100
AcDbEntity
  8
0
  6
Continuous
 62
     7
100
AcDbLine
 10
6892.836050716
 20
5280.3860739251
 30
0.0
 11
6892.836050716
 21
5281.0568645973
 31
0.0
  0
LINE
  5
2AE
330
1F
100
AcDbEntity
  8
0
  6
Continuous
 62
     7
100
AcDbLine
 10
6892.6006272703
 20
5281.0870245476
 30
0.0
 11
6892.6006272703
 21
5280.3892925759
 31
0.0
  0
LINE
  5
2AF
330
1F
100
AcDbEntity
  8
0
  6
Continuous
 62
     7
100
AcDbLine
 10
6889.8485765129
 20
5279.7745898743
 30
0.0
 11
6889.8485765129
 21
5280.4453805466
 31
0.0
  0
LINE
  5
2B0
330
1F
100
AcDbEntity
  8
0
  6
Continuous
 62
     7
100
AcDbLine
 10
6892.836050716
 20
5281.0568645973
 30
0.0
 11
6892.6006272703
 21
5281.0870245476
 31
0.0
  0
LINE
  5
2B1
330
1F
100
AcDbEntity
  8
0
  6
Continuous
 62
     7
100
AcDbLine
 10
6890.0508746772
 20
5279.8673943062
 30
0.0
 11
6890.0508746772
 21
5280.5651858826
 31
0.0
  0
LINE
  5
2B2
330
1F
100
AcDbEntity
  8
0
  6
Continuous
 62
     7
100
AcDbLine
 10
6890.7751009136
 20
5280.3386882324
 30
0.0
 11
6890.7751009136
 21
5279.6409562607
 31
0.0
  0
LINE
  5
2B3
330
1F
100
AcDbEntity
  8
0
  6
Continuous
 62
     7
100
AcDbLine
 10
6890.0508746772
 20
5280.5651858826
 30
0.0
 11
6889.8485765129
 21
5280.4453805466
 31
0.0
  0
LINE
  5
2B4
330
1F
100
AcDbEntity
  8
0
  6
Continuous
 62
     7
100
AcDbLine
 10
6890.8656254678
 20
5279.4565394898
 30
0.0
 11
6890.8656254678
 21
5280.1273301621
 31
0.0
  0
LINE
  5
2B5
330
1F
100
AcDbEntity
  8
0
  6
Continuous
 62
     7
100
AcDbLine
 10
6890.8656254678
 20
5280.1273301621
 30
0.0
 11
6890.7751009136
 21
5280.3386882324
 31
0.0
  0
LINE
  5
2B6
330
1F
100
AcDbEntity
  8
0
  6
Continuous
 62
     7
100
AcDbLine
 10
6893.3778718382
 20
5355.5620149155
 30
0.0
 11
6894.3610504538
 21
5356.3522532959
 31
0.0
  0
LINE
  5
2B7
330
1F
100
AcDbEntity
  8
0
  6
Continuous
 62
     7
100
AcDbLine
 10
6894.3610504538
 20
5356.3522532959
 30
0.0
 11
6895.0731173426
 21
5357.3772147675
 31
0.0
  0
LINE
  5
2B8
330
1F
100
AcDbEntity
  8
0
  6
Continuous
 62
     7
100
AcDbLine
 10
6895.0731173426
 20
5357.3772147675
 30
0.0
 11
6895.4563901097
 21
5358.5536912461
 31
0.0
  0
LINE
  5
2B9
330
1F
100
AcDbEntity
  8
0
  6
Continuous
 62
     7
100
AcDbLine
 10
6895.4563901097
 20
5358.5536912461
 30
0.0
 11
6895.4798147351
 21
5359.7865537186
 31
0.0
  0
LINE
  5
2BA
330
1F
100
AcDbEntity
  8
0
  6
Continuous
 62
     7
100
AcDbLine
 10
6895.4798147351
 20
5359.7865537186
 30
0.0
 11
6895.1415136725
 21
5360.9757855911
 31
0.0
  0
LINE
  5
2BB
330
1F
100
AcDbEntity
  8
0
  6
Continuous
 62
     7
100
AcDbLine
 10
6895.1415136725
 20
5360.9757855911
 30
0.0
 11
6894.468860355
 21
5362.0250657578
 31
0.0
  0
LINE
  5
2BC
330
1F
100
AcDbEntity
  8
0
  6
Continuous
 62
     7
100
AcDbLine
 10
6894.468860355
 20
5362.0250657578
 30
0.0
 11
6893.5163781315
 21
5362.8494575997
 31
0.0
  0
LINE
  5
2BD
330
1F
100
AcDbEntity
  8
0
  6
Continuous
 62
     7
100
AcDbLine
 10
6893.5163781315
 20
5362.8494575997
 30
0.0
 11
6892.3612252146
 21
5363.3820847054
 31
0.0
  0
LINE
  5
2BE
330
1F
100
AcDbEntity
  8
0
  6
Continuous
 62
     7
100
AcDbLine
 10
6892.3612252146
 20
5363.3820847054
 30
0.0
 11
6891.0969808966
 21
5363.5798529167
 31
0.0
  0
LINE
  5
2BF
330
1F
100
AcDbEntity
  8
0
  6
Continuous
 62
     7
100
AcDbLine
 10
6891.0969808966
 20
5363.5798529167
 30
0.0
 11
6889.8260534078
 21
5363.4267285843
 31
0.0
  0
LINE
  5
2C0
330
1F
100
AcDbEntity
  8
0
  6
Continuous
 62
     7
100
AcDbLine
 10
6889.8260534078
 20
5363.4267285843
 30
0.0
 11
6888.6514321238
 21
5362.9351094742
 31
0.0
  0
LINE
  5
2C1
330
1F
100
AcDbEntity
  8
0
  6
Continuous
 62
     7
100
AcDbLine
 10
6888.6514321238
 20
5362.9351094742
 30
0.0
 11
6887.6682535082
 21
5362.1448710938
 31
0.0
  0
LINE
  5
2C2
330
1F
100
AcDbEntity
  8
0
  6
Continuous
 62
     7
100
AcDbLine
 10
6887.6682535082
 20
5362.1448710938
 30
0.0
 11
6886.9561866194
 21
5361.1199692269
 31
0.0
  0
LINE
  5
2C3
330
1F
100
AcDbEntity
  8
0
  6
Continuous
 62
     7
100
AcDbLine
 10
6886.9561866194
 20
5361.1199692269
 30
0.0
 11
6886.5729138524
 21
5359.9434331436
 31
0.0
  0
LINE
  5
2C4
330
1F
100
AcDbEntity
  8
0
  6
Continuous
 62
     7
100
AcDbLine
 10
6886.5729138524
 20
5359.9434331436
 30
0.0
 11
6886.5494817764
 21
5358.7106302757
 31
0.0
  0
LINE
  5
2C5
330
1F
100
AcDbEntity
  8
0
  6
Continuous
 62
     7
100
AcDbLine
 10
6886.5494817764
 20
5358.7106302757
 30
0.0
 11
6886.8877902895
 21
5357.5213984032
 31
0.0
  0
LINE
  5
2C6
330
1F
100
AcDbEntity
  8
0
  6
Continuous
 62
     7
100
AcDbLine
 10
6886.8877902895
 20
5357.5213984032
 30
0.0
 11
6887.5604361564
 21
5356.4720586319
 31
0.0
  0
LINE
  5
2C7
330
1F
100
AcDbEntity
  8
0
  6
Continuous
 62
     7
100
AcDbLine
 10
6887.5604361564
 20
5356.4720586319
 30
0.0
 11
6888.5129183799
 21
5355.64766679
 31
0.0
  0
LINE
  5
2C8
330
1F
100
AcDbEntity
  8
0
  6
Continuous
 62
     7
100
AcDbLine
 10
6888.5129183799
 20
5355.64766679
 30
0.0
 11
6889.6680787474
 21
5355.1150396843
 31
0.0
  0
LINE
  5
2C9
330
1F
100
AcDbEntity
  8
0
  6
Continuous
 62
     7
100
AcDbLine
 10
6889.6680787474
 20
5355.1150396843
 30
0.0
 11
6890.9323230654
 21
5354.917271473
 31
0.0
  0
LINE
  5
2CA
330
1F
100
AcDbEntity
  8
0
  6
Continuous
 62
     7
100
AcDbLine
 10
6890.9323230654
 20
5354.917271473
 30
0.0
 11
6892.2032431036
 21
5355.0703958054
 31
0.0
  0
LINE
  5
2CB
330
1F
100
AcDbEntity
  8
0
  6
Continuous
 62
     7
100
AcDbLine
 10
6892.2032431036
 20
5355.0703958054
 30
0.0
 11
6893.3778718382
 21
5355.5620149155
 31
0.0
  0
LINE
  5
2CC
330
1F
100
AcDbEntity
  8
0
  6
Continuous
 62
     7
100
AcDbLine
 10
6890.6207844883
 20
5359.0667084236
 30
0.0
 11
6890.8950105578
 21
5359.1649964829
 31
0.0
  0
LINE
  5
2CD
330
1F
100
AcDbEntity
  8
0
  6
Continuous
 62
     7
100
AcDbLine
 10
6890.8950105578
 20
5359.1649964829
 30
0.0
 11
6891.1874607474
 21
5359.1548636933
 31
0.0
  0
LINE
  5
2CE
330
1F
100
AcDbEntity
  8
0
  6
Continuous
 62
     7
100
AcDbLine
 10
6891.1874607474
 20
5359.1548636933
 30
0.0
 11
6891.4535954863
 21
5359.0376809616
 31
0.0
  0
LINE
  5
2CF
330
1F
100
AcDbEntity
  8
0
  6
Continuous
 62
     7
100
AcDbLine
 10
6891.4535954863
 20
5359.0376809616
 30
0.0
 11
6891.6528985173
 21
5358.8314488907
 31
0.0
  0
LINE
  5
2D0
330
1F
100
AcDbEntity
  8
0
  6
Continuous
 62
     7
100
AcDbLine
 10
6891.6528985173
 20
5358.8314488907
 30
0.0
 11
6891.7550459773
 21
5358.567459919
 31
0.0
  0
LINE
  5
2D1
330
1F
100
AcDbEntity
  8
0
  6
Continuous
 62
     7
100
AcDbLine
 10
6891.7550459773
 20
5358.567459919
 30
0.0
 11
6891.7444661528
 21
5358.2858875771
 31
0.0
  0
LINE
  5
2D2
330
1F
100
AcDbEntity
  8
0
  6
Continuous
 62
     7
100
AcDbLine
 10
6891.7444661528
 20
5358.2858875771
 30
0.0
 11
6891.6227832705
 21
5358.0297068138
 31
0.0
  0
LINE
  5
2D3
330
1F
100
AcDbEntity
  8
0
  6
Continuous
 62
     7
100
AcDbLine
 10
6891.6227832705
 20
5358.0297068138
 30
0.0
 11
6891.4085194737
 21
5357.8378394623
 31
0.0
  0
LINE
  5
2D4
330
1F
100
AcDbEntity
  8
0
  6
Continuous
 62
     7
100
AcDbLine
 10
6891.4085194737
 20
5357.8378394623
 30
0.0
 11
6891.1342934042
 21
5357.7394917984
 31
0.0
  0
LINE
  5
2D5
330
1F
100
AcDbEntity
  8
0
  6
Continuous
 62
     7
100
AcDbLine
 10
6891.1342934042
 20
5357.7394917984
 30
0.0
 11
6890.8418432146
 21
5357.7496841927
 31
0.0
  0
LINE
  5
2D6
330
1F
100
AcDbEntity
  8
0
  6
Continuous
 62
     7
100
AcDbLine
 10
6890.8418432146
 20
5357.7496841927
 30
0.0
 11
6890.5757084757
 21
5357.8668073197
 31
0.0
  0
LINE
  5
2D7
330
1F
100
AcDbEntity
  8
0
  6
Continuous
 62
     7
100
AcDbLine
 10
6890.5757084757
 20
5357.8668073197
 30
0.0
 11
6890.3763905436
 21
5358.0730989952
 31
0.0
  0
LINE
  5
2D8
330
1F
100
AcDbEntity
  8
0
  6
Continuous
 62
     7
100
AcDbLine
 10
6890.3763905436
 20
5358.0730989952
 30
0.0
 11
6890.2742579848
 21
5358.3370879669
 31
0.0
  0
LINE
  5
2D9
330
1F
100
AcDbEntity
  8
0
  6
Continuous
 62
     7
100
AcDbLine
 10
6890.2742579848
 20
5358.3370879669
 30
0.0
 11
6890.2848229081
 21
5358.6186007042
 31
0.0
  0
LINE
  5
2DA
330
1F
100
AcDbEntity
  8
0
  6
Continuous
 62
     7
100
AcDbLine
 10
6890.2848229081
 20
5358.6186007042
 30
0.0
 11
6890.4065057904
 21
5358.8748410721
 31
0.0
  0
LINE
  5
2DB
330
1F
100
AcDbEntity
  8
0
  6
Continuous
 62
     7
100
AcDbLine
 10
6890.4065057904
 20
5358.8748410721
 30
0.0
 11
6890.6207844883
 21
5359.0667084236
 31
0.0
  0
LINE
  5
2DC
330
1F
100
AcDbEntity
  8
0
  6
Continuous
 62
     7
100
AcDbLine
 10
6893.1262061268
 20
5359.1523006935
 30
0.0
 11
6893.1262061268
 21
5359.8230913658
 31
0.0
  0
LINE
  5
2DD
330
1F
100
AcDbEntity
  8
0
  6
Continuous
 62
     7
100
AcDbLine
 10
6888.8717606932
 20
5359.7030476113
 30
0.0
 11
6888.7323305279
 21
5359.8556951065
 31
0.0
  0
LINE
  5
2DE
330
1F
100
AcDbEntity
  8
0
  6
Continuous
 62
     7
100
AcDbLine
 10
6888.7323305279
 20
5359.8556951065
 30
0.0
 11
6888.730907467
 21
5359.857960083
 31
0.0
  0
LINE
  5
2DF
330
1F
100
AcDbEntity
  8
0
  6
Continuous
 62
     7
100
AcDbLine
 10
6888.8717606932
 20
5359.032256939
 30
0.0
 11
6888.8717606932
 21
5359.7030476113
 31
0.0
  0
LINE
  5
2E0
330
1F
100
AcDbEntity
  8
0
  6
Continuous
 62
     7
100
AcDbLine
 10
6892.9499402911
 20
5359.6698478241
 30
0.0
 11
6892.9499402911
 21
5358.9721158524
 31
0.0
  0
LINE
  5
2E1
330
1F
100
AcDbEntity
  8
0
  6
Continuous
 62
     7
100
AcDbLine
 10
6889.0570491821
 20
5358.8622048874
 30
0.0
 11
6889.0570491821
 21
5359.5599964638
 31
0.0
  0
LINE
  5
2E2
330
1F
100
AcDbEntity
  8
0
  6
Continuous
 62
     7
100
AcDbLine
 10
6893.1262061268
 20
5359.8230913658
 30
0.0
 11
6892.9499402911
 21
5359.6698478241
 31
0.0
  0
LINE
  5
2E3
330
1F
100
AcDbEntity
  8
0
  6
Continuous
 62
     7
100
AcDbLine
 10
6889.0570491821
 20
5359.5599964638
 30
0.0
 11
6888.8717606932
 21
5359.7030476113
 31
0.0
  0
LINE
  5
2E4
330
1F
100
AcDbEntity
  8
0
  6
Continuous
 62
     7
100
AcDbLine
 10
6892.5872907311
 20
5357.1046427269
 30
0.0
 11
6892.5872907311
 21
5357.7754333992
 31
0.0
  0
LINE
  5
2E5
330
1F
100
AcDbEntity
  8
0
  6
Continuous
 62
     7
100
AcDbLine
 10
6889.5343482763
 20
5357.0185140152
 30
0.0
 11
6889.5343482763
 21
5357.6893046875
 31
0.0
  0
LINE
  5
2E6
330
1F
100
AcDbEntity
  8
0
  6
Continuous
 62
     7
100
AcDbLine
 10
6891.7132780224
 20
5356.7630485077
 30
0.0
 11
6891.7132780224
 21
5357.4607804795
 31
0.0
  0
LINE
  5
2E7
330
1F
100
AcDbEntity
  8
0
  6
Continuous
 62
     7
100
AcDbLine
 10
6892.3612997204
 20
5357.8457668801
 30
0.0
 11
6892.3612997204
 21
5357.1479753037
 31
0.0
  0
LINE
  5
2E8
330
1F
100
AcDbEntity
  8
0
  6
Continuous
 62
     7
100
AcDbLine
 10
6889.7556752235
 20
5357.0744827767
 30
0.0
 11
6889.7556752235
 21
5357.7722147484
 31
0.0
  0
LINE
  5
2E9
330
1F
100
AcDbEntity
  8
0
  6
Continuous
 62
     7
100
AcDbLine
 10
6890.4260114104
 20
5357.4244812508
 30
0.0
 11
6890.4260114104
 21
5356.7266896744
 31
0.0
  0
LINE
  5
2EA
330
1F
100
AcDbEntity
  8
0
  6
Continuous
 62
     7
100
AcDbLine
 10
6892.5872907311
 20
5357.7754333992
 30
0.0
 11
6892.3612997204
 21
5357.8457668801
 31
0.0
  0
LINE
  5
2EB
330
1F
100
AcDbEntity
  8
0
  6
Continuous
 62
     7
100
AcDbLine
 10
6889.7556752235
 20
5357.7722147484
 30
0.0
 11
6889.5343482763
 21
5357.6893046875
 31
0.0
  0
LINE
  5
2EC
330
1F
100
AcDbEntity
  8
0
  6
Continuous
 62
     7
100
AcDbLine
 10
6890.4757365853
 20
5356.5301135559
 30
0.0
 11
6890.4757365853
 21
5357.2009042282
 31
0.0
  0
LINE
  5
2ED
330
1F
100
AcDbEntity
  8
0
  6
Continuous
 62
     7
100
AcDbLine
 10
6891.6772470147
 20
5356.5640285988
 30
0.0
 11
6891.6772470147
 21
5357.2348192711
 31
0.0
  0
LINE
  5
2EE
330
1F
100
AcDbEntity
  8
0
  6
Continuous
 62
     7
100
AcDbLine
 10
6891.7132780224
 20
5357.4607804795
 30
0.0
 11
6891.6772470147
 21
5357.2348192711
 31
0.0
  0
LINE
  5
2EF
330
1F
100
AcDbEntity
  8
0
  6
Continuous
 62
     7
100
AcDbLine
 10
6890.4757365853
 20
5357.2009042282
 30
0.0
 11
6890.4260114104
 21
5357.4244812508
 31
0.0
  0
LINE
  5
2F0
330
1F
100
AcDbEntity
  8
0
  6
Continuous
 62
     7
100
AcDbLine
 10
6887.3245954782
 20
5164.2348006745
 30
0.0
 11
6888.1996810705
 21
5163.3344129105
 31
0.0
  0
LINE
  5
2F1
330
1F
100
AcDbEntity
  8
0
  6
Continuous
 62
     7
100
AcDbLine
 10
6888.1996810705
 20
5163.3344129105
 30
0.0
 11
6889.3028289348
 21
5162.7078488846
 31
0.0
  0
LINE
  5
2F2
330
1F
100
AcDbEntity
  8
0
  6
Continuous
 62
     7
100
AcDbLine
 10
6889.3028289348
 20
5162.7078488846
 30
0.0
 11
6890.5446544558
 21
5162.4058619519
 31
0.0
  0
LINE
  5
2F3
330
1F
100
AcDbEntity
  8
0
  6
Continuous
 62
     7
100
AcDbLine
 10
6890.5446544558
 20
5162.4058619519
 30
0.0
 11
6891.8245449931
 21
5162.4529198189
 31
0.0
  0
LINE
  5
2F4
330
1F
100
AcDbEntity
  8
0
  6
Continuous
 62
     7
100
AcDbLine
 10
6891.8245449931
 20
5162.4529198189
 30
0.0
 11
6893.0388406187
 21
5162.8451779862
 31
0.0
  0
LINE
  5
2F5
330
1F
100
AcDbEntity
  8
0
  6
Continuous
 62
     7
100
AcDbLine
 10
6893.0388406187
 20
5162.8451779862
 30
0.0
 11
6894.0891340643
 21
5163.5508969803
 31
0.0
  0
LINE
  5
2F6
330
1F
100
AcDbEntity
  8
0
  6
Continuous
 62
     7
100
AcDbLine
 10
6894.0891340643
 20
5163.5508969803
 30
0.0
 11
6894.8903546006
 21
5164.5128563423
 31
0.0
  0
LINE
  5
2F7
330
1F
100
AcDbEntity
  8
0
  6
Continuous
 62
     7
100
AcDbLine
 10
6894.8903546006
 20
5164.5128563423
 30
0.0
 11
6895.3775927693
 21
5165.6532124062
 31
0.0
  0
LINE
  5
2F8
330
1F
100
AcDbEntity
  8
0
  6
Continuous
 62
     7
100
AcDbLine
 10
6895.3775927693
 20
5165.6532124062
 30
0.0
 11
6895.5113753945
 21
5166.8794587631
 31
0.0
  0
LINE
  5
2F9
330
1F
100
AcDbEntity
  8
0
  6
Continuous
 62
     7
100
AcDbLine
 10
6895.5113753945
 20
5166.8794587631
 30
0.0
 11
6895.2808544308
 21
5168.0923536797
 31
0.0
  0
LINE
  5
2FA
330
1F
100
AcDbEntity
  8
0
  6
Continuous
 62
     7
100
AcDbLine
 10
6895.2808544308
 20
5168.0923536797
 30
0.0
 11
6894.7047010333
 21
5169.1936090965
 31
0.0
  0
LINE
  5
2FB
330
1F
100
AcDbEntity
  8
0
  6
Continuous
 62
     7
100
AcDbLine
 10
6894.7047010333
 20
5169.1936090965
 30
0.0
 11
6893.829615441
 21
5170.0939968605
 31
0.0
  0
LINE
  5
2FC
330
1F
100
AcDbEntity
  8
0
  6
Continuous
 62
     7
100
AcDbLine
 10
6893.829615441
 20
5170.0939968605
 30
0.0
 11
6892.7264675766
 21
5170.7205608864
 31
0.0
  0
LINE
  5
2FD
330
1F
100
AcDbEntity
  8
0
  6
Continuous
 62
     7
100
AcDbLine
 10
6892.7264675766
 20
5170.7205608864
 30
0.0
 11
6891.4846495062
 21
5171.0225180168
 31
0.0
  0
LINE
  5
2FE
330
1F
100
AcDbEntity
  8
0
  6
Continuous
 62
     7
100
AcDbLine
 10
6891.4846495062
 20
5171.0225180168
 30
0.0
 11
6890.2047440678
 21
5170.9754899521
 31
0.0
  0
LINE
  5
2FF
330
1F
100
AcDbEntity
  8
0
  6
Continuous
 62
     7
100
AcDbLine
 10
6890.2047440678
 20
5170.9754899521
 30
0.0
 11
6888.9904633433
 21
5170.5832317848
 31
0.0
  0
LINE
  5
300
330
1F
100
AcDbEntity
  8
0
  6
Continuous
 62
     7
100
AcDbLine
 10
6888.9904633433
 20
5170.5832317848
 30
0.0
 11
6887.9401624471
 21
5169.8775127907
 31
0.0
  0
LINE
  5
301
330
1F
100
AcDbEntity
  8
0
  6
Continuous
 62
     7
100
AcDbLine
 10
6887.9401624471
 20
5169.8775127907
 30
0.0
 11
6887.1389419109
 21
5168.915493824
 31
0.0
  0
LINE
  5
302
330
1F
100
AcDbEntity
  8
0
  6
Continuous
 62
     7
100
AcDbLine
 10
6887.1389419109
 20
5168.915493824
 30
0.0
 11
6886.6517037422
 21
5167.7751973648
 31
0.0
  0
LINE
  5
303
330
1F
100
AcDbEntity
  8
0
  6
Continuous
 62
     7
100
AcDbLine
 10
6886.6517037422
 20
5167.7751973648
 30
0.0
 11
6886.5179285675
 21
5166.5488914032
 31
0.0
  0
LINE
  5
304
330
1F
100
AcDbEntity
  8
0
  6
Continuous
 62
     7
100
AcDbLine
 10
6886.5179285675
 20
5166.5488914032
 30
0.0
 11
6886.7484495312
 21
5165.3359964867
 31
0.0
  0
LINE
  5
305
330
1F
100
AcDbEntity
  8
0
  6
Continuous
 62
     7
100
AcDbLine
 10
6886.7484495312
 20
5165.3359964867
 30
0.0
 11
6887.3245954782
 21
5164.2348006745
 31
0.0
  0
LINE
  5
306
330
1F
100
AcDbEntity
  8
0
  6
Continuous
 62
     7
100
AcDbLine
 10
6891.6296527058
 20
5166.3310960312
 30
0.0
 11
6891.7471185595
 21
5166.0731271286
 31
0.0
  0
LINE
  5
307
330
1F
100
AcDbEntity
  8
0
  6
Continuous
 62
     7
100
AcDbLine
 10
6891.7471185595
 20
5166.0731271286
 30
0.0
 11
6891.7530641228
 21
5165.7914355774
 31
0.0
  0
LINE
  5
308
330
1F
100
AcDbEntity
  8
0
  6
Continuous
 62
     7
100
AcDbLine
 10
6891.7530641228
 20
5165.7914355774
 30
0.0
 11
6891.6465804249
 21
5165.5290559311
 31
0.0
  0
LINE
  5
309
330
1F
100
AcDbEntity
  8
0
  6
Continuous
 62
     7
100
AcDbLine
 10
6891.6465804249
 20
5165.5290559311
 30
0.0
 11
6891.4439097315
 21
5165.3258636971
 31
0.0
  0
LINE
  5
30A
330
1F
100
AcDbEntity
  8
0
  6
Continuous
 62
     7
100
AcDbLine
 10
6891.4439097315
 20
5165.3258636971
 30
0.0
 11
6891.1758825451
 21
5165.2127936859
 31
0.0
  0
LINE
  5
30B
330
1F
100
AcDbEntity
  8
0
  6
Continuous
 62
     7
100
AcDbLine
 10
6891.1758825451
 20
5165.2127936859
 30
0.0
 11
6890.8832982451
 21
5165.20707164
 31
0.0
  0
LINE
  5
30C
330
1F
100
AcDbEntity
  8
0
  6
Continuous
 62
     7
100
AcDbLine
 10
6890.8832982451
 20
5165.20707164
 30
0.0
 11
6890.6107262045
 21
5165.3095320244
 31
0.0
  0
LINE
  5
30D
330
1F
100
AcDbEntity
  8
0
  6
Continuous
 62
     7
100
AcDbLine
 10
6890.6107262045
 20
5165.3095320244
 30
0.0
 11
6890.3996363551
 21
5165.5046776314
 31
0.0
  0
LINE
  5
30E
330
1F
100
AcDbEntity
  8
0
  6
Continuous
 62
     7
100
AcDbLine
 10
6890.3996363551
 20
5165.5046776314
 30
0.0
 11
6890.2821854025
 21
5165.7627061386
 31
0.0
  0
LINE
  5
30F
330
1F
100
AcDbEntity
  8
0
  6
Continuous
 62
     7
100
AcDbLine
 10
6890.2821854025
 20
5165.7627061386
 30
0.0
 11
6890.2762398392
 21
5166.0443380852
 31
0.0
  0
LINE
  5
310
330
1F
100
AcDbEntity
  8
0
  6
Continuous
 62
     7
100
AcDbLine
 10
6890.2762398392
 20
5166.0443380852
 30
0.0
 11
6890.3827086359
 21
5166.3067177315
 31
0.0
  0
LINE
  5
311
330
1F
100
AcDbEntity
  8
0
  6
Continuous
 62
     7
100
AcDbLine
 10
6890.3827086359
 20
5166.3067177315
 30
0.0
 11
6890.5853942305
 21
5166.5099695702
 31
0.0
  0
LINE
  5
312
330
1F
100
AcDbEntity
  8
0
  6
Continuous
 62
     7
100
AcDbLine
 10
6890.5853942305
 20
5166.5099695702
 30
0.0
 11
6890.8534214169
 21
5166.6230395813
 31
0.0
  0
LINE
  5
313
330
1F
100
AcDbEntity
  8
0
  6
Continuous
 62
     7
100
AcDbLine
 10
6890.8534214169
 20
5166.6230395813
 30
0.0
 11
6891.1459908158
 21
5166.6287616272
 31
0.0
  0
LINE
  5
314
330
1F
100
AcDbEntity
  8
0
  6
Continuous
 62
     7
100
AcDbLine
 10
6891.1459908158
 20
5166.6287616272
 30
0.0
 11
6891.4185777575
 21
5166.5262416382
 31
0.0
  0
LINE
  5
315
330
1F
100
AcDbEntity
  8
0
  6
Continuous
 62
     7
100
AcDbLine
 10
6891.4185777575
 20
5166.5262416382
 30
0.0
 11
6891.6296527058
 21
5166.3310960312
 31
0.0
  0
LINE
  5
316
330
1F
100
AcDbEntity
  8
0
  6
Continuous
 62
     7
100
AcDbLine
 10
6891.6296527058
 20
5167.1274140854
 30
0.0
 11
6891.7471185595
 21
5166.8693855782
 31
0.0
  0
LINE
  5
317
330
1F
100
AcDbEntity
  8
0
  6
Continuous
 62
     7
100
AcDbLine
 10
6891.7471185595
 20
5166.8693855782
 30
0.0
 11
6891.7646572262
 21
5166.7141750832
 31
0.0
  0
LINE
  5
318
330
1F
100
AcDbEntity
  8
0
  6
Continuous
 62
     7
100
AcDbLine
 10
6892.3935309321
 20
5168.0876449127
 30
0.0
 11
6892.3935309321
 21
5167.389912941
 31
0.0
  0
LINE
  5
319
330
1F
100
AcDbEntity
  8
0
  6
Continuous
 62
     7
100
AcDbLine
 10
6893.168748942
 20
5165.640993454
 30
0.0
 11
6893.168748942
 21
5166.3117841263
 31
0.0
  0
LINE
  5
31A
330
1F
100
AcDbEntity
  8
0
  6
Continuous
 62
     7
100
AcDbLine
 10
6888.9635220439
 20
5165.2929023286
 30
0.0
 11
6888.9635220438
 21
5165.9636930008
 31
0.0
  0
LINE
  5
31B
330
1F
100
AcDbEntity
  8
0
  6
Continuous
 62
     7
100
AcDbLine
 10
6892.939673391
 20
5166.2513450165
 30
0.0
 11
6892.939673391
 21
5165.5535534401
 31
0.0
  0
LINE
  5
31C
330
1F
100
AcDbEntity
  8
0
  6
Continuous
 62
     7
100
AcDbLine
 10
6889.1999438673
 20
5165.2440861244
 30
0.0
 11
6889.1999438673
 21
5165.9418180962
 31
0.0
  0
LINE
  5
31D
330
1F
100
AcDbEntity
  8
0
  6
Continuous
 62
     7
100
AcDbLine
 10
6893.168748942
 20
5166.3117841263
 30
0.0
 11
6892.939673391
 21
5166.2513450165
 31
0.0
  0
LINE
  5
31E
330
1F
100
AcDbEntity
  8
0
  6
Continuous
 62
     7
100
AcDbLine
 10
6889.1999438673
 20
5165.9418180962
 30
0.0
 11
6888.9635220438
 21
5165.9636930008
 31
0.0
  0
LINE
  5
31F
330
1F
100
AcDbEntity
  8
0
  6
Continuous
 62
     7
100
AcDbLine
 10
6890.8021167189
 20
5164.1173199196
 30
0.0
 11
6890.8021167189
 21
5164.815111496
 31
0.0
  0
LINE
  5
320
330
1F
100
AcDbEntity
  8
0
  6
Continuous
 62
     7
100
AcDbLine
 10
6891.5607944399
 20
5164.8778751869
 30
0.0
 11
6891.5607944399
 21
5164.1800836106
 31
0.0
  0
LINE
  5
321
330
1F
100
AcDbEntity
  8
0
  6
Continuous
 62
     7
100
AcDbLine
 10
6890.6642213732
 20
5163.9581159134
 30
0.0
 11
6890.6642213732
 21
5164.6289065857
 31
0.0
  0
LINE
  5
322
330
1F
100
AcDbEntity
  8
0
  6
Continuous
 62
     7
100
AcDbLine
 10
6891.7296692998
 20
5164.0463307877
 30
0.0
 11
6891.7296692997
 21
5164.71712146
 31
0.0
  0
LINE
  5
323
330
1F
100
AcDbEntity
  8
0
  6
Continuous
 62
     7
100
AcDbLine
 10
6891.7296692997
 20
5164.71712146
 30
0.0
 11
6891.5607944399
 21
5164.8778751869
 31
0.0
  0
LINE
  5
324
330
1F
100
AcDbEntity
  8
0
  6
Continuous
 62
     7
100
AcDbLine
 10
6890.8021167189
 20
5164.815111496
 30
0.0
 11
6890.6642213732
 21
5164.6289065857
 31
0.0
  0
LINE
  5
325
330
1F
100
AcDbEntity
  8
0
  6
Continuous
 62
     7
100
AcDbLine
 10
7396.3933665576
 20
5391.2143797068
 30
0.0
 11
7223.2444599539
 21
5391.214354374
 31
0.0
  0
LINE
  5
326
330
1F
100
AcDbEntity
  8
0
  6
Continuous
 62
     7
100
AcDbLine
 10
6889.9945408374
 20
5283.1753328819
 30
0.0
 11
6889.9945408374
 21
5283.4775880356
 31
0.0
  0
LINE
  5
327
330
1F
100
AcDbEntity
  8
0
  6
Continuous
 62
     7
100
AcDbLine
 10
6892.4537167221
 20
5167.6380470772
 30
0.0
 11
6892.4537167221
 21
5167.9560378571
 31
0.0
  0
LINE
  5
328
330
1F
100
AcDbEntity
  8
0
  6
Continuous
 62
     7
100
AcDbLine
 10
6431.0148348568
 20
4312.3073263375
 30
0.0
 11
6431.0148348568
 21
4666.7669995037
 31
0.0
  0
LINE
  5
329
330
1F
100
AcDbEntity
  8
0
  6
Continuous
 62
     7
100
AcDbLine
 10
6072.294532275
 20
4666.7669995037
 30
0.0
 11
6072.294532275
 21
4312.3073263375
 31
0.0
  0
LINE
  5
32A
330
1F
100
AcDbEntity
  8
0
  6
Continuous
 62
     7
100
AcDbLine
 10
6072.3193278072
 20
4312.3074455467
 30
0.0
 11
6072.3367323635
 21
4310.5355484692
 31
0.0
  0
LINE
  5
32B
330
1F
100
AcDbEntity
  8
0
  6
Continuous
 62
     7
100
AcDbLine
 10
6429.0149798153
 20
4312.3073263375
 30
0.0
 11
6429.0149798153
 21
4666.7669995037
 31
0.0
  0
LINE
  5
32C
330
1F
100
AcDbEntity
  8
0
  6
Continuous
 62
     7
100
AcDbLine
 10
6429.0149798153
 20
4666.7669995037
 30
0.0
 11
6431.0148348568
 21
4666.7669995037
 31
0.0
  0
LINE
  5
32D
330
1F
100
AcDbEntity
  8
0
  6
Continuous
 62
     7
100
AcDbLine
 10
6074.2946257351
 20
4666.7669995037
 30
0.0
 11
6074.2946257351
 21
4312.3073263375
 31
0.0
  0
LINE
  5
32E
330
1F
100
AcDbEntity
  8
0
  6
Continuous
 62
     7
100
AcDbLine
 10
6072.294532275
 20
4666.7669995037
 30
0.0
 11
6074.2946257351
 21
4666.7669995037
 31
0.0
  0
LINE
  5
32F
330
1F
100
AcDbEntity
  8
0
  6
Continuous
 62
     7
100
AcDbLine
 10
6074.2946257351
 20
4312.3073263375
 30
0.0
 11
6074.3234743831
 21
4310.6045706478
 31
0.0
  0
LINE
  5
330
330
1F
100
AcDbEntity
  8
0
  6
Continuous
 62
     7
100
AcDbLine
 10
6428.9861311672
 20
4310.6045706478
 30
0.0
 11
6429.0149798153
 21
4312.3073263375
 31
0.0
  0
LINE
  5
331
330
1F
100
AcDbEntity
  8
0
  6
Continuous
 62
     7
100
AcDbLine
 10
6385.6547465084
 20
4381.76700308
 30
0.0
 11
6385.6547465084
 21
4316.7670054642
 31
0.0
  0
LINE
  5
332
330
1F
100
AcDbEntity
  8
0
  6
Continuous
 62
     7
100
AcDbLine
 10
6117.6548590419
 20
4316.7670054642
 30
0.0
 11
6117.6548590419
 21
4381.76700308
 31
0.0
  0
LINE
  5
333
330
1F
100
AcDbEntity
  8
0
  6
Continuous
 62
     7
100
AcDbLine
 10
6074.2946257351
 20
4666.7669995037
 30
0.0
 11
6429.0149798153
 21
4666.7669995037
 31
0.0
  0
LINE
  5
334
330
1F
100
AcDbEntity
  8
0
  6
Continuous
 62
     7
100
AcDbLine
 10
6381.8214525935
 20
4381.76700308
 30
0.0
 11
6385.6547465084
 21
4381.76700308
 31
0.0
  0
LINE
  5
335
330
1F
100
AcDbEntity
  8
0
  6
Continuous
 62
     7
100
AcDbLine
 10
6121.4879145381
 20
4381.76700308
 30
0.0
 11
6117.6548590419
 21
4381.76700308
 31
0.0
  0
LINE
  5
336
330
1F
100
AcDbEntity
  8
0
  6
Continuous
 62
     7
100
AcDbLine
 10
6121.4879145381
 20
4316.7670054642
 30
0.0
 11
6121.4879145381
 21
4381.76700308
 31
0.0
  0
LINE
  5
337
330
1F
100
AcDbEntity
  8
0
  6
Continuous
 62
     7
100
AcDbLine
 10
6117.6548590419
 20
4316.7670054642
 30
0.0
 11
6121.4879145381
 21
4316.7670054642
 31
0.0
  0
LINE
  5
338
330
1F
100
AcDbEntity
  8
0
  6
Continuous
 62
     7
100
AcDbLine
 10
6385.6547465084
 20
4316.7670054642
 30
0.0
 11
6381.8214525935
 21
4316.7670054642
 31
0.0
  0
LINE
  5
339
330
1F
100
AcDbEntity
  8
0
  6
Continuous
 62
     7
100
AcDbLine
 10
6381.8214525935
 20
4381.76700308
 30
0.0
 11
6381.8214525935
 21
4316.7670054642
 31
0.0
  0
LINE
  5
33A
330
1F
100
AcDbEntity
  8
0
  6
Continuous
 62
     7
100
AcDbLine
 10
6124.3630041836
 20
4381.76700308
 30
0.0
 11
6121.4879145381
 21
4381.76700308
 31
0.0
  0
LINE
  5
33B
330
1F
100
AcDbEntity
  8
0
  6
Continuous
 62
     7
100
AcDbLine
 10
6378.9466013668
 20
4381.76700308
 30
0.0
 11
6381.8214525935
 21
4381.76700308
 31
0.0
  0
LINE
  5
33C
330
1F
100
AcDbEntity
  8
0
  6
Continuous
 62
     7
100
AcDbLine
 10
6124.3630041836
 20
4381.76700308
 30
0.0
 11
6124.3630041836
 21
4316.7670054642
 31
0.0
  0
LINE
  5
33D
330
1F
100
AcDbEntity
  8
0
  6
Continuous
 62
     7
100
AcDbLine
 10
6121.4879145381
 20
4316.7670054642
 30
0.0
 11
6124.3630041836
 21
4316.7670054642
 31
0.0
  0
LINE
  5
33E
330
1F
100
AcDbEntity
  8
0
  6
Continuous
 62
     7
100
AcDbLine
 10
6378.9466013668
 20
4316.7670054642
 30
0.0
 11
6378.9466013668
 21
4381.76700308
 31
0.0
  0
LINE
  5
33F
330
1F
100
AcDbEntity
  8
0
  6
Continuous
 62
     7
100
AcDbLine
 10
6381.8214525935
 20
4316.7670054642
 30
0.0
 11
6378.9466013668
 21
4316.7670054642
 31
0.0
  0
LINE
  5
340
330
1F
100
AcDbEntity
  8
0
  6
Continuous
 62
     7
100
AcDbLine
 10
6127.6548495052
 20
4316.7670054642
 30
0.0
 11
6127.6548495052
 21
4381.76700308
 31
0.0
  0
LINE
  5
341
330
1F
100
AcDbEntity
  8
0
  6
Continuous
 62
     7
100
AcDbLine
 10
6375.6547560451
 20
4381.76700308
 30
0.0
 11
6375.6547560451
 21
4316.7670054642
 31
0.0
  0
LINE
  5
342
330
1F
100
AcDbEntity
  8
0
  6
Continuous
 62
     7
100
AcDbLine
 10
6375.6547560451
 20
4381.76700308
 30
0.0
 11
6371.6548075435
 21
4381.76700308
 31
0.0
  0
LINE
  5
343
330
1F
100
AcDbEntity
  8
0
  6
Continuous
 62
     7
100
AcDbLine
 10
6127.6548495052
 20
4381.76700308
 30
0.0
 11
6131.6547980068
 21
4381.76700308
 31
0.0
  0
LINE
  5
344
330
1F
100
AcDbEntity
  8
0
  6
Continuous
 62
     7
100
AcDbLine
 10
6371.6548075435
 20
4316.7670054642
 30
0.0
 11
6375.6547560451
 21
4316.7670054642
 31
0.0
  0
LINE
  5
345
330
1F
100
AcDbEntity
  8
0
  6
Continuous
 62
     7
100
AcDbLine
 10
6371.6548075435
 20
4316.7670054642
 30
0.0
 11
6371.6548075435
 21
4381.76700308
 31
0.0
  0
LINE
  5
346
330
1F
100
AcDbEntity
  8
0
  6
Continuous
 62
     7
100
AcDbLine
 10
6131.6547980068
 20
4381.76700308
 30
0.0
 11
6131.6547980068
 21
4316.7670054642
 31
0.0
  0
LINE
  5
347
330
1F
100
AcDbEntity
  8
0
  6
Continuous
 62
     7
100
AcDbLine
 10
6131.6547980068
 20
4316.7670054642
 30
0.0
 11
6127.6548495052
 21
4316.7670054642
 31
0.0
  0
LINE
  5
348
330
1F
100
AcDbEntity
  8
0
  6
Continuous
 62
     7
100
AcDbLine
 10
6429.0149798153
 20
4312.3073263375
 30
0.0
 11
6431.0148348568
 21
4312.3073263375
 31
0.0
  0
LINE
  5
349
330
1F
100
AcDbEntity
  8
0
  6
Continuous
 62
     7
100
AcDbLine
 10
6074.2946257351
 20
4312.3073263375
 30
0.0
 11
6072.294532275
 21
4312.3073263375
 31
0.0
  0
LINE
  5
34A
330
1F
100
AcDbEntity
  8
0
  6
Continuous
 62
     7
100
AcDbLine
 10
6428.9861311672
 20
4310.6045706478
 30
0.0
 11
6429.436027026
 21
4310.5889542309
 31
0.0
  0
LINE
  5
34B
330
1F
100
AcDbEntity
  8
0
  6
Continuous
 62
     7
100
AcDbLine
 10
6429.436027026
 20
4310.5889542309
 30
0.0
 11
6429.862557864
 21
4310.5741126744
 31
0.0
  0
LINE
  5
34C
330
1F
100
AcDbEntity
  8
0
  6
Continuous
 62
     7
100
AcDbLine
 10
6429.862557864
 20
4310.5741126744
 30
0.0
 11
6430.2445044277
 21
4310.5608506409
 31
0.0
  0
LINE
  5
34D
330
1F
100
AcDbEntity
  8
0
  6
Continuous
 62
     7
100
AcDbLine
 10
6430.2445044277
 20
4310.5608506409
 30
0.0
 11
6430.5616011379
 21
4310.5498237816
 31
0.0
  0
LINE
  5
34E
330
1F
100
AcDbEntity
  8
0
  6
Continuous
 62
     7
100
AcDbLine
 10
6430.5616011379
 20
4310.5498237816
 30
0.0
 11
6430.7981123684
 21
4310.541628143
 31
0.0
  0
LINE
  5
34F
330
1F
100
AcDbEntity
  8
0
  6
Continuous
 62
     7
100
AcDbLine
 10
6430.7981123684
 20
4310.541628143
 30
0.0
 11
6430.9414019344
 21
4310.5366213528
 31
0.0
  0
LINE
  5
350
330
1F
100
AcDbEntity
  8
0
  6
Continuous
 62
     7
100
AcDbLine
 10
6430.9414019344
 20
4310.5366213528
 30
0.0
 11
6430.9850325344
 21
4310.5351312367
 31
0.0
  0
LINE
  5
351
330
1F
100
AcDbEntity
  8
0
  6
Continuous
 62
     7
100
AcDbLine
 10
6074.3234743831
 20
4310.6045706478
 30
0.0
 11
6073.8735785244
 21
4310.5889542309
 31
0.0
  0
LINE
  5
352
330
1F
100
AcDbEntity
  8
0
  6
Continuous
 62
     7
100
AcDbLine
 10
6073.8735785244
 20
4310.5889542309
 30
0.0
 11
6073.4468092678
 21
4310.5741126744
 31
0.0
  0
LINE
  5
353
330
1F
100
AcDbEntity
  8
0
  6
Continuous
 62
     7
100
AcDbLine
 10
6073.4468092678
 20
4310.5741126744
 30
0.0
 11
6073.0651011226
 21
4310.5608506409
 31
0.0
  0
LINE
  5
354
330
1F
100
AcDbEntity
  8
0
  6
Continuous
 62
     7
100
AcDbLine
 10
6073.0651011226
 20
4310.5608506409
 30
0.0
 11
6072.7480044124
 21
4310.5498237816
 31
0.0
  0
LINE
  5
355
330
1F
100
AcDbEntity
  8
0
  6
Continuous
 62
     7
100
AcDbLine
 10
6072.7480044124
 20
4310.5498237816
 30
0.0
 11
6072.511493182
 21
4310.541628143
 31
0.0
  0
LINE
  5
356
330
1F
100
AcDbEntity
  8
0
  6
Continuous
 62
     7
100
AcDbLine
 10
6072.511493182
 20
4310.541628143
 30
0.0
 11
6072.3679651974
 21
4310.5366213528
 31
0.0
  0
LINE
  5
357
330
1F
100
AcDbEntity
  8
0
  6
Continuous
 62
     7
100
AcDbLine
 10
6072.3679651974
 20
4310.5366213528
 30
0.0
 11
6072.324573016
 21
4310.5351312367
 31
0.0
  0
LWPOLYLINE
  5
358
330
1F
100
AcDbEntity
  8
0
  6
Continuous
 62
     7
100
AcDbPolyline
 90
        3
 70
   128
 43
0.0
 10
6306.6711425781
 20
5067.2040716191
 10
6331.5924347883
 20
5082.9080908113
 10
6345.9854712246
 20
5101.2047663708
  0
LWPOLYLINE
  5
359
330
1F
100
AcDbEntity
  8
0
  6
Continuous
 62
     7
100
AcDbPolyline
 90
        5
 70
   128
 43
0.0
 10
6196.6361999512
 20
5067.2040716191
 10
6232.8850248524
 20
5071.6357529286
 10
6258.7420170715
 20
5072.2508045156
 10
6283.9757429823
 20
5070.3141742343
 10
6306.6728701351
 20
5067.2040716191
  0
LWPOLYLINE
  5
35A
330
1F
100
AcDbEntity
  8
0
  6
Continuous
 62
     7
100
AcDbPolyline
 90
        3
 70
   128
 43
0.0
 10
6157.3219299316
 20
5101.2047663708
 10
6176.4642407264
 20
5078.9544523076
 10
6196.6364969967
 20
5067.2040716191
  0
LWPOLYLINE
  5
35B
330
1F
100
AcDbEntity
  8
0
  6
Continuous
 62
     7
100
AcDbPolyline
 90
        5
 70
   128
 43
0.0
 10
6072.3838806152
 20
5391.214354374
 10
6100.0452713325
 20
5295.2967533257
 10
6118.8351006186
 20
5230.7276227632
 10
6137.8958099776
 20
5165.9713820509
 10
6157.3241343258
 20
5101.2047663708
  0
LWPOLYLINE
  5
35C
330
1F
100
AcDbEntity
  8
0
  6
Continuous
 62
     7
100
AcDbPolyline
 90
        5
 70
   128
 43
0.0
 10
6345.9854125977
 20
5101.2047663708
 10
6375.8455386673
 20
5201.3039427007
 10
6394.7567321585
 20
5265.9885170437
 10
6413.3843315543
 20
5330.2901603055
 10
6430.925189471
 20
5391.214354374
  0
ARC
  5
35D
330
1F
100
AcDbEntity
  8
0
  6
Continuous
 62
     7
100
AcDbCircle
 10
6245.4801923752
 20
5130.8095082522
 30
0.0
 40
88.35290650707886
100
AcDbArc
 50
274.8912687093
 51
311.2290304884
  0
LWPOLYLINE
  5
35E
330
1F
100
AcDbEntity
  8
0
  6
Continuous
 62
     7
100
AcDbPolyline
 90
        3
 70
   128
 43
0.0
 10
6253.0136108398
 20
5042.778356411
 10
6251.4899456525
 20
5042.8054547527
 10
6250.2937903164
 20
5042.778356411
  0
ARC
  5
35F
330
1F
100
AcDbEntity
  8
0
  6
Continuous
 62
     7
100
AcDbCircle
 10
6258.0511537841
 20
5131.3355535058
 30
0.0
 40
88.89630951425252
100
AcDbArc
 50
228.885872806
 51
264.9938279963
  0
LWPOLYLINE
  5
360
330
1F
100
AcDbEntity
  8
0
  6
Continuous
 62
     7
100
AcDbPolyline
 90
        3
 70
   128
 43
0.0
 10
6157.3219299316
 20
5101.2047663708
 10
6155.0622067107
 20
5099.4250891802
 10
6154.6493162868
 20
5098.5200837631
  0
LWPOLYLINE
  5
361
330
1F
100
AcDbEntity
  8
0
  6
Continuous
 62
     7
100
AcDbPolyline
 90
        3
 70
   128
 43
0.0
 10
6197.4143981934
 20
5048.7924352665
 10
6169.6715842395
 20
5073.0968084742
 10
6154.6555151699
 20
5098.4983280678
  0
LWPOLYLINE
  5
362
330
1F
100
AcDbEntity
  8
0
  6
Continuous
 62
     7
100
AcDbPolyline
 90
        3
 70
   128
 43
0.0
 10
6348.6518859863
 20
5098.4983280678
 10
6328.4697220982
 20
5067.1153287434
 10
6305.8925261257
 20
5048.7924352665
  0
LWPOLYLINE
  5
363
330
1F
100
AcDbEntity
  8
0
  6
Continuous
 62
     7
100
AcDbPolyline
 90
        3
 70
   128
 43
0.0
 10
6348.6595153809
 20
5098.5200837631
 10
6347.9235257668
 20
5099.7494127556
 10
6345.9854712246
 20
5101.2047663708
  0
LWPOLYLINE
  5
364
330
1F
100
AcDbEntity
  8
0
  6
Continuous
 62
     7
100
AcDbPolyline
 90
        5
 70
   128
 43
0.0
 10
6250.2937316895
 20
5042.778356411
 10
6231.7665453919
 20
5041.0833146317
 10
6220.2414717886
 20
5041.3201500121
 10
6209.4237546298
 20
5043.3760769254
 10
6199.84584949
 20
5047.3712519188
  0
LWPOLYLINE
  5
365
330
1F
100
AcDbEntity
  8
0
  6
Continuous
 62
     7
100
AcDbPolyline
 90
        5
 70
   128
 43
0.0
 10
6303.4629821777
 20
5047.3712519188
 10
6288.1006305319
 20
5042.0167919364
 10
6276.8369986383
 20
5040.9824586235
 10
6265.1030223877
 20
5041.5908669447
 10
6253.015815234
 20
5042.778356411
  0
ARC
  5
366
330
1F
100
AcDbEntity
  8
0
  6
Continuous
 62
     7
100
AcDbCircle
 10
6251.6544158338
 20
5138.6976529905
 30
0.0
 40
104.9982813159798
100
AcDbArc
 50
240.4341855552
 51
299.5658144448
  0
LWPOLYLINE
  5
367
330
1F
100
AcDbEntity
  8
0
  6
Continuous
 62
     7
100
AcDbPolyline
 90
        6
 70
   128
 43
0.0
 10
6371.3569641113
 20
5167.8756311913
 10
6371.3826662957
 20
5167.637159842
 10
6371.3802226953
 20
5167.6229299077
 10
6371.3794822596
 20
5167.6224829891
 10
6371.3786324482
 20
5167.6226999227
 10
6371.375857806
 20
5167.6264241715
  0
LWPOLYLINE
  5
368
330
1F
100
AcDbEntity
  8
0
  6
Continuous
 62
     7
100
AcDbPolyline
 90
        6
 70
   128
 43
0.0
 10
6371.1967468262
 20
5167.6784590264
 10
6371.1695226745
 20
5168.4293938255
 10
6371.1817430109
 20
5168.4362566236
 10
6371.2033275342
 20
5168.4241566703
 10
6371.2275140844
 20
5168.3869287378
 10
6371.3167299984
 20
5168.0973008652
  0
LWPOLYLINE
  5
369
330
1F
100
AcDbEntity
  8
0
  6
Continuous
 62
     7
100
AcDbPolyline
 90
        4
 70
   128
 43
0.0
 10
6371.0708618164
 20
5166.8554380913
 10
6371.1470676722
 20
5166.8856083471
 10
6371.2071656207
 20
5167.011427382
 10
6371.2318529842
 20
5167.4268678208
  0
LWPOLYLINE
  5
36A
330
1F
100
AcDbEntity
  8
0
  6
Continuous
 62
     7
100
AcDbPolyline
 90
        4
 70
   128
 43
0.0
 10
6370.6512451172
 20
5165.7323077698
 10
6370.605824611
 20
5166.4423267709
 10
6370.7761501153
 20
5166.7813781372
 10
6370.9734072445
 20
5166.8759420891
  0
LWPOLYLINE
  5
36B
330
1F
100
AcDbEntity
  8
0
  6
Continuous
 62
     7
100
AcDbPolyline
 90
        3
 70
   128
 43
0.0
 10
6370.532989502
 20
5164.9468377609
 10
6370.7451806576
 20
5165.3731839314
 10
6370.7266440151
 20
5165.6302050132
  0
LWPOLYLINE
  5
36C
330
1F
100
AcDbEntity
  8
0
  6
Continuous
 62
     7
100
AcDbPolyline
 90
        5
 70
   128
 43
0.0
 10
6370.1782226562
 20
5164.047940113
 10
6369.9796626647
 20
5163.9496370087
 10
6369.9429743229
 20
5163.9761036477
 10
6369.9349149842
 20
5164.0385059256
 10
6370.3818907497
 20
5164.7726729889
  0
LWPOLYLINE
  5
36D
330
1F
100
AcDbEntity
  8
0
  6
Continuous
 62
     7
100
AcDbPolyline
 90
        7
 70
   128
 43
0.0
 10
6370.3536987305
 20
5164.1437247772
 10
6370.4184436971
 20
5164.2301005057
 10
6370.4333288468
 20
5164.260664427
 10
6370.4330771335
 20
5164.2630444107
 10
6370.4317294365
 20
5164.2642151436
 10
6370.4258327522
 20
5164.2629989955
 10
6370.3160872219
 20
5164.1703680534
  0
LWPOLYLINE
  5
36E
330
1F
100
AcDbEntity
  8
0
  6
Continuous
 62
     7
100
AcDbPolyline
 90
        3
 70
   128
 43
0.0
 10
6370.6169128418
 20
5164.9373010178
 10
6370.5360748585
 20
5164.7034329654
 10
6370.4109778164
 20
5164.5072535057
  0
LWPOLYLINE
  5
36F
330
1F
100
AcDbEntity
  8
0
  6
Continuous
 62
     7
100
AcDbPolyline
 90
        3
 70
   128
 43
0.0
 10
6100.5096435547
 20
5280.4489568253
 10
6100.4218382914
 20
5280.559624532
 10
6100.3511538265
 20
5280.6345060845
  0
LWPOLYLINE
  5
370
330
1F
100
AcDbEntity
  8
0
  6
Continuous
 62
     7
100
AcDbPolyline
 90
        4
 70
   128
 43
0.0
 10
6100.5249023438
 20
5279.6409458015
 10
6100.3628086166
 20
5279.8943314412
 10
6100.3635427833
 20
5279.9090374951
 10
6100.3730912768
 20
5279.9139946793
  0
LWPOLYLINE
  5
371
330
1F
100
AcDbEntity
  8
0
  6
Continuous
 62
     7
100
AcDbPolyline
 90
        9
 70
   128
 43
0.0
 10
6100.6126403809
 20
5279.6971529816
 10
6100.9895378731
 20
5279.2093504322
 10
6101.0077782343
 20
5279.1721222033
 10
6101.0099689125
 20
5279.1611179337
 10
6101.0074636617
 20
5279.1554082123
 10
6100.9970255237
 20
5279.1559602597
 10
6100.9788121042
 20
5279.1656872083
 10
6100.9220923821
 20
5279.2106616153
 10
6100.6823201739
 20
5279.4565290307
  0
LWPOLYLINE
  5
372
330
1F
100
AcDbEntity
  8
0
  6
Continuous
 62
     7
100
AcDbPolyline
 90
        4
 70
   128
 43
0.0
 10
6100.3150939941
 20
5280.3892821167
 10
6100.281441494
 20
5280.3806675512
 10
6100.2582840832
 20
5280.3560603997
 10
6100.4543920122
 20
5279.8987358902
  0
LWPOLYLINE
  5
373
330
1F
100
AcDbEntity
  8
0
  6
Continuous
 62
     7
100
AcDbPolyline
 90
        5
 70
   128
 43
0.0
 10
6100.1091003418
 20
5281.4865440224
 10
6100.458578337
 20
5281.0554060046
 10
6100.5570753463
 20
5280.5095147329
 10
6100.5042538663
 20
5280.4162312853
 10
6100.4210134112
 20
5280.3860634658
  0
LWPOLYLINE
  5
374
330
1F
100
AcDbEntity
  8
0
  6
Continuous
 62
     7
100
AcDbPolyline
 90
        3
 70
   128
 43
0.0
 10
6099.781036377
 20
5282.2853654716
 10
6099.8239994082
 20
5281.8181811203
 10
6099.98494583
 20
5281.568321595
  0
LWPOLYLINE
  5
375
330
1F
100
AcDbEntity
  8
0
  6
Continuous
 62
     7
100
AcDbPolyline
 90
        7
 70
   128
 43
0.0
 10
6099.5864868164
 20
5283.3534211013
 10
6099.6513025897
 20
5283.4502346606
 10
6099.7217601018
 20
5283.4809298449
 10
6099.7737344143
 20
5283.4528528424
 10
6099.8196145403
 20
5283.3808350924
 10
6099.8767111751
 20
5283.1240535154
 10
6099.8283048236
 20
5282.4935048912
  0
LWPOLYLINE
  5
376
330
1F
100
AcDbEntity
  8
0
  6
Continuous
 62
     7
100
AcDbPolyline
 90
        6
 70
   128
 43
0.0
 10
6099.4606018066
 20
5283.4331721161
 10
6099.4576339612
 20
5283.1215017673
 10
6099.4624719227
 20
5283.1160017454
 10
6099.4680121061
 20
5283.1142603458
 10
6099.4809689062
 20
5283.121616611
 10
6099.5243211352
 20
5283.2066744659
  0
LWPOLYLINE
  5
377
330
1F
100
AcDbEntity
  8
0
  6
Continuous
 62
     7
100
AcDbPolyline
 90
        3
 70
   128
 43
0.0
 10
6099.5445251465
 20
5283.9036178398
 10
6099.5184423725
 20
5283.7802696619
 10
6099.4971414171
 20
5283.6715310905
  0
LWPOLYLINE
  5
378
330
1F
100
AcDbEntity
  8
0
  6
Continuous
 62
     7
100
AcDbPolyline
 90
        4
 70
   128
 43
0.0
 10
6099.6475219727
 20
5282.6807931442
 10
6099.6201781248
 20
5282.674832011
 10
6099.5931332229
 20
5282.6922163636
 10
6099.5295634029
 20
5283.1265166779
  0
LWPOLYLINE
  5
379
330
1F
100
AcDbEntity
  8
0
  6
Continuous
 62
     7
100
AcDbPolyline
 90
        3
 70
   128
 43
0.0
 10
6425.4341125488
 20
5360.5775073548
 10
6425.3700361089
 20
5360.9567407718
 10
6425.3419031856
 20
5361.0919550438
  0
LWPOLYLINE
  5
37A
330
1F
100
AcDbEntity
  8
0
  6
Continuous
 62
     7
100
AcDbPolyline
 90
        5
 70
   128
 43
0.0
 10
6425.3692626953
 20
5359.9809840698
 10
6425.4248386833
 20
5359.9302444113
 10
6425.4416684794
 20
5359.9371446569
 10
6425.4559696624
 20
5359.9588027774
 10
6425.4687418697
 20
5360.3270486374
  0
LWPOLYLINE
  5
37B
330
1F
100
AcDbEntity
  8
0
  6
Continuous
 62
     7
100
AcDbPolyline
 90
        5
 70
   128
 43
0.0
 10
6425.0221252441
 20
5359.108431675
 10
6424.9679653269
 20
5359.7165986705
 10
6425.1449640759
 20
5360.150365932
 10
6425.225428591
 20
5360.1558539199
 10
6425.2989878414
 20
5360.0915506859
  0
LWPOLYLINE
  5
37C
330
1F
100
AcDbEntity
  8
0
  6
Continuous
 62
     7
100
AcDbPolyline
 90
        3
 70
   128
 43
0.0
 10
6424.8657226562
 20
5358.1950500984
 10
6425.0695280353
 20
5358.5838770662
 10
6425.0753512142
 20
5358.927710392
  0
LWPOLYLINE
  5
37D
330
1F
100
AcDbEntity
  8
0
  6
Continuous
 62
     7
100
AcDbPolyline
 90
        5
 70
   128
 43
0.0
 10
6424.446105957
 20
5357.0593431969
 10
6424.3537534495
 20
5357.0558261006
 10
6424.2911070998
 20
5357.1143707305
 10
6424.3737986328
 20
5357.6027668077
 10
6424.7334589717
 20
5358.0794766922
  0
LWPOLYLINE
  5
37E
330
1F
100
AcDbEntity
  8
0
  6
Continuous
 62
     7
100
AcDbPolyline
 90
        6
 70
   128
 43
0.0
 10
6424.4499206543
 20
5356.7154840012
 10
6424.6093298546
 20
5356.9645430553
 10
6424.6395639295
 20
5357.0548001282
 10
6424.6300633094
 20
5357.1044825596
 10
6424.6032679681
 20
5357.1129382291
 10
6424.5620360134
 20
5357.1021393318
  0
LWPOLYLINE
  5
37F
330
1F
100
AcDbEntity
  8
0
  6
Continuous
 62
     7
100
AcDbPolyline
 90
        8
 70
   128
 43
0.0
 10
6423.942565918
 20
5356.0972646256
 10
6423.9270532856
 20
5356.0810856807
 10
6423.9260036859
 20
5356.0804615621
 10
6423.9259309751
 20
5356.0804727302
 10
6423.9258896143
 20
5356.0805192246
 10
6423.9259386989
 20
5356.0808228043
 10
6423.9301511076
 20
5356.0868967451
 10
6424.2938151119
 20
5356.5164044876
  0
LWPOLYLINE
  5
380
330
1F
100
AcDbEntity
  8
0
  6
Continuous
 62
     7
100
AcDbPolyline
 90
       10
 70
   128
 43
0.0
 10
6403.7704467773
 20
5283.5334375877
 10
6403.6850509782
 20
5284.0868843664
 10
6403.6846313323
 20
5284.0916880587
 10
6403.6846571404
 20
5284.0919599387
 10
6403.6847114786
 20
5284.0920750762
 10
6403.6847393006
 20
5284.0920774083
 10
6403.6847712197
 20
5284.0920572869
 10
6403.684847442
 20
5284.091949235
 10
6403.6856426969
 20
5284.0894538051
 10
6403.6925425289
 20
5284.0591505547
  0
LWPOLYLINE
  5
381
330
1F
100
AcDbEntity
  8
0
  6
Continuous
 62
     7
100
AcDbPolyline
 90
        6
 70
   128
 43
0.0
 10
6403.6979675293
 20
5282.9006746788
 10
6403.7283467685
 20
5282.8708304387
 10
6403.7554665843
 20
5282.8606255718
 10
6403.788881023
 20
5282.8973981273
 10
6403.8097329247
 20
5282.9886666904
 10
6403.8060297726
 20
5283.2807138939
  0
LWPOLYLINE
  5
382
330
1F
100
AcDbEntity
  8
0
  6
Continuous
 62
     7
100
AcDbPolyline
 90
        5
 70
   128
 43
0.0
 10
6403.3355712891
 20
5281.9854453583
 10
6403.2805967882
 20
5282.5831674827
 10
6403.4633603727
 20
5283.0377702193
 10
6403.5468471381
 20
5283.0537967009
 10
6403.623401141
 20
5282.9997375984
  0
LWPOLYLINE
  5
383
330
1F
100
AcDbEntity
  8
0
  6
Continuous
 62
     7
100
AcDbPolyline
 90
        3
 70
   128
 43
0.0
 10
6403.1867980957
 20
5281.0811236878
 10
6403.3901278204
 20
5281.4790098684
 10
6403.3935656307
 20
5281.8140223999
  0
LWPOLYLINE
  5
384
330
1F
100
AcDbEntity
  8
0
  6
Continuous
 62
     7
100
AcDbPolyline
 90
        5
 70
   128
 43
0.0
 10
6402.7671813965
 20
5279.9666956444
 10
6402.6748319632
 20
5279.9529136902
 10
6402.6092674151
 20
5280.000902598
 10
6402.6862504886
 20
5280.4686768308
 10
6403.0488123653
 20
5280.9561923523
  0
LWPOLYLINE
  5
385
330
1F
100
AcDbEntity
  8
0
  6
Continuous
 62
     7
100
AcDbPolyline
 90
        6
 70
   128
 43
0.0
 10
6402.7900695801
 20
5279.6681359787
 10
6402.9440764935
 20
5279.9094198255
 10
6402.9720747792
 20
5279.9925805885
 10
6402.971105996
 20
5280.0187800116
 10
6402.9604592997
 20
5280.0340434665
 10
6402.8895487545
 20
5280.0209954758
  0
LWPOLYLINE
  5
386
330
1F
100
AcDbEntity
  8
0
  6
Continuous
 62
     7
100
AcDbPolyline
 90
        3
 70
   128
 43
0.0
 10
6402.2750854492
 20
5279.0705994148
 10
6402.4168562409
 20
5279.2242782471
 10
6402.6313414333
 20
5279.4711426277
  0
LWPOLYLINE
  5
387
330
1F
100
AcDbEntity
  8
0
  6
Continuous
 62
     7
100
AcDbPolyline
 90
        7
 70
   128
 43
0.0
 10
6078.9985656738
 20
5356.5640285988
 10
6079.3673116224
 20
5356.133797434
 10
6079.3703671627
 20
5356.1289940029
 10
6079.3703143212
 20
5356.1289273671
 10
6079.3702008496
 20
5356.128929458
 10
6079.368279906
 20
5356.1303488541
 10
6079.3469538448
 20
5356.1515048523
  0
LWPOLYLINE
  5
388
330
1F
100
AcDbEntity
  8
0
  6
Continuous
 62
     7
100
AcDbPolyline
 90
        6
 70
   128
 43
0.0
 10
6078.7315368652
 20
5357.1479753037
 10
6078.6943537067
 20
5357.1574928251
 10
6078.6660977392
 20
5357.1512612994
 10
6078.6569234529
 20
5357.1012400152
 10
6078.6869770389
 20
5357.0114341596
 10
6078.84269855
 20
5356.7630485077
  0
LWPOLYLINE
  5
389
330
1F
100
AcDbEntity
  8
0
  6
Continuous
 62
     7
100
AcDbPolyline
 90
        5
 70
   128
 43
0.0
 10
6078.5636901855
 20
5358.1232861062
 10
6078.9242053135
 20
5357.6449928609
 10
6079.0059282894
 20
5357.1586120479
 10
6078.9433698472
 20
5357.0998985522
 10
6078.8503279446
 20
5357.1046427269
  0
LWPOLYLINE
  5
38A
330
1F
100
AcDbEntity
  8
0
  6
Continuous
 62
     7
100
AcDbPolyline
 90
        3
 70
   128
 43
0.0
 10
6078.2203674316
 20
5358.9721158524
 10
6078.2563948794
 20
5358.5256814038
 10
6078.4276118039
 20
5358.2393363495
  0
LWPOLYLINE
  5
38B
330
1F
100
AcDbEntity
  8
0
  6
Continuous
 62
     7
100
AcDbPolyline
 90
        5
 70
   128
 43
0.0
 10
6077.995300293
 20
5360.1370886345
 10
6078.0717661824
 20
5360.2002412428
 10
6078.1523241034
 20
5360.1950201353
 10
6078.3296485887
 20
5359.758834596
 10
6078.274547076
 20
5359.1523006935
  0
LWPOLYLINE
  5
38C
330
1F
100
AcDbEntity
  8
0
  6
Continuous
 62
     7
100
AcDbPolyline
 90
        5
 70
   128
 43
0.0
 10
6077.823638916
 20
5360.3749111672
 10
6077.8404852895
 20
5360.0055008414
 10
6077.8548047475
 20
5359.9842278486
 10
6077.8716991179
 20
5359.9773728996
 10
6077.9250254391
 20
5360.0271180649
  0
LWPOLYLINE
  5
38D
330
1F
100
AcDbEntity
  8
0
  6
Continuous
 62
     7
100
AcDbPolyline
 90
        3
 70
   128
 43
0.0
 10
6077.953338623
 20
5361.1444071312
 10
6077.9138439172
 20
5360.9398803903
 10
6077.8604140041
 20
5360.6254294892
  0
LWPOLYLINE
  5
38E
330
1F
100
AcDbEntity
  8
0
  6
Continuous
 62
     7
100
AcDbPolyline
 90
        6
 70
   128
 43
0.0
 10
6131.9808959961
 20
5168.1286529084
 10
6132.0793101429
 20
5168.3977724579
 10
6132.1140136491
 20
5168.4312226721
 10
6132.1294602941
 20
5168.4310616987
 10
6132.1431091159
 20
5168.4187203914
 10
6132.1218600033
 20
5167.6380470772
  0
LWPOLYLINE
  5
38F
330
1F
100
AcDbEntity
  8
0
  6
Continuous
 62
     7
100
AcDbPolyline
 90
        6
 70
   128
 43
0.0
 10
6131.9122314453
 20
5167.6963404198
 10
6131.9123601572
 20
5167.695641184
 10
6131.9117447787
 20
5167.6956090049
 10
6131.9112072019
 20
5167.6959577525
 10
6131.9103308913
 20
5167.7035901776
 10
6131.9404234645
 20
5167.9155066987
  0
LWPOLYLINE
  5
390
330
1F
100
AcDbEntity
  8
0
  6
Continuous
 62
     7
100
AcDbPolyline
 90
        3
 70
   128
 43
0.0
 10
6132.8582763672
 20
5164.6429732819
 10
6132.7924850095
 20
5164.7381867774
 10
6132.7493777035
 20
5164.8168400307
  0
LWPOLYLINE
  5
391
330
1F
100
AcDbEntity
  8
0
  6
Continuous
 62
     7
100
AcDbPolyline
 90
        3
 70
   128
 43
0.0
 10
6133.0909729004
 20
5164.3589571495
 10
6133.0517227551
 20
5164.4101818614
 10
6133.0185522793
 20
5164.4487813492
  0
LWPOLYLINE
  5
392
330
1F
100
AcDbEntity
  8
0
  6
Continuous
 62
     7
100
AcDbPolyline
 90
        7
 70
   128
 43
0.0
 10
6132.9879760742
 20
5164.1800836106
 10
6132.8720998615
 20
5164.2930778726
 10
6132.8661523514
 20
5164.2959449812
 10
6132.865766345
 20
5164.2957555234
 10
6132.8655727521
 20
5164.2953558684
 10
6132.8660527652
 20
5164.2932067729
 10
6132.8929056881
 20
5164.2556026955
  0
LWPOLYLINE
  5
393
330
1F
100
AcDbEntity
  8
0
  6
Continuous
 62
     7
100
AcDbPolyline
 90
        5
 70
   128
 43
0.0
 10
6132.942199707
 20
5164.7085979958
 10
6133.3876271615
 20
5163.9917766481
 10
6133.3765772577
 20
5163.9395434329
 10
6133.336939744
 20
5163.9241336909
 10
6133.1318011043
 20
5164.0463307876
  0
LWPOLYLINE
  5
394
330
1F
100
AcDbEntity
  8
0
  6
Continuous
 62
     7
100
AcDbPolyline
 90
        3
 70
   128
 43
0.0
 10
6132.6026916504
 20
5165.5535534401
 10
6132.6068166031
 20
5165.2218896253
 10
6132.7911009548
 20
5164.8896769067
  0
LWPOLYLINE
  5
395
330
1F
100
AcDbEntity
  8
0
  6
Continuous
 62
     7
100
AcDbPolyline
 90
        4
 70
   128
 43
0.0
 10
6132.3585510254
 20
5166.7938664933
 10
6132.5637121566
 20
5166.6751134447
 10
6132.7374667534
 20
5166.3220450663
 10
6132.6833357571
 20
5165.640993454
  0
LWPOLYLINE
  5
396
330
1F
100
AcDbEntity
  8
0
  6
Continuous
 62
     7
100
AcDbPolyline
 90
        4
 70
   128
 43
0.0
 10
6132.0877075195
 20
5167.389912941
 10
6132.1145308476
 20
5166.9681157222
 10
6132.1774614905
 20
5166.8325280952
 10
6132.2570433376
 20
5166.7888000985
  0
ARC
  5
397
330
1F
100
AcDbEntity
  8
0
  6
Continuous
 62
     7
100
AcDbCircle
 10
7267.421937771
 20
5084.5016292942
 30
0.0
 40
50.69488846589116
100
AcDbArc
 50
304.9341269852
 51
346.1200673042
  0
ARC
  5
398
330
1F
100
AcDbEntity
  8
0
  6
Continuous
 62
     7
100
AcDbCircle
 10
7267.698819214
 20
5082.9499826404
 30
0.0
 40
49.25348001044809
100
AcDbArc
 50
269.3714524154
 51
305.1437773151
  0
LWPOLYLINE
  5
399
330
1F
100
AcDbEntity
  8
0
  6
Continuous
 62
     7
100
AcDbPolyline
 90
        3
 70
   128
 43
0.0
 10
7267.2538757324
 20
5101.2047663708
 10
7284.9119959471
 20
5078.9544523076
 10
7298.56753501
 20
5067.2040716191
  0
LWPOLYLINE
  5
39A
330
1F
100
AcDbEntity
  8
0
  6
Continuous
 62
     7
100
AcDbPolyline
 90
        4
 70
   128
 43
0.0
 10
7223.2437133789
 20
5391.214354374
 10
7248.5259191744
 20
5312.8711642342
 10
7258.9296650364
 20
5230.7401788419
 10
7267.256797877
 20
5101.2047663708
  0
LWPOLYLINE
  5
39B
330
1F
100
AcDbEntity
  8
0
  6
Continuous
 62
     7
100
AcDbPolyline
 90
        3
 70
   128
 43
0.0
 10
7267.2538757324
 20
5101.2047663708
 10
7259.7838071018
 20
5099.4254308306
 10
7253.5670116812
 20
5098.5200837631
  0
LWPOLYLINE
  5
39C
330
1F
100
AcDbEntity
  8
0
  6
Continuous
 62
     7
100
AcDbPolyline
 90
        3
 70
   128
 43
0.0
 10
7274.4369506836
 20
5048.7924352665
 10
7261.6149695337
 20
5073.0977741976
 10
7253.1623557478
 20
5098.4983280678
  0
LWPOLYLINE
  5
39D
330
1F
100
AcDbEntity
  8
0
  6
Continuous
 62
     7
100
AcDbPolyline
 90
        3
 70
   128
 43
0.0
 10
7296.443939209
 20
5042.9514482994
 10
7296.4085431157
 20
5042.9241345028
 10
7296.3832631976
 20
5042.906208374
  0
LWPOLYLINE
  5
39E
330
1F
100
AcDbEntity
  8
0
  6
Continuous
 62
     7
100
AcDbPolyline
 90
        3
 70
   128
 43
0.0
 10
7296.199798584
 20
5042.778356411
 10
7296.1336114394
 20
5042.7318529767
 10
7296.0542455584
 20
5042.6782206078
  0
LWPOLYLINE
  5
39F
330
1F
100
AcDbEntity
  8
0
  6
Continuous
 62
     7
100
AcDbPolyline
 90
        5
 70
   128
 43
0.0
 10
6889.8468017578
 20
5279.7745898743
 10
6889.453276231
 20
5279.7361990293
 10
6889.0738827965
 20
5279.9464880491
 10
6888.9174853086
 20
5280.3096279161
 10
6889.0442267329
 20
5280.6345060845
  0
LWPOLYLINE
  5
3A0
330
1F
100
AcDbEntity
  8
0
  6
Continuous
 62
     7
100
AcDbPolyline
 90
        3
 70
   128
 43
0.0
 10
6890.7737731934
 20
5279.6409562607
 10
6890.4155126892
 20
5279.9048608361
 10
6890.0508746772
 20
5279.8673943062
  0
LWPOLYLINE
  5
3A1
330
1F
100
AcDbEntity
  8
0
  6
Continuous
 62
     7
100
AcDbPolyline
 90
        5
 70
   128
 43
0.0
 10
6892.0402526855
 20
5279.6971634407
 10
6891.9183484919
 20
5279.370645269
 10
6891.5569779801
 20
5279.1692308246
 10
6891.1345433607
 20
5279.2106720744
 10
6890.8656254678
 20
5279.4565394898
  0
LWPOLYLINE
  5
3A2
330
1F
100
AcDbEntity
  8
0
  6
Continuous
 62
     7
100
AcDbPolyline
 90
        3
 70
   128
 43
0.0
 10
6892.5971984863
 20
5280.3892925759
 10
6892.1621191104
 20
5280.2096599241
 10
6892.0347556739
 20
5279.8987463494
  0
LWPOLYLINE
  5
3A3
330
1F
100
AcDbEntity
  8
0
  6
Continuous
 62
     7
100
AcDbPolyline
 90
        5
 70
   128
 43
0.0
 10
6893.2037353516
 20
5281.4865544815
 10
6893.479741302
 20
5281.2430017727
 10
6893.4977386762
 20
5280.8507704464
 10
6893.231679867
 20
5280.509525192
 10
6892.836050716
 20
5280.3860739251
  0
LWPOLYLINE
  5
3A4
330
1F
100
AcDbEntity
  8
0
  6
Continuous
 62
     7
100
AcDbPolyline
 90
        3
 70
   128
 43
0.0
 10
6892.8375244141
 20
5282.2853759308
 10
6892.761227569
 20
5281.8181915794
 10
6892.9985329777
 20
5281.5683320541
  0
LWPOLYLINE
  5
3A5
330
1F
100
AcDbEntity
  8
0
  6
Continuous
 62
     7
100
AcDbPolyline
 90
        5
 70
   128
 43
0.0
 10
6892.1775817871
 20
5283.3534315605
 10
6892.5760235375
 20
5283.480940304
 10
6892.9554217564
 20
5283.3095675402
 10
6893.1118168701
 20
5282.9073601223
 10
6892.9850772292
 20
5282.4935153504
  0
LWPOLYLINE
  5
3A6
330
1F
100
AcDbEntity
  8
0
  6
Continuous
 62
     7
100
AcDbPolyline
 90
        3
 70
   128
 43
0.0
 10
6891.2506103516
 20
5283.4331825752
 10
6891.6137582562
 20
5283.1219132378
 10
6891.9784292847
 20
5283.2066849251
  0
LWPOLYLINE
  5
3A7
330
1F
100
AcDbEntity
  8
0
  6
Continuous
 62
     7
100
AcDbPolyline
 90
        5
 70
   128
 43
0.0
 10
6889.9841308594
 20
5283.4309175987
 10
6890.1109688176
 20
5283.8465071226
 10
6890.4723373985
 20
5284.0868288535
 10
6890.8947840454
 20
5284.006346625
 10
6891.1636635929
 20
5283.6715415497
  0
LWPOLYLINE
  5
3A8
330
1F
100
AcDbEntity
  8
0
  6
Continuous
 62
     7
100
AcDbPolyline
 90
        3
 70
   128
 43
0.0
 10
6889.4271850586
 20
5282.6847866554
 10
6889.8672004353
 20
5282.8171328434
 10
6889.9945408374
 20
5283.1753328819
  0
LWPOLYLINE
  5
3A9
330
1F
100
AcDbEntity
  8
0
  6
Continuous
 62
     7
100
AcDbPolyline
 90
        5
 70
   128
 43
0.0
 10
6888.8206481934
 20
5281.6414669533
 10
6888.549559294
 20
5281.97410327
 10
6888.5315620403
 20
5282.4052960369
 10
6888.7976523395
 20
5282.7075138219
 10
6889.1932457954
 20
5282.7420071144
  0
LWPOLYLINE
  5
3AA
330
1F
100
AcDbEntity
  8
0
  6
Continuous
 62
     7
100
AcDbPolyline
 90
        3
 70
   128
 43
0.0
 10
6889.1868591309
 20
5280.7887033005
 10
6889.2680644407
 20
5281.2085875821
 10
6889.0307635337
 20
5281.5057471771
  0
LWPOLYLINE
  5
3AB
330
1F
100
AcDbEntity
  8
0
  6
Continuous
 62
     7
100
AcDbPolyline
 90
        5
 70
   128
 43
0.0
 10
6888.8702392578
 20
5359.032256939
 10
6888.6575107805
 20
5359.4072291957
 10
6888.716447641
 20
5359.8348469909
 10
6889.0380570418
 20
5360.0858841496
 10
6889.4420132309
 20
5360.0509003181
  0
LWPOLYLINE
  5
3AC
330
1F
100
AcDbEntity
  8
0
  6
Continuous
 62
     7
100
AcDbPolyline
 90
        3
 70
   128
 43
0.0
 10
6889.0762329102
 20
5358.1294849892
 10
6889.2395932003
 20
5358.5285836601
 10
6889.0570491821
 20
5358.8622048874
  0
LWPOLYLINE
  5
3AD
330
1F
100
AcDbEntity
  8
0
  6
Continuous
 62
     7
100
AcDbPolyline
 90
        5
 70
   128
 43
0.0
 10
6889.533996582
 20
5357.0185140152
 10
6889.1299910208
 20
5357.049632733
 10
6888.7922952085
 20
5357.3222889582
 10
6888.709652836
 20
5357.706230043
 10
6888.9030903846
 20
5358.0032423516
  0
LWPOLYLINE
  5
3AE
330
1F
100
AcDbEntity
  8
0
  6
Continuous
 62
     7
100
AcDbPolyline
 90
        3
 70
   128
 43
0.0
 10
6890.4228210449
 20
5356.7266896744
 10
6890.1258152985
 20
5357.0480249458
 10
6889.7556752235
 20
5357.0744827767
  0
LWPOLYLINE
  5
3AF
330
1F
100
AcDbEntity
  8
0
  6
Continuous
 62
     7
100
AcDbPolyline
 90
        5
 70
   128
 43
0.0
 10
6891.674041748
 20
5356.5640285988
 10
6891.4871197414
 20
5356.26472341
 10
6891.090492444
 20
5356.1292435942
 10
6890.6861949736
 20
5356.2425979325
 10
6890.4757365853
 20
5356.5301135559
  0
LWPOLYLINE
  5
3B0
330
1F
100
AcDbEntity
  8
0
  6
Continuous
 62
     7
100
AcDbPolyline
 90
        3
 70
   128
 43
0.0
 10
6892.3606872559
 20
5357.1479753037
 10
6891.9008726265
 20
5357.0465408369
 10
6891.7132780224
 20
5356.7630485077
  0
LWPOLYLINE
  5
3B1
330
1F
100
AcDbEntity
  8
0
  6
Continuous
 62
     7
100
AcDbPolyline
 90
        5
 70
   128
 43
0.0
 10
6893.1541442871
 20
5358.1232861061
 10
6893.3717650737
 20
5357.8375158201
 10
6893.3128841524
 20
5357.4487904008
 10
6892.991249855
 20
5357.1586120479
 10
6892.5872907311
 20
5357.1046427269
  0
LWPOLYLINE
  5
3B2
330
1F
100
AcDbEntity
  8
0
  6
Continuous
 62
     7
100
AcDbPolyline
 90
        3
 70
   128
 43
0.0
 10
6892.9481506348
 20
5358.9721158524
 10
6892.7896978784
 20
5358.5256814038
 10
6892.9722473293
 20
5358.2393363495
  0
LWPOLYLINE
  5
3B3
330
1F
100
AcDbEntity
  8
0
  6
Continuous
 62
     7
100
AcDbPolyline
 90
        5
 70
   128
 43
0.0
 10
6892.4942016602
 20
5360.1370886345
 10
6892.8993377631
 20
5360.1950201353
 10
6893.2370129909
 20
5359.9612652921
 10
6893.3196501444
 20
5359.5382976205
 10
6893.1262061268
 20
5359.1523006935
  0
LWPOLYLINE
  5
3B4
330
1F
100
AcDbEntity
  8
0
  6
Continuous
 62
     7
100
AcDbPolyline
 90
        3
 70
   128
 43
0.0
 10
6891.6015625
 20
5360.3749111672
 10
6891.9034734765
 20
5360.0062689078
 10
6892.2736212879
 20
5360.0271180649
  0
LWPOLYLINE
  5
3B5
330
1F
100
AcDbEntity
  8
0
  6
Continuous
 62
     7
100
AcDbPolyline
 90
        5
 70
   128
 43
0.0
 10
6890.3503417969
 20
5360.5915740509
 10
6890.5422012698
 20
5360.9799172864
 10
6890.9388330442
 20
5361.1543317416
 10
6891.3430756027
 20
5361.0019388128
 10
6891.5535673767
 20
5360.6254294891
  0
LWPOLYLINE
  5
3B6
330
1F
100
AcDbEntity
  8
0
  6
Continuous
 62
     7
100
AcDbPolyline
 90
        3
 70
   128
 43
0.0
 10
6889.6675109863
 20
5359.9535659332
 10
6890.1284153271
 20
5360.0077351334
 10
6890.3160259396
 20
5360.3385523339
  0
LWPOLYLINE
  5
3B7
330
1F
100
AcDbEntity
  8
0
  6
Continuous
 62
     7
100
AcDbPolyline
 90
        5
 70
   128
 43
0.0
 10
6891.3650512695
 20
5168.1286529083
 10
6891.6566443411
 20
5168.3824933696
 10
6892.0426181135
 20
5168.412479803
 10
6892.3596290455
 20
5168.1824295049
 10
6892.465533343
 20
5167.8051785012
  0
LWPOLYLINE
  5
3B8
330
1F
100
AcDbEntity
  8
0
  6
Continuous
 62
     7
100
AcDbPolyline
 90
        3
 70
   128
 43
0.0
 10
6889.087677002
 20
5166.4792731781
 10
6889.3749669265
 20
5166.6558511256
 10
6889.4556924969
 20
5166.9258311768
  0
LWPOLYLINE
  5
3B9
330
1F
100
AcDbEntity
  8
0
  6
Continuous
 62
     7
100
AcDbPolyline
 90
        5
 70
   128
 43
0.0
 10
6888.9617919922
 20
5165.2929023286
 10
6888.5961853201
 20
5165.5007957129
 10
6888.4131316247
 20
5165.8927531708
 10
6888.5280920818
 20
5166.2692641574
 10
6888.86055502
 20
5166.4458349724
  0
LWPOLYLINE
  5
3BA
330
1F
100
AcDbEntity
  8
0
  6
Continuous
 62
     7
100
AcDbPolyline
 90
        3
 70
   128
 43
0.0
 10
6889.6331787109
 20
5164.6429732819
 10
6889.5291185884
 20
5165.0574314039
 10
6889.1999438673
 20
5165.2440861244
  0
LWPOLYLINE
  5
3BB
330
1F
100
AcDbEntity
  8
0
  6
Continuous
 62
     7
100
AcDbPolyline
 90
        5
 70
   128
 43
0.0
 10
6890.6631469727
 20
5163.9581159134
 10
6890.3335899684
 20
5163.7781087225
 10
6889.9069857353
 20
5163.83118187
 10
6889.608196171
 20
5164.1055395599
 10
6889.5755797893
 20
5164.4487813492
  0
LWPOLYLINE
  5
3BC
330
1F
100
AcDbEntity
  8
0
  6
Continuous
 62
     7
100
AcDbPolyline
 90
        3
 70
   128
 43
0.0
 10
6891.5596008301
 20
5164.1800836106
 10
6891.1133071237
 20
5164.2866255081
 10
6890.8021167189
 20
5164.1173199196
  0
LWPOLYLINE
  5
3BD
330
1F
100
AcDbEntity
  8
0
  6
Continuous
 62
     7
100
AcDbPolyline
 90
        5
 70
   128
 43
0.0
 10
6892.7116394043
 20
5164.7085979958
 10
6892.7520621916
 20
5164.3652435098
 10
6892.5085036979
 20
5164.0458681646
 10
6892.0947341894
 20
5163.9241336908
 10
6891.7296692997
 20
5164.0463307877
  0
LWPOLYLINE
  5
3BE
330
1F
100
AcDbEntity
  8
0
  6
Continuous
 62
     7
100
AcDbPolyline
 90
        3
 70
   128
 43
0.0
 10
6892.936706543
 20
5165.5535534401
 10
6892.5988188
 20
5165.2218896253
 10
6892.6168248326
 20
5164.8896769067
  0
LWPOLYLINE
  5
3BF
330
1F
100
AcDbEntity
  8
0
  6
Continuous
 62
     7
100
AcDbPolyline
 90
        5
 70
   128
 43
0.0
 10
6893.0625915527
 20
5166.7938664932
 10
6893.4330533906
 20
5166.6751134447
 10
6893.6161735872
 20
5166.3220450663
 10
6893.5012247775
 20
5165.9064929562
 10
6893.168748942
 20
5165.640993454
  0
LWPOLYLINE
  5
3C0
330
1F
100
AcDbEntity
  8
0
  6
Continuous
 62
     7
100
AcDbPolyline
 90
        3
 70
   128
 43
0.0
 10
6892.391204834
 20
5167.389912941
 10
6892.50017226
 20
5166.9280968477
 10
6892.8293600947
 20
5166.7888000984
  0
LWPOLYLINE
  5
3C1
330
1F
100
AcDbEntity
  8
0
  6
Continuous
 62
     7
100
AcDbPolyline
 90
        3
 70
   128
 43
0.0
 10
7267.1585083008
 20
5033.7059334297
 10
7270.1780144124
 20
5038.1141992734
 10
7275.2191439539
 20
5047.3712519188
  0
LWPOLYLINE
  5
3C2
330
1F
100
AcDbEntity
  8
0
  6
Continuous
 62
     7
100
AcDbPolyline
 90
        3
 70
   128
 43
0.0
 10
7299.5185852051
 20
5064.3609598656
 10
7300.7565933996
 20
5048.7908864094
 10
7296.4463845164
 20
5042.9514482994
  0
LWPOLYLINE
  5
3C3
330
1F
100
AcDbEntity
  8
0
  6
Continuous
 62
     7
100
AcDbPolyline
 90
        3
 70
   128
 43
0.0
 10
7296.0510253906
 20
5042.6782206078
 10
7287.1885578352
 20
5041.3990399055
 10
7275.2191439539
 20
5047.3712519188
  0
LWPOLYLINE
  5
3C4
330
1F
100
AcDbEntity
  8
0
  6
Continuous
 62
     7
100
AcDbPolyline
 90
        3
 70
   128
 43
0.0
 10
6430.9730529785
 20
4310.5354590622
 10
6431.010949224
 20
4311.5275984132
 10
6431.0021986721
 20
4312.3073263375
  0
LWPOLYLINE
  5
3C5
330
1F
100
AcDbEntity
  8
0
  6
Continuous
 62
     7
100
AcDbPolyline
 90
        5
 70
   128
 43
0.0
 10
6253.7879943848
 20
4356.8320853916
 10
6277.5102298403
 20
4368.1770695474
 10
6286.6382942512
 20
4392.8370720525
 10
6276.020359651
 20
4416.893010027
 10
6251.6546835659
 20
4426.766989967
  0
LWPOLYLINE
  5
3C6
330
1F
100
AcDbEntity
  8
0
  6
Continuous
 62
     7
100
AcDbPolyline
 90
        5
 70
   128
 43
0.0
 10
6251.651763916
 20
4426.766989967
 10
6226.5315991956
 20
4416.1353671014
 10
6216.6711373423
 20
4390.6996793512
 10
6228.063744192
 20
4365.9122094949
 10
6253.7882914303
 20
4356.8320853916
  0
ENDSEC
  0
SECTION
  2
OBJECTS
  0
DICTIONARY
  5
C
330
0
100
AcDbDictionary
281
     1
  3
ACAD_GROUP
350
D
  3
ACAD_LAYOUT
350
1A
  3
ACAD_MLINESTYLE
350
17
  3
ACAD_PLOTSETTINGS
350
19
  3
ACAD_PLOTSTYLENAME
350
E
  3
ACAD_SCALELIST
350
47
  3
DWGPROPS
350
3C7
  0
DICTIONARY
  5
D
102
{ACAD_REACTORS
330
C
102
}
330
C
100
AcDbDictionary
281
     1
  0
DICTIONARY
  5
1A
102
{ACAD_REACTORS
330
C
102
}
330
C
100
AcDbDictionary
281
     1
  3
Layout1
350
1E
  3
Layout2
350
26
  3
Model
350
22
  0
DICTIONARY
  5
17
102
{ACAD_REACTORS
330
C
102
}
330
C
100
AcDbDictionary
281
     1
  3
Standard
350
18
  0
DICTIONARY
  5
19
102
{ACAD_REACTORS
330
C
102
}
330
C
100
AcDbDictionary
281
     1
  0
ACDBDICTIONARYWDFLT
  5
E
102
{ACAD_REACTORS
330
C
102
}
330
C
100
AcDbDictionary
281
     1
  3
Normal
350
F
100
AcDbDictionaryWithDefault
340
F
  0
DICTIONARY
  5
47
102
{ACAD_REACTORS
330
C
102
}
330
C
100
AcDbDictionary
281
     1
  3
A0
350
48
  3
A1
350
49
  3
A2
350
4A
  3
A3
350
4B
  3
A4
350
4C
  3
A5
350
4D
  3
A6
350
4E
  3
A7
350
4F
  3
A8
350
50
  3
A9
350
51
  3
B0
350
52
  3
B1
350
53
  3
B2
350
54
  3
B3
350
55
  3
B4
350
56
  3
B5
350
57
  3
B6
350
58
  3
B7
350
59
  3
B8
350
5A
  3
B9
350
5B
  3
C0
350
5C
  3
C1
350
5D
  3
C2
350
5E
  3
C3
350
5F
  3
C4
350
60
  3
C5
350
61
  3
C6
350
62
  3
C7
350
63
  3
C8
350
64
  3
C9
350
65
  3
D0
350
66
  3
D1
350
67
  3
D2
350
68
  0
XRECORD
  5
3C7
102
{ACAD_REACTORS
330
C
102
}
330
C
100
AcDbXrecord
280
     1
  1
DWGPROPS COOKIE
  2

  3

  4

  6

  7

  8
radek.stransky
  9

300
=
301
=
302
=
303
=
304
=
305
=
306
=
307
=
308
=
309
=
 40
0.0
 41
2459100.313400648
 42
2459100.313441736
  1

 90
        0
  0
LAYOUT
  5
1E
102
{ACAD_REACTORS
330
1A
102
}
330
1A
100
AcDbPlotSettings
  1

  2
none_device
  4

  6

 40
0.0
 41
0.0
 42
0.0
 43
0.0
 44
0.0
 45
0.0
 46
0.0
 47
0.0
 48
0.0
 49
0.0
140
0.0
141
0.0
142
1.0
143
1.0
 70
   688
 72
     1
 73
     0
 74
     5
  7

 75
    16
147
1.0
148
0.0
149
0.0
100
AcDbLayout
  1
Layout1
 70
     1
 71
     1
 10
0.0
 20
0.0
 11
420.0
 21
297.0
 12
0.0
 22
0.0
 32
0.0
 14
1.0000000000E+20
 24
1.0000000000E+20
 34
1.0000000000E+20
 15
-1.0000000000E+20
 25
-1.0000000000E+20
 35
-1.0000000000E+20
146
0.0
 13
0.0
 23
0.0
 33
0.0
 16
1.0
 26
0.0
 36
0.0
 17
0.0
 27
1.0
 37
0.0
 76
     0
330
1B
  0
LAYOUT
  5
26
102
{ACAD_REACTORS
330
1A
102
}
330
1A
100
AcDbPlotSettings
  1

  2
none_device
  4

  6

 40
0.0
 41
0.0
 42
0.0
 43
0.0
 44
0.0
 45
0.0
 46
0.0
 47
0.0
 48
0.0
 49
0.0
140
0.0
141
0.0
142
1.0
143
1.0
 70
   688
 72
     1
 73
     0
 74
     5
  7

 75
    16
147
1.0
148
0.0
149
0.0
100
AcDbLayout
  1
Layout2
 70
     1
 71
     2
 10
0.0
 20
0.0
 11
0.0
 21
0.0
 12
0.0
 22
0.0
 32
0.0
 14
0.0
 24
0.0
 34
0.0
 15
0.0
 25
0.0
 35
0.0
146
0.0
 13
0.0
 23
0.0
 33
0.0
 16
1.0
 26
0.0
 36
0.0
 17
0.0
 27
1.0
 37
0.0
 76
     0
330
23
  0
LAYOUT
  5
22
102
{ACAD_REACTORS
330
1A
102
}
330
1A
100
AcDbPlotSettings
  1

  2
none_device
  4
ANSI_A_(11.00_x_8.50_Inches)
  6

 40
6.35
 41
19.05
 42
6.35000508
 43
19.05000254
 44
279.4
 45
215.9
 46
-1012.3393554669
 47
-721.8358318962
 48
0.0
 49
0.0
140
0.0
141
0.0
142
0.0066978581
143
1.0
 70
  1696
 72
     0
 73
     0
 74
     0
  7

 75
     0
147
0.0179189148
148
-1300.4909072572
149
0.0
100
AcDbLayout
  1
Model
 70
     1
 71
     0
 10
0.0
 20
0.0
 11
420.0
 21
297.0
 12
0.0
 22
0.0
 32
0.0
 14
6072.294532275
 24
4137.3276569642
 34
0.0
 15
7396.4530815253
 25
5393.6994545927
 35
0.0
146
0.0
 13
0.0
 23
0.0
 33
0.0
 16
1.0
 26
0.0
 36
0.0
 17
0.0
 27
1.0
 37
0.0
 76
     0
330
1F
331
29
  0
MLINESTYLE
  5
18
102
{ACAD_REACTORS
330
17
102
}
330
17
100
AcDbMlineStyle
  2
Standard
 70
     0
  3

 62
   256
 51
90.0
 52
90.0
 71
     2
 49
0.5
 62
   256
  6
BYLAYER
 49
-0.5
 62
   256
  6
BYLAYER
  0
ACDBPLACEHOLDER
  5
F
102
{ACAD_REACTORS
330
E
102
}
330
E
  0
SCALE
  5
48
102
{ACAD_REACTORS
330
47
102
}
330
47
100
AcDbScale
 70
     0
300
1:1
140
1.0
141
1.0
290
     1
  0
SCALE
  5
49
102
{ACAD_REACTORS
330
47
102
}
330
47
100
AcDbScale
 70
     0
300
1:2
140
1.0
141
2.0
290
     0
  0
SCALE
  5
4A
102
{ACAD_REACTORS
330
47
102
}
330
47
100
AcDbScale
 70
     0
300
1:4
140
1.0
141
4.0
290
     0
  0
SCALE
  5
4B
102
{ACAD_REACTORS
330
47
102
}
330
47
100
AcDbScale
 70
     0
300
1:5
140
1.0
141
5.0
290
     0
  0
SCALE
  5
4C
102
{ACAD_REACTORS
330
47
102
}
330
47
100
AcDbScale
 70
     0
300
1:8
140
1.0
141
8.0
290
     0
  0
SCALE
  5
4D
102
{ACAD_REACTORS
330
47
102
}
330
47
100
AcDbScale
 70
     0
300
1:10
140
1.0
141
10.0
290
     0
  0
SCALE
  5
4E
102
{ACAD_REACTORS
330
47
102
}
330
47
100
AcDbScale
 70
     0
300
1:16
140
1.0
141
16.0
290
     0
  0
SCALE
  5
4F
102
{ACAD_REACTORS
330
47
102
}
330
47
100
AcDbScale
 70
     0
300
1:20
140
1.0
141
20.0
290
     0
  0
SCALE
  5
50
102
{ACAD_REACTORS
330
47
102
}
330
47
100
AcDbScale
 70
     0
300
1:30
140
1.0
141
30.0
290
     0
  0
SCALE
  5
51
102
{ACAD_REACTORS
330
47
102
}
330
47
100
AcDbScale
 70
     0
300
1:40
140
1.0
141
40.0
290
     0
  0
SCALE
  5
52
102
{ACAD_REACTORS
330
47
102
}
330
47
100
AcDbScale
 70
     0
300
1:50
140
1.0
141
50.0
290
     0
  0
SCALE
  5
53
102
{ACAD_REACTORS
330
47
102
}
330
47
100
AcDbScale
 70
     0
300
1:100
140
1.0
141
100.0
290
     0
  0
SCALE
  5
54
102
{ACAD_REACTORS
330
47
102
}
330
47
100
AcDbScale
 70
     0
300
2:1
140
2.0
141
1.0
290
     0
  0
SCALE
  5
55
102
{ACAD_REACTORS
330
47
102
}
330
47
100
AcDbScale
 70
     0
300
4:1
140
4.0
141
1.0
290
     0
  0
SCALE
  5
56
102
{ACAD_REACTORS
330
47
102
}
330
47
100
AcDbScale
 70
     0
300
8:1
140
8.0
141
1.0
290
     0
  0
SCALE
  5
57
102
{ACAD_REACTORS
330
47
102
}
330
47
100
AcDbScale
 70
     0
300
10:1
140
10.0
141
1.0
290
     0
  0
SCALE
  5
58
102
{ACAD_REACTORS
330
47
102
}
330
47
100
AcDbScale
 70
     0
300
100:1
140
100.0
141
1.0
290
     0
  0
SCALE
  5
59
102
{ACAD_REACTORS
330
47
102
}
330
47
100
AcDbScale
 70
     0
300
1/128" = 1'-0"
140
0.0078125
141
12.0
290
     0
  0
SCALE
  5
5A
102
{ACAD_REACTORS
330
47
102
}
330
47
100
AcDbScale
 70
     0
300
1/64" = 1'-0"
140
0.015625
141
12.0
290
     0
  0
SCALE
  5
5B
102
{ACAD_REACTORS
330
47
102
}
330
47
100
AcDbScale
 70
     0
300
1/32" = 1'-0"
140
0.03125
141
12.0
290
     0
  0
SCALE
  5
5C
102
{ACAD_REACTORS
330
47
102
}
330
47
100
AcDbScale
 70
     0
300
1/16" = 1'-0"
140
0.0625
141
12.0
290
     0
  0
SCALE
  5
5D
102
{ACAD_REACTORS
330
47
102
}
330
47
100
AcDbScale
 70
     0
300
3/32" = 1'-0"
140
0.09375
141
12.0
290
     0
  0
SCALE
  5
5E
102
{ACAD_REACTORS
330
47
102
}
330
47
100
AcDbScale
 70
     0
300
1/8" = 1'-0"
140
0.125
141
12.0
290
     0
  0
SCALE
  5
5F
102
{ACAD_REACTORS
330
47
102
}
330
47
100
AcDbScale
 70
     0
300
3/16" = 1'-0"
140
0.1875
141
12.0
290
     0
  0
SCALE
  5
60
102
{ACAD_REACTORS
330
47
102
}
330
47
100
AcDbScale
 70
     0
300
1/4" = 1'-0"
140
0.25
141
12.0
290
     0
  0
SCALE
  5
61
102
{ACAD_REACTORS
330
47
102
}
330
47
100
AcDbScale
 70
     0
300
3/8" = 1'-0"
140
0.375
141
12.0
290
     0
  0
SCALE
  5
62
102
{ACAD_REACTORS
330
47
102
}
330
47
100
AcDbScale
 70
     0
300
1/2" = 1'-0"
140
0.5
141
12.0
290
     0
  0
SCALE
  5
63
102
{ACAD_REACTORS
330
47
102
}
330
47
100
AcDbScale
 70
     0
300
3/4" = 1'-0"
140
0.75
141
12.0
290
     0
  0
SCALE
  5
64
102
{ACAD_REACTORS
330
47
102
}
330
47
100
AcDbScale
 70
     0
300
1" = 1'-0"
140
1.0
141
12.0
290
     0
  0
SCALE
  5
65
102
{ACAD_REACTORS
330
47
102
}
330
47
100
AcDbScale
 70
     0
300
1-1/2" = 1'-0"
140
1.5
141
12.0
290
     0
  0
SCALE
  5
66
102
{ACAD_REACTORS
330
47
102
}
330
47
100
AcDbScale
 70
     0
300
3" = 1'-0"
140
3.0
141
12.0
290
     0
  0
SCALE
  5
67
102
{ACAD_REACTORS
330
47
102
}
330
47
100
AcDbScale
 70
     0
300
6" = 1'-0"
140
6.0
141
12.0
290
     0
  0
SCALE
  5
68
102
{ACAD_REACTORS
330
47
102
}
330
47
100
AcDbScale
 70
     0
300
1'-0" = 1'-0"
140
12.0
141
12.0
290
     0
  0
ENDSEC
  0
EOF
