  0
SECTION
  2
HEADER
  9
$ACADVER
  1
AC1015
  9
$ACADMAINTVER
 70
     6
  9
$DWGCODEPAGE
  3
ANSI_1250
  9
$INSBASE
 10
0.0
 20
0.0
 30
0.0
  9
$EXTMIN
 10
0.0
 20
0.0
 30
0.0
  9
$EXTMAX
 10
20000.0
 20
10000.0
 30
0.0
  9
$LIMMIN
 10
0.0
 20
0.0
  9
$LIMMAX
 10
20000.0
 20
10000.0
  9
$ORTHOMODE
 70
     0
  9
$REGENMODE
 70
     1
  9
$FILLMODE
 70
     1
  9
$QTEXTMODE
 70
     0
  9
$MIRRTEXT
 70
     1
  9
$LTSCALE
 40
1.0
  9
$ATTMODE
 70
     1
  9
$TEXTSIZE
 40
2.0
  9
$TRACEWID
 40
1.0
  9
$TEXTSTYLE
  7
STANDARD
  9
$CLAYER
  8
0
  9
$CELTYPE
  6
ByLayer
  9
$CECOLOR
 62
   256
  9
$CELTSCALE
 40
1.0
  9
$DISPSILH
 70
     0
  9
$DIMSCALE
 40
1.0
  9
$DIMASZ
 40
2.0
  9
$DIMEXO
 40
1.0
  9
$DIMDLI
 40
3.75
  9
$DIMRND
 40
0.0
  9
$DIMDLE
 40
0.0
  9
$DIMEXE
 40
1.0
  9
$DIMTP
 40
0.0
  9
$DIMTM
 40
0.0
  9
$DIMTXT
 40
2.0
  9
$DIMCEN
 40
2.5
  9
$DIMTSZ
 40
0.0
  9
$DIMTOL
 70
     0
  9
$DIMLIM
 70
     0
  9
$DIMTIH
 70
     1
  9
$DIMTOH
 70
     1
  9
$DIMSE1
 70
     0
  9
$DIMSE2
 70
     0
  9
$DIMTAD
 70
     1
  9
$DIMZIN
 70
     0
  9
$DIMBLK
  1

  9
$DIMASO
 70
     1
  9
$DIMSHO
 70
     1
  9
$DIMPOST
  1

  9
$DIMAPOST
  1

  9
$DIMALT
 70
     0
  9
$DIMALTD
 70
     3
  9
$DIMALTF
 40
0.0393700787
  9
$DIMLFAC
 40
1.0
  9
$DIMTOFL
 70
     1
  9
$DIMTVP
 40
0.0
  9
$DIMTIX
 70
     0
  9
$DIMSOXD
 70
     0
  9
$DIMSAH
 70
     0
  9
$DIMBLK1
  1

  9
$DIMBLK2
  1

  9
$DIMSTYLE
  2
ISO-25
  9
$DIMCLRD
 70
     0
  9
$DIMCLRE
 70
     0
  9
$DIMCLRT
 70
     0
  9
$DIMTFAC
 40
1.0
  9
$DIMGAP
 40
1.524
  9
$DIMJUST
 70
     0
  9
$DIMSD1
 70
     0
  9
$DIMSD2
 70
     0
  9
$DIMTOLJ
 70
     0
  9
$DIMTZIN
 70
     0
  9
$DIMALTZ
 70
     0
  9
$DIMALTTZ
 70
     0
  9
$DIMUPT
 70
     0
  9
$DIMDEC
 70
     2
  9
$DIMTDEC
 70
     0
  9
$DIMALTU
 70
     2
  9
$DIMALTTD
 70
     3
  9
$DIMTXSTY
  7
STANDARD
  9
$DIMAUNIT
 70
     0
  9
$DIMADEC
 70
     2
  9
$DIMALTRND
 40
0.0
  9
$DIMAZIN
 70
     0
  9
$DIMDSEP
 70
    44
  9
$DIMATFIT
 70
     3
  9
$DIMFRAC
 70
     0
  9
$DIMLDRBLK
  1

  9
$DIMLUNIT
 70
     2
  9
$DIMLWD
 70
    -2
  9
$DIMLWE
 70
    -2
  9
$DIMTMOVE
 70
     0
  9
$LUNITS
 70
     2
  9
$LUPREC
 70
     3
  9
$SKETCHINC
 40
1.0
  9
$FILLETRAD
 40
10.0
  9
$AUNITS
 70
     0
  9
$AUPREC
 70
     2
  9
$MENU
  1
.
  9
$ELEVATION
 40
0.0
  9
$PELEVATION
 40
0.0
  9
$THICKNESS
 40
0.0
  9
$LIMCHECK
 70
     0
  9
$CHAMFERA
 40
0.0
  9
$CHAMFERB
 40
0.0
  9
$CHAMFERC
 40
0.0
  9
$CHAMFERD
 40
0.0
  9
$SKPOLY
 70
     0
  9
$TDCREATE
 40
2460823.347093599
  9
$TDUCREATE
 40
2460823.263760266
  9
$TDUPDATE
 40
2460823.347094051
  9
$TDUUPDATE
 40
2460823.263760718
  9
$TDINDWG
 40
0.0000000116
  9
$TDUSRTIMER
 40
0.0000000116
  9
$USRTIMER
 70
     1
  9
$ANGBASE
 50
0.0
  9
$ANGDIR
 70
     0
  9
$PDMODE
 70
     0
  9
$PDSIZE
 40
-1.0
  9
$PLINEWID
 40
0.0
  9
$SPLFRAME
 70
     0
  9
$SPLINETYPE
 70
     6
  9
$SPLINESEGS
 70
     8
  9
$HANDSEED
  5
12D
  9
$SURFTAB1
 70
     6
  9
$SURFTAB2
 70
     6
  9
$SURFTYPE
 70
     6
  9
$SURFU
 70
     6
  9
$SURFV
 70
     6
  9
$UCSBASE
  2

  9
$UCSNAME
  2

  9
$UCSORG
 10
0.0
 20
0.0
 30
0.0
  9
$UCSXDIR
 10
1.0
 20
0.0
 30
0.0
  9
$UCSYDIR
 10
0.0
 20
1.0
 30
0.0
  9
$UCSORTHOREF
  2

  9
$UCSORTHOVIEW
 70
     0
  9
$UCSORGTOP
 10
0.0
 20
0.0
 30
0.0
  9
$UCSORGBOTTOM
 10
0.0
 20
0.0
 30
0.0
  9
$UCSORGLEFT
 10
0.0
 20
0.0
 30
0.0
  9
$UCSORGRIGHT
 10
0.0
 20
0.0
 30
0.0
  9
$UCSORGFRONT
 10
0.0
 20
0.0
 30
0.0
  9
$UCSORGBACK
 10
0.0
 20
0.0
 30
0.0
  9
$PUCSBASE
  2

  9
$PUCSNAME
  2

  9
$PUCSORG
 10
0.0
 20
0.0
 30
0.0
  9
$PUCSXDIR
 10
1.0
 20
0.0
 30
0.0
  9
$PUCSYDIR
 10
0.0
 20
1.0
 30
0.0
  9
$PUCSORTHOREF
  2

  9
$PUCSORTHOVIEW
 70
     0
  9
$PUCSORGTOP
 10
0.0
 20
0.0
 30
0.0
  9
$PUCSORGBOTTOM
 10
0.0
 20
0.0
 30
0.0
  9
$PUCSORGLEFT
 10
0.0
 20
0.0
 30
0.0
  9
$PUCSORGRIGHT
 10
0.0
 20
0.0
 30
0.0
  9
$PUCSORGFRONT
 10
0.0
 20
0.0
 30
0.0
  9
$PUCSORGBACK
 10
0.0
 20
0.0
 30
0.0
  9
$USERI1
 70
     0
  9
$USERI2
 70
     0
  9
$USERI3
 70
     0
  9
$USERI4
 70
     0
  9
$USERI5
 70
     0
  9
$USERR1
 40
0.0
  9
$USERR2
 40
0.0
  9
$USERR3
 40
0.0
  9
$USERR4
 40
0.0
  9
$USERR5
 40
0.0
  9
$WORLDVIEW
 70
     1
  9
$SHADEDGE
 70
     3
  9
$SHADEDIF
 70
    70
  9
$TILEMODE
 70
     1
  9
$MAXACTVP
 70
    64
  9
$PINSBASE
 10
0.0
 20
0.0
 30
0.0
  9
$PLIMCHECK
 70
     0
  9
$PEXTMIN
 10
1.0000000000E+20
 20
1.0000000000E+20
 30
1.0000000000E+20
  9
$PEXTMAX
 10
-1.0000000000E+20
 20
-1.0000000000E+20
 30
-1.0000000000E+20
  9
$PLIMMIN
 10
0.0
 20
0.0
  9
$PLIMMAX
 10
420.0
 20
297.0
  9
$UNITMODE
 70
     0
  9
$VISRETAIN
 70
     1
  9
$PLINEGEN
 70
     0
  9
$PSLTSCALE
 70
     1
  9
$TREEDEPTH
 70
  3020
  9
$CMLSTYLE
  2
Standard
  9
$CMLJUST
 70
     0
  9
$CMLSCALE
 40
20.0
  9
$PROXYGRAPHICS
 70
     1
  9
$MEASUREMENT
 70
     1
  9
$CELWEIGHT
370
    -1
  9
$ENDCAPS
280
     0
  9
$JOINSTYLE
280
     0
  9
$LWDISPLAY
290
     1
  9
$INSUNITS
 70
     4
  9
$HYPERLINKBASE
  1

  9
$STYLESHEET
  1

  9
$XEDIT
290
     1
  9
$CEPSNTYPE
380
     0
  9
$PSTYLEMODE
290
     1
  9
$FINGERPRINTGUID
  2
{d580f286-2cc9-488e-8f09-5ee7e15b5d39}
  9
$VERSIONGUID
  2
{FAEB1C32-E019-11D5-929B-00C0DF256EC4}
  9
$EXTNAMES
290
     1
  9
$PSVPSCALE
 40
0.0
  9
$OLESTARTUP
290
     0
  0
ENDSEC
  0
SECTION
  2
CLASSES
  0
CLASS
  1
ACDBDICTIONARYWDFLT
  2
AcDbDictionaryWithDefault
  3
ObjectDBX Classes
 90
        0
280
     0
281
     0
  0
CLASS
  1
VISUALSTYLE
  2
AcDbVisualStyle
  3
ObjectDBX Classes
 90
     4095
280
     0
281
     0
  0
CLASS
  1
MATERIAL
  2
AcDbMaterial
  3
ObjectDBX Classes
 90
     1153
280
     0
281
     0
  0
CLASS
  1
SCALE
  2
AcDbScale
  3
ObjectDBX Classes
 90
     1153
280
     0
281
     0
  0
CLASS
  1
TABLESTYLE
  2
AcDbTableStyle
  3
ObjectDBX Classes
 90
     4095
280
     0
281
     0
  0
CLASS
  1
MLEADERSTYLE
  2
AcDbMLeaderStyle
  3
ACDB_MLEADERSTYLE_CLASS
 90
     4095
280
     0
281
     0
  0
CLASS
  1
SUN
  2
AcDbSun
  3
SCENEOE
 90
     1153
280
     0
281
     0
  0
CLASS
  1
ACDBPLACEHOLDER
  2
AcDbPlaceHolder
  3
ObjectDBX Classes
 90
        0
280
     0
281
     0
  0
CLASS
  1
LAYOUT
  2
AcDbLayout
  3
ObjectDBX Classes
 90
        0
280
     0
281
     0
  0
ENDSEC
  0
SECTION
  2
TABLES
  0
TABLE
  2
VPORT
  5
8
330
0
100
AcDbSymbolTable
 70
     1
  0
VPORT
  5
29
330
8
100
AcDbSymbolTableRecord
100
AcDbViewportTableRecord
  2
*Active
 70
     0
 10
0.0
 20
0.0
 11
1.0
 21
1.0
 12
10000.0
 22
5000.0
 13
0.0
 23
0.0
 14
10.0
 24
10.0
 15
10.0
 25
10.0
 16
0.0
 26
0.0
 36
1.0
 17
0.0
 27
0.0
 37
0.0
 40
10000.0
 41
2.0
 42
50.0
 43
0.0
 44
0.0
 50
0.0
 51
0.0
 71
     0
 72
  2000
 73
     1
 74
     3
 75
     0
 76
     0
 77
     0
 78
     0
281
     0
 65
     1
110
0.0
120
0.0
130
0.0
111
1.0
121
0.0
131
0.0
112
0.0
122
1.0
132
0.0
 79
     0
146
0.0
  0
ENDTAB
  0
TABLE
  2
LTYPE
  5
5
330
0
100
AcDbSymbolTable
 70
    10
  0
LTYPE
  5
14
330
5
100
AcDbSymbolTableRecord
100
AcDbLinetypeTableRecord
  2
ByBlock
 70
     0
  3

 72
    65
 73
     0
 40
0.0
  0
LTYPE
  5
15
330
5
100
AcDbSymbolTableRecord
100
AcDbLinetypeTableRecord
  2
ByLayer
 70
     0
  3

 72
    65
 73
     0
 40
0.0
  0
LTYPE
  5
16
330
5
100
AcDbSymbolTableRecord
100
AcDbLinetypeTableRecord
  2
Continuous
 70
     0
  3
Solid line
 72
    65
 73
     0
 40
0.0
  0
LTYPE
  5
6E
330
5
100
AcDbSymbolTableRecord
100
AcDbLinetypeTableRecord
  2
SLD-Plná
 70
     0
  3
SolidWorks Line Style
 72
    65
 73
     0
 40
0.0
  0
LTYPE
  5
6F
330
5
100
AcDbSymbolTableRecord
100
AcDbLinetypeTableRecord
  2
SLD-Čárkovaná
 70
     0
  3
SolidWorks Line Style
 72
    65
 73
     2
 40
1.905
 49
1.27
 74
     0
 49
-0.635
 74
     0
  0
LTYPE
  5
70
330
5
100
AcDbSymbolTableRecord
100
AcDbLinetypeTableRecord
  2
SLD-Dvojitě-čerchovaná
 70
     0
  3
SolidWorks Line Style
 72
    65
 73
     6
 40
12.7
 49
6.35
 74
     0
 49
-1.27
 74
     0
 49
1.27
 74
     0
 49
-1.27
 74
     0
 49
1.27
 74
     0
 49
-1.27
 74
     0
  0
LTYPE
  5
71
330
5
100
AcDbSymbolTableRecord
100
AcDbLinetypeTableRecord
  2
SLD-Čerchovaná
 70
     0
  3
SolidWorks Line Style
 72
    65
 73
     4
 40
10.16
 49
6.35
 74
     0
 49
-1.27
 74
     0
 49
1.27
 74
     0
 49
-1.27
 74
     0
  0
LTYPE
  5
72
330
5
100
AcDbSymbolTableRecord
100
AcDbLinetypeTableRecord
  2
SLD-Osa
 70
     0
  3
SolidWorks Line Style
 72
    65
 73
     4
 40
19.05
 49
15.24
 74
     0
 49
-1.27
 74
     0
 49
1.27
 74
     0
 49
-1.27
 74
     0
  0
LTYPE
  5
73
330
5
100
AcDbSymbolTableRecord
100
AcDbLinetypeTableRecord
  2
SLD-Tečkovaná
 70
     0
  3
SolidWorks Line Style
 72
    65
 73
     2
 40
0.635
 49
0.0
 74
     0
 49
-0.635
 74
     0
  0
LTYPE
  5
74
330
5
100
AcDbSymbolTableRecord
100
AcDbLinetypeTableRecord
  2
SLD-Hrubá-tenká-čerchovaná
 70
     0
  3
SolidWorks Line Style
 72
    65
 73
     4
 40
10.16
 49
6.35
 74
     0
 49
-1.27
 74
     0
 49
1.27
 74
     0
 49
-1.27
 74
     0
  0
LTYPE
  5
75
330
5
100
AcDbSymbolTableRecord
100
AcDbLinetypeTableRecord
  2
SLD-Řez-1
 70
     0
  3
SolidWorks Line Style
 72
    65
 73
     4
 40
8.128
 49
5.08
 74
     0
 49
-1.016
 74
     0
 49
1.016
 74
     0
 49
-1.016
 74
     0
  0
LTYPE
  5
76
330
5
100
AcDbSymbolTableRecord
100
AcDbLinetypeTableRecord
  2
SLD-Řez-2
 70
     0
  3
SolidWorks Line Style
 72
    65
 73
     2
 40
5080.0
 49
0.0
 74
     0
 49
-5080.0
 74
     0
  0
ENDTAB
  0
TABLE
  2
LAYER
  5
2
330
0
100
AcDbSymbolTable
 70
    13
  0
LAYER
  5
10
330
2
100
AcDbSymbolTableRecord
100
AcDbLayerTableRecord
  2
0
 70
     0
 62
     7
  6
Continuous
370
    -3
390
F
  0
LAYER
  5
77
330
2
100
AcDbSymbolTableRecord
100
AcDbLayerTableRecord
  2
FORMAT
 70
     0
 62
     7
  6
SLD-Plná
370
    -3
390
F
  0
LAYER
  5
78
330
2
100
AcDbSymbolTableRecord
100
AcDbLayerTableRecord
  2
OSA
 70
     0
 62
     7
  6
SLD-Hrubá-tenká-čerchovaná
370
    -3
390
F
  0
LAYER
  5
79
330
2
100
AcDbSymbolTableRecord
100
AcDbLayerTableRecord
  2
0_35
 70
     0
 62
     7
  6
SLD-Plná
370
    35
390
F
  0
LAYER
  5
7A
330
2
100
AcDbSymbolTableRecord
100
AcDbLayerTableRecord
  2
0_5
 70
     0
 62
     7
  6
SLD-Plná
370
    50
390
F
  0
LAYER
  5
7B
330
2
100
AcDbSymbolTableRecord
100
AcDbLayerTableRecord
  2
0_25
 70
     0
 62
     7
  6
SLD-Plná
370
    25
390
F
  0
LAYER
  5
7C
330
2
100
AcDbSymbolTableRecord
100
AcDbLayerTableRecord
  2
0_18
 70
     0
 62
     7
  6
SLD-Plná
370
    -3
390
F
  0
LAYER
  5
7D
330
2
100
AcDbSymbolTableRecord
100
AcDbLayerTableRecord
  2
SLD-0
 70
     0
 62
   179
  6
SLD-Plná
370
    -3
390
F
  0
LAYER
  5
7E
330
2
100
AcDbSymbolTableRecord
100
AcDbLayerTableRecord
  2
KOTY
 70
     0
 62
     7
  6
SLD-Plná
370
    -3
390
F
  0
LAYER
  5
7F
330
2
100
AcDbSymbolTableRecord
100
AcDbLayerTableRecord
  2
SILNA
 70
     0
 62
   179
  6
SLD-Plná
370
    -3
390
F
  0
LAYER
  5
80
330
2
100
AcDbSymbolTableRecord
100
AcDbLayerTableRecord
  2
0_18_1
 70
     0
 62
   179
  6
SLD-Plná
370
    -3
390
F
  0
LAYER
  5
81
330
2
100
AcDbSymbolTableRecord
100
AcDbLayerTableRecord
  2
0_35_1
 70
     0
 62
   179
  6
SLD-Plná
370
    35
390
F
  0
LAYER
  5
82
330
2
100
AcDbSymbolTableRecord
100
AcDbLayerTableRecord
  2
0_5_1
 70
     0
 62
   179
  6
SLD-Plná
370
    50
390
F
  0
ENDTAB
  0
TABLE
  2
STYLE
  5
3
330
0
100
AcDbSymbolTable
 70
     1
  0
STYLE
  5
11
330
3
100
AcDbSymbolTableRecord
100
AcDbTextStyleTableRecord
  2
STANDARD
 70
     0
 40
0.0
 41
1.0
 50
0.0
 71
     0
 42
2.0
  3
SWISOP1.TTF
  4

1001
ACAD
1000
SWISOP1
1071
        2
  0
ENDTAB
  0
TABLE
  2
VIEW
  5
6
330
0
100
AcDbSymbolTable
 70
     0
  0
ENDTAB
  0
TABLE
  2
UCS
  5
7
330
0
100
AcDbSymbolTable
 70
     0
  0
ENDTAB
  0
TABLE
  2
APPID
  5
9
330
0
100
AcDbSymbolTable
 70
     1
  0
APPID
  5
12
330
9
100
AcDbSymbolTableRecord
100
AcDbRegAppTableRecord
  2
ACAD
 70
     0
  0
ENDTAB
  0
TABLE
  2
DIMSTYLE
  5
A
330
0
100
AcDbSymbolTable
 70
     1
100
AcDbDimStyleTable
  0
DIMSTYLE
105
27
330
A
100
AcDbSymbolTableRecord
100
AcDbDimStyleTableRecord
  2
ISO-25
 70
     0
 41
2.5
 42
0.625
 43
3.75
 44
1.25
 73
     0
 74
     0
 77
     1
 78
     8
140
2.5
141
2.5
143
0.0393700787
147
0.625
171
     3
172
     1
178
     0
271
     2
272
     2
274
     3
278
    44
283
     0
284
     8
340
11
  0
ENDTAB
  0
TABLE
  2
BLOCK_RECORD
  5
1
330
0
100
AcDbSymbolTable
 70
     1
  0
BLOCK_RECORD
  5
1F
330
1
100
AcDbSymbolTableRecord
100
AcDbBlockTableRecord
  2
*Model_Space
340
22
  0
BLOCK_RECORD
  5
1B
330
1
100
AcDbSymbolTableRecord
100
AcDbBlockTableRecord
  2
*Paper_Space
340
1E
  0
BLOCK_RECORD
  5
23
330
1
100
AcDbSymbolTableRecord
100
AcDbBlockTableRecord
  2
*Paper_Space0
340
26
  0
ENDTAB
  0
ENDSEC
  0
SECTION
  2
BLOCKS
  0
BLOCK
  5
20
330
1F
100
AcDbEntity
  8
0
100
AcDbBlockBegin
  2
*Model_Space
 70
     0
 10
0.0
 20
0.0
 30
0.0
  3
*Model_Space
  1

  0
ENDBLK
  5
21
330
1F
100
AcDbEntity
  8
0
100
AcDbBlockEnd
  0
BLOCK
  5
1C
330
1B
100
AcDbEntity
 67
     1
  8
0
100
AcDbBlockBegin
  2
*Paper_Space
 70
     0
 10
0.0
 20
0.0
 30
0.0
  3
*Paper_Space
  1

  0
ENDBLK
  5
1D
330
1B
100
AcDbEntity
 67
     1
  8
0
100
AcDbBlockEnd
  0
BLOCK
  5
24
330
23
100
AcDbEntity
  8
0
100
AcDbBlockBegin
  2
*Paper_Space0
 70
     0
 10
0.0
 20
0.0
 30
0.0
  3
*Paper_Space0
  1

  0
ENDBLK
  5
25
330
23
100
AcDbEntity
  8
0
100
AcDbBlockEnd
  0
ENDSEC
  0
SECTION
  2
ENTITIES
  0
SPLINE
  5
83
330
1F
100
AcDbEntity
  8
0
  6
SLD-Plná
 62
     7
370
    25
100
AcDbSpline
210
0.0
220
0.0
230
1.0
 70
     8
 71
     3
 72
    35
 73
    31
 74
     0
 42
0.00000001
 43
0.00000001
 40
0.0
 40
0.0
 40
0.0
 40
0.0
 40
0.0564787528822887
 40
0.1100171770309898
 40
0.1606174833693475
 40
0.2082817757924056
 40
0.2530120502161318
 40
0.2948101935382049
 40
0.3336779827792278
 40
0.3667339805278865
 40
0.397330269942133
 40
0.4254679741137175
 40
0.4511481375572403
 40
0.4743717264493266
 40
0.495139629239532
 40
0.5112983522970277
 40
0.5289547101254468
 40
0.5487841942098565
 40
0.5707854772808445
 40
0.5949563105031836
 40
0.6208043852970101
 40
0.6487388073442201
 40
0.6787555027634972
 40
0.7108498616252332
 40
0.7517592705871315
 40
0.795596406581016
 40
0.842350811866042
 40
0.892011136625555
 40
0.9445651903187008
 40
1.0
 40
1.0
 40
1.0
 40
1.0
 10
5846.822022413272
 20
5108.757245704188
 30
0.0
 10
5849.014654850077
 20
5101.253817920112
 30
0.0
 10
5853.285769537517
 20
5086.637596762034
 30
0.0
 10
5859.519907551675
 20
5065.291939296715
 30
0.0
 10
5865.410448916612
 20
5045.113175703781
 30
0.0
 10
5870.957452339001
 20
5026.100822093296
 30
0.0
 10
5876.161148894634
 20
5008.254997356951
 30
0.0
 10
5881.021829879501
 20
4991.575672249558
 30
0.0
 10
5885.428143776978
 20
4976.44641413648
 30
0.0
 10
5889.398762308536
 20
4962.805240035173
 30
0.0
 10
5892.952349696268
 20
4950.59011836942
 30
0.0
 10
5896.219040604106
 20
4939.355172238367
 30
0.0
 10
5899.199180369497
 20
4929.100442622279
 30
0.0
 10
5901.89316433116
 20
4919.825792964455
 30
0.0
 10
5904.217954255936
 20
4911.818438194898
 30
0.0
 10
5906.32704066408
 20
4904.551038227243
 30
0.0
 10
5908.396892967573
 20
4897.416242244795
 30
0.0
 10
5910.689379238343
 20
4889.510299791154
 30
0.0
 10
5913.230134784366
 20
4880.743467344943
 30
0.0
 10
5915.99988631433
 20
4871.180641121256
 30
0.0
 10
5918.995145420736
 20
4860.831937747869
 30
0.0
 10
5922.212225543579
 20
4849.707516118268
 30
0.0
 10
5925.665910246059
 20
4837.752599212078
 30
0.0
 10
5929.613073370427
 20
4824.071802800336
 30
0.0
 10
5934.08348492411
 20
4808.549563571903
 30
0.0
 10
5939.104817961608
 20
4791.069453852244
 30
0.0
 10
5944.446475904303
 20
4772.412470427364
 30
0.0
 10
5950.099797879109
 20
4752.578060647636
 30
0.0
 10
5956.058515060869
 20
4731.568445728082
 30
0.0
 10
5960.108753833959
 20
4717.155804919247
 30
0.0
 10
5962.187896150435
 20
4709.757245704188
 30
0.0
  0
LINE
  5
84
330
1F
100
AcDbEntity
  8
0
  6
SLD-Plná
 62
     7
370
    25
100
AcDbLine
 10
6527.5041386781
 20
5404.7572457042
 30
0.0
 11
6527.4041386781
 21
5404.7572457042
 31
0.0
  0
LINE
  5
85
330
1F
100
AcDbEntity
  8
0
  6
SLD-Plná
 62
     7
370
    25
100
AcDbLine
 10
6527.5041386781
 20
4864.7572457042
 30
0.0
 11
6527.4041386781
 21
4864.7572457042
 31
0.0
  0
LINE
  5
86
330
1F
100
AcDbEntity
  8
0
  6
SLD-Plná
 62
     7
370
    25
100
AcDbLine
 10
6527.5041386781
 20
5404.7572457042
 30
0.0
 11
6527.5041386781
 21
4864.7572457042
 31
0.0
  0
LINE
  5
87
330
1F
100
AcDbEntity
  8
0
  6
SLD-Plná
 62
     7
370
    25
100
AcDbLine
 10
6527.4041386781
 20
5557.7572457042
 30
0.0
 11
6167.4041386781
 21
5557.7572457042
 31
0.0
  0
ARC
  5
88
330
1F
100
AcDbEntity
  8
0
  6
SLD-Plná
 62
     7
370
    25
100
AcDbCircle
 10
6169.4041386781
 20
5557.7572457042
 30
0.0
 40
2.0
100
AcDbArc
 50
90.0
 51
180.0
  0
LINE
  5
89
330
1F
100
AcDbEntity
  8
0
  6
SLD-Plná
 62
     7
370
    25
100
AcDbLine
 10
6169.4041386781
 20
5559.7572457042
 30
0.0
 11
6525.4041386781
 21
5559.7572457042
 31
0.0
  0
ARC
  5
8A
330
1F
100
AcDbEntity
  8
0
  6
SLD-Plná
 62
     7
370
    25
100
AcDbCircle
 10
6525.4041386781
 20
5557.7572457042
 30
0.0
 40
2.0
100
AcDbArc
 50
0.0
 51
90.0
  0
LINE
  5
8B
330
1F
100
AcDbEntity
  8
0
  6
SLD-Plná
 62
     7
370
    25
100
AcDbLine
 10
6167.4041386781
 20
5108.7572457042
 30
0.0
 11
6167.4041386781
 21
5557.7572457042
 31
0.0
  0
LINE
  5
8C
330
1F
100
AcDbEntity
  8
0
  6
SLD-Plná
 62
     7
370
    25
100
AcDbLine
 10
6527.4041386781
 20
4709.7572457042
 30
0.0
 11
6527.4041386781
 21
5557.7572457042
 31
0.0
  0
LINE
  5
8D
330
1F
100
AcDbEntity
  8
0
  6
SLD-Plná
 62
     7
370
    25
100
AcDbLine
 10
6300.9789113999
 20
4709.7572457042
 30
0.0
 11
6527.4041386781
 21
4709.7572457042
 31
0.0
  0
SPLINE
  5
8E
330
1F
100
AcDbEntity
  8
0
  6
SLD-Plná
 62
     7
370
    25
100
AcDbSpline
210
0.0
220
0.0
230
1.0
 70
     8
 71
     3
 72
    11
 73
     7
 74
     0
 42
0.00000001
 43
0.00000001
 40
0.0
 40
0.0
 40
0.0
 40
0.0
 40
0.1411633488393752
 40
0.4584135612252849
 40
0.775428482082647
 40
0.9999999999999999
 40
0.9999999999999999
 40
0.9999999999999999
 40
0.9999999999999999
 10
6348.805889935925
 20
5650.366770179076
 30
0.0
 10
6348.678409088066
 20
5650.420324217572
 30
0.0
 10
6348.264428051659
 20
5650.594235489206
 30
0.0
 10
6347.422670519546
 20
5650.659609975648
 30
0.0
 10
6346.498662746937
 20
5650.586443794985
 30
0.0
 10
6346.008365307996
 20
5650.379847307125
 30
0.0
 10
6345.805061029656
 20
5650.294181043066
 30
0.0
  0
SPLINE
  5
8F
330
1F
100
AcDbEntity
  8
0
  6
SLD-Plná
 62
     7
370
    25
100
AcDbSpline
210
0.0
220
0.0
230
1.0
 70
    11
 71
     3
 72
    39
 73
    35
 74
     0
 42
0.00000001
 43
0.00000001
 40
0.0
 40
0.0
 40
0.0
 40
0.0
 40
0.0312503792996388
 40
0.0625010686353631
 40
0.0937510335505542
 40
0.1250018190739995
 40
0.1562525618101817
 40
0.187502644571362
 40
0.2187529493829755
 40
0.2500036567052473
 40
0.2812542984490212
 40
0.3125045603175806
 40
0.343754697872389
 40
0.3750054821042901
 40
0.4062561961155834
 40
0.437506257750876
 40
0.4687565877556101
 40
0.5000073230927625
 40
0.5312579282959202
 40
0.5625081724548463
 40
0.5937583406404543
 40
0.6250091419330663
 40
0.6562598272461696
 40
0.6875098697641803
 40
0.7187602266751885
 40
0.7500109868534708
 40
0.7812615490971231
 40
0.8125118059291411
 40
0.8437619344586538
 40
0.8750127610118348
 40
0.9062640238555336
 40
0.9375108598744739
 40
0.9687546138267316
 40
1.0
 40
1.0
 40
1.0
 40
1.0
 10
6461.404138678098
 20
5619.75724570419
 30
0.0
 10
6461.351984945753
 20
5620.673536610273
 30
0.0
 10
6461.247676963644
 20
5622.506127512993
 30
0.0
 10
6460.415130170571
 20
5625.149337773583
 30
0.0
 10
6459.121336453726
 20
5627.585407051805
 30
0.0
 10
6457.366872805836
 20
5629.720670299673
 30
0.0
 10
6455.232154726753
 20
5631.472884420399
 30
0.0
 10
6452.795897809086
 20
5632.774820468153
 30
0.0
 10
6450.152724398698
 20
5633.576666454496
 30
0.0
 10
6447.403813783271
 20
5633.847571883463
 30
0.0
 10
6444.654935356461
 20
5633.576518203386
 30
0.0
 10
6442.011753815837
 20
5632.774572137871
 30
0.0
 10
6439.575696062717
 20
5631.472550255205
 30
0.0
 10
6437.440486745994
 20
5629.720211542774
 30
0.0
 10
6435.688332017159
 20
5627.58486045183
 30
0.0
 10
6434.386437057994
 20
5625.148741144509
 30
0.0
 10
6433.584642878931
 20
5622.505506982813
 30
0.0
 10
6433.313816074924
 20
5619.756598837779
 30
0.0
 10
6433.584939370714
 20
5617.007726141582
 30
0.0
 10
6434.386936368224
 20
5614.364562809997
 30
0.0
 10
6435.689001500976
 20
5611.928525369677
 30
0.0
 10
6437.441405446271
 20
5609.79336724138
 30
0.0
 10
6439.576800193227
 20
5608.041270021795
 30
0.0
 10
6442.012939985882
 20
5606.739416991358
 30
0.0
 10
6444.656193568022
 20
5605.937674124465
 30
0.0
 10
6447.405107219033
 20
5605.666929754698
 30
0.0
 10
6450.153984063832
 20
5605.938115845884
 30
0.0
 10
6452.797084025542
 20
5606.740172157016
 30
0.0
 10
6455.233260845671
 20
5608.042270812408
 30
0.0
 10
6457.367798474801
 20
5609.794747286957
 30
0.0
 10
6459.121948353614
 20
5611.930156874345
 30
0.0
 10
6460.415508977729
 20
5614.36602590976
 30
0.0
 10
6461.247745280209
 20
5617.008862563158
 30
0.0
 10
6461.352006637697
 20
5618.841102037768
 30
0.0
 10
6461.404138678098
 20
5619.75724570419
 30
0.0
  0
SPLINE
  5
90
330
1F
100
AcDbEntity
  8
0
  6
SLD-Plná
 62
     7
370
    25
100
AcDbSpline
210
0.0
220
0.0
230
1.0
 70
    11
 71
     3
 72
    39
 73
    35
 74
     0
 42
0.00000001
 43
0.00000001
 40
0.0
 40
0.0
 40
0.0
 40
0.0
 40
0.0312503792996388
 40
0.0625010686353625
 40
0.0937510335505543
 40
0.1250018190739993
 40
0.1562525618101815
 40
0.187502644571362
 40
0.2187529493829752
 40
0.250003656705247
 40
0.2812542984490213
 40
0.3125045603175804
 40
0.343754697872389
 40
0.3750054821042899
 40
0.4062561961155831
 40
0.437506257750876
 40
0.4687565877556102
 40
0.5000073230927621
 40
0.5312579282959203
 40
0.5625081724548457
 40
0.593758340640454
 40
0.6250091419330658
 40
0.6562598272461692
 40
0.6875098697641799
 40
0.7187602266751881
 40
0.7500109868534703
 40
0.7812615490971225
 40
0.8125118059291403
 40
0.843761934458653
 40
0.8750127610118348
 40
0.9062640238555331
 40
0.9375108598744734
 40
0.9687546138267314
 40
1.0
 40
1.0
 40
1.0
 40
1.0
 10
6261.404138678098
 20
5619.75724570419
 30
0.0
 10
6261.351984945753
 20
5620.673536610273
 30
0.0
 10
6261.247676963644
 20
5622.506127512993
 30
0.0
 10
6260.415130170571
 20
5625.149337773583
 30
0.0
 10
6259.121336453726
 20
5627.585407051805
 30
0.0
 10
6257.366872805837
 20
5629.720670299673
 30
0.0
 10
6255.232154726753
 20
5631.472884420399
 30
0.0
 10
6252.795897809087
 20
5632.774820468153
 30
0.0
 10
6250.152724398698
 20
5633.576666454496
 30
0.0
 10
6247.403813783272
 20
5633.847571883462
 30
0.0
 10
6244.654935356461
 20
5633.576518203386
 30
0.0
 10
6242.011753815837
 20
5632.774572137871
 30
0.0
 10
6239.575696062717
 20
5631.472550255205
 30
0.0
 10
6237.440486745994
 20
5629.720211542774
 30
0.0
 10
6235.688332017159
 20
5627.58486045183
 30
0.0
 10
6234.386437057994
 20
5625.148741144509
 30
0.0
 10
6233.584642878931
 20
5622.505506982813
 30
0.0
 10
6233.313816074924
 20
5619.756598837779
 30
0.0
 10
6233.584939370714
 20
5617.007726141582
 30
0.0
 10
6234.386936368224
 20
5614.364562809997
 30
0.0
 10
6235.689001500976
 20
5611.928525369677
 30
0.0
 10
6237.44140544627
 20
5609.793367241381
 30
0.0
 10
6239.576800193227
 20
5608.041270021795
 30
0.0
 10
6242.012939985882
 20
5606.739416991359
 30
0.0
 10
6244.656193568022
 20
5605.937674124465
 30
0.0
 10
6247.405107219034
 20
5605.666929754698
 30
0.0
 10
6250.153984063832
 20
5605.938115845884
 30
0.0
 10
6252.797084025542
 20
5606.740172157016
 30
0.0
 10
6255.233260845672
 20
5608.042270812407
 30
0.0
 10
6257.367798474801
 20
5609.794747286957
 30
0.0
 10
6259.121948353614
 20
5611.930156874345
 30
0.0
 10
6260.41550897773
 20
5614.36602590976
 30
0.0
 10
6261.247745280209
 20
5617.008862563158
 30
0.0
 10
6261.352006637697
 20
5618.841102037768
 30
0.0
 10
6261.404138678098
 20
5619.75724570419
 30
0.0
  0
CIRCLE
  5
91
330
1F
100
AcDbEntity
  8
0
  6
SLD-Plná
 62
     7
370
    25
100
AcDbCircle
 10
6447.4041386781
 20
5619.7572457042
 30
0.0
 40
15.0
  0
CIRCLE
  5
92
330
1F
100
AcDbEntity
  8
0
  6
SLD-Plná
 62
     7
370
    25
100
AcDbCircle
 10
6447.4041386781
 20
5619.7572457042
 30
0.0
 40
22.5
  0
CIRCLE
  5
93
330
1F
100
AcDbEntity
  8
0
  6
SLD-Plná
 62
     7
370
    25
100
AcDbCircle
 10
6247.4041386781
 20
5619.7572457042
 30
0.0
 40
22.5
  0
CIRCLE
  5
94
330
1F
100
AcDbEntity
  8
0
  6
SLD-Plná
 62
     7
370
    25
100
AcDbCircle
 10
6247.4041386781
 20
5619.7572457042
 30
0.0
 40
14.99999999999909
  0
LINE
  5
95
330
1F
100
AcDbEntity
  8
0
  6
SLD-Plná
 62
     7
370
    25
100
AcDbLine
 10
6525.4041386781
 20
5715.7572457042
 30
0.0
 11
6169.4041386781
 21
5715.7572457042
 31
0.0
  0
LINE
  5
96
330
1F
100
AcDbEntity
  8
0
  6
SLD-Plná
 62
     7
370
    25
100
AcDbLine
 10
6525.4041386781
 20
5584.7572457042
 30
0.0
 11
6525.4041386781
 21
5715.7572457042
 31
0.0
  0
LINE
  5
97
330
1F
100
AcDbEntity
  8
0
  6
SLD-Plná
 62
     7
370
    25
100
AcDbLine
 10
6169.4041386781
 20
5584.7572457042
 30
0.0
 11
6525.4041386781
 21
5584.7572457042
 31
0.0
  0
LINE
  5
98
330
1F
100
AcDbEntity
  8
0
  6
SLD-Plná
 62
     7
370
    25
100
AcDbLine
 10
6169.4041386781
 20
5715.7572457042
 30
0.0
 11
6169.4041386781
 21
5584.7572457042
 31
0.0
  0
LINE
  5
99
330
1F
100
AcDbEntity
  8
0
  6
SLD-Plná
 62
     7
370
    25
100
AcDbLine
 10
6527.4041386781
 20
5582.7572457042
 30
0.0
 11
6525.4041386781
 21
5584.7572457042
 31
0.0
  0
LINE
  5
9A
330
1F
100
AcDbEntity
  8
0
  6
SLD-Plná
 62
     7
370
    25
100
AcDbLine
 10
6527.4041386781
 20
5715.7572457042
 30
0.0
 11
6525.4041386781
 21
5715.7572457042
 31
0.0
  0
LINE
  5
9B
330
1F
100
AcDbEntity
  8
0
  6
SLD-Plná
 62
     7
370
    25
100
AcDbLine
 10
6527.4041386781
 20
5715.7572457042
 30
0.0
 11
6527.4041386781
 21
5582.7572457042
 31
0.0
  0
LINE
  5
9C
330
1F
100
AcDbEntity
  8
0
  6
SLD-Plná
 62
     7
370
    25
100
AcDbLine
 10
6527.4041386781
 20
5582.7572457042
 30
0.0
 11
6167.4041386781
 21
5582.7572457042
 31
0.0
  0
LINE
  5
9D
330
1F
100
AcDbEntity
  8
0
  6
SLD-Plná
 62
     7
370
    25
100
AcDbLine
 10
6169.4041386781
 20
5584.7572457042
 30
0.0
 11
6167.4041386781
 21
5582.7572457042
 31
0.0
  0
LINE
  5
9E
330
1F
100
AcDbEntity
  8
0
  6
SLD-Plná
 62
     7
370
    25
100
AcDbLine
 10
6169.4041386781
 20
5715.7572457042
 30
0.0
 11
6167.4041386781
 21
5715.7572457042
 31
0.0
  0
LINE
  5
9F
330
1F
100
AcDbEntity
  8
0
  6
SLD-Plná
 62
     7
370
    25
100
AcDbLine
 10
6167.4041386781
 20
5582.7572457042
 30
0.0
 11
6167.4041386781
 21
5715.7572457042
 31
0.0
  0
ARC
  5
A0
330
1F
100
AcDbEntity
  8
0
  6
SLD-Plná
 62
     7
370
    25
100
AcDbCircle
 10
6169.4041386781
 20
5715.7572457042
 30
0.0
 40
1.999999999999091
100
AcDbArc
 50
90.0
 51
180.0
  0
LINE
  5
A1
330
1F
100
AcDbEntity
  8
0
  6
SLD-Plná
 62
     7
370
    25
100
AcDbLine
 10
6169.4041386781
 20
5715.7572457042
 30
0.0
 11
6169.4041386781
 21
5717.7572457042
 31
0.0
  0
LINE
  5
A2
330
1F
100
AcDbEntity
  8
0
  6
SLD-Plná
 62
     7
370
    25
100
AcDbLine
 10
6169.4041386781
 20
5717.7572457042
 30
0.0
 11
6525.4041386781
 21
5717.7572457042
 31
0.0
  0
LINE
  5
A3
330
1F
100
AcDbEntity
  8
0
  6
SLD-Plná
 62
     7
370
    25
100
AcDbLine
 10
6525.4041386781
 20
5717.7572457042
 30
0.0
 11
6525.4041386781
 21
5715.7572457042
 31
0.0
  0
ARC
  5
A4
330
1F
100
AcDbEntity
  8
0
  6
SLD-Plná
 62
     7
370
    25
100
AcDbCircle
 10
6525.4041386781
 20
5715.7572457042
 30
0.0
 40
2.0
100
AcDbArc
 50
0.0
 51
90.0
  0
LINE
  5
A5
330
1F
100
AcDbEntity
  8
0
  6
SLD-Plná
 62
     7
370
    25
100
AcDbLine
 10
6525.4041386781
 20
5559.7572457042
 30
0.0
 11
6525.4041386781
 21
5582.7572457042
 31
0.0
  0
LINE
  5
A6
330
1F
100
AcDbEntity
  8
0
  6
SLD-Plná
 62
     7
370
    25
100
AcDbLine
 10
6527.4041386781
 20
5582.7572457042
 30
0.0
 11
6527.4041386781
 21
5557.7572457042
 31
0.0
  0
LINE
  5
A7
330
1F
100
AcDbEntity
  8
0
  6
SLD-Plná
 62
     7
370
    25
100
AcDbLine
 10
6169.4041386781
 20
5582.7572457042
 30
0.0
 11
6169.4041386781
 21
5559.7572457042
 31
0.0
  0
LINE
  5
A8
330
1F
100
AcDbEntity
  8
0
  6
SLD-Plná
 62
     7
370
    25
100
AcDbLine
 10
6167.4041386781
 20
5557.7572457042
 30
0.0
 11
6167.4041386781
 21
5582.7572457042
 31
0.0
  0
CIRCLE
  5
A9
330
1F
100
AcDbEntity
  8
0
  6
SLD-Plná
 62
     7
370
    25
100
AcDbCircle
 10
6347.4041386781
 20
5664.7572457042
 30
0.0
 40
22.5
  0
LWPOLYLINE
  5
AA
330
1F
100
AcDbEntity
  8
0
  6
SLD-Plná
 62
     7
370
    25
100
AcDbPolyline
 90
       17
 70
   128
 43
0.0
 10
6347.4041386781
 20
5650.7136243563
 10
6348.360847259
 20
5650.5790611094
 10
6349.1719056311
 20
5650.1958574033
 10
6349.7138375094
 20
5649.6223525285
 10
6349.9041386781
 20
5648.9458574033
 10
6349.7138375094
 20
5648.2693622782
 10
6349.1719056311
 20
5647.6958574033
 10
6348.360847259
 20
5647.3126536973
 10
6347.4041386781
 20
5647.1780904504
 10
6346.4474300972
 20
5647.3126536973
 10
6345.6363717251
 20
5647.6958574033
 10
6345.0944398468
 20
5648.2693622782
 10
6344.9041386781
 20
5648.9458574033
 10
6345.0944398468
 20
5649.6223525285
 10
6345.6363717251
 20
5650.1958574033
 10
6346.4474300972
 20
5650.5790611094
 10
6347.4041386781
 20
5650.7136243563
  0
LINE
  5
AB
330
1F
100
AcDbEntity
  8
0
  6
SLD-Plná
 62
     7
370
    25
100
AcDbLine
 10
6347.4041234362
 20
5108.7572457042
 30
0.0
 11
6300.653436017
 21
4709.7572457042
 31
0.0
  0
LINE
  5
AC
330
1F
100
AcDbEntity
  8
0
  6
SLD-Plná
 62
     7
370
    25
100
AcDbLine
 10
6115.8273583722
 20
4709.7572457042
 30
0.0
 11
6300.653436017
 21
4709.7572457042
 31
0.0
  0
LINE
  5
AD
330
1F
100
AcDbEntity
  8
0
  6
SLD-Plná
 62
     7
370
    25
100
AcDbLine
 10
5962.1892215274
 20
4709.7572457042
 30
0.0
 11
6115.8273583735
 21
4709.7572457042
 31
0.0
  0
LINE
  5
AE
330
1F
100
AcDbEntity
  8
0
  6
SLD-Plná
 62
     7
370
    25
100
AcDbLine
 10
6179.4669686803
 20
5108.7572457042
 30
0.0
 11
6347.4041234362
 21
5108.7572457042
 31
0.0
  0
LINE
  5
AF
330
1F
100
AcDbEntity
  8
0
  6
SLD-Plná
 62
     7
370
    25
100
AcDbLine
 10
6143.1519690495
 20
5108.7572457042
 30
0.0
 11
6179.4669686803
 21
5108.7572457042
 31
0.0
  0
LINE
  5
B0
330
1F
100
AcDbEntity
  8
0
  6
SLD-Plná
 62
     7
370
    25
100
AcDbLine
 10
6054.7177444112
 20
5108.7572457042
 30
0.0
 11
6143.1519690495
 21
5108.7572457042
 31
0.0
  0
LINE
  5
B1
330
1F
100
AcDbEntity
  8
0
  6
SLD-Plná
 62
     7
370
    25
100
AcDbLine
 10
5846.8482047968
 20
5108.7572457042
 30
0.0
 11
6054.7177444112
 21
5108.7572457042
 31
0.0
  0
LINE
  5
B2
330
1F
100
AcDbEntity
  8
0
  6
SLD-Plná
 62
     7
370
    25
100
AcDbLine
 10
6347.4041278885
 20
5108.7572457042
 30
0.0
 11
6345.8369862959
 21
5095.3822672726
 31
0.0
  0
LINE
  5
B3
330
1F
100
AcDbEntity
  8
0
  6
SLD-Plná
 62
     7
370
    25
100
AcDbLine
 10
6302.2205776095
 20
4723.1322241358
 30
0.0
 11
6300.653436017
 21
4709.7572457042
 31
0.0
  0
LINE
  5
B4
330
1F
100
AcDbEntity
  8
0
  6
SLD-Plná
 62
     7
370
    25
100
AcDbLine
 10
7410.7257912746
 20
5108.7572457042
 30
0.0
 11
7410.7257912746
 21
5557.7572457042
 31
0.0
  0
ARC
  5
B5
330
1F
100
AcDbEntity
  8
0
  6
SLD-Plná
 62
     7
370
    25
100
AcDbCircle
 10
7408.7257912746
 20
5557.7572457042
 30
0.0
 40
2.0
100
AcDbArc
 50
0.0
 51
90.0
  0
LINE
  5
B6
330
1F
100
AcDbEntity
  8
0
  6
SLD-Plná
 62
     7
370
    25
100
AcDbLine
 10
7055.7257912746
 20
5597.2572457042
 30
0.0
 11
7057.7257912746
 21
5597.2572457042
 31
0.0
  0
LINE
  5
B7
330
1F
100
AcDbEntity
  8
0
  6
SLD-Plná
 62
     7
370
    25
100
AcDbLine
 10
7057.7257912746
 20
5642.2572457042
 30
0.0
 11
7055.7257912746
 21
5642.2572457042
 31
0.0
  0
LINE
  5
B8
330
1F
100
AcDbEntity
  8
0
  6
SLD-Plná
 62
     7
370
    25
100
AcDbLine
 10
7057.7257912746
 20
5605.75725184
 30
0.0
 11
7058.7257912746
 21
5605.75725184
 31
0.0
  0
LINE
  5
B9
330
1F
100
AcDbEntity
  8
0
  6
SLD-Plná
 62
     7
370
    25
100
AcDbLine
 10
7058.7257912746
 20
5633.7572449883
 30
0.0
 11
7057.7257912746
 21
5633.7572449883
 31
0.0
  0
LINE
  5
BA
330
1F
100
AcDbEntity
  8
0
  6
SLD-Plná
 62
     7
370
    25
100
AcDbLine
 10
7058.2257912746
 20
5687.2572457042
 30
0.0
 11
7055.7257912746
 21
5687.2572457042
 31
0.0
  0
LINE
  5
BB
330
1F
100
AcDbEntity
  8
0
  6
SLD-Plná
 62
     7
370
    25
100
AcDbLine
 10
7057.7257912746
 20
5642.2572457042
 30
0.0
 11
7058.2257912746
 21
5642.2572457042
 31
0.0
  0
ARC
  5
BC
330
1F
100
AcDbEntity
  8
0
  6
SLD-Plná
 62
     7
370
    25
100
AcDbCircle
 10
7058.2257912746
 20
5664.7572457042
 30
0.0
 40
22.50000000000052
100
AcDbArc
 50
321.3793702084
 51
0.0
  0
ARC
  5
BD
330
1F
100
AcDbEntity
  8
0
  6
SLD-Plná
 62
     7
370
    25
100
AcDbCircle
 10
7058.2257912746
 20
5664.7572457042
 30
0.0
 40
22.5
100
AcDbArc
 50
270.0
 51
308.6206297916
  0
ARC
  5
BE
330
1F
100
AcDbEntity
  8
0
  6
SLD-Plná
 62
     7
370
    25
100
AcDbCircle
 10
7058.2257912746
 20
5664.7572457042
 30
0.0
 40
22.5
100
AcDbArc
 50
0.0
 51
90.0
  0
SPLINE
  5
BF
330
1F
100
AcDbEntity
  8
0
  6
SLD-Plná
 62
     7
370
    25
100
AcDbSpline
210
0.0
220
0.0
230
1.0
 70
     8
 71
     3
 72
    35
 73
    31
 74
     0
 42
0.00000001
 43
0.00000001
 40
0.0
 40
0.0
 40
0.0
 40
0.0
 40
0.0529774496658222
 40
0.1033306242188704
 40
0.1510481958001779
 40
0.196119481747135
 40
0.2385344906487042
 40
0.2782839656450052
 40
0.3153594142725827
 40
0.3497531421188845
 40
0.3783464294101311
 40
0.4047674704058289
 40
0.4290125341668741
 40
0.451078573237342
 40
0.4709633176228515
 40
0.4886654257735081
 40
0.504860384239089
 40
0.5276380340293896
 40
0.5533382468510598
 40
0.5819621898477837
 40
0.6135111404365405
 40
0.6479864871056359
 40
0.6853897296551121
 40
0.7257224790801737
 40
0.7652691257746821
 40
0.807280225375127
 40
0.8517572628824331
 40
0.8987018000458327
 40
0.9481154746558127
 40
1.0
 40
1.0
 40
1.0
 40
1.0
 10
7615.942033802265
 20
4709.757245704188
 30
0.0
 10
7617.928829214742
 20
4716.827944710663
 30
0.0
 10
7621.804002735958
 20
4730.619090690912
 30
0.0
 10
7627.511064487054
 20
4750.750547456091
 30
0.0
 10
7632.940772463758
 20
4769.811211286205
 30
0.0
 10
7638.087622274244
 20
4787.799042277316
 30
0.0
 10
7642.943754040273
 20
4804.714549519394
 30
0.0
 10
7647.503915293772
 20
4820.55760963842
 30
0.0
 10
7651.763912300637
 20
4835.328254609623
 30
0.0
 10
7655.601343399841
 20
4848.613320808069
 30
0.0
 10
7659.033621157324
 20
4860.482337421472
 30
0.0
 10
7662.079005563725
 20
4871.004395214557
 30
0.0
 10
7664.876111502517
 20
4880.661727676335
 30
0.0
 10
7667.424324349187
 20
4889.454330044457
 30
0.0
 10
7669.723183867981
 20
4897.382273580106
 30
0.0
 10
7671.798322522278
 20
4904.535301570791
 30
0.0
 10
7673.988229500066
 20
4912.081192204514
 30
0.0
 10
7676.487865674821
 20
4920.690583348015
 30
0.0
 10
7679.469322702276
 20
4930.954228965172
 30
0.0
 10
7682.791407671213
 20
4942.384256439525
 30
0.0
 10
7686.454629265388
 20
4954.980823604696
 30
0.0
 10
7690.45943575735
 20
4968.743882890291
 30
0.0
 10
7694.806280411796
 20
4983.673450176857
 30
0.0
 10
7699.351521175346
 20
4999.275021560201
 30
0.0
 10
7704.077170675744
 20
5015.486601109128
 30
0.0
 10
7708.96518989315
 20
5032.246222129718
 30
0.0
 10
7714.141749913056
 20
5049.986050270662
 30
0.0
 10
7719.607009999468
 20
5068.705983424278
 30
0.0
 10
7725.360993263317
 20
5088.406433908742
 30
0.0
 10
7729.29362803188
 20
5101.864221648642
 30
0.0
 10
7731.307907539425
 20
5108.757245704188
 30
0.0
  0
LINE
  5
C0
330
1F
100
AcDbEntity
  8
0
  6
SLD-Plná
 62
     7
370
    25
100
AcDbLine
 10
6970.7257912746
 20
4709.7572457042
 30
0.0
 11
7230.7257912746
 21
4709.7572457042
 31
0.0
  0
LINE
  5
C1
330
1F
100
AcDbEntity
  8
0
  6
SLD-Plná
 62
     7
370
    25
100
AcDbLine
 10
6970.7257912746
 20
4709.7572457042
 30
0.0
 11
6970.7257912746
 21
5715.7572457042
 31
0.0
  0
LINE
  5
C2
330
1F
100
AcDbEntity
  8
0
  6
SLD-Plná
 62
     7
370
    25
100
AcDbLine
 10
7053.7257912746
 20
5715.7572457042
 30
0.0
 11
6970.7257912746
 21
5715.7572457042
 31
0.0
  0
LINE
  5
C3
330
1F
100
AcDbEntity
  8
0
  6
SLD-Plná
 62
     7
370
    25
100
AcDbLine
 10
7053.7257912746
 20
5582.7572457042
 30
0.0
 11
7053.7257912746
 21
5715.7572457042
 31
0.0
  0
LINE
  5
C4
330
1F
100
AcDbEntity
  8
0
  6
SLD-Plná
 62
     7
370
    25
100
AcDbLine
 10
7048.7257912746
 20
5582.7572457042
 30
0.0
 11
7053.7257912746
 21
5582.7572457042
 31
0.0
  0
LINE
  5
C5
330
1F
100
AcDbEntity
  8
0
  6
SLD-Plná
 62
     7
370
    25
100
AcDbLine
 10
7048.7257912746
 20
5557.7572457042
 30
0.0
 11
7048.7257912746
 21
5582.7572457042
 31
0.0
  0
LINE
  5
C6
330
1F
100
AcDbEntity
  8
0
  6
SLD-Plná
 62
     7
370
    25
100
AcDbLine
 10
7230.7257912746
 20
5557.7572457042
 30
0.0
 11
7048.7257912746
 21
5557.7572457042
 31
0.0
  0
LINE
  5
C7
330
1F
100
AcDbEntity
  8
0
  6
SLD-Plná
 62
     7
370
    25
100
AcDbLine
 10
7230.7257912746
 20
4709.7572457042
 30
0.0
 11
7230.7257912746
 21
5557.7572457042
 31
0.0
  0
LINE
  5
C8
330
1F
100
AcDbEntity
  8
0
  6
SLD-Plná
 62
     7
370
    25
100
AcDbLine
 10
6970.7257912746
 20
5717.7572457042
 30
0.0
 11
7053.7257912746
 21
5717.7572457042
 31
0.0
  0
LINE
  5
C9
330
1F
100
AcDbEntity
  8
0
  6
SLD-Plná
 62
     7
370
    25
100
AcDbLine
 10
7053.7257912746
 20
5717.7572457042
 30
0.0
 11
7053.7257912746
 21
5715.7572457042
 31
0.0
  0
LINE
  5
CA
330
1F
100
AcDbEntity
  8
0
  6
SLD-Plná
 62
     7
370
    25
100
AcDbLine
 10
6970.7257912746
 20
5715.7572457042
 30
0.0
 11
6970.7257912746
 21
5717.7572457042
 31
0.0
  0
LINE
  5
CB
330
1F
100
AcDbEntity
  8
0
  6
SLD-Plná
 62
     7
370
    25
100
AcDbLine
 10
7050.7257912746
 20
5559.7572457042
 30
0.0
 11
7230.7257912746
 21
5559.7572457042
 31
0.0
  0
LINE
  5
CC
330
1F
100
AcDbEntity
  8
0
  6
SLD-Plná
 62
     7
370
    25
100
AcDbLine
 10
7230.7257912746
 20
5557.7572457042
 30
0.0
 11
7230.7257912746
 21
5559.7572457042
 31
0.0
  0
LINE
  5
CD
330
1F
100
AcDbEntity
  8
0
  6
SLD-Plná
 62
     7
370
    25
100
AcDbLine
 10
7050.7257912746
 20
5559.7572457042
 30
0.0
 11
7048.7257912746
 21
5557.7572457042
 31
0.0
  0
LINE
  5
CE
330
1F
100
AcDbEntity
  8
0
  6
SLD-Plná
 62
     7
370
    25
100
AcDbLine
 10
7050.7257912746
 20
5582.7572457042
 30
0.0
 11
7050.7257912746
 21
5559.7572457042
 31
0.0
  0
LINE
  5
CF
330
1F
100
AcDbEntity
  8
0
  6
SLD-Plná
 62
     7
370
    25
100
AcDbLine
 10
7055.7257912746
 20
5715.7572457042
 30
0.0
 11
7053.7257912746
 21
5715.7572457042
 31
0.0
  0
ARC
  5
D0
330
1F
100
AcDbEntity
  8
0
  6
SLD-Plná
 62
     7
370
    25
100
AcDbCircle
 10
7053.7257912746
 20
5715.7572457042
 30
0.0
 40
1.999999999999091
100
AcDbArc
 50
0.0
 51
90.0
  0
LINE
  5
D1
330
1F
100
AcDbEntity
  8
0
  6
SLD-Plná
 62
     7
370
    25
100
AcDbLine
 10
7055.7257912746
 20
5715.7572457042
 30
0.0
 11
7055.7257912746
 21
5584.7572457042
 31
0.0
  0
ARC
  5
D2
330
1F
100
AcDbEntity
  8
0
  6
SLD-Plná
 62
     7
370
    25
100
AcDbCircle
 10
7053.7257912746
 20
5584.7572457042
 30
0.0
 40
2.0
100
AcDbArc
 50
270.0
 51
0.0
  0
LINE
  5
D3
330
1F
100
AcDbEntity
  8
0
  6
SLD-Plná
 62
     7
370
    25
100
AcDbLine
 10
7230.7257912746
 20
4709.7572457042
 30
0.0
 11
7410.7257912746
 21
4709.7572457042
 31
0.0
  0
LINE
  5
D4
330
1F
100
AcDbEntity
  8
0
  6
SLD-Plná
 62
     7
370
    25
100
AcDbLine
 10
7230.7257912746
 20
5559.7572457042
 30
0.0
 11
7408.7257912746
 21
5559.7572457042
 31
0.0
  0
LINE
  5
D5
330
1F
100
AcDbEntity
  8
0
  6
SLD-Plná
 62
     7
370
    25
100
AcDbLine
 10
7057.7257912746
 20
5642.2572457042
 30
0.0
 11
7057.7257912746
 21
5597.2572457042
 31
0.0
  0
SPLINE
  5
D6
330
1F
100
AcDbEntity
  8
0
  6
SLD-Plná
 62
     7
370
    25
100
AcDbSpline
210
0.0
220
0.0
230
1.0
 70
    24
 71
     3
 72
    23
 73
    19
 74
     0
 42
0.00000001
 43
0.00000001
 40
0.0
 40
0.0
 40
0.0
 40
0.0
 40
0.062500136077982
 40
0.1249998315164283
 40
0.1874992783306685
 40
0.2500000184819529
 40
0.312500618193883
 40
0.3749999131711041
 40
0.4374997448800946
 40
0.5000003872431767
 40
0.5625007693417209
 40
0.6250004293613691
 40
0.6874999374363966
 40
0.7500007117086507
 40
0.812501254024962
 40
0.8750005107681254
 40
0.9375003962889507
 40
1.0
 40
1.0
 40
1.0
 40
1.0
 10
7058.725791274603
 20
5633.75724361385
 30
0.0
 10
7058.725791274603
 20
5633.705068865534
 30
0.0
 10
7058.725791274603
 20
5633.600719736746
 30
0.0
 10
7058.725791274603
 20
5632.768087044134
 30
0.0
 10
7058.725791274603
 20
5631.474287965081
 30
0.0
 10
7058.725791274603
 20
5629.719745933077
 30
0.0
 10
7058.725791274603
 20
5627.584985165656
 30
0.0
 10
7058.725791274603
 20
5625.148707887473
 30
0.0
 10
7058.725791274603
 20
5622.505515297241
 30
0.0
 10
7058.725791274603
 20
5619.756598837738
 30
0.0
 10
7058.725791274603
 20
5617.007717827394
 30
0.0
 10
7058.725791274603
 20
5614.364596066315
 30
0.0
 10
7058.725791274603
 20
5611.928400657694
 30
0.0
 10
7058.725791274603
 20
5609.793832842616
 30
0.0
 10
7058.725791274603
 20
5608.039532354914
 30
0.0
 10
7058.725791274603
 20
5606.745901943497
 30
0.0
 10
7058.725791274603
 20
5605.913476362542
 30
0.0
 10
7058.725791274603
 20
5605.809329724518
 30
0.0
 10
7058.725791274603
 20
5605.757256522904
 30
0.0
  0
LINE
  5
D7
330
1F
100
AcDbEntity
  8
0
  6
SLD-Plná
 62
     7
370
    25
100
AcDbLine
 10
7072.2694126225
 20
5647.1780904504
 30
0.0
 11
7075.8049465284
 21
5650.7136243563
 31
0.0
  0
LINE
  5
D8
330
1F
100
AcDbEntity
  8
0
  6
SLD-Plná
 62
     7
370
    25
100
AcDbLine
 10
7462.3025715792
 20
4709.7572457042
 30
0.0
 11
7615.9407098968
 21
4709.7572457042
 31
0.0
  0
LINE
  5
D9
330
1F
100
AcDbEntity
  8
0
  6
SLD-Plná
 62
     7
370
    25
100
AcDbLine
 10
7277.4764939358
 20
4709.7572457042
 30
0.0
 11
7462.3025715792
 21
4709.7572457042
 31
0.0
  0
LINE
  5
DA
330
1F
100
AcDbEntity
  8
0
  6
SLD-Plná
 62
     7
370
    25
100
AcDbLine
 10
7277.4764939358
 20
4709.7572457042
 30
0.0
 11
7230.7258065165
 21
5108.7572457042
 31
0.0
  0
LINE
  5
DB
330
1F
100
AcDbEntity
  8
0
  6
SLD-Plná
 62
     7
370
    25
100
AcDbLine
 10
7523.4121855415
 20
5108.7572457042
 30
0.0
 11
7731.2817246342
 21
5108.7572457042
 31
0.0
  0
LINE
  5
DC
330
1F
100
AcDbEntity
  8
0
  6
SLD-Plná
 62
     7
370
    25
100
AcDbLine
 10
7434.9779609032
 20
5108.7572457042
 30
0.0
 11
7523.4121855415
 21
5108.7572457042
 31
0.0
  0
LINE
  5
DD
330
1F
100
AcDbEntity
  8
0
  6
SLD-Plná
 62
     7
370
    25
100
AcDbLine
 10
7398.6629612724
 20
5108.7572457042
 30
0.0
 11
7434.9779609032
 21
5108.7572457042
 31
0.0
  0
LINE
  5
DE
330
1F
100
AcDbEntity
  8
0
  6
SLD-Plná
 62
     7
370
    25
100
AcDbLine
 10
7230.7258065165
 20
5108.7572457042
 30
0.0
 11
7398.6629612724
 21
5108.7572457042
 31
0.0
  0
LINE
  5
DF
330
1F
100
AcDbEntity
  8
0
  6
SLD-Plná
 62
     7
370
    25
100
AcDbLine
 10
7230.7258020642
 20
5108.7572457042
 30
0.0
 11
7232.2929436568
 21
5095.3822672726
 31
0.0
  0
LINE
  5
E0
330
1F
100
AcDbEntity
  8
0
  6
SLD-Plná
 62
     7
370
    25
100
AcDbLine
 10
7275.9093523432
 20
4723.1322241358
 30
0.0
 11
7277.4764939358
 21
4709.7572457042
 31
0.0
  0
LINE
  5
E1
330
1F
100
AcDbEntity
  8
0
  6
SLD-Plná
 62
     8
370
    25
100
AcDbLine
 10
7410.7257912746
 20
5557.7572457042
 30
0.0
 11
7230.7257912746
 21
5557.7572457042
 31
0.0
  0
LINE
  5
E2
330
1F
100
AcDbEntity
  8
0
  6
SLD-Plná
 62
     8
370
    25
100
AcDbLine
 10
7058.2257912746
 20
5687.2572457042
 30
0.0
 11
7058.2257912746
 21
5642.2572457042
 31
0.0
  0
LINE
  5
E3
330
1F
100
AcDbEntity
  8
0
  6
SLD-Plná
 62
     7
370
    25
100
AcDbLine
 10
6424.9041386781
 20
4286.2515571338
 30
0.0
 11
6424.9041386781
 21
4284.2515571338
 31
0.0
  0
LINE
  5
E4
330
1F
100
AcDbEntity
  8
0
  6
SLD-Plná
 62
     7
370
    25
100
AcDbLine
 10
6469.9041386781
 20
4284.2515571338
 30
0.0
 11
6469.9041386781
 21
4286.2515571338
 31
0.0
  0
LINE
  5
E5
330
1F
100
AcDbEntity
  8
0
  6
SLD-Plná
 62
     7
370
    25
100
AcDbLine
 10
6224.9041386781
 20
4286.2515571338
 30
0.0
 11
6224.9041386781
 21
4284.2515571338
 31
0.0
  0
LINE
  5
E6
330
1F
100
AcDbEntity
  8
0
  6
SLD-Plná
 62
     7
370
    25
100
AcDbLine
 10
6269.9041386781
 20
4284.2515571338
 30
0.0
 11
6269.9041386781
 21
4286.2515571338
 31
0.0
  0
LINE
  5
E7
330
1F
100
AcDbEntity
  8
0
  6
SLD-Plná
 62
     7
370
    25
100
AcDbLine
 10
6261.40413868
 20
4283.2515571338
 30
0.0
 11
6261.40413868
 21
4284.2515571338
 31
0.0
  0
LINE
  5
E8
330
1F
100
AcDbEntity
  8
0
  6
SLD-Plná
 62
     7
370
    25
100
AcDbLine
 10
6233.404141461
 20
4284.2515571338
 30
0.0
 11
6233.404141461
 21
4283.2515571338
 31
0.0
  0
LINE
  5
E9
330
1F
100
AcDbEntity
  8
0
  6
SLD-Plná
 62
     7
370
    25
100
AcDbLine
 10
6461.40413868
 20
4283.2515571338
 30
0.0
 11
6461.40413868
 21
4284.2515571338
 31
0.0
  0
LINE
  5
EA
330
1F
100
AcDbEntity
  8
0
  6
SLD-Plná
 62
     7
370
    25
100
AcDbLine
 10
6433.404141461
 20
4284.2515571338
 30
0.0
 11
6433.404141461
 21
4283.2515571338
 31
0.0
  0
ARC
  5
EB
330
1F
100
AcDbEntity
  8
0
  6
SLD-Plná
 62
     7
370
    25
100
AcDbCircle
 10
6347.4041386781
 20
4283.7515571338
 30
0.0
 40
22.5
100
AcDbArc
 50
180.0
 51
270.0
  0
ARC
  5
EC
330
1F
100
AcDbEntity
  8
0
  6
SLD-Plná
 62
     7
370
    25
100
AcDbCircle
 10
6347.4041386781
 20
4283.7515571338
 30
0.0
 40
22.5
100
AcDbArc
 50
270.0
 51
0.0
  0
LINE
  5
ED
330
1F
100
AcDbEntity
  8
0
  6
SLD-Plná
 62
     7
370
    25
100
AcDbLine
 10
6369.9041386781
 20
4283.7515571338
 30
0.0
 11
6369.9041386781
 21
4286.2515571338
 31
0.0
  0
LINE
  5
EE
330
1F
100
AcDbEntity
  8
0
  6
SLD-Plná
 62
     7
370
    25
100
AcDbLine
 10
6324.9041386781
 20
4286.2515571338
 30
0.0
 11
6324.9041386781
 21
4283.7515571338
 31
0.0
  0
LINE
  5
EF
330
1F
100
AcDbEntity
  8
0
  6
SLD-Plná
 62
     7
370
    25
100
AcDbLine
 10
6527.5041386781
 20
4341.2515571338
 30
0.0
 11
6527.4041386781
 21
4341.2515571338
 31
0.0
  0
LINE
  5
F0
330
1F
100
AcDbEntity
  8
0
  6
SLD-Plná
 62
     7
370
    25
100
AcDbLine
 10
6527.5041386781
 20
4166.2515571338
 30
0.0
 11
6527.4041386781
 21
4166.2515571338
 31
0.0
  0
LINE
  5
F1
330
1F
100
AcDbEntity
  8
0
  6
SLD-Plná
 62
     7
370
    25
100
AcDbLine
 10
6527.5041386781
 20
4341.2515571338
 30
0.0
 11
6527.5041386781
 21
4166.2515571338
 31
0.0
  0
LINE
  5
F2
330
1F
100
AcDbEntity
  8
0
  6
SLD-Plná
 62
     7
370
    25
100
AcDbLine
 10
6527.4041386781
 20
4371.2515571338
 30
0.0
 11
6527.4041386781
 21
4288.2515571338
 31
0.0
  0
LINE
  5
F3
330
1F
100
AcDbEntity
  8
0
  6
SLD-Plná
 62
     7
370
    25
100
AcDbLine
 10
6527.4041386781
 20
4288.2515571338
 30
0.0
 11
6525.4041386781
 21
4288.2515571338
 31
0.0
  0
LINE
  5
F4
330
1F
100
AcDbEntity
  8
0
  6
SLD-Plná
 62
     7
370
    25
100
AcDbLine
 10
6525.4041386781
 20
4288.2515571338
 30
0.0
 11
6525.4041386781
 21
4371.2515571338
 31
0.0
  0
LINE
  5
F5
330
1F
100
AcDbEntity
  8
0
  6
SLD-Plná
 62
     7
370
    25
100
AcDbLine
 10
6525.4041386781
 20
4371.2515571338
 30
0.0
 11
6527.4041386781
 21
4371.2515571338
 31
0.0
  0
LINE
  5
F6
330
1F
100
AcDbEntity
  8
0
  6
SLD-Plná
 62
     7
370
    25
100
AcDbLine
 10
6169.4041386781
 20
4371.2515571338
 30
0.0
 11
6169.4041386781
 21
4288.2515571338
 31
0.0
  0
LINE
  5
F7
330
1F
100
AcDbEntity
  8
0
  6
SLD-Plná
 62
     7
370
    25
100
AcDbLine
 10
6169.4041386781
 20
4288.2515571338
 30
0.0
 11
6167.4041386781
 21
4288.2515571338
 31
0.0
  0
LINE
  5
F8
330
1F
100
AcDbEntity
  8
0
  6
SLD-Plná
 62
     7
370
    25
100
AcDbLine
 10
6167.4041386781
 20
4288.2515571338
 30
0.0
 11
6167.4041386781
 21
4371.2515571338
 31
0.0
  0
LINE
  5
F9
330
1F
100
AcDbEntity
  8
0
  6
SLD-Plná
 62
     7
370
    25
100
AcDbLine
 10
6167.4041386781
 20
4371.2515571338
 30
0.0
 11
6169.4041386781
 21
4371.2515571338
 31
0.0
  0
LINE
  5
FA
330
1F
100
AcDbEntity
  8
0
  6
SLD-Plná
 62
     7
370
    25
100
AcDbLine
 10
6169.4041386781
 20
4288.2515571338
 30
0.0
 11
6525.4041386781
 21
4288.2515571338
 31
0.0
  0
LINE
  5
FB
330
1F
100
AcDbEntity
  8
0
  6
SLD-Plná
 62
     7
370
    25
100
AcDbLine
 10
6525.4041386781
 20
4371.2515571338
 30
0.0
 11
6169.4041386781
 21
4371.2515571338
 31
0.0
  0
ARC
  5
FC
330
1F
100
AcDbEntity
  8
0
  6
SLD-Plná
 62
     7
370
    25
100
AcDbCircle
 10
6525.4041386781
 20
4288.2515571338
 30
0.0
 40
2.0
100
AcDbArc
 50
270.0
 51
0.0
  0
LINE
  5
FD
330
1F
100
AcDbEntity
  8
0
  6
SLD-Plná
 62
     7
370
    25
100
AcDbLine
 10
6525.4041386781
 20
4288.2515571338
 30
0.0
 11
6525.4041386781
 21
4286.2515571338
 31
0.0
  0
LINE
  5
FE
330
1F
100
AcDbEntity
  8
0
  6
SLD-Plná
 62
     7
370
    25
100
AcDbLine
 10
6525.4041386781
 20
4286.2515571338
 30
0.0
 11
6169.4041386781
 21
4286.2515571338
 31
0.0
  0
LINE
  5
FF
330
1F
100
AcDbEntity
  8
0
  6
SLD-Plná
 62
     7
370
    25
100
AcDbLine
 10
6169.4041386781
 20
4286.2515571338
 30
0.0
 11
6169.4041386781
 21
4288.2515571338
 31
0.0
  0
ARC
  5
100
330
1F
100
AcDbEntity
  8
0
  6
SLD-Plná
 62
     7
370
    25
100
AcDbCircle
 10
6169.4041386781
 20
4288.2515571338
 30
0.0
 40
2.0
100
AcDbArc
 50
180.0
 51
270.0
  0
LINE
  5
101
330
1F
100
AcDbEntity
  8
0
  6
SLD-Plná
 62
     7
370
    25
100
AcDbLine
 10
6469.9041386781
 20
4284.2515571338
 30
0.0
 11
6424.9041386781
 21
4284.2515571338
 31
0.0
  0
LINE
  5
102
330
1F
100
AcDbEntity
  8
0
  6
SLD-Plná
 62
     7
370
    25
100
AcDbLine
 10
6269.9041386781
 20
4284.2515571338
 30
0.0
 11
6224.9041386781
 21
4284.2515571338
 31
0.0
  0
SPLINE
  5
103
330
1F
100
AcDbEntity
  8
0
  6
SLD-Plná
 62
     7
370
    25
100
AcDbSpline
210
0.0
220
0.0
230
1.0
 70
    24
 71
     3
 72
    23
 73
    19
 74
     0
 42
0.00000001
 43
0.00000001
 40
0.0
 40
0.0
 40
0.0
 40
0.0
 40
0.0624998432149786
 40
0.1250003064930455
 40
0.1874993209512682
 40
0.2499999766019603
 40
0.3125005466793799
 40
0.3749997968261281
 40
0.4374994910672375
 40
0.4999999903178738
 40
0.5625003584134358
 40
0.6249999667696949
 40
0.6874993265020944
 40
0.749999979569736
 40
0.812500492198219
 40
0.8749997000938109
 40
0.9374994447204243
 40
1.0
 40
1.0
 40
1.0
 40
1.0
 10
6261.404138678098
 20
4283.251557133804
 30
0.0
 10
6261.35198494568
 20
4283.251557133804
 30
0.0
 10
6261.247676963423
 20
4283.251557133804
 30
0.0
 10
6260.415130171454
 20
4283.251557133804
 30
0.0
 10
6259.121336450412
 20
4283.251557133804
 30
0.0
 10
6257.366872818209
 20
4283.251557133804
 30
0.0
 10
6255.23215468058
 20
4283.251557133804
 30
0.0
 10
6252.795897981402
 20
4283.251557133804
 30
0.0
 10
6250.1527237556
 20
4283.251557133804
 30
0.0
 10
6247.403816183377
 20
4283.251557133804
 30
0.0
 10
6244.654926399217
 20
4283.251557133804
 30
0.0
 10
6242.011787244219
 20
4283.251557133804
 30
0.0
 10
6239.57557130571
 20
4283.251557133804
 30
0.0
 10
6237.440952355842
 20
4283.251557133804
 30
0.0
 10
6235.686594358405
 20
4283.251557133804
 30
0.0
 10
6234.392921961746
 20
4283.251557133804
 30
0.0
 10
6233.560440507709
 20
4283.251557133804
 30
0.0
 10
6233.456241368467
 20
4283.251557133804
 30
0.0
 10
6233.404141460968
 20
4283.251557133804
 30
0.0
  0
SPLINE
  5
104
330
1F
100
AcDbEntity
  8
0
  6
SLD-Plná
 62
     7
370
    25
100
AcDbSpline
210
0.0
220
0.0
230
1.0
 70
    24
 71
     3
 72
    23
 73
    19
 74
     0
 42
0.00000001
 43
0.00000001
 40
0.0
 40
0.0
 40
0.0
 40
0.0
 40
0.0624998432149786
 40
0.1250003064930467
 40
0.187499320951268
 40
0.2499999766019605
 40
0.3125005466793802
 40
0.3749997968261279
 40
0.4374994910672378
 40
0.499999990317874
 40
0.5625003584134353
 40
0.6249999667696948
 40
0.687499326502094
 40
0.7499999795697357
 40
0.812500492198219
 40
0.8749997000938102
 40
0.9374994447204235
 40
1.0
 40
1.0
 40
1.0
 40
1.0
 10
6461.404138678098
 20
4283.251557133804
 30
0.0
 10
6461.351984945679
 20
4283.251557133804
 30
0.0
 10
6461.247676963423
 20
4283.251557133804
 30
0.0
 10
6460.415130171455
 20
4283.251557133804
 30
0.0
 10
6459.121336450412
 20
4283.251557133804
 30
0.0
 10
6457.366872818209
 20
4283.251557133804
 30
0.0
 10
6455.23215468058
 20
4283.251557133804
 30
0.0
 10
6452.795897981402
 20
4283.251557133804
 30
0.0
 10
6450.152723755599
 20
4283.251557133804
 30
0.0
 10
6447.403816183377
 20
4283.251557133804
 30
0.0
 10
6444.654926399217
 20
4283.251557133804
 30
0.0
 10
6442.011787244219
 20
4283.251557133804
 30
0.0
 10
6439.57557130571
 20
4283.251557133804
 30
0.0
 10
6437.440952355842
 20
4283.251557133804
 30
0.0
 10
6435.686594358405
 20
4283.251557133804
 30
0.0
 10
6434.392921961746
 20
4283.251557133804
 30
0.0
 10
6433.560440507709
 20
4283.251557133804
 30
0.0
 10
6433.456241368466
 20
4283.251557133804
 30
0.0
 10
6433.404141460968
 20
4283.251557133804
 30
0.0
  0
LINE
  5
105
330
1F
100
AcDbEntity
  8
0
  6
SLD-Plná
 62
     7
370
    25
100
AcDbLine
 10
6527.4041386781
 20
4111.2515571338
 30
0.0
 11
6525.4041386781
 21
4111.2515571338
 31
0.0
  0
LINE
  5
106
330
1F
100
AcDbEntity
  8
0
  6
SLD-Plná
 62
     7
370
    25
100
AcDbLine
 10
6527.4041386781
 20
4288.2515571338
 30
0.0
 11
6527.4041386781
 21
4111.2515571338
 31
0.0
  0
LINE
  5
107
330
1F
100
AcDbEntity
  8
0
  6
SLD-Plná
 62
     7
370
    25
100
AcDbLine
 10
6167.4041386781
 20
4111.2515571338
 30
0.0
 11
6169.4041386781
 21
4111.2515571338
 31
0.0
  0
LINE
  5
108
330
1F
100
AcDbEntity
  8
0
  6
SLD-Plná
 62
     7
370
    25
100
AcDbLine
 10
6167.4041386781
 20
4111.2515571338
 30
0.0
 11
6167.4041386781
 21
4288.2515571338
 31
0.0
  0
ARC
  5
109
330
1F
100
AcDbEntity
  8
0
  6
SLD-Plná
 62
     7
370
    25
100
AcDbCircle
 10
6347.4041386781
 20
4111.2515571338
 30
0.0
 40
178.0
100
AcDbArc
 50
180.0
 51
0.0
  0
SPLINE
  5
10A
330
1F
100
AcDbEntity
  8
0
  6
SLD-Plná
 62
     7
370
    25
100
AcDbSpline
210
0.0
220
0.0
230
1.0
 70
    11
 71
     3
 72
    26
 73
    22
 74
     0
 42
0.00000001
 43
0.00000001
 40
0.0
 40
0.0
 40
0.0
 40
0.0
 40
0.0533991136302388
 40
0.1068025368232532
 40
0.1601205639837948
 40
0.2134760584794185
 40
0.2670143704306985
 40
0.3208012840636589
 40
0.3747943751533749
 40
0.4288603372095333
 40
0.482833002204303
 40
0.5365875882915045
 40
0.590096380305843
 40
0.6434395269445384
 40
0.6967680029604946
 40
0.7502379262423873
 40
0.80394456322645
 40
0.8578815636640341
 40
0.9119418291023691
 40
0.965962265299339
 40
0.9999999999999999
 40
0.9999999999999999
 40
0.9999999999999999
 40
0.9999999999999999
 10
6344.910291625486
 20
4130.200870567985
 30
0.0
 10
6345.357124448461
 20
4130.43911917111
 30
0.0
 10
6346.250826155949
 20
4130.915635605156
 30
0.0
 10
6347.796312166378
 20
4131.019076178844
 30
0.0
 10
6349.276749929442
 20
4130.641577064227
 30
0.0
 10
6350.552702235394
 20
4129.78852253653
 30
0.0
 10
6351.476547493686
 20
4128.563465743848
 30
0.0
 10
6351.945357455123
 20
4127.097365394037
 30
0.0
 10
6351.901701788379
 20
4125.55440348984
 30
0.0
 10
6351.346889712942
 20
4124.110814709001
 30
0.0
 10
6350.343552925134
 20
4122.933902215507
 30
0.0
 10
6349.008709722276
 20
4122.158618589369
 30
0.0
 10
6347.496835501721
 20
4121.870273094791
 30
0.0
 10
6345.978690968235
 20
4122.09691602233
 30
0.0
 10
6344.621851489674
 20
4122.810330782426
 30
0.0
 10
6343.575082146865
 20
4123.93188930486
 30
0.0
 10
6342.955930414453
 20
4125.338886620652
 30
0.0
 10
6342.83619176471
 20
4126.877972603161
 30
0.0
 10
6343.238405701732
 20
4128.36600060614
 30
0.0
 10
6343.995440399927
 20
4129.504086269372
 30
0.0
 10
6344.655250613639
 20
4130.006621964942
 30
0.0
 10
6344.910291625486
 20
4130.200870567985
 30
0.0
  0
SPLINE
  5
10B
330
1F
100
AcDbEntity
  8
0
  6
SLD-Plná
 62
     7
370
    25
100
AcDbSpline
210
0.0
220
0.0
230
1.0
 70
    11
 71
     3
 72
    26
 73
    22
 74
     0
 42
0.00000001
 43
0.00000001
 40
0.0
 40
0.0
 40
0.0
 40
0.0
 40
0.053462701468918
 40
0.1069194299512086
 40
0.1605334789547993
 40
0.2143928937092046
 40
0.2684234628092309
 40
0.3224752598477972
 40
0.376388444135674
 40
0.4300649062519222
 40
0.4835115777916977
 40
0.5368355486569287
 40
0.5901957650058294
 40
0.6437346945349082
 40
0.6975182073985459
 40
0.7515067439350936
 40
0.8055702747356953
 40
0.8595437931486067
 40
0.9133010604831872
 40
0.9668121046085106
 40
1.0
 40
1.0
 40
1.0
 40
1.0
 10
6334.301498460733
 20
4125.806012342077
 30
0.0
 10
6334.749104990943
 20
4126.044823932417
 30
0.0
 10
6335.644268043645
 20
4126.522420432469
 30
0.0
 10
6337.190379783342
 20
4126.625597401255
 30
0.0
 10
6338.673681767144
 20
4126.247356760059
 30
0.0
 10
6339.95488242261
 20
4125.388392110537
 30
0.0
 10
6340.880366694416
 20
4124.152302839243
 30
0.0
 10
6341.34321845272
 20
4122.676204442279
 30
0.0
 10
6341.288874684059
 20
4121.131314750104
 30
0.0
 10
6340.726046536165
 20
4119.695350470704
 30
0.0
 10
6339.722612441128
 20
4118.530151907193
 30
0.0
 10
6338.393960664489
 20
4117.763246479067
 30
0.0
 10
6336.887848275423
 20
4117.477177595244
 30
0.0
 10
6335.369694889101
 20
4117.703840401867
 30
0.0
 10
6334.008041970316
 20
4118.421139987794
 30
0.0
 10
6332.957868136661
 20
4119.552493669501
 30
0.0
 10
6332.342239057642
 20
4120.970643160796
 30
0.0
 10
6332.232399929689
 20
4122.514736677947
 30
0.0
 10
6332.644191579011
 20
4123.997957552907
 30
0.0
 10
6333.401234023861
 20
4125.121612438649
 30
0.0
 10
6334.052281088547
 20
4125.61655206966
 30
0.0
 10
6334.301498460733
 20
4125.806012342077
 30
0.0
  0
SPLINE
  5
10C
330
1F
100
AcDbEntity
  8
0
  6
SLD-Plná
 62
     7
370
    25
100
AcDbSpline
210
0.0
220
0.0
230
1.0
 70
    11
 71
     3
 72
    26
 73
    22
 74
     0
 42
0.00000001
 43
0.00000001
 40
0.0
 40
0.0
 40
0.0
 40
0.0
 40
0.0538573038561359
 40
0.1077083385265809
 40
0.1617004997508536
 40
0.2157561855638947
 40
0.269713869561903
 40
0.3234556183358358
 40
0.3769595375945545
 40
0.4303079922275108
 40
0.4836497536517217
 40
0.5371353943596789
 40
0.5908536174185213
 40
0.6447931867137663
 40
0.6988459377084025
 40
0.7528521820721218
 40
0.8066713751131189
 40
0.8602459726461025
 40
0.913627209317367
 40
0.966950987366993
 40
1.0
 40
1.0
 40
1.0
 40
1.0
 10
6329.216192538408
 20
4114.631113065416
 30
0.0
 10
6329.609772174988
 20
4114.955224118527
 30
0.0
 10
6330.396885634052
 20
4115.603408497044
 30
0.0
 10
6331.900346808368
 20
4116.008941794536
 30
0.0
 10
6333.436398209114
 20
4115.925233741928
 30
0.0
 10
6334.864321671004
 20
4115.3264592055
 30
0.0
 10
6336.010479725509
 20
4114.289348515224
 30
0.0
 10
6336.746032279159
 20
4112.932366952984
 30
0.0
 10
6336.989697381859
 20
4111.412881669915
 30
0.0
 10
6336.718531442349
 20
4109.90207241296
 30
0.0
 10
6335.965394312039
 20
4108.566655830908
 30
0.0
 10
6334.813366616749
 20
4107.553274682949
 30
0.0
 10
6333.388058181843
 20
4106.975657637444
 30
0.0
 10
6331.847418877742
 20
4106.902278085346
 30
0.0
 10
6330.366540448816
 20
4107.345490740505
 30
0.0
 10
6329.11649960707
 20
4108.256498927632
 30
0.0
 10
6328.241801059091
 20
4109.528987440386
 30
0.0
 10
6327.838465025045
 20
4111.01712896683
 30
0.0
 10
6327.953842967986
 20
4112.544496639698
 30
0.0
 10
6328.473297344141
 20
4113.787321117781
 30
0.0
 10
6329.010602336462
 20
4114.397600507718
 30
0.0
 10
6329.216192538408
 20
4114.631113065416
 30
0.0
  0
SPLINE
  5
10D
330
1F
100
AcDbEntity
  8
0
  6
SLD-Plná
 62
     7
370
    25
100
AcDbSpline
210
0.0
220
0.0
230
1.0
 70
    11
 71
     3
 72
    26
 73
    22
 74
     0
 42
0.00000001
 43
0.00000001
 40
0.0
 40
0.0
 40
0.0
 40
0.0
 40
0.0539982024503051
 40
0.108000041893428
 40
0.1618946212863477
 40
0.2155592989399141
 40
0.269005970854119
 40
0.3223415150766506
 40
0.3757197274583094
 40
0.4292752703891355
 40
0.4830667690818381
 40
0.5370510040297712
 40
0.5910995960916231
 40
0.6450539996668458
 40
0.6987964229978648
 40
0.7523034152273819
 40
0.805655869522235
 40
0.8590018114651954
 40
0.9124910558144519
 40
0.9662107591823423
 40
1.0
 40
1.0
 40
1.0
 40
1.0
 10
6333.587165512407
 20
4104.00184163847
 30
0.0
 10
6333.978716391198
 20
4104.329000241401
 30
0.0
 10
6334.761844521284
 20
4104.983339482693
 30
0.0
 10
6336.265832194578
 20
4105.399630540059
 30
0.0
 10
6337.803325568529
 20
4105.324423605946
 30
0.0
 10
6339.230695586876
 20
4104.735852220461
 30
0.0
 10
6340.37819103126
 20
4103.713253412805
 30
0.0
 10
6341.122579895337
 20
4102.371577795605
 30
0.0
 10
6341.382977829507
 20
4100.860558440667
 30
0.0
 10
6341.13033484367
 20
4099.346161255491
 30
0.0
 10
6340.389593189248
 20
4097.99679766987
 30
0.0
 10
6339.240386537901
 20
4096.966279760903
 30
0.0
 10
6337.811628101368
 20
4096.375002724247
 30
0.0
 10
6336.267642340493
 20
4096.292431271848
 30
0.0
 10
6334.786653214996
 20
4096.726537811385
 30
0.0
 10
6333.536582818356
 20
4097.624325978542
 30
0.0
 10
6332.65581202762
 20
4098.880960296675
 30
0.0
 10
6332.237778109572
 20
4100.357602717415
 30
0.0
 10
6332.334348379064
 20
4101.884625619992
 30
0.0
 10
6332.841567174539
 20
4103.140696820286
 30
0.0
 10
6333.37946906756
 20
4103.761958167504
 30
0.0
 10
6333.587165512407
 20
4104.00184163847
 30
0.0
  0
SPLINE
  5
10E
330
1F
100
AcDbEntity
  8
0
  6
SLD-Plná
 62
     7
370
    25
100
AcDbSpline
210
0.0
220
0.0
230
1.0
 70
    11
 71
     3
 72
    26
 73
    22
 74
     0
 42
0.00000001
 43
0.00000001
 40
0.0
 40
0.0
 40
0.0
 40
0.0
 40
0.0534200676889445
 40
0.1068442726853325
 40
0.1601857701718716
 40
0.2135575932946048
 40
0.2670970638822969
 40
0.3208696022512474
 40
0.3748401380355483
 40
0.4288863279522183
 40
0.4828507394791148
 40
0.5366110880046402
 40
0.5901358466280855
 40
0.6434979919337055
 40
0.6968413025577709
 40
0.7503167227020624
 40
0.8040173351466244
 40
0.8579383235623637
 40
0.9119782383063408
 40
0.9659826069950721
 40
1.0
 40
1.0
 40
1.0
 40
1.0
 10
6344.872327232894
 20
4100.175315127693
 30
0.0
 10
6345.316852366785
 20
4100.418152828021
 30
0.0
 10
6346.205937062397
 20
4100.903847036106
 30
0.0
 10
6347.750729484176
 20
4101.022810003899
 30
0.0
 10
6349.235286318901
 20
4100.659940603687
 30
0.0
 10
6350.519914986036
 20
4099.819242320563
 30
0.0
 10
6351.455786326141
 20
4098.603098628615
 30
0.0
 10
6351.938826180255
 20
4097.141742034428
 30
0.0
 10
6351.910308766423
 20
4095.598781374938
 30
0.0
 10
6351.369969209708
 20
4094.150164743638
 30
0.0
 10
6350.37863504109
 20
4092.963513592877
 30
0.0
 10
6349.051690149561
 20
4092.174904622731
 30
0.0
 10
6347.542608066529
 20
4091.871394061224
 30
0.0
 10
6346.021971878459
 20
4092.082954901653
 30
0.0
 10
6344.657868617429
 20
4092.783076072449
 30
0.0
 10
6343.600001998989
 20
4093.894450897881
 30
0.0
 10
6342.967102347234
 20
4095.295325456249
 30
0.0
 10
6342.83228528228
 20
4096.832958718529
 30
0.0
 10
6343.219688906584
 20
4098.32455394825
 30
0.0
 10
6343.965062776367
 20
4099.46967894705
 30
0.0
 10
6344.619434858695
 20
4099.978624947933
 30
0.0
 10
6344.872327232894
 20
4100.175315127693
 30
0.0
  0
SPLINE
  5
10F
330
1F
100
AcDbEntity
  8
0
  6
SLD-Plná
 62
     7
370
    25
100
AcDbSpline
210
0.0
220
0.0
230
1.0
 70
    11
 71
     3
 72
    26
 73
    22
 74
     0
 42
0.00000001
 43
0.00000001
 40
0.0
 40
0.0
 40
0.0
 40
0.0
 40
0.0536886945033726
 40
0.1073773901323472
 40
0.1610660607160364
 40
0.2147547207154922
 40
0.2684433994475976
 40
0.3221321180185207
 40
0.3758208800731722
 40
0.4295096701986343
 40
0.483198460680507
 40
0.5368872236497536
 40
0.590575943295874
 40
0.6442646227944746
 40
0.697953282914567
 40
0.7516419529169197
 40
0.8053306577318223
 40
0.8590194070342676
 40
0.9127081910033421
 40
0.9663969846247947
 40
1.0
 40
1.0
 40
1.0
 40
1.0
 10
6344.222871958124
 20
4114.637803530517
 30
0.0
 10
6344.615933128516
 20
4114.96034178983
 30
0.0
 10
6345.402055477542
 20
4115.605418315215
 30
0.0
 10
6346.903062295002
 20
4116.008971075995
 30
0.0
 10
6348.434810492652
 20
4115.924873224725
 30
0.0
 10
6349.857257966405
 20
4115.329941154737
 30
0.0
 10
6351.001286498224
 20
4114.300001522909
 30
0.0
 10
6351.740260114129
 20
4112.948826223534
 30
0.0
 10
6351.990236595766
 20
4111.429377745537
 30
0.0
 10
6351.723200455178
 20
4109.912794052253
 30
0.0
 10
6350.969212637276
 20
4108.570104055516
 30
0.0
 10
6349.813291376337
 20
4107.552675218633
 30
0.0
 10
6348.385757864693
 20
4106.975215542074
 30
0.0
 10
6346.847548521784
 20
4106.902837805976
 30
0.0
 10
6345.372116039565
 20
4107.343663904002
 30
0.0
 10
6344.125684962506
 20
4108.248134247504
 30
0.0
 10
6343.249222822831
 20
4109.513753150389
 30
0.0
 10
6342.83989302024
 20
4110.999788461485
 30
0.0
 10
6342.95000773428
 20
4112.531401286526
 30
0.0
 10
6343.470060954439
 20
4113.784610180967
 30
0.0
 10
6344.013626278146
 20
4114.400656329288
 30
0.0
 10
6344.222871958124
 20
4114.637803530517
 30
0.0
  0
SPLINE
  5
110
330
1F
100
AcDbEntity
  8
0
  6
SLD-Plná
 62
     7
370
    25
100
AcDbSpline
210
0.0
220
0.0
230
1.0
 70
    11
 71
     3
 72
    26
 73
    22
 74
     0
 42
0.00000001
 43
0.00000001
 40
0.0
 40
0.0
 40
0.0
 40
0.0
 40
0.0539989987907638
 40
0.1080021876756991
 40
0.1618845176415422
 40
0.2155225577051517
 40
0.2689392587210576
 40
0.3222551117323068
 40
0.3756336526605241
 40
0.429210240883829
 40
0.4830341188363911
 40
0.5370467397905206
 40
0.5911061439764149
 40
0.6450490871092148
 40
0.6987641167925294
 40
0.7522410788864411
 40
0.8055739464764983
 40
0.8589179755041092
 40
0.9124225827557033
 40
0.9661682632420755
 40
1.0
 40
1.0
 40
1.0
 40
1.0
 10
6354.856147379762
 20
4125.270845389458
 30
0.0
 10
6355.253352067934
 20
4125.591078983378
 30
0.0
 10
6356.047792265684
 20
4126.231571019992
 30
0.0
 10
6357.558884861302
 20
4126.621464284012
 30
0.0
 10
6359.094733107057
 20
4126.519302201655
 30
0.0
 10
6360.511238424922
 20
4125.906010293585
 30
0.0
 10
6361.640371716043
 20
4124.864025657758
 30
0.0
 10
6362.36128216046
 20
4123.510187775884
 30
0.0
 10
6362.59571328553
 20
4121.995157247041
 30
0.0
 10
6362.317134047027
 20
4120.4851335642
 30
0.0
 10
6361.55301588859
 20
4119.148278593899
 30
0.0
 10
6360.385636780904
 20
4118.137468516677
 30
0.0
 10
6358.946374272739
 20
4117.571115041224
 30
0.0
 10
6357.401145995382
 20
4117.515637203181
 30
0.0
 10
6355.928307790453
 20
4117.975489086744
 30
0.0
 10
6354.694465229929
 20
4118.894553512911
 30
0.0
 10
6353.835780303317
 20
4120.165807580187
 30
0.0
 10
6353.443224166765
 20
4121.649205813938
 30
0.0
 10
6353.566006453722
 20
4123.174462360807
 30
0.0
 10
6354.095006274945
 20
4124.42215817802
 30
0.0
 10
6354.64404866525
 20
4125.034351176454
 30
0.0
 10
6354.856147379762
 20
4125.270845389458
 30
0.0
  0
SPLINE
  5
111
330
1F
100
AcDbEntity
  8
0
  6
SLD-Plná
 62
     7
370
    25
100
AcDbSpline
210
0.0
220
0.0
230
1.0
 70
    11
 71
     3
 72
    26
 73
    22
 74
     0
 42
0.00000001
 43
0.00000001
 40
0.0
 40
0.0
 40
0.0
 40
0.0
 40
0.0537486043672618
 40
0.10749012946499
 40
0.1613990620802042
 40
0.2154438149793702
 40
0.2694684137407653
 40
0.3233243136411514
 40
0.3769376034441667
 40
0.4303423816942217
 40
0.4836643688423389
 40
0.5370644037688894
 40
0.5906685853199771
 40
0.6445142731967091
 40
0.6985334351093627
 40
0.7525812469071216
 40
0.806499691279612
 40
0.8601883313683784
 40
0.9136487307835658
 40
0.9669820486910897
 40
0.9999999999999999
 40
0.9999999999999999
 40
0.9999999999999999
 40
0.9999999999999999
 10
6358.684200614088
 20
4113.987314110944
 30
0.0
 10
6359.010649473839
 20
4114.378116404025
 30
0.0
 10
6359.663504196516
 20
4115.159669517319
 30
0.0
 10
6361.063758548082
 20
4115.836010036204
 30
0.0
 10
6362.586685751847
 20
4116.039046818074
 30
0.0
 10
6364.100150123571
 20
4115.716932301984
 30
0.0
 10
6365.419859860139
 20
4114.911324561379
 30
0.0
 10
6366.396134377604
 20
4113.713579334232
 30
0.0
 10
6366.918301914448
 20
4112.263653774588
 30
0.0
 10
6366.931505885354
 20
4110.727082099831
 30
0.0
 10
6366.438070994206
 20
4109.275045835272
 30
0.0
 10
6365.493912279383
 20
4108.066864834997
 30
0.0
 10
6364.201932243915
 20
4107.236207772266
 30
0.0
 10
6362.703754362439
 20
4106.878379713466
 30
0.0
 10
6361.167571075173
 20
4107.03798994384
 30
0.0
 10
6359.769676925413
 20
4107.700092637867
 30
0.0
 10
6358.672414990458
 20
4108.78840016666
 30
0.0
 10
6357.998728083335
 20
4110.177607791029
 30
0.0
 10
6357.828918600132
 20
4111.701861849555
 30
0.0
 10
6358.109859563163
 20
4113.02050843385
 30
0.0
 10
6358.525335834954
 20
4113.719892219178
 30
0.0
 10
6358.684200614088
 20
4113.987314110944
 30
0.0
  0
SPLINE
  5
112
330
1F
100
AcDbEntity
  8
0
  6
SLD-Plná
 62
     7
370
    25
100
AcDbSpline
210
0.0
220
0.0
230
1.0
 70
    11
 71
     3
 72
    26
 73
    22
 74
     0
 42
0.00000001
 43
0.00000001
 40
0.0
 40
0.0
 40
0.0
 40
0.0
 40
0.0534843940057698
 40
0.1069629256877392
 40
0.1605948439749493
 40
0.2144599147826245
 40
0.2684826575147939
 40
0.3225172352187053
 40
0.376410873940827
 40
0.4300728108561157
 40
0.4835154736012352
 40
0.5368479946805146
 40
0.5902267863117155
 40
0.6437872181151002
 40
0.6975855896383268
 40
0.7515745366672997
 40
0.8056226248179792
 40
0.8595717152845788
 40
0.9133076256293164
 40
0.9668109454037667
 40
1.0
 40
1.0
 40
1.0
 40
1.0
 10
6355.528927901453
 20
4104.602253357059
 30
0.0
 10
6355.97756724913
 20
4104.839418080179
 30
0.0
 10
6356.874796769966
 20
4105.313721531238
 30
0.0
 10
6358.421742511735
 20
4105.410843945933
 30
0.0
 10
6359.903894418684
 20
4105.026532394887
 30
0.0
 10
6361.181759646813
 20
4104.162175140018
 30
0.0
 10
6362.10212133704
 20
4102.922274940083
 30
0.0
 10
6362.558842248408
 20
4101.444517068317
 30
0.0
 10
6362.498288829939
 20
4099.900227201974
 30
0.0
 10
6361.929939456056
 20
4098.466828540058
 30
0.0
 10
6360.92214990616
 20
4097.305690598259
 30
0.0
 10
6359.590558752328
 20
4096.543894841125
 30
0.0
 10
6358.083117055266
 20
4096.263614929419
 30
0.0
 10
6356.56549078497
 20
4096.496327042012
 30
0.0
 10
6355.206425380135
 20
4097.219295926496
 30
0.0
 10
6354.160795915549
 20
4098.355082037535
 30
0.0
 10
6353.551060844969
 20
4099.775640250127
 30
0.0
 10
6353.447508405739
 20
4101.319792574359
 30
0.0
 10
6353.865036247743
 20
4102.800956167362
 30
0.0
 10
6354.626214130068
 20
4103.921390912139
 30
0.0
 10
6355.279012490022
 20
4104.413757265114
 30
0.0
 10
6355.528927901453
 20
4104.602253357059
 30
0.0
  0
ARC
  5
113
330
1F
100
AcDbEntity
  8
0
  6
SLD-Plná
 62
     7
370
    25
100
AcDbCircle
 10
6347.4041386781
 20
4111.2515571338
 30
0.0
 40
180.0
100
AcDbArc
 50
180.0
 51
0.0
  0
LINE
  5
114
330
1F
100
AcDbEntity
  8
0
  6
SLD-Plná
 62
     7
370
    25
100
AcDbLine
 10
6347.4041234362
 20
3856.6931006648
 30
0.0
 11
6347.4041278885
 21
3931.0515504903
 31
0.0
  0
LINE
  5
115
330
1F
100
AcDbEntity
  8
0
  6
SLD-Plná
 62
     7
370
    25
100
AcDbLine
 10
6179.4669686803
 20
3688.7559459088
 30
0.0
 11
6347.4041234362
 21
3856.6931006648
 31
0.0
  0
ARC
  5
116
330
1F
100
AcDbEntity
  8
0
  6
SLD-Plná
 62
     7
370
    25
100
AcDbCircle
 10
5988.8460143612
 20
3879.3193544941
 30
0.0
 40
269.5380509634425
100
AcDbArc
 50
304.9235557162
 51
315.0086496928
  0
ARC
  5
117
330
1F
100
AcDbEntity
  8
0
  6
SLD-Plná
 62
     7
370
    25
100
AcDbCircle
 10
5977.1575005217
 20
3895.9408586055
 30
0.0
 40
289.8577814004106
100
AcDbArc
 50
285.5203336162
 51
304.9370125252
  0
ARC
  5
118
330
1F
100
AcDbEntity
  8
0
  6
SLD-Plná
 62
     7
370
    25
100
AcDbCircle
 10
6010.8213108333
 20
3774.668729289
 30
0.0
 40
164.0000000000001
100
AcDbArc
 50
164.4748592676
 51
285.5251407323
  0
ARC
  5
119
330
1F
100
AcDbEntity
  8
0
  6
SLD-Plná
 62
     7
370
    25
100
AcDbCircle
 10
6132.0934401426
 20
3741.0049189808
 30
0.0
 40
289.8577813926127
100
AcDbArc
 50
145.0629874745
 51
164.4796663841
  0
ARC
  5
11A
330
1F
100
AcDbEntity
  8
0
  6
SLD-Plná
 62
     7
370
    25
100
AcDbCircle
 10
6115.4719360385
 20
3752.6934328168
 30
0.0
 40
269.5380509634983
100
AcDbArc
 50
134.9913503072
 51
145.0764442838
  0
LINE
  5
11B
330
1F
100
AcDbEntity
  8
0
  6
SLD-Plná
 62
     7
370
    25
100
AcDbLine
 10
6092.8456822091
 20
4111.251541892
 30
0.0
 11
5924.9085274531
 21
3943.314387136
 31
0.0
  0
ARC
  5
11C
330
1F
100
AcDbEntity
  8
0
  6
SLD-Plná
 62
     7
370
    25
100
AcDbCircle
 10
6347.4041386781
 20
4111.2515571338
 30
0.0
 40
180.2000066435024
100
AcDbArc
 50
180.0000034306
 51
269.9999965694
  0
ARC
  5
11D
330
1F
100
AcDbEntity
  8
0
  6
SLD-Plná
 62
     7
370
    25
100
AcDbCircle
 10
6029.2059697496
 20
3793.0533882053
 30
0.0
 40
129.999992927393
100
AcDbArc
 50
137.4415424905
 51
312.5584575084
  0
LINE
  5
11E
330
1F
100
AcDbEntity
  8
0
  6
SLD-Plná
 62
     7
370
    25
100
AcDbLine
 10
6117.1304356547
 20
3697.2969970013
 30
0.0
 11
6160.3168652544
 21
3736.9511024258
 31
0.0
  0
ARC
  5
11F
330
1F
100
AcDbEntity
  8
0
  6
SLD-Plná
 62
     7
370
    25
100
AcDbCircle
 10
6070.7019945147
 20
3834.5494129704
 30
0.0
 40
132.5000199202258
100
AcDbArc
 50
312.5581823968
 51
137.4418176032
  0
LINE
  5
120
330
1F
100
AcDbEntity
  8
0
  6
SLD-Plná
 62
     7
370
    25
100
AcDbLine
 10
5973.1036839701
 20
3924.1642837101
 30
0.0
 11
5933.4495785474
 21
3880.9778541124
 31
0.0
  0
LINE
  5
121
330
1F
100
AcDbEntity
  8
0
  6
SLD-Plná
 62
     7
370
    25
100
AcDbLine
 10
6167.2041320346
 20
4111.2515463442
 30
0.0
 11
6092.8456822091
 21
4111.251541892
 31
0.0
  0
LINE
  5
122
330
1F
100
AcDbEntity
  8
0
  6
SLD-Plná
 62
     7
370
    25
100
AcDbLine
 10
6347.4041278885
 20
3931.0515504903
 30
0.0
 11
6345.8369862959
 21
3931.2583793925
 31
0.0
  0
LINE
  5
123
330
1F
100
AcDbEntity
  8
0
  6
SLD-Plná
 62
     7
370
    25
100
AcDbLine
 10
6167.2041320346
 20
4111.2515463442
 30
0.0
 11
6167.4109609368
 21
4109.6844047516
 31
0.0
  0
CIRCLE
  5
124
330
1F
100
AcDbEntity
  8
0
  6
SLD-Plná
 62
     7
370
    25
100
AcDbCircle
 10
6072.6912828065
 20
3836.5422873257
 30
0.0
 40
37.49988928370192
  0
LINE
  5
125
330
1F
100
AcDbEntity
  8
0
  6
SLD-Plná
 62
     8
370
    25
100
AcDbLine
 10
6525.4041386781
 20
4111.2515571338
 30
0.0
 11
6525.4041386781
 21
4286.2515571338
 31
0.0
  0
LINE
  5
126
330
1F
100
AcDbEntity
  8
0
  6
SLD-Plná
 62
     8
370
    25
100
AcDbLine
 10
6169.4041386781
 20
4286.2515571338
 30
0.0
 11
6169.4041386781
 21
4111.2515571338
 31
0.0
  0
ARC
  5
127
330
1F
100
AcDbEntity
  8
0
  6
SLD-Plná
 62
     8
370
    25
100
AcDbCircle
 10
6347.4041386781
 20
4111.2515571338
 30
0.0
 40
158.4873812011547
100
AcDbArc
 50
96.1030147039
 51
270.0
  0
ARC
  5
128
330
1F
100
AcDbEntity
  8
0
  6
SLD-Plná
 62
     8
370
    25
100
AcDbCircle
 10
6347.4041386781
 20
4111.2515571338
 30
0.0
 40
158.4873812011547
100
AcDbArc
 50
270.0
 51
83.8969852961
  0
ARC
  5
129
330
1F
100
AcDbEntity
  8
0
  6
SLD-Plná
 62
     8
370
    25
100
AcDbCircle
 10
6347.4041386781
 20
4111.2515571338
 30
0.0
 40
156.4875404289005
100
AcDbArc
 50
270.0
 51
84.4856224457
  0
ARC
  5
12A
330
1F
100
AcDbEntity
  8
0
  6
SLD-Plná
 62
     8
370
    25
100
AcDbCircle
 10
6347.4041386781
 20
4111.2515571338
 30
0.0
 40
156.4875404289005
100
AcDbArc
 50
95.5143775543
 51
270.0
  0
LINE
  5
12B
330
1F
100
AcDbEntity
  8
0
  6
SLD-Plná
 62
     8
370
    25
100
AcDbLine
 10
6369.9041386781
 20
4283.7515571338
 30
0.0
 11
6324.9041386781
 21
4283.7515571338
 31
0.0
  0
ENDSEC
  0
SECTION
  2
OBJECTS
  0
DICTIONARY
  5
C
330
0
100
AcDbDictionary
281
     1
  3
ACAD_GROUP
350
D
  3
ACAD_LAYOUT
350
1A
  3
ACAD_MLINESTYLE
350
17
  3
ACAD_PLOTSETTINGS
350
19
  3
ACAD_PLOTSTYLENAME
350
E
  3
ACAD_SCALELIST
350
47
  3
DWGPROPS
350
12C
  0
DICTIONARY
  5
D
102
{ACAD_REACTORS
330
C
102
}
330
C
100
AcDbDictionary
281
     1
  0
DICTIONARY
  5
1A
102
{ACAD_REACTORS
330
C
102
}
330
C
100
AcDbDictionary
281
     1
  3
Layout1
350
1E
  3
Layout2
350
26
  3
Model
350
22
  0
DICTIONARY
  5
17
102
{ACAD_REACTORS
330
C
102
}
330
C
100
AcDbDictionary
281
     1
  3
Standard
350
18
  0
DICTIONARY
  5
19
102
{ACAD_REACTORS
330
C
102
}
330
C
100
AcDbDictionary
281
     1
  0
ACDBDICTIONARYWDFLT
  5
E
102
{ACAD_REACTORS
330
C
102
}
330
C
100
AcDbDictionary
281
     1
  3
Normal
350
F
100
AcDbDictionaryWithDefault
340
F
  0
DICTIONARY
  5
47
102
{ACAD_REACTORS
330
C
102
}
330
C
100
AcDbDictionary
281
     1
  3
A0
350
48
  3
A1
350
49
  3
A2
350
4A
  3
A3
350
4B
  3
A4
350
4C
  3
A5
350
4D
  3
A6
350
4E
  3
A7
350
4F
  3
A8
350
50
  3
A9
350
51
  3
B0
350
52
  3
B1
350
53
  3
B2
350
54
  3
B3
350
55
  3
B4
350
56
  3
B5
350
57
  3
B6
350
58
  3
B7
350
59
  3
B8
350
5A
  3
B9
350
5B
  3
C0
350
5C
  3
C1
350
5D
  3
C2
350
5E
  3
C3
350
5F
  3
C4
350
60
  3
C5
350
61
  3
C6
350
62
  3
C7
350
63
  3
C8
350
64
  3
C9
350
65
  3
D0
350
66
  3
D1
350
67
  3
D2
350
68
  0
XRECORD
  5
12C
102
{ACAD_REACTORS
330
C
102
}
330
C
100
AcDbXrecord
280
     1
  1
DWGPROPS COOKIE
  2

  3

  4

  6

  7

  8
radek.stransky
  9

300
=
301
=
302
=
303
=
304
=
305
=
306
=
307
=
308
=
309
=
 40
0.0
 41
2460823.263760266
 42
2460823.263760718
  1

 90
        0
  0
LAYOUT
  5
1E
102
{ACAD_REACTORS
330
1A
102
}
330
1A
100
AcDbPlotSettings
  1

  2
none_device
  4

  6

 40
0.0
 41
0.0
 42
0.0
 43
0.0
 44
0.0
 45
0.0
 46
0.0
 47
0.0
 48
0.0
 49
0.0
140
0.0
141
0.0
142
1.0
143
1.0
 70
   688
 72
     1
 73
     0
 74
     5
  7

 75
    16
147
1.0
148
0.0
149
0.0
100
AcDbLayout
  1
Layout1
 70
     1
 71
     1
 10
0.0
 20
0.0
 11
420.0
 21
297.0
 12
0.0
 22
0.0
 32
0.0
 14
1.0000000000E+20
 24
1.0000000000E+20
 34
1.0000000000E+20
 15
-1.0000000000E+20
 25
-1.0000000000E+20
 35
-1.0000000000E+20
146
0.0
 13
0.0
 23
0.0
 33
0.0
 16
1.0
 26
0.0
 36
0.0
 17
0.0
 27
1.0
 37
0.0
 76
     0
330
1B
  0
LAYOUT
  5
26
102
{ACAD_REACTORS
330
1A
102
}
330
1A
100
AcDbPlotSettings
  1

  2
none_device
  4

  6

 40
0.0
 41
0.0
 42
0.0
 43
0.0
 44
0.0
 45
0.0
 46
0.0
 47
0.0
 48
0.0
 49
0.0
140
0.0
141
0.0
142
1.0
143
1.0
 70
   688
 72
     1
 73
     0
 74
     5
  7

 75
    16
147
1.0
148
0.0
149
0.0
100
AcDbLayout
  1
Layout2
 70
     1
 71
     2
 10
0.0
 20
0.0
 11
0.0
 21
0.0
 12
0.0
 22
0.0
 32
0.0
 14
0.0
 24
0.0
 34
0.0
 15
0.0
 25
0.0
 35
0.0
146
0.0
 13
0.0
 23
0.0
 33
0.0
 16
1.0
 26
0.0
 36
0.0
 17
0.0
 27
1.0
 37
0.0
 76
     0
330
23
  0
LAYOUT
  5
22
102
{ACAD_REACTORS
330
1A
102
}
330
1A
100
AcDbPlotSettings
  1

  2
none_device
  4
Letter_(8.50_x_11.00_Inches)
  6

 40
6.35
 41
6.35
 42
6.35000508
 43
6.35000508
 44
215.9
 45
279.4
 46
0.0
 47
0.0
 48
0.0
 49
0.0
140
0.0
141
0.0
142
1.0
143
1.0
 70
  1712
 72
     1
 73
     0
 74
     0
  7

 75
     0
147
1.0
148
0.0
149
0.0
100
AcDbLayout
  1
Model
 70
     1
 71
     0
 10
0.0
 20
0.0
 11
20000.0
 21
10000.0
 12
0.0
 22
0.0
 32
0.0
 14
0.0
 24
0.0
 34
0.0
 15
20000.0
 25
10000.0
 35
0.0
146
0.0
 13
0.0
 23
0.0
 33
0.0
 16
1.0
 26
0.0
 36
0.0
 17
0.0
 27
1.0
 37
0.0
 76
     0
330
1F
331
29
  0
MLINESTYLE
  5
18
102
{ACAD_REACTORS
330
17
102
}
330
17
100
AcDbMlineStyle
  2
Standard
 70
     0
  3

 62
   256
 51
90.0
 52
90.0
 71
     2
 49
0.5
 62
   256
  6
BYLAYER
 49
-0.5
 62
   256
  6
BYLAYER
  0
ACDBPLACEHOLDER
  5
F
102
{ACAD_REACTORS
330
E
102
}
330
E
  0
SCALE
  5
48
102
{ACAD_REACTORS
330
47
102
}
330
47
100
AcDbScale
 70
     0
300
1:1
140
1.0
141
1.0
290
     1
  0
SCALE
  5
49
102
{ACAD_REACTORS
330
47
102
}
330
47
100
AcDbScale
 70
     0
300
1:2
140
1.0
141
2.0
290
     0
  0
SCALE
  5
4A
102
{ACAD_REACTORS
330
47
102
}
330
47
100
AcDbScale
 70
     0
300
1:4
140
1.0
141
4.0
290
     0
  0
SCALE
  5
4B
102
{ACAD_REACTORS
330
47
102
}
330
47
100
AcDbScale
 70
     0
300
1:5
140
1.0
141
5.0
290
     0
  0
SCALE
  5
4C
102
{ACAD_REACTORS
330
47
102
}
330
47
100
AcDbScale
 70
     0
300
1:8
140
1.0
141
8.0
290
     0
  0
SCALE
  5
4D
102
{ACAD_REACTORS
330
47
102
}
330
47
100
AcDbScale
 70
     0
300
1:10
140
1.0
141
10.0
290
     0
  0
SCALE
  5
4E
102
{ACAD_REACTORS
330
47
102
}
330
47
100
AcDbScale
 70
     0
300
1:16
140
1.0
141
16.0
290
     0
  0
SCALE
  5
4F
102
{ACAD_REACTORS
330
47
102
}
330
47
100
AcDbScale
 70
     0
300
1:20
140
1.0
141
20.0
290
     0
  0
SCALE
  5
50
102
{ACAD_REACTORS
330
47
102
}
330
47
100
AcDbScale
 70
     0
300
1:30
140
1.0
141
30.0
290
     0
  0
SCALE
  5
51
102
{ACAD_REACTORS
330
47
102
}
330
47
100
AcDbScale
 70
     0
300
1:40
140
1.0
141
40.0
290
     0
  0
SCALE
  5
52
102
{ACAD_REACTORS
330
47
102
}
330
47
100
AcDbScale
 70
     0
300
1:50
140
1.0
141
50.0
290
     0
  0
SCALE
  5
53
102
{ACAD_REACTORS
330
47
102
}
330
47
100
AcDbScale
 70
     0
300
1:100
140
1.0
141
100.0
290
     0
  0
SCALE
  5
54
102
{ACAD_REACTORS
330
47
102
}
330
47
100
AcDbScale
 70
     0
300
2:1
140
2.0
141
1.0
290
     0
  0
SCALE
  5
55
102
{ACAD_REACTORS
330
47
102
}
330
47
100
AcDbScale
 70
     0
300
4:1
140
4.0
141
1.0
290
     0
  0
SCALE
  5
56
102
{ACAD_REACTORS
330
47
102
}
330
47
100
AcDbScale
 70
     0
300
8:1
140
8.0
141
1.0
290
     0
  0
SCALE
  5
57
102
{ACAD_REACTORS
330
47
102
}
330
47
100
AcDbScale
 70
     0
300
10:1
140
10.0
141
1.0
290
     0
  0
SCALE
  5
58
102
{ACAD_REACTORS
330
47
102
}
330
47
100
AcDbScale
 70
     0
300
100:1
140
100.0
141
1.0
290
     0
  0
SCALE
  5
59
102
{ACAD_REACTORS
330
47
102
}
330
47
100
AcDbScale
 70
     0
300
1/128" = 1'-0"
140
0.0078125
141
12.0
290
     0
  0
SCALE
  5
5A
102
{ACAD_REACTORS
330
47
102
}
330
47
100
AcDbScale
 70
     0
300
1/64" = 1'-0"
140
0.015625
141
12.0
290
     0
  0
SCALE
  5
5B
102
{ACAD_REACTORS
330
47
102
}
330
47
100
AcDbScale
 70
     0
300
1/32" = 1'-0"
140
0.03125
141
12.0
290
     0
  0
SCALE
  5
5C
102
{ACAD_REACTORS
330
47
102
}
330
47
100
AcDbScale
 70
     0
300
1/16" = 1'-0"
140
0.0625
141
12.0
290
     0
  0
SCALE
  5
5D
102
{ACAD_REACTORS
330
47
102
}
330
47
100
AcDbScale
 70
     0
300
3/32" = 1'-0"
140
0.09375
141
12.0
290
     0
  0
SCALE
  5
5E
102
{ACAD_REACTORS
330
47
102
}
330
47
100
AcDbScale
 70
     0
300
1/8" = 1'-0"
140
0.125
141
12.0
290
     0
  0
SCALE
  5
5F
102
{ACAD_REACTORS
330
47
102
}
330
47
100
AcDbScale
 70
     0
300
3/16" = 1'-0"
140
0.1875
141
12.0
290
     0
  0
SCALE
  5
60
102
{ACAD_REACTORS
330
47
102
}
330
47
100
AcDbScale
 70
     0
300
1/4" = 1'-0"
140
0.25
141
12.0
290
     0
  0
SCALE
  5
61
102
{ACAD_REACTORS
330
47
102
}
330
47
100
AcDbScale
 70
     0
300
3/8" = 1'-0"
140
0.375
141
12.0
290
     0
  0
SCALE
  5
62
102
{ACAD_REACTORS
330
47
102
}
330
47
100
AcDbScale
 70
     0
300
1/2" = 1'-0"
140
0.5
141
12.0
290
     0
  0
SCALE
  5
63
102
{ACAD_REACTORS
330
47
102
}
330
47
100
AcDbScale
 70
     0
300
3/4" = 1'-0"
140
0.75
141
12.0
290
     0
  0
SCALE
  5
64
102
{ACAD_REACTORS
330
47
102
}
330
47
100
AcDbScale
 70
     0
300
1" = 1'-0"
140
1.0
141
12.0
290
     0
  0
SCALE
  5
65
102
{ACAD_REACTORS
330
47
102
}
330
47
100
AcDbScale
 70
     0
300
1-1/2" = 1'-0"
140
1.5
141
12.0
290
     0
  0
SCALE
  5
66
102
{ACAD_REACTORS
330
47
102
}
330
47
100
AcDbScale
 70
     0
300
3" = 1'-0"
140
3.0
141
12.0
290
     0
  0
SCALE
  5
67
102
{ACAD_REACTORS
330
47
102
}
330
47
100
AcDbScale
 70
     0
300
6" = 1'-0"
140
6.0
141
12.0
290
     0
  0
SCALE
  5
68
102
{ACAD_REACTORS
330
47
102
}
330
47
100
AcDbScale
 70
     0
300
1'-0" = 1'-0"
140
12.0
141
12.0
290
     0
  0
ENDSEC
  0
EOF
