  0
SECTION
  2
HEADER
  9
$ACADVER
  1
AC1015
  9
$ACADMAINTVER
 70
     6
  9
$DWGCODEPAGE
  3
ANSI_1250
  9
$INSBASE
 10
0.0
 20
0.0
 30
0.0
  9
$EXTMIN
 10
0.0
 20
0.0
 30
0.0
  9
$EXTMAX
 10
20000.0
 20
10000.0
 30
0.0
  9
$LIMMIN
 10
0.0
 20
0.0
  9
$LIMMAX
 10
20000.0
 20
10000.0
  9
$ORTHOMODE
 70
     0
  9
$REGENMODE
 70
     1
  9
$FILLMODE
 70
     1
  9
$QTEXTMODE
 70
     0
  9
$MIRRTEXT
 70
     1
  9
$LTSCALE
 40
1.0
  9
$ATTMODE
 70
     1
  9
$TEXTSIZE
 40
2.0
  9
$TRACEWID
 40
1.0
  9
$TEXTSTYLE
  7
Standard
  9
$CLAYER
  8
0
  9
$CELTYPE
  6
ByLayer
  9
$CECOLOR
 62
   256
  9
$CELTSCALE
 40
1.0
  9
$DISPSILH
 70
     0
  9
$DIMSCALE
 40
1.0
  9
$DIMASZ
 40
2.0
  9
$DIMEXO
 40
1.0
  9
$DIMDLI
 40
3.75
  9
$DIMRND
 40
0.0
  9
$DIMDLE
 40
0.0
  9
$DIMEXE
 40
1.0
  9
$DIMTP
 40
0.0
  9
$DIMTM
 40
0.0
  9
$DIMTXT
 40
2.0
  9
$DIMCEN
 40
2.5
  9
$DIMTSZ
 40
0.0
  9
$DIMTOL
 70
     0
  9
$DIMLIM
 70
     0
  9
$DIMTIH
 70
     1
  9
$DIMTOH
 70
     1
  9
$DIMSE1
 70
     0
  9
$DIMSE2
 70
     0
  9
$DIMTAD
 70
     1
  9
$DIMZIN
 70
     0
  9
$DIMBLK
  1

  9
$DIMASO
 70
     1
  9
$DIMSHO
 70
     1
  9
$DIMPOST
  1

  9
$DIMAPOST
  1

  9
$DIMALT
 70
     0
  9
$DIMALTD
 70
     3
  9
$DIMALTF
 40
0.0393700787
  9
$DIMLFAC
 40
1.0
  9
$DIMTOFL
 70
     1
  9
$DIMTVP
 40
0.0
  9
$DIMTIX
 70
     0
  9
$DIMSOXD
 70
     0
  9
$DIMSAH
 70
     0
  9
$DIMBLK1
  1

  9
$DIMBLK2
  1

  9
$DIMSTYLE
  2
ISO-25
  9
$DIMCLRD
 70
     0
  9
$DIMCLRE
 70
     0
  9
$DIMCLRT
 70
     0
  9
$DIMTFAC
 40
1.0
  9
$DIMGAP
 40
1.524
  9
$DIMJUST
 70
     0
  9
$DIMSD1
 70
     0
  9
$DIMSD2
 70
     0
  9
$DIMTOLJ
 70
     0
  9
$DIMTZIN
 70
     0
  9
$DIMALTZ
 70
     0
  9
$DIMALTTZ
 70
     0
  9
$DIMUPT
 70
     0
  9
$DIMDEC
 70
     2
  9
$DIMTDEC
 70
     0
  9
$DIMALTU
 70
     2
  9
$DIMALTTD
 70
     3
  9
$DIMTXSTY
  7
Standard
  9
$DIMAUNIT
 70
     0
  9
$DIMADEC
 70
     2
  9
$DIMALTRND
 40
0.0
  9
$DIMAZIN
 70
     0
  9
$DIMDSEP
 70
    44
  9
$DIMATFIT
 70
     3
  9
$DIMFRAC
 70
     0
  9
$DIMLDRBLK
  1

  9
$DIMLUNIT
 70
     2
  9
$DIMLWD
 70
    -2
  9
$DIMLWE
 70
    -2
  9
$DIMTMOVE
 70
     0
  9
$LUNITS
 70
     2
  9
$LUPREC
 70
     3
  9
$SKETCHINC
 40
1.0
  9
$FILLETRAD
 40
10.0
  9
$AUNITS
 70
     0
  9
$AUPREC
 70
     2
  9
$MENU
  1
.
  9
$ELEVATION
 40
0.0
  9
$PELEVATION
 40
0.0
  9
$THICKNESS
 40
0.0
  9
$LIMCHECK
 70
     0
  9
$CHAMFERA
 40
0.0
  9
$CHAMFERB
 40
0.0
  9
$CHAMFERC
 40
0.0
  9
$CHAMFERD
 40
0.0
  9
$SKPOLY
 70
     0
  9
$TDCREATE
 40
2458708.345954572
  9
$TDUCREATE
 40
2458708.262621238
  9
$TDUPDATE
 40
2458708.345954746
  9
$TDUUPDATE
 40
2458708.262621412
  9
$TDINDWG
 40
0.0000000116
  9
$TDUSRTIMER
 40
0.0000000116
  9
$USRTIMER
 70
     1
  9
$ANGBASE
 50
0.0
  9
$ANGDIR
 70
     0
  9
$PDMODE
 70
     0
  9
$PDSIZE
 40
-1.0
  9
$PLINEWID
 40
0.0
  9
$SPLFRAME
 70
     0
  9
$SPLINETYPE
 70
     6
  9
$SPLINESEGS
 70
     8
  9
$HANDSEED
  5
C9
  9
$SURFTAB1
 70
     6
  9
$SURFTAB2
 70
     6
  9
$SURFTYPE
 70
     6
  9
$SURFU
 70
     6
  9
$SURFV
 70
     6
  9
$UCSBASE
  2

  9
$UCSNAME
  2

  9
$UCSORG
 10
0.0
 20
0.0
 30
0.0
  9
$UCSXDIR
 10
1.0
 20
0.0
 30
0.0
  9
$UCSYDIR
 10
0.0
 20
1.0
 30
0.0
  9
$UCSORTHOREF
  2

  9
$UCSORTHOVIEW
 70
     0
  9
$UCSORGTOP
 10
0.0
 20
0.0
 30
0.0
  9
$UCSORGBOTTOM
 10
0.0
 20
0.0
 30
0.0
  9
$UCSORGLEFT
 10
0.0
 20
0.0
 30
0.0
  9
$UCSORGRIGHT
 10
0.0
 20
0.0
 30
0.0
  9
$UCSORGFRONT
 10
0.0
 20
0.0
 30
0.0
  9
$UCSORGBACK
 10
0.0
 20
0.0
 30
0.0
  9
$PUCSBASE
  2

  9
$PUCSNAME
  2

  9
$PUCSORG
 10
0.0
 20
0.0
 30
0.0
  9
$PUCSXDIR
 10
1.0
 20
0.0
 30
0.0
  9
$PUCSYDIR
 10
0.0
 20
1.0
 30
0.0
  9
$PUCSORTHOREF
  2

  9
$PUCSORTHOVIEW
 70
     0
  9
$PUCSORGTOP
 10
0.0
 20
0.0
 30
0.0
  9
$PUCSORGBOTTOM
 10
0.0
 20
0.0
 30
0.0
  9
$PUCSORGLEFT
 10
0.0
 20
0.0
 30
0.0
  9
$PUCSORGRIGHT
 10
0.0
 20
0.0
 30
0.0
  9
$PUCSORGFRONT
 10
0.0
 20
0.0
 30
0.0
  9
$PUCSORGBACK
 10
0.0
 20
0.0
 30
0.0
  9
$USERI1
 70
     0
  9
$USERI2
 70
     0
  9
$USERI3
 70
     0
  9
$USERI4
 70
     0
  9
$USERI5
 70
     0
  9
$USERR1
 40
0.0
  9
$USERR2
 40
0.0
  9
$USERR3
 40
0.0
  9
$USERR4
 40
0.0
  9
$USERR5
 40
0.0
  9
$WORLDVIEW
 70
     1
  9
$SHADEDGE
 70
     3
  9
$SHADEDIF
 70
    70
  9
$TILEMODE
 70
     1
  9
$MAXACTVP
 70
    64
  9
$PINSBASE
 10
0.0
 20
0.0
 30
0.0
  9
$PLIMCHECK
 70
     0
  9
$PEXTMIN
 10
1.0000000000E+20
 20
1.0000000000E+20
 30
1.0000000000E+20
  9
$PEXTMAX
 10
-1.0000000000E+20
 20
-1.0000000000E+20
 30
-1.0000000000E+20
  9
$PLIMMIN
 10
0.0
 20
0.0
  9
$PLIMMAX
 10
420.0
 20
297.0
  9
$UNITMODE
 70
     0
  9
$VISRETAIN
 70
     1
  9
$PLINEGEN
 70
     0
  9
$PSLTSCALE
 70
     1
  9
$TREEDEPTH
 70
  3020
  9
$CMLSTYLE
  2
Standard
  9
$CMLJUST
 70
     0
  9
$CMLSCALE
 40
20.0
  9
$PROXYGRAPHICS
 70
     1
  9
$MEASUREMENT
 70
     1
  9
$CELWEIGHT
370
    -1
  9
$ENDCAPS
280
     0
  9
$JOINSTYLE
280
     0
  9
$LWDISPLAY
290
     1
  9
$INSUNITS
 70
     4
  9
$HYPERLINKBASE
  1

  9
$STYLESHEET
  1

  9
$XEDIT
290
     1
  9
$CEPSNTYPE
380
     0
  9
$PSTYLEMODE
290
     1
  9
$FINGERPRINTGUID
  2
{ECE0F2B4-9A59-4A37-B3FD-8620ED811044}
  9
$VERSIONGUID
  2
{FAEB1C32-E019-11D5-929B-00C0DF256EC4}
  9
$EXTNAMES
290
     1
  9
$PSVPSCALE
 40
0.0
  9
$OLESTARTUP
290
     0
  0
ENDSEC
  0
SECTION
  2
CLASSES
  0
CLASS
  1
ACDBDICTIONARYWDFLT
  2
AcDbDictionaryWithDefault
  3
ObjectDBX Classes
 90
        0
280
     0
281
     0
  0
CLASS
  1
VISUALSTYLE
  2
AcDbVisualStyle
  3
ObjectDBX Classes
 90
     4095
280
     0
281
     0
  0
CLASS
  1
MATERIAL
  2
AcDbMaterial
  3
ObjectDBX Classes
 90
     1153
280
     0
281
     0
  0
CLASS
  1
SCALE
  2
AcDbScale
  3
ObjectDBX Classes
 90
     1153
280
     0
281
     0
  0
CLASS
  1
TABLESTYLE
  2
AcDbTableStyle
  3
ObjectDBX Classes
 90
     4095
280
     0
281
     0
  0
CLASS
  1
MLEADERSTYLE
  2
AcDbMLeaderStyle
  3
ACDB_MLEADERSTYLE_CLASS
 90
     4095
280
     0
281
     0
  0
CLASS
  1
SUN
  2
AcDbSun
  3
SCENEOE
 90
     1153
280
     0
281
     0
  0
CLASS
  1
ACDBPLACEHOLDER
  2
AcDbPlaceHolder
  3
ObjectDBX Classes
 90
        0
280
     0
281
     0
  0
CLASS
  1
LAYOUT
  2
AcDbLayout
  3
ObjectDBX Classes
 90
        0
280
     0
281
     0
  0
ENDSEC
  0
SECTION
  2
TABLES
  0
TABLE
  2
VPORT
  5
8
330
0
100
AcDbSymbolTable
 70
     1
  0
VPORT
  5
29
330
8
100
AcDbSymbolTableRecord
100
AcDbViewportTableRecord
  2
*Active
 70
     0
 10
0.0
 20
0.0
 11
1.0
 21
1.0
 12
10000.0
 22
5000.0
 13
0.0
 23
0.0
 14
10.0
 24
10.0
 15
10.0
 25
10.0
 16
0.0
 26
0.0
 36
1.0
 17
0.0
 27
0.0
 37
0.0
 40
10000.0
 41
2.0
 42
50.0
 43
0.0
 44
0.0
 50
0.0
 51
0.0
 71
     0
 72
  2000
 73
     1
 74
     3
 75
     0
 76
     0
 77
     0
 78
     0
281
     0
 65
     1
110
0.0
120
0.0
130
0.0
111
1.0
121
0.0
131
0.0
112
0.0
122
1.0
132
0.0
 79
     0
146
0.0
  0
ENDTAB
  0
TABLE
  2
LTYPE
  5
5
330
0
100
AcDbSymbolTable
 70
     6
  0
LTYPE
  5
14
330
5
100
AcDbSymbolTableRecord
100
AcDbLinetypeTableRecord
  2
ByBlock
 70
     0
  3

 72
    65
 73
     0
 40
0.0
  0
LTYPE
  5
15
330
5
100
AcDbSymbolTableRecord
100
AcDbLinetypeTableRecord
  2
ByLayer
 70
     0
  3

 72
    65
 73
     0
 40
0.0
  0
LTYPE
  5
16
330
5
100
AcDbSymbolTableRecord
100
AcDbLinetypeTableRecord
  2
Continuous
 70
     0
  3
Solid line
 72
    65
 73
     0
 40
0.0
  0
LTYPE
  5
6E
330
5
100
AcDbSymbolTableRecord
100
AcDbLinetypeTableRecord
  2
HIDDEN
 70
     0
  3
Hidden __ __ __ __ __ __ __ __ __ __ __ __ __ __
 72
    65
 73
     2
 40
1.905
 49
1.27
 74
     0
 49
-0.635
 74
     0
  0
LTYPE
  5
6F
330
5
100
AcDbSymbolTableRecord
100
AcDbLinetypeTableRecord
  2
PHANTOM
 70
     0
  3
Phantom ______  __  __  ______  __  __  ______
 72
    65
 73
     6
 40
12.7
 49
6.35
 74
     0
 49
-1.27
 74
     0
 49
1.27
 74
     0
 49
-1.27
 74
     0
 49
1.27
 74
     0
 49
-1.27
 74
     0
  0
LTYPE
  5
70
330
5
100
AcDbSymbolTableRecord
100
AcDbLinetypeTableRecord
  2
CENTER
 70
     0
  3
Center ____ _ ____ _ ____ _ ____ _ ____ _ ____
 72
    65
 73
     4
 40
10.16
 49
6.35
 74
     0
 49
-1.27
 74
     0
 49
1.27
 74
     0
 49
-1.27
 74
     0
  0
LTYPE
  5
71
330
5
100
AcDbSymbolTableRecord
100
AcDbLinetypeTableRecord
  2
CENTERX2
 70
     0
  3
Center (2x) ________  __  ________  __  _____
 72
    65
 73
     4
 40
20.32
 49
12.7
 74
     0
 49
-2.54
 74
     0
 49
2.54
 74
     0
 49
-2.54
 74
     0
  0
LTYPE
  5
72
330
5
100
AcDbSymbolTableRecord
100
AcDbLinetypeTableRecord
  2
DOT2
 70
     0
  3
Dot (.5x) ........................................
 72
    65
 73
     2
 40
0.635
 49
0.0
 74
     0
 49
-0.635
 74
     0
  0
ENDTAB
  0
TABLE
  2
LAYER
  5
2
330
0
100
AcDbSymbolTable
 70
    13
  0
LAYER
  5
10
330
2
100
AcDbSymbolTableRecord
100
AcDbLayerTableRecord
  2
0
 70
     0
 62
     7
  6
Continuous
370
    -3
390
F
  0
LAYER
  5
73
330
2
100
AcDbSymbolTableRecord
100
AcDbLayerTableRecord
  2
FORMAT
 70
     0
 62
     7
  6
Continuous
370
    -3
390
F
  0
LAYER
  5
74
330
2
100
AcDbSymbolTableRecord
100
AcDbLayerTableRecord
  2
OSA
 70
     0
 62
     7
  6
CENTER
370
    -3
390
F
  0
LAYER
  5
75
330
2
100
AcDbSymbolTableRecord
100
AcDbLayerTableRecord
  2
0_35
 70
     0
 62
     7
  6
Continuous
370
    35
390
F
  0
LAYER
  5
76
330
2
100
AcDbSymbolTableRecord
100
AcDbLayerTableRecord
  2
0_5
 70
     0
 62
     7
  6
Continuous
370
    50
390
F
  0
LAYER
  5
77
330
2
100
AcDbSymbolTableRecord
100
AcDbLayerTableRecord
  2
0_25
 70
     0
 62
     7
  6
Continuous
370
    25
390
F
  0
LAYER
  5
78
330
2
100
AcDbSymbolTableRecord
100
AcDbLayerTableRecord
  2
0_18
 70
     0
 62
     7
  6
Continuous
370
    -3
390
F
  0
LAYER
  5
79
330
2
100
AcDbSymbolTableRecord
100
AcDbLayerTableRecord
  2
SLD-0
 70
     0
 62
   179
  6
Continuous
370
    -3
390
F
  0
LAYER
  5
7A
330
2
100
AcDbSymbolTableRecord
100
AcDbLayerTableRecord
  2
KOTY
 70
     0
 62
     7
  6
Continuous
370
    -3
390
F
  0
LAYER
  5
7B
330
2
100
AcDbSymbolTableRecord
100
AcDbLayerTableRecord
  2
SILNA
 70
     0
 62
   179
  6
Continuous
370
    -3
390
F
  0
LAYER
  5
7C
330
2
100
AcDbSymbolTableRecord
100
AcDbLayerTableRecord
  2
0_18_1
 70
     0
 62
   179
  6
Continuous
370
    -3
390
F
  0
LAYER
  5
7D
330
2
100
AcDbSymbolTableRecord
100
AcDbLayerTableRecord
  2
0_35_1
 70
     0
 62
   179
  6
Continuous
370
    35
390
F
  0
LAYER
  5
7E
330
2
100
AcDbSymbolTableRecord
100
AcDbLayerTableRecord
  2
0_5_1
 70
     0
 62
   179
  6
Continuous
370
    50
390
F
  0
ENDTAB
  0
TABLE
  2
STYLE
  5
3
330
0
100
AcDbSymbolTable
 70
     1
  0
STYLE
  5
11
330
3
100
AcDbSymbolTableRecord
100
AcDbTextStyleTableRecord
  2
Standard
 70
     0
 40
0.0
 41
1.0
 50
0.0
 71
     0
 42
2.0
  3
txt
  4

  0
ENDTAB
  0
TABLE
  2
VIEW
  5
6
330
0
100
AcDbSymbolTable
 70
     0
  0
ENDTAB
  0
TABLE
  2
UCS
  5
7
330
0
100
AcDbSymbolTable
 70
     0
  0
ENDTAB
  0
TABLE
  2
APPID
  5
9
330
0
100
AcDbSymbolTable
 70
     1
  0
APPID
  5
12
330
9
100
AcDbSymbolTableRecord
100
AcDbRegAppTableRecord
  2
ACAD
 70
     0
  0
ENDTAB
  0
TABLE
  2
DIMSTYLE
  5
A
330
0
100
AcDbSymbolTable
 70
     1
100
AcDbDimStyleTable
  0
DIMSTYLE
105
27
330
A
100
AcDbSymbolTableRecord
100
AcDbDimStyleTableRecord
  2
ISO-25
 70
     0
 41
2.5
 42
0.625
 43
3.75
 44
1.25
 73
     0
 74
     0
 77
     1
 78
     8
140
2.5
141
2.5
143
0.0393700787
147
0.625
171
     3
172
     1
178
     0
271
     2
272
     2
274
     3
278
    44
283
     0
284
     8
340
11
  0
ENDTAB
  0
TABLE
  2
BLOCK_RECORD
  5
1
330
0
100
AcDbSymbolTable
 70
     1
  0
BLOCK_RECORD
  5
1F
330
1
100
AcDbSymbolTableRecord
100
AcDbBlockTableRecord
  2
*Model_Space
340
22
  0
BLOCK_RECORD
  5
1B
330
1
100
AcDbSymbolTableRecord
100
AcDbBlockTableRecord
  2
*Paper_Space
340
1E
  0
BLOCK_RECORD
  5
23
330
1
100
AcDbSymbolTableRecord
100
AcDbBlockTableRecord
  2
*Paper_Space0
340
26
  0
ENDTAB
  0
ENDSEC
  0
SECTION
  2
BLOCKS
  0
BLOCK
  5
20
330
1F
100
AcDbEntity
  8
0
100
AcDbBlockBegin
  2
*Model_Space
 70
     0
 10
0.0
 20
0.0
 30
0.0
  3
*Model_Space
  1

  0
ENDBLK
  5
21
330
1F
100
AcDbEntity
  8
0
100
AcDbBlockEnd
  0
BLOCK
  5
1C
330
1B
100
AcDbEntity
 67
     1
  8
0
100
AcDbBlockBegin
  2
*Paper_Space
 70
     0
 10
0.0
 20
0.0
 30
0.0
  3
*Paper_Space
  1

  0
ENDBLK
  5
1D
330
1B
100
AcDbEntity
 67
     1
  8
0
100
AcDbBlockEnd
  0
BLOCK
  5
24
330
23
100
AcDbEntity
  8
0
100
AcDbBlockBegin
  2
*Paper_Space0
 70
     0
 10
0.0
 20
0.0
 30
0.0
  3
*Paper_Space0
  1

  0
ENDBLK
  5
25
330
23
100
AcDbEntity
  8
0
100
AcDbBlockEnd
  0
ENDSEC
  0
SECTION
  2
ENTITIES
  0
SPLINE
  5
7F
330
1F
100
AcDbEntity
  8
0
  6
Continuous
 62
     7
370
    25
100
AcDbSpline
210
0.0
220
0.0
230
1.0
 70
     8
 71
     3
 72
    23
 73
    19
 74
     0
 42
0.000000001
 43
0.00000001
 40
0.0
 40
0.0
 40
0.0
 40
0.0
 40
0.0562798431183133
 40
0.1097589746034147
 40
0.1604463354776001
 40
0.2083525144212898
 40
0.253490141922769
 40
0.2958744080552245
 40
0.3355237518756046
 40
0.3724607926745523
 40
0.4067136073822006
 40
0.4383175112455109
 40
0.4673175812688289
 40
0.4937722900574406
 40
0.583093944733579
 40
0.6971892439155519
 40
0.8361456432822336
 40
1.0
 40
1.0
 40
1.0
 40
1.0
 10
6075.089466014219
 20
4914.699454592719
 30
0.0
 10
6075.09938070102
 20
4914.700410223842
 30
0.0
 10
6075.118716679881
 20
4914.702273930036
 30
0.0
 10
6075.148438443715
 20
4914.716627483115
 30
0.0
 10
6075.17777296443
 20
4914.73755414791
 30
0.0
 10
6075.206809961295
 20
4914.764324032657
 30
0.0
 10
6075.235526740622
 20
4914.795282056136
 30
0.0
 10
6075.263928707885
 20
4914.82913854968
 30
0.0
 10
6075.292012994902
 20
4914.864668742269
 30
0.0
 10
6075.319783450294
 20
4914.900791518385
 30
0.0
 10
6075.347226957478
 20
4914.936561559244
 30
0.0
 10
6075.374386517244
 20
4914.971133636062
 30
0.0
 10
6075.401122262757
 20
4915.003874857478
 30
0.0
 10
6075.449917254365
 20
4915.058707833039
 30
0.0
 10
6075.535011937041
 20
4915.148694713177
 30
0.0
 10
6075.66598537669
 20
4915.29365909691
 30
0.0
 10
6075.830504746618
 20
4915.481679737039
 30
0.0
 10
6075.952657231924
 20
4915.622989997643
 30
0.0
 10
6076.018755336101
 20
4915.69945459272
 30
0.0
  0
SPLINE
  5
80
330
1F
100
AcDbEntity
  8
0
  6
Continuous
 62
     7
370
    25
100
AcDbSpline
210
0.0
220
0.0
230
1.0
 70
     8
 71
     3
 72
    20
 73
    16
 74
     0
 42
0.000000001
 43
0.00000001
 40
0.0
 40
0.0
 40
0.0
 40
0.0
 40
0.125
 40
0.125
 40
0.25
 40
0.25
 40
0.375
 40
0.375
 40
0.4375
 40
0.4375
 40
0.5
 40
0.5
 40
0.75
 40
0.75
 40
1.0
 40
1.0
 40
1.0
 40
1.0
 10
6075.089466014219
 20
4913.699454592719
 30
0.0
 10
6075.119662406862
 20
4913.699454592719
 30
0.0
 10
6075.149321874148
 20
4913.73076839351
 30
0.0
 10
6075.207772589098
 20
4913.827139846819
 30
0.0
 10
6075.236529564912
 20
4913.892065046043
 30
0.0
 10
6075.29310675322
 20
4914.031332153791
 30
0.0
 10
6075.320926965715
 20
4914.105659497773
 30
0.0
 10
6075.361954711965
 20
4914.211319511077
 30
0.0
 10
6075.375513531967
 20
4914.245623061193
 30
0.0
 10
6075.402396981141
 20
4914.310869538502
 30
0.0
 10
6075.415477426243
 20
4914.341283890186
 30
0.0
 10
6075.482736015381
 20
4914.487335126069
 30
0.0
 10
6075.558791633705
 20
4914.649218807759
 30
0.0
 10
6075.755400364382
 20
4915.090077846618
 30
0.0
 10
6075.875437215664
 20
4915.370085714206
 30
0.0
 10
6076.018755336101
 20
4915.69945459272
 30
0.0
  0
LINE
  5
81
330
1F
100
AcDbEntity
  8
0
  6
Continuous
 62
     7
370
    25
100
AcDbLine
 10
6075.0894660142
 20
4913.6994545927
 30
0.0
 11
6075.0894660142
 21
4914.6994545927
 31
0.0
  0
SPLINE
  5
82
330
1F
100
AcDbEntity
  8
0
  6
Continuous
 62
     7
370
    25
100
AcDbSpline
210
0.0
220
0.0
230
1.0
 70
     8
 71
     3
 72
    14
 73
    10
 74
     0
 42
0.000000001
 43
0.00000001
 40
0.0
 40
0.0
 40
0.0
 40
0.0
 40
0.25
 40
0.25
 40
0.5
 40
0.5
 40
0.75
 40
0.75
 40
1.0
 40
1.0
 40
1.0
 40
1.0
 10
6076.018755336101
 20
4915.699454592719
 30
0.0
 10
6075.90805092205
 20
4915.589629414237
 30
0.0
 10
6075.795760817033
 20
4915.485120311792
 30
0.0
 10
6075.572326290949
 20
4915.283616727732
 30
0.0
 10
6075.464514069043
 20
4915.18928748845
 30
0.0
 10
6075.268341272577
 20
4915.016529753726
 30
0.0
 10
6075.181901925423
 20
4914.939319914822
 30
0.0
 10
6075.056301296123
 20
4914.819511963095
 30
0.0
 10
6075.0187553361
 20
4914.77750436805
 30
0.0
 10
6075.0187553361
 20
4914.770165270837
 30
0.0
  0
LINE
  5
83
330
1F
100
AcDbEntity
  8
0
  6
Continuous
 62
     7
370
    25
100
AcDbLine
 10
6074.0187553361
 20
4914.7701652708
 30
0.0
 11
6075.0187553361
 21
4914.7701652708
 31
0.0
  0
SPLINE
  5
84
330
1F
100
AcDbEntity
  8
0
  6
Continuous
 62
     7
370
    25
100
AcDbSpline
210
0.0
220
0.0
230
1.0
 70
     8
 71
     3
 72
    18
 73
    14
 74
     0
 42
0.000000001
 43
0.00000001
 40
0.0
 40
0.0
 40
0.0
 40
0.0
 40
0.2499999999999915
 40
0.2499999999999915
 40
0.4999999999999829
 40
0.4999999999999829
 40
0.6249999999999871
 40
0.6249999999999871
 40
0.7499999999999915
 40
0.7499999999999915
 40
0.8749999999999957
 40
0.8749999999999957
 40
1.0
 40
1.0
 40
1.0
 40
1.0
 10
6076.018755336101
 20
4915.699454592719
 30
0.0
 10
6075.770194456242
 20
4915.576161211745
 30
0.0
 10
6075.524771263013
 20
4915.462975746628
 30
0.0
 10
6075.048343070265
 20
4915.249302378678
 30
0.0
 10
6074.830338381719
 20
4915.154301196523
 30
0.0
 10
6074.543630016311
 20
4915.027675529569
 30
0.0
 10
6074.457782014661
 20
4914.98938250582
 30
0.0
 10
6074.305753158651
 20
4914.920199604079
 30
0.0
 10
6074.238926548499
 20
4914.88902061031
 30
0.0
 10
6074.130867070488
 20
4914.836576983398
 30
0.0
 10
6074.089670846753
 20
4914.815330946828
 30
0.0
 10
6074.033504311075
 20
4914.783727169625
 30
0.0
 10
6074.0187553361
 20
4914.773416339355
 30
0.0
 10
6074.0187553361
 20
4914.770165270837
 30
0.0
  0
SPLINE
  5
85
330
1F
100
AcDbEntity
  8
0
  6
Continuous
 62
     7
370
    25
100
AcDbSpline
210
0.0
220
0.0
230
1.0
 70
     8
 71
     3
 72
    18
 73
    14
 74
     0
 42
0.000000001
 43
0.00000001
 40
0.0
 40
0.0
 40
0.0
 40
0.0
 40
0.25
 40
0.25
 40
0.5
 40
0.5
 40
0.625
 40
0.625
 40
0.75
 40
0.75
 40
0.875
 40
0.875
 40
1.0
 40
1.0
 40
1.0
 40
1.0
 10
6472.018755336099
 20
4915.699454592719
 30
0.0
 10
6472.142048717074
 20
4915.450893712862
 30
0.0
 10
6472.25523418219
 20
4915.205470519631
 30
0.0
 10
6472.46890755014
 20
4914.729042326883
 30
0.0
 10
6472.563908732296
 20
4914.511037638339
 30
0.0
 10
6472.690534399249
 20
4914.224329272931
 30
0.0
 10
6472.728827422999
 20
4914.138481271279
 30
0.0
 10
6472.798010324739
 20
4913.98645241527
 30
0.0
 10
6472.829189318509
 20
4913.919625805117
 30
0.0
 10
6472.88163294542
 20
4913.811566327107
 30
0.0
 10
6472.902878981991
 20
4913.770370103371
 30
0.0
 10
6472.934482759194
 20
4913.714203567694
 30
0.0
 10
6472.944793589464
 20
4913.699454592719
 30
0.0
 10
6472.948044657982
 20
4913.699454592719
 30
0.0
  0
LINE
  5
86
330
1F
100
AcDbEntity
  8
0
  6
Continuous
 62
     7
370
    25
100
AcDbLine
 10
6075.0894660142
 20
4913.6994545927
 30
0.0
 11
6472.948044658
 21
4913.6994545927
 31
0.0
  0
LINE
  5
87
330
1F
100
AcDbEntity
  8
0
  6
Continuous
 62
     7
370
    25
100
AcDbLine
 10
6076.0187553361
 20
4915.6994545927
 30
0.0
 11
6472.0187553361
 21
4915.6994545927
 31
0.0
  0
LINE
  5
88
330
1F
100
AcDbEntity
  8
0
  6
Continuous
 62
     7
370
    25
100
AcDbLine
 10
6074.0187553361
 20
5512.6287439146
 30
0.0
 11
6074.0187553361
 21
4914.7701652708
 31
0.0
  0
SPLINE
  5
89
330
1F
100
AcDbEntity
  8
0
  6
Continuous
 62
     7
370
    25
100
AcDbSpline
210
0.0
220
0.0
230
1.0
 70
     8
 71
     3
 72
    20
 73
    16
 74
     0
 42
0.000000001
 43
0.00000001
 40
0.0
 40
0.0
 40
0.0
 40
0.0
 40
0.125
 40
0.125
 40
0.25
 40
0.25
 40
0.375
 40
0.375
 40
0.4375
 40
0.4375
 40
0.5
 40
0.5
 40
0.75
 40
0.75
 40
1.0
 40
1.0
 40
1.0
 40
1.0
 10
6074.0187553361
 20
5512.628743914601
 30
0.0
 10
6074.0187553361
 20
5512.598547521929
 30
0.0
 10
6074.050069136948
 20
5512.568888054621
 30
0.0
 10
6074.146440590382
 20
5512.510437339643
 30
0.0
 10
6074.211365789673
 20
5512.481680363822
 30
0.0
 10
6074.350632897491
 20
5512.425103175513
 30
0.0
 10
6074.424960241477
 20
5512.397282963027
 30
0.0
 10
6074.530620254714
 20
5512.356255216797
 30
0.0
 10
6074.564923804795
 20
5512.342696396803
 30
0.0
 10
6074.630170282012
 20
5512.315812947651
 30
0.0
 10
6074.660584633405
 20
5512.302732502668
 30
0.0
 10
6074.80663587008
 20
5512.23547391307
 30
0.0
 10
6074.968519552229
 20
5512.15941829456
 30
0.0
 10
6075.409378591215
 20
5511.962809563884
 30
0.0
 10
6075.689386458445
 20
5511.842772712782
 30
0.0
 10
6076.018755336101
 20
5511.699454592719
 30
0.0
  0
LINE
  5
8A
330
1F
100
AcDbEntity
  8
0
  6
Continuous
 62
     7
370
    25
100
AcDbLine
 10
6076.0187553361
 20
5511.6994545927
 30
0.0
 11
6076.0187553361
 21
4915.6994545927
 31
0.0
  0
LINE
  5
8B
330
1F
100
AcDbEntity
  8
0
  6
Continuous
 62
     7
370
    25
100
AcDbLine
 10
6472.0187553361
 20
5511.6994545927
 30
0.0
 11
6076.0187553361
 21
5511.6994545927
 31
0.0
  0
LINE
  5
8C
330
1F
100
AcDbEntity
  8
0
  6
Continuous
 62
     7
370
    25
100
AcDbLine
 10
6472.0187553361
 20
4915.6994545927
 30
0.0
 11
6472.0187553361
 21
5511.6994545927
 31
0.0
  0
CIRCLE
  5
8D
330
1F
100
AcDbEntity
  8
0
  6
Continuous
 62
     7
370
    25
100
AcDbCircle
 10
6099.0187553361
 20
5488.6994545927
 30
0.0
 40
2.750000000000909
  0
CIRCLE
  5
8E
330
1F
100
AcDbEntity
  8
0
  6
Continuous
 62
     7
370
    25
100
AcDbCircle
 10
6449.0187553361
 20
5488.6994545927
 30
0.0
 40
2.75
  0
CIRCLE
  5
8F
330
1F
100
AcDbEntity
  8
0
  6
Continuous
 62
     7
370
    25
100
AcDbCircle
 10
6099.0187553361
 20
4938.6994545927
 30
0.0
 40
2.750000000000909
  0
CIRCLE
  5
90
330
1F
100
AcDbEntity
  8
0
  6
Continuous
 62
     7
370
    25
100
AcDbCircle
 10
6449.0187553361
 20
4938.6994545927
 30
0.0
 40
2.75
  0
SPLINE
  5
91
330
1F
100
AcDbEntity
  8
0
  6
Continuous
 62
     7
370
    25
100
AcDbSpline
210
0.0
220
0.0
230
1.0
 70
     8
 71
     3
 72
    23
 73
    19
 74
     0
 42
0.000000001
 43
0.00000001
 40
0.0
 40
0.0
 40
0.0
 40
0.0
 40
0.0562798431678934
 40
0.109758974693505
 40
0.160446335599201
 40
0.2083525145652808
 40
0.2534901420802115
 40
0.2958744082170589
 40
0.3355237520328291
 40
0.3724607928181933
 40
0.4067136075034276
 40
0.4383175113355635
 40
0.4673175813192238
 40
0.493772290059975
 40
0.5830939450755848
 40
0.6971892443705716
 40
0.8361456436231285
 40
1.0
 40
1.0
 40
1.0
 40
1.0
 10
6075.0187553361
 20
5512.628743914601
 30
0.0
 10
6075.019710967224
 20
5512.618829227791
 30
0.0
 10
6075.021574673422
 20
5512.599493248915
 30
0.0
 10
6075.035928226524
 20
5512.569771485058
 30
0.0
 10
6075.056854891348
 20
5512.540436964327
 30
0.0
 10
6075.083624776125
 20
5512.51139996745
 30
0.0
 10
6075.114582799633
 20
5512.482683188116
 30
0.0
 10
6075.148439293201
 20
5512.454281220851
 30
0.0
 10
6075.183969485802
 20
5512.426196933837
 30
0.0
 10
6075.220092261917
 20
5512.398426478451
 30
0.0
 10
6075.255862302762
 20
5512.37098297128
 30
0.0
 10
6075.29043437955
 20
5512.343823411529
 30
0.0
 10
6075.32317560092
 20
5512.317087666041
 30
0.0
 10
6075.378008576557
 20
5512.268292674301
 30
0.0
 10
6075.467995456849
 20
5512.18319799144
 30
0.0
 10
6075.612959840775
 20
5512.052224551665
 30
0.0
 10
6075.800980480789
 20
5511.887705181876
 30
0.0
 10
6075.942290741182
 20
5511.765552696756
 30
0.0
 10
6076.018755336101
 20
5511.699454592719
 30
0.0
  0
LINE
  5
92
330
1F
100
AcDbEntity
  8
0
  6
Continuous
 62
     7
370
    25
100
AcDbLine
 10
6074.0187553361
 20
5512.6287439146
 30
0.0
 11
6075.0187553361
 21
5512.6287439146
 31
0.0
  0
SPLINE
  5
93
330
1F
100
AcDbEntity
  8
0
  6
Continuous
 62
     7
370
    25
100
AcDbSpline
210
0.0
220
0.0
230
1.0
 70
     8
 71
     3
 72
    18
 73
    14
 74
     0
 42
0.000000001
 43
0.00000001
 40
0.0
 40
0.0
 40
0.0
 40
0.0
 40
0.2500000000000172
 40
0.2500000000000172
 40
0.5000000000000344
 40
0.5000000000000344
 40
0.6250000000000258
 40
0.6250000000000258
 40
0.7500000000000172
 40
0.7500000000000172
 40
0.8750000000000085
 40
0.8750000000000085
 40
1.0
 40
1.0
 40
1.0
 40
1.0
 10
6076.018755336104
 20
5511.699454592718
 30
0.0
 10
6075.89546195513
 20
5511.948015472576
 30
0.0
 10
6075.782276490013
 20
5512.193438665807
 30
0.0
 10
6075.568603122064
 20
5512.669866858554
 30
0.0
 10
6075.473601939908
 20
5512.887871547099
 30
0.0
 10
6075.346976272954
 20
5513.174579912507
 30
0.0
 10
6075.308683249205
 20
5513.260427914159
 30
0.0
 10
6075.239500347464
 20
5513.412456770168
 30
0.0
 10
6075.208321353694
 20
5513.479283380321
 30
0.0
 10
6075.155877726783
 20
5513.58734285833
 30
0.0
 10
6075.134631690212
 20
5513.628539082068
 30
0.0
 10
6075.103027913008
 20
5513.684705617744
 30
0.0
 10
6075.092717082737
 20
5513.699454592719
 30
0.0
 10
6075.089466014218
 20
5513.699454592719
 30
0.0
  0
LINE
  5
94
330
1F
100
AcDbEntity
  8
0
  6
Continuous
 62
     7
370
    25
100
AcDbLine
 10
6472.948044658
 20
5513.6994545927
 30
0.0
 11
6075.0894660142
 21
5513.6994545927
 31
0.0
  0
SPLINE
  5
95
330
1F
100
AcDbEntity
  8
0
  6
Continuous
 62
     7
370
    25
100
AcDbSpline
210
0.0
220
0.0
230
1.0
 70
     8
 71
     3
 72
    22
 73
    18
 74
     0
 42
0.000000001
 43
0.00000001
 40
0.0
 40
0.0
 40
0.0
 40
0.0
 40
0.125
 40
0.125
 40
0.25
 40
0.25
 40
0.375
 40
0.375
 40
0.5
 40
0.5
 40
0.625
 40
0.625
 40
0.75
 40
0.75
 40
0.875
 40
0.875
 40
1.0
 40
1.0
 40
1.0
 40
1.0
 10
6472.948044657982
 20
5513.699454592719
 30
0.0
 10
6472.927846962451
 20
5513.69945459272
 30
0.0
 10
6472.907165315977
 20
5513.68552090427
 30
0.0
 10
6472.863519945271
 20
5513.631110192237
 30
0.0
 10
6472.840236576966
 20
5513.589920058079
 30
0.0
 10
6472.790673947825
 20
5513.483203281813
 30
0.0
 10
6472.764521571753
 20
5513.418058537318
 30
0.0
 10
6472.705430835916
 20
5513.265142421544
 30
0.0
 10
6472.672862488856
 20
5513.176745577861
 30
0.0
 10
6472.592317076264
 20
5512.988440427316
 30
0.0
 10
6472.543475844622
 20
5512.888011088874
 30
0.0
 10
6472.444030766185
 20
5512.671252116032
 30
0.0
 10
6472.392861399199
 20
5512.55795059196
 30
0.0
 10
6472.289214647842
 20
5512.322929867056
 30
0.0
 10
6472.235938861177
 20
5512.200131111519
 30
0.0
 10
6472.128213353192
 20
5511.951642411527
 30
0.0
 10
6472.073872983102
 20
5511.826124113111
 30
0.0
 10
6472.0187553361
 20
5511.699454592719
 30
0.0
  0
SPLINE
  5
96
330
1F
100
AcDbEntity
  8
0
  6
Continuous
 62
     7
370
    25
100
AcDbSpline
210
0.0
220
0.0
230
1.0
 70
     8
 71
     3
 72
    14
 73
    10
 74
     0
 42
0.000000001
 43
0.00000001
 40
0.0
 40
0.0
 40
0.0
 40
0.0
 40
0.25
 40
0.25
 40
0.5
 40
0.5
 40
0.75
 40
0.75
 40
1.0
 40
1.0
 40
1.0
 40
1.0
 10
6076.018755336104
 20
5511.699454592719
 30
0.0
 10
6075.908930157622
 20
5511.810159006769
 30
0.0
 10
6075.804421055176
 20
5511.922449111787
 30
0.0
 10
6075.602917471117
 20
5512.145883637871
 30
0.0
 10
6075.508588231835
 20
5512.253695859778
 30
0.0
 10
6075.33583049711
 20
5512.449868656242
 30
0.0
 10
6075.258620658206
 20
5512.536308003396
 30
0.0
 10
6075.138812706479
 20
5512.661908632696
 30
0.0
 10
6075.096805111434
 20
5512.699454592718
 30
0.0
 10
6075.089466014218
 20
5512.699454592718
 30
0.0
  0
LINE
  5
97
330
1F
100
AcDbEntity
  8
0
  6
Continuous
 62
     7
370
    25
100
AcDbLine
 10
6075.0894660142
 20
5513.6994545927
 30
0.0
 11
6075.0894660142
 21
5512.6994545927
 31
0.0
  0
SPLINE
  5
98
330
1F
100
AcDbEntity
  8
0
  6
Continuous
 62
     7
370
    25
100
AcDbSpline
210
0.0
220
0.0
230
1.0
 70
     8
 71
     3
 72
    22
 73
    18
 74
     0
 42
0.000000001
 43
0.00000001
 40
0.0
 40
0.0
 40
0.0
 40
0.0
 40
0.25
 40
0.25
 40
0.375
 40
0.375
 40
0.4375
 40
0.4375
 40
0.5
 40
0.5
 40
0.625
 40
0.625
 40
0.75
 40
0.75
 40
0.875
 40
0.875
 40
1.0
 40
1.0
 40
1.0
 40
1.0
 10
6472.018755336099
 20
5511.699454592719
 30
0.0
 10
6472.347662488842
 20
5511.843134407245
 30
0.0
 10
6472.627425963593
 20
5511.963488872069
 30
0.0
 10
6472.957996394527
 20
5512.111348638854
 30
0.0
 10
6473.053791210868
 20
5512.155061234144
 30
0.0
 10
6473.177798454987
 20
5512.212269136628
 30
0.0
 10
6473.215872596701
 20
5512.229944939046
 30
0.0
 10
6473.285973787715
 20
5512.262509547064
 30
0.0
 10
6473.318490714636
 20
5512.277623592111
 30
0.0
 10
6473.404821666033
 20
5512.317433795342
 30
0.0
 10
6473.471560067199
 20
5512.344377443932
 30
0.0
 10
6473.612629346353
 20
5512.399071767314
 30
0.0
 10
6473.687001760349
 20
5512.426822442108
 30
0.0
 10
6473.826285633702
 20
5512.483130817898
 30
0.0
 10
6473.891182241041
 20
5512.511688518896
 30
0.0
 10
6473.987483153044
 20
5512.569610947095
 30
0.0
 10
6474.0187553361
 20
5512.59894193672
 30
0.0
 10
6474.0187553361
 20
5512.628743914601
 30
0.0
  0
LINE
  5
99
330
1F
100
AcDbEntity
  8
0
  6
Continuous
 62
     7
370
    25
100
AcDbLine
 10
6474.0187553361
 20
5512.6287439146
 30
0.0
 11
6474.0187553361
 21
4914.7701652708
 31
0.0
  0
SPLINE
  5
9A
330
1F
100
AcDbEntity
  8
0
  6
Continuous
 62
     7
370
    25
100
AcDbSpline
210
0.0
220
0.0
230
1.0
 70
     8
 71
     3
 72
    14
 73
    10
 74
     0
 42
0.000000001
 43
0.00000001
 40
0.0
 40
0.0
 40
0.0
 40
0.0
 40
0.25
 40
0.25
 40
0.5
 40
0.5
 40
0.75
 40
0.75
 40
1.0
 40
1.0
 40
1.0
 40
1.0
 10
6474.0187553361
 20
4914.770165270837
 30
0.0
 10
6474.0187553361
 20
4914.775343155779
 30
0.0
 10
6473.981461824576
 20
4914.798595008382
 30
0.0
 10
6473.81667867589
 20
4914.8812183814
 30
0.0
 10
6473.688904713461
 20
4914.940594613066
 30
0.0
 10
6473.341529109372
 20
4915.095476166713
 30
0.0
 10
6473.121691716186
 20
4915.190981488694
 30
0.0
 10
6472.611226685998
 20
4915.418121222971
 30
0.0
 10
6472.320891825659
 20
4915.549586160748
 30
0.0
 10
6472.018755336098
 20
4915.69945459272
 30
0.0
  0
SPLINE
  5
9B
330
1F
100
AcDbEntity
  8
0
  6
Continuous
 62
     7
370
    25
100
AcDbSpline
210
0.0
220
0.0
230
1.0
 70
     8
 71
     3
 72
    14
 73
    10
 74
     0
 42
0.000000001
 43
0.00000001
 40
0.0
 40
0.0
 40
0.0
 40
0.0
 40
0.25
 40
0.25
 40
0.5
 40
0.5
 40
0.75
 40
0.75
 40
1.0
 40
1.0
 40
1.0
 40
1.0
 10
6472.018755336099
 20
4915.699454592719
 30
0.0
 10
6472.128580514582
 20
4915.588750178669
 30
0.0
 10
6472.233089617027
 20
4915.476460073651
 30
0.0
 10
6472.434593201087
 20
4915.253025547568
 30
0.0
 10
6472.528922440369
 20
4915.145213325662
 30
0.0
 10
6472.701680175093
 20
4914.949040529197
 30
0.0
 10
6472.778890013998
 20
4914.862601182042
 30
0.0
 10
6472.898697965723
 20
4914.737000552742
 30
0.0
 10
6472.940705560768
 20
4914.699454592719
 30
0.0
 10
6472.948044657982
 20
4914.699454592719
 30
0.0
  0
LINE
  5
9C
330
1F
100
AcDbEntity
  8
0
  6
Continuous
 62
     7
370
    25
100
AcDbLine
 10
6472.948044658
 20
4913.6994545927
 30
0.0
 11
6472.948044658
 21
4914.6994545927
 31
0.0
  0
SPLINE
  5
9D
330
1F
100
AcDbEntity
  8
0
  6
Continuous
 62
     7
370
    25
100
AcDbSpline
210
0.0
220
0.0
230
1.0
 70
     8
 71
     3
 72
    23
 73
    19
 74
     0
 42
0.000000001
 43
0.00000001
 40
0.0
 40
0.0
 40
0.0
 40
0.0
 40
0.0453307574904217
 40
0.0921112965230898
 40
0.1405927780674085
 40
0.1910009411589668
 40
0.2435366914214966
 40
0.2983775535286114
 40
0.3556796290403307
 40
0.4155797776304957
 40
0.478197823117739
 40
0.5436386585639967
 40
0.6119941805881943
 40
0.6833450220391135
 40
0.7577620772324909
 40
0.8353078287211116
 40
0.9160374922814816
 40
0.9999999999999999
 40
0.9999999999999999
 40
0.9999999999999999
 40
0.9999999999999999
 10
6473.0187553361
 20
4914.770165270837
 30
0.0
 10
6473.01806716811
 20
4914.772141999376
 30
0.0
 10
6473.01666882294
 20
4914.776158676761
 30
0.0
 10
6473.00526409904
 20
4914.790758730333
 30
0.0
 10
6472.986603456085
 20
4914.811627735387
 30
0.0
 10
6472.959662172031
 20
4914.839426543768
 30
0.0
 10
6472.924379357544
 20
4914.873958903326
 30
0.0
 10
6472.880525460074
 20
4914.91527375173
 30
0.0
 10
6472.828039368163
 20
4914.963352403226
 30
0.0
 10
6472.766948565485
 20
4915.018197242624
 30
0.0
 10
6472.697407589417
 20
4915.079805921683
 30
0.0
 10
6472.619702170344
 20
4915.148178653439
 30
0.0
 10
6472.534260296414
 20
4915.223314653217
 30
0.0
 10
6472.441665114945
 20
4915.305217552797
 30
0.0
 10
6472.342641705896
 20
4915.393875246253
 30
0.0
 10
6472.238139929676
 20
4915.48933878452
 30
0.0
 10
6472.12902209657
 20
4915.591409026551
 30
0.0
 10
6472.055988794824
 20
4915.662971158264
 30
0.0
 10
6472.018755336099
 20
4915.69945459272
 30
0.0
  0
LINE
  5
9E
330
1F
100
AcDbEntity
  8
0
  6
Continuous
 62
     7
370
    25
100
AcDbLine
 10
6474.0187553361
 20
4914.7701652708
 30
0.0
 11
6473.0187553361
 21
4914.7701652708
 31
0.0
  0
SPLINE
  5
9F
330
1F
100
AcDbEntity
  8
0
  6
Continuous
 62
     7
370
    25
100
AcDbSpline
210
0.0
220
0.0
230
1.0
 70
     8
 71
     3
 72
    16
 73
    12
 74
     0
 42
0.000000001
 43
0.00000001
 40
0.0
 40
0.0
 40
0.0
 40
0.0
 40
0.250000000000028
 40
0.250000000000028
 40
0.375000000000042
 40
0.375000000000042
 40
0.500000000000056
 40
0.500000000000056
 40
0.750000000000028
 40
0.750000000000028
 40
1.0
 40
1.0
 40
1.0
 40
1.0
 10
6472.948044657982
 20
5512.699454592719
 30
0.0
 10
6472.903952044396
 20
5512.699454592719
 30
0.0
 10
6472.857264483885
 20
5512.665655799708
 30
0.0
 10
6472.775760138536
 20
5512.573425330531
 30
0.0
 10
6472.74696303875
 20
5512.536195419681
 30
0.0
 10
6472.681434454512
 20
5512.450849942295
 30
0.0
 10
6472.644782779586
 20
5512.403160926821
 30
0.0
 10
6472.513309817637
 20
5512.260676398114
 30
0.0
 10
6472.415357911061
 20
5512.154670216693
 30
0.0
 10
6472.221016926778
 20
5511.933285644712
 30
0.0
 10
6472.120407738626
 20
5511.816261657017
 30
0.0
 10
6472.0187553361
 20
5511.699454592719
 30
0.0
  0
LINE
  5
A0
330
1F
100
AcDbEntity
  8
0
  6
Continuous
 62
     7
370
    25
100
AcDbLine
 10
6472.948044658
 20
5513.6994545927
 30
0.0
 11
6472.948044658
 21
5512.6994545927
 31
0.0
  0
SPLINE
  5
A1
330
1F
100
AcDbEntity
  8
0
  6
Continuous
 62
     7
370
    25
100
AcDbSpline
210
0.0
220
0.0
230
1.0
 70
     8
 71
     3
 72
    22
 73
    18
 74
     0
 42
0.000000001
 43
0.00000001
 40
0.0
 40
0.0
 40
0.0
 40
0.0
 40
0.068624269659889
 40
0.1332561347595563
 40
0.193897672052356
 40
0.2505514585909427
 40
0.3032207190637987
 40
0.3519095330704359
 40
0.3966231340308374
 40
0.4373683527362657
 40
0.4741542978409292
 40
0.5069934417540352
 40
0.5748762091436954
 40
0.6577244467982256
 40
0.7560272268053895
 40
0.870063739017128
 40
1.0
 40
1.0
 40
1.0
 40
1.0
 10
6472.018755336099
 20
5511.699454592719
 30
0.0
 10
6472.050640211893
 20
5511.727233649221
 30
0.0
 10
6472.11255497363
 20
5511.78117563964
 30
0.0
 10
6472.202376330621
 20
5511.859041946417
 30
0.0
 10
6472.285688608552
 20
5511.931589752377
 30
0.0
 10
6472.362213220496
 20
5511.998782805014
 30
0.0
 10
6472.431827846812
 20
5512.060629417524
 30
0.0
 10
6472.494577141751
 20
5512.117133657418
 30
0.0
 10
6472.550641385602
 20
5512.168280488224
 30
0.0
 10
6472.600261237084
 20
5512.21412761091
 30
0.0
 10
6472.643861282647
 20
5512.254498699781
 30
0.0
 10
6472.696439609717
 20
5512.303996999738
 30
0.0
 10
6472.766140189948
 20
5512.361695818515
 30
0.0
 10
6472.85293257895
 20
5512.426715580745
 30
0.0
 10
6472.936192721516
 20
5512.493694400308
 30
0.0
 10
6473.00403108371
 20
5512.562565331551
 30
0.0
 10
6473.013638545313
 20
5512.605746348742
 30
0.0
 10
6473.0187553361
 20
5512.628743914601
 30
0.0
  0
LINE
  5
A2
330
1F
100
AcDbEntity
  8
0
  6
Continuous
 62
     7
370
    25
100
AcDbLine
 10
6474.0187553361
 20
5512.6287439146
 30
0.0
 11
6473.0187553361
 21
5512.6287439146
 31
0.0
  0
LINE
  5
A3
330
1F
100
AcDbEntity
  8
0
  6
Continuous
 62
     7
370
    25
100
AcDbLine
 10
6720.5342031258
 20
4914.7701652708
 30
0.0
 11
6715.5342031258
 21
4914.7701652708
 31
0.0
  0
LINE
  5
A4
330
1F
100
AcDbEntity
  8
0
  6
Continuous
 62
     7
370
    25
100
AcDbLine
 10
6715.5342031258
 20
4914.7701652708
 30
0.0
 11
6715.5342031258
 21
5512.6287439146
 31
0.0
  0
LINE
  5
A5
330
1F
100
AcDbEntity
  8
0
  6
Continuous
 62
     7
370
    25
100
AcDbLine
 10
6720.5342031258
 20
5512.6287439146
 30
0.0
 11
6720.5342031258
 21
4914.7701652708
 31
0.0
  0
LINE
  5
A6
330
1F
100
AcDbEntity
  8
0
  6
Continuous
 62
     7
370
    25
100
AcDbLine
 10
6720.5342031258
 20
5512.6287439146
 30
0.0
 11
6715.5342031258
 21
5512.6287439146
 31
0.0
  0
SPLINE
  5
A7
330
1F
100
AcDbEntity
  8
0
  6
Continuous
 62
     7
370
    25
100
AcDbSpline
210
0.0
220
0.0
230
1.0
 70
     8
 71
     3
 72
    18
 73
    14
 74
     0
 42
0.000000001
 43
0.00000001
 40
0.0
 40
0.0
 40
0.0
 40
0.0
 40
0.2499999999999915
 40
0.2499999999999915
 40
0.4999999999999829
 40
0.4999999999999829
 40
0.6249999999999871
 40
0.6249999999999871
 40
0.7499999999999915
 40
0.7499999999999915
 40
0.8749999999999957
 40
0.8749999999999957
 40
1.0
 40
1.0
 40
1.0
 40
1.0
 10
6722.534203125766
 20
4915.699454592719
 30
0.0
 10
6722.534203125766
 20
4915.576161211745
 30
0.0
 10
6722.489070999265
 20
4915.462975746628
 30
0.0
 10
6722.301638754473
 20
4915.249302378678
 30
0.0
 10
6722.164343985464
 20
4915.154301196523
 30
0.0
 10
6721.891195686871
 20
4915.027675529569
 30
0.0
 10
6721.791529006684
 20
4914.98938250582
 30
0.0
 10
6721.57493826072
 20
4914.920199604079
 30
0.0
 10
6721.456451227056
 20
4914.88902061031
 30
0.0
 10
6721.208154140363
 20
4914.836576983398
 30
0.0
 10
6721.079405226794
 20
4914.815330946828
 30
0.0
 10
6720.812394904308
 20
4914.783727169625
 30
0.0
 10
6720.673341852273
 20
4914.773416339355
 30
0.0
 10
6720.534203125765
 20
4914.770165270837
 30
0.0
  0
SPLINE
  5
A8
330
1F
100
AcDbEntity
  8
0
  6
Continuous
 62
     7
370
    25
100
AcDbSpline
210
0.0
220
0.0
230
1.0
 70
     8
 71
     3
 72
    20
 73
    16
 74
     0
 42
0.000000001
 43
0.00000001
 40
0.0
 40
0.0
 40
0.0
 40
0.0
 40
0.125
 40
0.125
 40
0.25
 40
0.25
 40
0.375
 40
0.375
 40
0.4375
 40
0.4375
 40
0.5
 40
0.5
 40
0.75
 40
0.75
 40
1.0
 40
1.0
 40
1.0
 40
1.0
 10
6720.53420312576
 20
5512.628743914601
 30
0.0
 10
6720.739012594343
 20
5512.598547521929
 30
0.0
 10
6720.926724334447
 20
5512.568888054621
 30
0.0
 10
6721.258244383542
 20
5512.510437339643
 30
0.0
 10
6721.402033787029
 20
5512.481680363822
 30
0.0
 10
6721.646477623796
 20
5512.425103175513
 30
0.0
 10
6721.747312885737
 20
5512.397282963027
 30
0.0
 10
6721.871517039135
 20
5512.356255216797
 30
0.0
 10
6721.908438822138
 20
5512.342696396803
 30
0.0
 10
6721.974335556537
 20
5512.315812947651
 30
0.0
 10
6722.002842008434
 20
5512.302732502668
 30
0.0
 10
6722.132706052126
 20
5512.23547391307
 30
0.0
 10
6722.253417372177
 20
5512.15941829456
 30
0.0
 10
6722.454451237229
 20
5511.962809563884
 30
0.0
 10
6722.534203125766
 20
5511.842772712782
 30
0.0
 10
6722.534203125766
 20
5511.699454592719
 30
0.0
  0
LINE
  5
A9
330
1F
100
AcDbEntity
  8
0
  6
Continuous
 62
     7
370
    25
100
AcDbLine
 10
6722.5342031258
 20
5511.6994545927
 30
0.0
 11
6722.5342031258
 21
4915.6994545927
 31
0.0
  0
SPLINE
  5
AA
330
1F
100
AcDbEntity
  8
0
  6
Continuous
 62
     7
370
    25
100
AcDbSpline
210
0.0
220
0.0
230
1.0
 70
     8
 71
     3
 72
    10
 73
     6
 74
     0
 42
0.000000001
 43
0.00000001
 40
0.0
 40
0.0
 40
0.0
 40
0.0
 40
0.1072882072272
 40
0.6292263681786396
 40
0.9999999999999999
 40
0.9999999999999999
 40
0.9999999999999999
 40
0.9999999999999999
 10
6721.05061552938
 20
5512.547217804793
 30
0.0
 10
6721.036760903928
 20
5512.558449345626
 30
0.0
 10
6720.955505974976
 20
5512.624320347012
 30
0.0
 10
6720.772336549046
 20
5512.682122553476
 30
0.0
 10
6720.604084101429
 20
5512.69436845321
 30
0.0
 10
6720.534203125765
 20
5512.699454592718
 30
0.0
  0
LINE
  5
AB
330
1F
100
AcDbEntity
  8
0
  6
Continuous
 62
     7
370
    25
100
AcDbLine
 10
6720.5342031258
 20
5513.6994545927
 30
0.0
 11
6720.5342031258
 21
5512.6994545927
 31
0.0
  0
SPLINE
  5
AC
330
1F
100
AcDbEntity
  8
0
  6
Continuous
 62
     7
370
    25
100
AcDbSpline
210
0.0
220
0.0
230
1.0
 70
     8
 71
     3
 72
    18
 73
    14
 74
     0
 42
0.000000001
 43
0.00000001
 40
0.0
 40
0.0
 40
0.0
 40
0.0
 40
0.2500000000000172
 40
0.2500000000000172
 40
0.5000000000000344
 40
0.5000000000000344
 40
0.6250000000000258
 40
0.6250000000000258
 40
0.7500000000000172
 40
0.7500000000000172
 40
0.8750000000000085
 40
0.8750000000000085
 40
1.0
 40
1.0
 40
1.0
 40
1.0
 10
6722.534203125765
 20
5511.699454592718
 30
0.0
 10
6722.534203125766
 20
5511.948015472576
 30
0.0
 10
6722.489070999265
 20
5512.193438665807
 30
0.0
 10
6722.301638754472
 20
5512.669866858554
 30
0.0
 10
6722.164343985464
 20
5512.887871547099
 30
0.0
 10
6721.891195686871
 20
5513.174579912507
 30
0.0
 10
6721.791529006683
 20
5513.260427914159
 30
0.0
 10
6721.574938260719
 20
5513.412456770168
 30
0.0
 10
6721.456451227056
 20
5513.479283380321
 30
0.0
 10
6721.208154140363
 20
5513.58734285833
 30
0.0
 10
6721.079405226794
 20
5513.628539082068
 30
0.0
 10
6720.812394904308
 20
5513.684705617744
 30
0.0
 10
6720.673341852273
 20
5513.699454592719
 30
0.0
 10
6720.534203125765
 20
5513.699454592719
 30
0.0
  0
LINE
  5
AD
330
1F
100
AcDbEntity
  8
0
  6
Continuous
 62
     7
370
    25
100
AcDbLine
 10
6715.5342031258
 20
5513.6994545927
 30
0.0
 11
6715.5342031258
 21
5512.6994545927
 31
0.0
  0
LINE
  5
AE
330
1F
100
AcDbEntity
  8
0
  6
Continuous
 62
     7
370
    25
100
AcDbLine
 10
6720.5342031258
 20
5513.6994545927
 30
0.0
 11
6715.5342031258
 21
5513.6994545927
 31
0.0
  0
LINE
  5
AF
330
1F
100
AcDbEntity
  8
0
  6
Continuous
 62
     7
370
    25
100
AcDbLine
 10
6720.5342031258
 20
5512.6994545927
 30
0.0
 11
6715.5342031258
 21
5512.6994545927
 31
0.0
  0
LINE
  5
B0
330
1F
100
AcDbEntity
  8
0
  6
Continuous
 62
     7
370
    25
100
AcDbLine
 10
6720.5342031258
 20
4913.6994545927
 30
0.0
 11
6720.5342031258
 21
4914.6994545927
 31
0.0
  0
LINE
  5
B1
330
1F
100
AcDbEntity
  8
0
  6
Continuous
 62
     7
370
    25
100
AcDbLine
 10
6715.5342031258
 20
4913.6994545927
 30
0.0
 11
6715.5342031258
 21
4914.6994545927
 31
0.0
  0
LINE
  5
B2
330
1F
100
AcDbEntity
  8
0
  6
Continuous
 62
     7
370
    25
100
AcDbLine
 10
6720.5342031258
 20
4914.6994545927
 30
0.0
 11
6715.5342031258
 21
4914.6994545927
 31
0.0
  0
LINE
  5
B3
330
1F
100
AcDbEntity
  8
0
  6
Continuous
 62
     7
370
    25
100
AcDbLine
 10
6720.5342031258
 20
4913.6994545927
 30
0.0
 11
6715.5342031258
 21
4913.6994545927
 31
0.0
  0
SPLINE
  5
B4
330
1F
100
AcDbEntity
  8
0
  6
Continuous
 62
     7
370
    25
100
AcDbSpline
210
0.0
220
0.0
230
1.0
 70
     8
 71
     3
 72
     9
 73
     5
 74
     0
 42
0.000000001
 43
0.00000001
 40
0.0
 40
0.0
 40
0.0
 40
0.0
 40
0.5794167751434341
 40
1.0
 40
1.0
 40
1.0
 40
1.0
 10
6720.534203125765
 20
4914.699454592719
 30
0.0
 10
6720.629527869699
 20
4914.706098071876
 30
0.0
 10
6720.794046309658
 20
4914.71756387584
 30
0.0
 10
6720.938209876344
 20
4914.788064297819
 30
0.0
 10
6720.998842654128
 20
4914.81771559265
 30
0.0
  0
SPLINE
  5
B5
330
1F
100
AcDbEntity
  8
0
  6
Continuous
 62
     7
370
    25
100
AcDbSpline
210
0.0
220
0.0
230
1.0
 70
     8
 71
     3
 72
    20
 73
    16
 74
     0
 42
0.000000001
 43
0.00000001
 40
0.0
 40
0.0
 40
0.0
 40
0.0
 40
0.125
 40
0.125
 40
0.25
 40
0.25
 40
0.375
 40
0.375
 40
0.4375
 40
0.4375
 40
0.5
 40
0.5
 40
0.75
 40
0.75
 40
1.0
 40
1.0
 40
1.0
 40
1.0
 10
6720.534203125765
 20
4913.699454592719
 30
0.0
 10
6720.739012594156
 20
4913.699454592719
 30
0.0
 10
6720.926724334118
 20
4913.73076839351
 30
0.0
 10
6721.258244383049
 20
4913.827139846819
 30
0.0
 10
6721.40203378651
 20
4913.892065046043
 30
0.0
 10
6721.646477623319
 20
4914.031332153791
 30
0.0
 10
6721.747312885323
 20
4914.105659497773
 30
0.0
 10
6721.871517038853
 20
4914.211319511077
 30
0.0
 10
6721.908438821906
 20
4914.245623061193
 30
0.0
 10
6721.974335556415
 20
4914.310869538502
 30
0.0
 10
6722.002842008577
 20
4914.341283890186
 30
0.0
 10
6722.132706051566
 20
4914.487335126069
 30
0.0
 10
6722.253417371512
 20
4914.649218807759
 30
0.0
 10
6722.454451236843
 20
4915.090077846618
 30
0.0
 10
6722.534203125766
 20
4915.370085714206
 30
0.0
 10
6722.534203125766
 20
4915.69945459272
 30
0.0
  0
SPLINE
  5
B6
330
1F
100
AcDbEntity
  8
0
  6
Continuous
 62
     7
370
    25
100
AcDbSpline
210
0.0
220
0.0
230
1.0
 70
     8
 71
     3
 72
    18
 73
    14
 74
     0
 42
0.000000001
 43
0.00000001
 40
0.0
 40
0.0
 40
0.0
 40
0.0
 40
0.2500000000000172
 40
0.2500000000000172
 40
0.5000000000000344
 40
0.5000000000000344
 40
0.6250000000000258
 40
0.6250000000000258
 40
0.7500000000000172
 40
0.7500000000000172
 40
0.8750000000000085
 40
0.8750000000000085
 40
1.0
 40
1.0
 40
1.0
 40
1.0
 10
6076.018755336104
 20
4668.140654509655
 30
0.0
 10
6075.89546195513
 20
4668.140654509654
 30
0.0
 10
6075.782276490013
 20
4668.185786636154
 30
0.0
 10
6075.568603122064
 20
4668.373218880948
 30
0.0
 10
6075.473601939908
 20
4668.510513649956
 30
0.0
 10
6075.346976272954
 20
4668.783661948549
 30
0.0
 10
6075.308683249205
 20
4668.883328628737
 30
0.0
 10
6075.239500347464
 20
4669.099919374701
 30
0.0
 10
6075.208321353694
 20
4669.218406408364
 30
0.0
 10
6075.155877726783
 20
4669.466703495057
 30
0.0
 10
6075.134631690212
 20
4669.595452408626
 30
0.0
 10
6075.103027913008
 20
4669.862462731112
 30
0.0
 10
6075.092717082737
 20
4670.001515783148
 30
0.0
 10
6075.089466014218
 20
4670.140654509655
 30
0.0
  0
LINE
  5
B7
330
1F
100
AcDbEntity
  8
0
  6
Continuous
 62
     7
370
    25
100
AcDbLine
 10
6472.948044658
 20
4670.1406545097
 30
0.0
 11
6075.0894660142
 21
4670.1406545097
 31
0.0
  0
SPLINE
  5
B8
330
1F
100
AcDbEntity
  8
0
  6
Continuous
 62
     7
370
    25
100
AcDbSpline
210
0.0
220
0.0
230
1.0
 70
     8
 71
     3
 72
    22
 73
    18
 74
     0
 42
0.000000001
 43
0.00000001
 40
0.0
 40
0.0
 40
0.0
 40
0.0
 40
0.125
 40
0.125
 40
0.25
 40
0.25
 40
0.375
 40
0.375
 40
0.5
 40
0.5
 40
0.625
 40
0.625
 40
0.75
 40
0.75
 40
0.875
 40
0.875
 40
1.0
 40
1.0
 40
1.0
 40
1.0
 10
6472.948044657982
 20
4670.140654509655
 30
0.0
 10
6472.927846962451
 20
4670.003662010807
 30
0.0
 10
6472.907165315977
 20
4669.869142937636
 30
0.0
 10
6472.863519945271
 20
4669.6050384415
 30
0.0
 10
6472.840236576966
 20
4669.474050593477
 30
0.0
 10
6472.790673947825
 20
4669.2260720525
 30
0.0
 10
6472.764521571753
 20
4669.108985309867
 30
0.0
 10
6472.705430835916
 20
4668.889030572981
 30
0.0
 10
6472.672862488856
 20
4668.786179605666
 30
0.0
 10
6472.592317076264
 20
4668.605888586615
 30
0.0
 10
6472.543475844622
 20
4668.526988843991
 30
0.0
 10
6472.444030766185
 20
4668.387887269323
 30
0.0
 10
6472.392861399199
 20
4668.329856252841
 30
0.0
 10
6472.289214647842
 20
4668.236111443752
 30
0.0
 10
6472.235938861177
 20
4668.200209557092
 30
0.0
 10
6472.128213353192
 20
4668.152588893421
 30
0.0
 10
6472.073872983102
 20
4668.140654509655
 30
0.0
 10
6472.0187553361
 20
4668.140654509655
 30
0.0
  0
LINE
  5
B9
330
1F
100
AcDbEntity
  8
0
  6
Continuous
 62
     7
370
    25
100
AcDbLine
 10
6472.0187553361
 20
4668.1406545097
 30
0.0
 11
6076.0187553361
 21
4668.1406545097
 31
0.0
  0
LINE
  5
BA
330
1F
100
AcDbEntity
  8
0
  6
Continuous
 62
     7
370
    25
100
AcDbLine
 10
6075.0894660142
 20
4670.1406545097
 30
0.0
 11
6075.0894660142
 21
4675.1406545097
 31
0.0
  0
LINE
  5
BB
330
1F
100
AcDbEntity
  8
0
  6
Continuous
 62
     7
370
    25
100
AcDbLine
 10
6075.0894660142
 20
4675.1406545097
 30
0.0
 11
6472.948044658
 21
4675.1406545097
 31
0.0
  0
LINE
  5
BC
330
1F
100
AcDbEntity
  8
0
  6
Continuous
 62
     7
370
    25
100
AcDbLine
 10
6472.948044658
 20
4670.1406545097
 30
0.0
 11
6472.948044658
 21
4675.1406545097
 31
0.0
  0
SPLINE
  5
BD
330
1F
100
AcDbEntity
  8
0
  6
Continuous
 62
     7
370
    25
100
AcDbSpline
210
0.0
220
0.0
230
1.0
 70
     8
 71
     3
 72
    10
 73
     6
 74
     0
 42
0.000000001
 43
0.00000001
 40
0.0
 40
0.0
 40
0.0
 40
0.0
 40
0.0768811413934287
 40
0.4997497093594574
 40
1.0
 40
1.0
 40
1.0
 40
1.0
 10
6472.862194282963
 20
4669.614269712954
 30
0.0
 10
6472.870880345483
 20
4669.624564031902
 30
0.0
 10
6472.927342270233
 20
4669.691480089719
 30
0.0
 10
6472.993570494245
 20
4669.87541040104
 30
0.0
 10
6473.00990399598
 20
4670.047433125382
 30
0.0
 10
6473.0187553361
 20
4670.140654509656
 30
0.0
  0
LINE
  5
BE
330
1F
100
AcDbEntity
  8
0
  6
Continuous
 62
     7
370
    25
100
AcDbLine
 10
6474.0187553361
 20
4670.1406545097
 30
0.0
 11
6473.0187553361
 21
4670.1406545097
 31
0.0
  0
SPLINE
  5
BF
330
1F
100
AcDbEntity
  8
0
  6
Continuous
 62
     7
370
    25
100
AcDbSpline
210
0.0
220
0.0
230
1.0
 70
     8
 71
     3
 72
    22
 73
    18
 74
     0
 42
0.000000001
 43
0.00000001
 40
0.0
 40
0.0
 40
0.0
 40
0.0
 40
0.25
 40
0.25
 40
0.375
 40
0.375
 40
0.4375
 40
0.4375
 40
0.5
 40
0.5
 40
0.625
 40
0.625
 40
0.75
 40
0.75
 40
0.875
 40
0.875
 40
1.0
 40
1.0
 40
1.0
 40
1.0
 10
6472.018755336099
 20
4668.140654509655
 30
0.0
 10
6472.347662488842
 20
4668.140654509654
 30
0.0
 10
6472.627425963593
 20
4668.220195062378
 30
0.0
 10
6472.957996394527
 20
4668.370771084252
 30
0.0
 10
6473.053791210868
 20
4668.426408523601
 30
0.0
 10
6473.177798454987
 20
4668.509978671466
 30
0.0
 10
6473.215872596701
 20
4668.537878673736
 30
0.0
 10
6473.285973787715
 20
4668.592708285872
 30
0.0
 10
6473.318490714636
 20
4668.620072386248
 30
0.0
 10
6473.404821666033
 20
4668.696788753435
 30
0.0
 10
6473.471560067199
 20
4668.761811536873
 30
0.0
 10
6473.612629346353
 20
4668.927635478587
 30
0.0
 10
6473.687001760349
 20
4669.0285596597
 30
0.0
 10
6473.826285633702
 20
4669.273108942805
 30
0.0
 10
6473.891182241041
 20
4669.416913983172
 30
0.0
 10
6473.987483153044
 20
4669.748361702162
 30
0.0
 10
6474.0187553361
 20
4669.93598489836
 30
0.0
 10
6474.0187553361
 20
4670.140654509656
 30
0.0
  0
LINE
  5
C0
330
1F
100
AcDbEntity
  8
0
  6
Continuous
 62
     7
370
    25
100
AcDbLine
 10
6474.0187553361
 20
4675.1406545097
 30
0.0
 11
6473.0187553361
 21
4675.1406545097
 31
0.0
  0
LINE
  5
C1
330
1F
100
AcDbEntity
  8
0
  6
Continuous
 62
     7
370
    25
100
AcDbLine
 10
6473.0187553361
 20
4670.1406545097
 30
0.0
 11
6473.0187553361
 21
4675.1406545097
 31
0.0
  0
LINE
  5
C2
330
1F
100
AcDbEntity
  8
0
  6
Continuous
 62
     7
370
    25
100
AcDbLine
 10
6474.0187553361
 20
4670.1406545097
 30
0.0
 11
6474.0187553361
 21
4675.1406545097
 31
0.0
  0
LINE
  5
C3
330
1F
100
AcDbEntity
  8
0
  6
Continuous
 62
     7
370
    25
100
AcDbLine
 10
6074.0187553361
 20
4670.1406545097
 30
0.0
 11
6075.0187553361
 21
4670.1406545097
 31
0.0
  0
LINE
  5
C4
330
1F
100
AcDbEntity
  8
0
  6
Continuous
 62
     7
370
    25
100
AcDbLine
 10
6074.0187553361
 20
4675.1406545097
 30
0.0
 11
6075.0187553361
 21
4675.1406545097
 31
0.0
  0
LINE
  5
C5
330
1F
100
AcDbEntity
  8
0
  6
Continuous
 62
     7
370
    25
100
AcDbLine
 10
6075.0187553361
 20
4670.1406545097
 30
0.0
 11
6075.0187553361
 21
4675.1406545097
 31
0.0
  0
LINE
  5
C6
330
1F
100
AcDbEntity
  8
0
  6
Continuous
 62
     7
370
    25
100
AcDbLine
 10
6074.0187553361
 20
4670.1406545097
 30
0.0
 11
6074.0187553361
 21
4675.1406545097
 31
0.0
  0
SPLINE
  5
C7
330
1F
100
AcDbEntity
  8
0
  6
Continuous
 62
     7
370
    25
100
AcDbSpline
210
0.0
220
0.0
230
1.0
 70
     8
 71
     3
 72
     9
 73
     5
 74
     0
 42
0.000000001
 43
0.00000001
 40
0.0
 40
0.0
 40
0.0
 40
0.0
 40
0.5796481851572552
 40
1.0
 40
1.0
 40
1.0
 40
1.0
 10
6075.0187553361
 20
4670.140654509658
 30
0.0
 10
6075.025396176759
 20
4670.045328855906
 30
0.0
 10
6075.036852851391
 20
4669.880874526203
 30
0.0
 10
6075.107320576024
 20
4669.736766943637
 30
0.0
 10
6075.136941811959
 20
4669.676191059772
 30
0.0
  0
SPLINE
  5
C8
330
1F
100
AcDbEntity
  8
0
  6
Continuous
 62
     7
370
    25
100
AcDbSpline
210
0.0
220
0.0
230
1.0
 70
     8
 71
     3
 72
    20
 73
    16
 74
     0
 42
0.000000001
 43
0.00000001
 40
0.0
 40
0.0
 40
0.0
 40
0.0
 40
0.125
 40
0.125
 40
0.25
 40
0.25
 40
0.375
 40
0.375
 40
0.4375
 40
0.4375
 40
0.5
 40
0.5
 40
0.75
 40
0.75
 40
1.0
 40
1.0
 40
1.0
 40
1.0
 10
6074.0187553361
 20
4670.140654509661
 30
0.0
 10
6074.0187553361
 20
4669.935845041076
 30
0.0
 10
6074.050069136948
 20
4669.748133300973
 30
0.0
 10
6074.146440590382
 20
4669.416613251879
 30
0.0
 10
6074.211365789673
 20
4669.272823848391
 30
0.0
 10
6074.350632897491
 20
4669.028380011624
 30
0.0
 10
6074.424960241477
 20
4668.927544749683
 30
0.0
 10
6074.530620254714
 20
4668.803340596285
 30
0.0
 10
6074.564923804795
 20
4668.766418813282
 30
0.0
 10
6074.630170282012
 20
4668.700522078883
 30
0.0
 10
6074.660584633405
 20
4668.672015626987
 30
0.0
 10
6074.80663587008
 20
4668.542151583294
 30
0.0
 10
6074.968519552229
 20
4668.421440263243
 30
0.0
 10
6075.409378591215
 20
4668.220406398191
 30
0.0
 10
6075.689386458445
 20
4668.140654509654
 30
0.0
 10
6076.018755336101
 20
4668.140654509654
 30
0.0
  0
ENDSEC
  0
SECTION
  2
OBJECTS
  0
DICTIONARY
  5
C
330
0
100
AcDbDictionary
281
     1
  3
ACAD_GROUP
350
D
  3
ACAD_LAYOUT
350
1A
  3
ACAD_MLINESTYLE
350
17
  3
ACAD_PLOTSETTINGS
350
19
  3
ACAD_PLOTSTYLENAME
350
E
  3
ACAD_SCALELIST
350
47
  0
DICTIONARY
  5
D
102
{ACAD_REACTORS
330
C
102
}
330
C
100
AcDbDictionary
281
     1
  0
DICTIONARY
  5
1A
102
{ACAD_REACTORS
330
C
102
}
330
C
100
AcDbDictionary
281
     1
  3
Layout1
350
1E
  3
Layout2
350
26
  3
Model
350
22
  0
DICTIONARY
  5
17
102
{ACAD_REACTORS
330
C
102
}
330
C
100
AcDbDictionary
281
     1
  3
Standard
350
18
  0
DICTIONARY
  5
19
102
{ACAD_REACTORS
330
C
102
}
330
C
100
AcDbDictionary
281
     1
  0
ACDBDICTIONARYWDFLT
  5
E
102
{ACAD_REACTORS
330
C
102
}
330
C
100
AcDbDictionary
281
     1
  3
Normal
350
F
100
AcDbDictionaryWithDefault
340
F
  0
DICTIONARY
  5
47
102
{ACAD_REACTORS
330
C
102
}
330
C
100
AcDbDictionary
281
     1
  3
A0
350
48
  3
A1
350
49
  3
A2
350
4A
  3
A3
350
4B
  3
A4
350
4C
  3
A5
350
4D
  3
A6
350
4E
  3
A7
350
4F
  3
A8
350
50
  3
A9
350
51
  3
B0
350
52
  3
B1
350
53
  3
B2
350
54
  3
B3
350
55
  3
B4
350
56
  3
B5
350
57
  3
B6
350
58
  3
B7
350
59
  3
B8
350
5A
  3
B9
350
5B
  3
C0
350
5C
  3
C1
350
5D
  3
C2
350
5E
  3
C3
350
5F
  3
C4
350
60
  3
C5
350
61
  3
C6
350
62
  3
C7
350
63
  3
C8
350
64
  3
C9
350
65
  3
D0
350
66
  3
D1
350
67
  3
D2
350
68
  0
LAYOUT
  5
1E
102
{ACAD_REACTORS
330
1A
102
}
330
1A
100
AcDbPlotSettings
  1

  2
none_device
  4

  6

 40
0.0
 41
0.0
 42
0.0
 43
0.0
 44
0.0
 45
0.0
 46
0.0
 47
0.0
 48
0.0
 49
0.0
140
0.0
141
0.0
142
1.0
143
1.0
 70
   688
 72
     1
 73
     0
 74
     5
  7

 75
    16
147
1.0
148
0.0
149
0.0
100
AcDbLayout
  1
Layout1
 70
     1
 71
     1
 10
0.0
 20
0.0
 11
420.0
 21
297.0
 12
0.0
 22
0.0
 32
0.0
 14
1.0000000000E+20
 24
1.0000000000E+20
 34
1.0000000000E+20
 15
-1.0000000000E+20
 25
-1.0000000000E+20
 35
-1.0000000000E+20
146
0.0
 13
0.0
 23
0.0
 33
0.0
 16
1.0
 26
0.0
 36
0.0
 17
0.0
 27
1.0
 37
0.0
 76
     0
330
1B
  0
LAYOUT
  5
26
102
{ACAD_REACTORS
330
1A
102
}
330
1A
100
AcDbPlotSettings
  1

  2
none_device
  4

  6

 40
0.0
 41
0.0
 42
0.0
 43
0.0
 44
0.0
 45
0.0
 46
0.0
 47
0.0
 48
0.0
 49
0.0
140
0.0
141
0.0
142
1.0
143
1.0
 70
   688
 72
     1
 73
     0
 74
     5
  7

 75
    16
147
1.0
148
0.0
149
0.0
100
AcDbLayout
  1
Layout2
 70
     1
 71
     2
 10
0.0
 20
0.0
 11
0.0
 21
0.0
 12
0.0
 22
0.0
 32
0.0
 14
0.0
 24
0.0
 34
0.0
 15
0.0
 25
0.0
 35
0.0
146
0.0
 13
0.0
 23
0.0
 33
0.0
 16
1.0
 26
0.0
 36
0.0
 17
0.0
 27
1.0
 37
0.0
 76
     0
330
23
  0
LAYOUT
  5
22
102
{ACAD_REACTORS
330
1A
102
}
330
1A
100
AcDbPlotSettings
  1

  2
none_device
  4
Letter_(8.50_x_11.00_Inches)
  6

 40
6.35
 41
6.35
 42
6.35000508
 43
6.35000508
 44
215.9
 45
279.4
 46
0.0
 47
0.0
 48
0.0
 49
0.0
140
0.0
141
0.0
142
1.0
143
1.0
 70
  1712
 72
     1
 73
     0
 74
     0
  7

 75
     0
147
1.0
148
0.0
149
0.0
100
AcDbLayout
  1
Model
 70
     1
 71
     0
 10
0.0
 20
0.0
 11
20000.0
 21
10000.0
 12
0.0
 22
0.0
 32
0.0
 14
0.0
 24
0.0
 34
0.0
 15
20000.0
 25
10000.0
 35
0.0
146
0.0
 13
0.0
 23
0.0
 33
0.0
 16
1.0
 26
0.0
 36
0.0
 17
0.0
 27
1.0
 37
0.0
 76
     0
330
1F
331
29
  0
MLINESTYLE
  5
18
102
{ACAD_REACTORS
330
17
102
}
330
17
100
AcDbMlineStyle
  2
Standard
 70
     0
  3

 62
   256
 51
90.0
 52
90.0
 71
     2
 49
0.5
 62
   256
  6
BYLAYER
 49
-0.5
 62
   256
  6
BYLAYER
  0
ACDBPLACEHOLDER
  5
F
102
{ACAD_REACTORS
330
E
102
}
330
E
  0
SCALE
  5
48
102
{ACAD_REACTORS
330
47
102
}
330
47
100
AcDbScale
 70
     0
300
1:1
140
1.0
141
1.0
290
     1
  0
SCALE
  5
49
102
{ACAD_REACTORS
330
47
102
}
330
47
100
AcDbScale
 70
     0
300
1:2
140
1.0
141
2.0
290
     0
  0
SCALE
  5
4A
102
{ACAD_REACTORS
330
47
102
}
330
47
100
AcDbScale
 70
     0
300
1:4
140
1.0
141
4.0
290
     0
  0
SCALE
  5
4B
102
{ACAD_REACTORS
330
47
102
}
330
47
100
AcDbScale
 70
     0
300
1:5
140
1.0
141
5.0
290
     0
  0
SCALE
  5
4C
102
{ACAD_REACTORS
330
47
102
}
330
47
100
AcDbScale
 70
     0
300
1:8
140
1.0
141
8.0
290
     0
  0
SCALE
  5
4D
102
{ACAD_REACTORS
330
47
102
}
330
47
100
AcDbScale
 70
     0
300
1:10
140
1.0
141
10.0
290
     0
  0
SCALE
  5
4E
102
{ACAD_REACTORS
330
47
102
}
330
47
100
AcDbScale
 70
     0
300
1:16
140
1.0
141
16.0
290
     0
  0
SCALE
  5
4F
102
{ACAD_REACTORS
330
47
102
}
330
47
100
AcDbScale
 70
     0
300
1:20
140
1.0
141
20.0
290
     0
  0
SCALE
  5
50
102
{ACAD_REACTORS
330
47
102
}
330
47
100
AcDbScale
 70
     0
300
1:30
140
1.0
141
30.0
290
     0
  0
SCALE
  5
51
102
{ACAD_REACTORS
330
47
102
}
330
47
100
AcDbScale
 70
     0
300
1:40
140
1.0
141
40.0
290
     0
  0
SCALE
  5
52
102
{ACAD_REACTORS
330
47
102
}
330
47
100
AcDbScale
 70
     0
300
1:50
140
1.0
141
50.0
290
     0
  0
SCALE
  5
53
102
{ACAD_REACTORS
330
47
102
}
330
47
100
AcDbScale
 70
     0
300
1:100
140
1.0
141
100.0
290
     0
  0
SCALE
  5
54
102
{ACAD_REACTORS
330
47
102
}
330
47
100
AcDbScale
 70
     0
300
2:1
140
2.0
141
1.0
290
     0
  0
SCALE
  5
55
102
{ACAD_REACTORS
330
47
102
}
330
47
100
AcDbScale
 70
     0
300
4:1
140
4.0
141
1.0
290
     0
  0
SCALE
  5
56
102
{ACAD_REACTORS
330
47
102
}
330
47
100
AcDbScale
 70
     0
300
8:1
140
8.0
141
1.0
290
     0
  0
SCALE
  5
57
102
{ACAD_REACTORS
330
47
102
}
330
47
100
AcDbScale
 70
     0
300
10:1
140
10.0
141
1.0
290
     0
  0
SCALE
  5
58
102
{ACAD_REACTORS
330
47
102
}
330
47
100
AcDbScale
 70
     0
300
100:1
140
100.0
141
1.0
290
     0
  0
SCALE
  5
59
102
{ACAD_REACTORS
330
47
102
}
330
47
100
AcDbScale
 70
     0
300
1/128" = 1'-0"
140
0.0078125
141
12.0
290
     0
  0
SCALE
  5
5A
102
{ACAD_REACTORS
330
47
102
}
330
47
100
AcDbScale
 70
     0
300
1/64" = 1'-0"
140
0.015625
141
12.0
290
     0
  0
SCALE
  5
5B
102
{ACAD_REACTORS
330
47
102
}
330
47
100
AcDbScale
 70
     0
300
1/32" = 1'-0"
140
0.03125
141
12.0
290
     0
  0
SCALE
  5
5C
102
{ACAD_REACTORS
330
47
102
}
330
47
100
AcDbScale
 70
     0
300
1/16" = 1'-0"
140
0.0625
141
12.0
290
     0
  0
SCALE
  5
5D
102
{ACAD_REACTORS
330
47
102
}
330
47
100
AcDbScale
 70
     0
300
3/32" = 1'-0"
140
0.09375
141
12.0
290
     0
  0
SCALE
  5
5E
102
{ACAD_REACTORS
330
47
102
}
330
47
100
AcDbScale
 70
     0
300
1/8" = 1'-0"
140
0.125
141
12.0
290
     0
  0
SCALE
  5
5F
102
{ACAD_REACTORS
330
47
102
}
330
47
100
AcDbScale
 70
     0
300
3/16" = 1'-0"
140
0.1875
141
12.0
290
     0
  0
SCALE
  5
60
102
{ACAD_REACTORS
330
47
102
}
330
47
100
AcDbScale
 70
     0
300
1/4" = 1'-0"
140
0.25
141
12.0
290
     0
  0
SCALE
  5
61
102
{ACAD_REACTORS
330
47
102
}
330
47
100
AcDbScale
 70
     0
300
3/8" = 1'-0"
140
0.375
141
12.0
290
     0
  0
SCALE
  5
62
102
{ACAD_REACTORS
330
47
102
}
330
47
100
AcDbScale
 70
     0
300
1/2" = 1'-0"
140
0.5
141
12.0
290
     0
  0
SCALE
  5
63
102
{ACAD_REACTORS
330
47
102
}
330
47
100
AcDbScale
 70
     0
300
3/4" = 1'-0"
140
0.75
141
12.0
290
     0
  0
SCALE
  5
64
102
{ACAD_REACTORS
330
47
102
}
330
47
100
AcDbScale
 70
     0
300
1" = 1'-0"
140
1.0
141
12.0
290
     0
  0
SCALE
  5
65
102
{ACAD_REACTORS
330
47
102
}
330
47
100
AcDbScale
 70
     0
300
1-1/2" = 1'-0"
140
1.5
141
12.0
290
     0
  0
SCALE
  5
66
102
{ACAD_REACTORS
330
47
102
}
330
47
100
AcDbScale
 70
     0
300
3" = 1'-0"
140
3.0
141
12.0
290
     0
  0
SCALE
  5
67
102
{ACAD_REACTORS
330
47
102
}
330
47
100
AcDbScale
 70
     0
300
6" = 1'-0"
140
6.0
141
12.0
290
     0
  0
SCALE
  5
68
102
{ACAD_REACTORS
330
47
102
}
330
47
100
AcDbScale
 70
     0
300
1'-0" = 1'-0"
140
12.0
141
12.0
290
     0
  0
ENDSEC
  0
EOF
