  0
SECTION
  2
HEADER
  9
$ACADVER
  1
AC1015
  9
$ACADMAINTVER
 70
     6
  9
$DWGCODEPAGE
  3
ANSI_1250
  9
$INSBASE
 10
0.0
 20
0.0
 30
0.0
  9
$EXTMIN
 10
2074.7159162547
 20
6254.8672156564
 30
0.0
  9
$EXTMAX
 10
5145.5158101859
 20
7992.0402331824
 30
0.0
  9
$LIMMIN
 10
0.0
 20
0.0
  9
$LIMMAX
 10
420.0
 20
297.0
  9
$ORTHOMODE
 70
     0
  9
$REGENMODE
 70
     1
  9
$FILLMODE
 70
     1
  9
$QTEXTMODE
 70
     0
  9
$MIRRTEXT
 70
     1
  9
$LTSCALE
 40
1.0
  9
$ATTMODE
 70
     1
  9
$TEXTSIZE
 40
3.5
  9
$TRACEWID
 40
1.0
  9
$TEXTSTYLE
  7
Standard
  9
$CLAYER
  8
0
  9
$CELTYPE
  6
ByLayer
  9
$CECOLOR
 62
   256
  9
$CELTSCALE
 40
1.0
  9
$DISPSILH
 70
     0
  9
$DIMSCALE
 40
1.0
  9
$DIMASZ
 40
3.302
  9
$DIMEXO
 40
0.0
  9
$DIMDLI
 40
3.75
  9
$DIMRND
 40
0.0
  9
$DIMDLE
 40
0.0
  9
$DIMEXE
 40
1.0
  9
$DIMTP
 40
0.0
  9
$DIMTM
 40
0.0
  9
$DIMTXT
 40
3.5
  9
$DIMCEN
 40
2.5
  9
$DIMTSZ
 40
0.0
  9
$DIMTOL
 70
     0
  9
$DIMLIM
 70
     0
  9
$DIMTIH
 70
     1
  9
$DIMTOH
 70
     1
  9
$DIMSE1
 70
     0
  9
$DIMSE2
 70
     0
  9
$DIMTAD
 70
     1
  9
$DIMZIN
 70
     0
  9
$DIMBLK
  1

  9
$DIMASO
 70
     1
  9
$DIMSHO
 70
     1
  9
$DIMPOST
  1

  9
$DIMAPOST
  1

  9
$DIMALT
 70
     0
  9
$DIMALTD
 70
     3
  9
$DIMALTF
 40
0.0393700787
  9
$DIMLFAC
 40
1.0
  9
$DIMTOFL
 70
     1
  9
$DIMTVP
 40
0.0
  9
$DIMTIX
 70
     0
  9
$DIMSOXD
 70
     0
  9
$DIMSAH
 70
     0
  9
$DIMBLK1
  1

  9
$DIMBLK2
  1

  9
$DIMSTYLE
  2
ISO-25
  9
$DIMCLRD
 70
     0
  9
$DIMCLRE
 70
     0
  9
$DIMCLRT
 70
     0
  9
$DIMTFAC
 40
1.0
  9
$DIMGAP
 40
1.524
  9
$DIMJUST
 70
     0
  9
$DIMSD1
 70
     0
  9
$DIMSD2
 70
     0
  9
$DIMTOLJ
 70
     0
  9
$DIMTZIN
 70
     0
  9
$DIMALTZ
 70
     0
  9
$DIMALTTZ
 70
     0
  9
$DIMUPT
 70
     0
  9
$DIMDEC
 70
     2
  9
$DIMTDEC
 70
     2
  9
$DIMALTU
 70
     2
  9
$DIMALTTD
 70
     3
  9
$DIMTXSTY
  7
Standard
  9
$DIMAUNIT
 70
     0
  9
$DIMADEC
 70
     2
  9
$DIMALTRND
 40
0.0
  9
$DIMAZIN
 70
     0
  9
$DIMDSEP
 70
    44
  9
$DIMATFIT
 70
     3
  9
$DIMFRAC
 70
     0
  9
$DIMLDRBLK
  1

  9
$DIMLUNIT
 70
     2
  9
$DIMLWD
 70
    -2
  9
$DIMLWE
 70
    -2
  9
$DIMTMOVE
 70
     0
  9
$LUNITS
 70
     2
  9
$LUPREC
 70
     2
  9
$SKETCHINC
 40
1.0
  9
$FILLETRAD
 40
10.0
  9
$AUNITS
 70
     0
  9
$AUPREC
 70
     2
  9
$MENU
  1
.
  9
$ELEVATION
 40
0.0
  9
$PELEVATION
 40
0.0
  9
$THICKNESS
 40
0.0
  9
$LIMCHECK
 70
     0
  9
$CHAMFERA
 40
0.0
  9
$CHAMFERB
 40
0.0
  9
$CHAMFERC
 40
0.0
  9
$CHAMFERD
 40
0.0
  9
$SKPOLY
 70
     0
  9
$TDCREATE
 40
2459100.312839456
  9
$TDUCREATE
 40
2459100.229506123
  9
$TDUPDATE
 40
2459100.312868217
  9
$TDUUPDATE
 40
2459100.229534884
  9
$TDINDWG
 40
0.0000000116
  9
$TDUSRTIMER
 40
0.0000000116
  9
$USRTIMER
 70
     1
  9
$ANGBASE
 50
0.0
  9
$ANGDIR
 70
     0
  9
$PDMODE
 70
     0
  9
$PDSIZE
 40
-1.0
  9
$PLINEWID
 40
0.0
  9
$SPLFRAME
 70
     0
  9
$SPLINETYPE
 70
     6
  9
$SPLINESEGS
 70
     8
  9
$HANDSEED
  5
265
  9
$SURFTAB1
 70
     6
  9
$SURFTAB2
 70
     6
  9
$SURFTYPE
 70
     6
  9
$SURFU
 70
     6
  9
$SURFV
 70
     6
  9
$UCSBASE
  2

  9
$UCSNAME
  2

  9
$UCSORG
 10
0.0
 20
0.0
 30
0.0
  9
$UCSXDIR
 10
1.0
 20
0.0
 30
0.0
  9
$UCSYDIR
 10
0.0
 20
1.0
 30
0.0
  9
$UCSORTHOREF
  2

  9
$UCSORTHOVIEW
 70
     0
  9
$UCSORGTOP
 10
0.0
 20
0.0
 30
0.0
  9
$UCSORGBOTTOM
 10
0.0
 20
0.0
 30
0.0
  9
$UCSORGLEFT
 10
0.0
 20
0.0
 30
0.0
  9
$UCSORGRIGHT
 10
0.0
 20
0.0
 30
0.0
  9
$UCSORGFRONT
 10
0.0
 20
0.0
 30
0.0
  9
$UCSORGBACK
 10
0.0
 20
0.0
 30
0.0
  9
$PUCSBASE
  2

  9
$PUCSNAME
  2

  9
$PUCSORG
 10
0.0
 20
0.0
 30
0.0
  9
$PUCSXDIR
 10
1.0
 20
0.0
 30
0.0
  9
$PUCSYDIR
 10
0.0
 20
1.0
 30
0.0
  9
$PUCSORTHOREF
  2

  9
$PUCSORTHOVIEW
 70
     0
  9
$PUCSORGTOP
 10
0.0
 20
0.0
 30
0.0
  9
$PUCSORGBOTTOM
 10
0.0
 20
0.0
 30
0.0
  9
$PUCSORGLEFT
 10
0.0
 20
0.0
 30
0.0
  9
$PUCSORGRIGHT
 10
0.0
 20
0.0
 30
0.0
  9
$PUCSORGFRONT
 10
0.0
 20
0.0
 30
0.0
  9
$PUCSORGBACK
 10
0.0
 20
0.0
 30
0.0
  9
$USERI1
 70
     0
  9
$USERI2
 70
     0
  9
$USERI3
 70
     0
  9
$USERI4
 70
     0
  9
$USERI5
 70
     0
  9
$USERR1
 40
0.0
  9
$USERR2
 40
0.0
  9
$USERR3
 40
0.0
  9
$USERR4
 40
0.0
  9
$USERR5
 40
0.0
  9
$WORLDVIEW
 70
     1
  9
$SHADEDGE
 70
     3
  9
$SHADEDIF
 70
    70
  9
$TILEMODE
 70
     1
  9
$MAXACTVP
 70
    64
  9
$PINSBASE
 10
0.0
 20
0.0
 30
0.0
  9
$PLIMCHECK
 70
     0
  9
$PEXTMIN
 10
1.0000000000E+20
 20
1.0000000000E+20
 30
1.0000000000E+20
  9
$PEXTMAX
 10
-1.0000000000E+20
 20
-1.0000000000E+20
 30
-1.0000000000E+20
  9
$PLIMMIN
 10
0.0
 20
0.0
  9
$PLIMMAX
 10
420.0
 20
297.0
  9
$UNITMODE
 70
     0
  9
$VISRETAIN
 70
     1
  9
$PLINEGEN
 70
     0
  9
$PSLTSCALE
 70
     1
  9
$TREEDEPTH
 70
  3020
  9
$CMLSTYLE
  2
Standard
  9
$CMLJUST
 70
     0
  9
$CMLSCALE
 40
20.0
  9
$PROXYGRAPHICS
 70
     1
  9
$MEASUREMENT
 70
     1
  9
$CELWEIGHT
370
    -1
  9
$ENDCAPS
280
     0
  9
$JOINSTYLE
280
     0
  9
$LWDISPLAY
290
     1
  9
$INSUNITS
 70
     4
  9
$HYPERLINKBASE
  1

  9
$STYLESHEET
  1

  9
$XEDIT
290
     1
  9
$CEPSNTYPE
380
     0
  9
$PSTYLEMODE
290
     1
  9
$FINGERPRINTGUID
  2
{162a6236-2a01-41e6-be44-1afba9e96e3e}
  9
$VERSIONGUID
  2
{FAEB1C32-E019-11D5-929B-00C0DF256EC4}
  9
$EXTNAMES
290
     1
  9
$PSVPSCALE
 40
0.0
  9
$OLESTARTUP
290
     0
  0
ENDSEC
  0
SECTION
  2
CLASSES
  0
CLASS
  1
ACDBDICTIONARYWDFLT
  2
AcDbDictionaryWithDefault
  3
ObjectDBX Classes
 90
        0
280
     0
281
     0
  0
CLASS
  1
VISUALSTYLE
  2
AcDbVisualStyle
  3
ObjectDBX Classes
 90
     4095
280
     0
281
     0
  0
CLASS
  1
MATERIAL
  2
AcDbMaterial
  3
ObjectDBX Classes
 90
     1153
280
     0
281
     0
  0
CLASS
  1
SCALE
  2
AcDbScale
  3
ObjectDBX Classes
 90
     1153
280
     0
281
     0
  0
CLASS
  1
TABLESTYLE
  2
AcDbTableStyle
  3
ObjectDBX Classes
 90
     4095
280
     0
281
     0
  0
CLASS
  1
MLEADERSTYLE
  2
AcDbMLeaderStyle
  3
ACDB_MLEADERSTYLE_CLASS
 90
     4095
280
     0
281
     0
  0
CLASS
  1
SUN
  2
AcDbSun
  3
SCENEOE
 90
     1153
280
     0
281
     0
  0
CLASS
  1
ACDBPLACEHOLDER
  2
AcDbPlaceHolder
  3
ObjectDBX Classes
 90
        0
280
     0
281
     0
  0
CLASS
  1
LAYOUT
  2
AcDbLayout
  3
ObjectDBX Classes
 90
        0
280
     0
281
     0
  0
ENDSEC
  0
SECTION
  2
TABLES
  0
TABLE
  2
VPORT
  5
8
330
0
100
AcDbSymbolTable
 70
     1
  0
VPORT
  5
29
330
8
100
AcDbSymbolTableRecord
100
AcDbViewportTableRecord
  2
*Active
 70
     0
 10
0.0
 20
0.0
 11
1.0
 21
1.0
 12
3610.1158632203
 22
7123.4537244194
 13
0.0
 23
0.0
 14
10.0
 24
10.0
 15
10.0
 25
10.0
 16
0.0
 26
0.0
 36
1.0
 17
0.0
 27
0.0
 37
0.0
 40
1771.9164778765
 41
1.7676995112
 42
50.0
 43
0.0
 44
0.0
 50
0.0
 51
0.0
 71
     0
 72
   100
 73
     1
 74
     3
 75
     0
 76
     0
 77
     0
 78
     0
281
     0
 65
     1
110
0.0
120
0.0
130
0.0
111
1.0
121
0.0
131
0.0
112
0.0
122
1.0
132
0.0
 79
     0
146
0.0
  0
ENDTAB
  0
TABLE
  2
LTYPE
  5
5
330
0
100
AcDbSymbolTable
 70
     6
  0
LTYPE
  5
14
330
5
100
AcDbSymbolTableRecord
100
AcDbLinetypeTableRecord
  2
ByBlock
 70
     0
  3

 72
    65
 73
     0
 40
0.0
  0
LTYPE
  5
15
330
5
100
AcDbSymbolTableRecord
100
AcDbLinetypeTableRecord
  2
ByLayer
 70
     0
  3

 72
    65
 73
     0
 40
0.0
  0
LTYPE
  5
16
330
5
100
AcDbSymbolTableRecord
100
AcDbLinetypeTableRecord
  2
Continuous
 70
     0
  3
Solid line
 72
    65
 73
     0
 40
0.0
  0
LTYPE
  5
6E
330
5
100
AcDbSymbolTableRecord
100
AcDbLinetypeTableRecord
  2
HIDDEN
 70
     0
  3
Hidden __ __ __ __ __ __ __ __ __ __ __ __ __ __
 72
    65
 73
     2
 40
1.905
 49
1.27
 74
     0
 49
-0.635
 74
     0
  0
LTYPE
  5
6F
330
5
100
AcDbSymbolTableRecord
100
AcDbLinetypeTableRecord
  2
PHANTOM
 70
     0
  3
Phantom ______  __  __  ______  __  __  ______
 72
    65
 73
     6
 40
12.7
 49
6.35
 74
     0
 49
-1.27
 74
     0
 49
1.27
 74
     0
 49
-1.27
 74
     0
 49
1.27
 74
     0
 49
-1.27
 74
     0
  0
LTYPE
  5
70
330
5
100
AcDbSymbolTableRecord
100
AcDbLinetypeTableRecord
  2
CENTER
 70
     0
  3
Center ____ _ ____ _ ____ _ ____ _ ____ _ ____
 72
    65
 73
     4
 40
10.16
 49
6.35
 74
     0
 49
-1.27
 74
     0
 49
1.27
 74
     0
 49
-1.27
 74
     0
  0
LTYPE
  5
71
330
5
100
AcDbSymbolTableRecord
100
AcDbLinetypeTableRecord
  2
CENTERX2
 70
     0
  3
Center (2x) ________  __  ________  __  _____
 72
    65
 73
     4
 40
20.32
 49
12.7
 74
     0
 49
-2.54
 74
     0
 49
2.54
 74
     0
 49
-2.54
 74
     0
  0
LTYPE
  5
72
330
5
100
AcDbSymbolTableRecord
100
AcDbLinetypeTableRecord
  2
DOT2
 70
     0
  3
Dot (.5x) ........................................
 72
    65
 73
     2
 40
0.635
 49
0.0
 74
     0
 49
-0.635
 74
     0
  0
ENDTAB
  0
TABLE
  2
LAYER
  5
2
330
0
100
AcDbSymbolTable
 70
     1
  0
LAYER
  5
10
330
2
100
AcDbSymbolTableRecord
100
AcDbLayerTableRecord
  2
0
 70
     0
 62
     7
  6
Continuous
370
    -3
390
F
  0
ENDTAB
  0
TABLE
  2
STYLE
  5
3
330
0
100
AcDbSymbolTable
 70
     1
  0
STYLE
  5
11
330
3
100
AcDbSymbolTableRecord
100
AcDbTextStyleTableRecord
  2
Standard
 70
     0
 40
0.0
 41
1.0
 50
0.0
 71
     0
 42
3.5
  3
txt
  4

  0
ENDTAB
  0
TABLE
  2
VIEW
  5
6
330
0
100
AcDbSymbolTable
 70
     0
  0
ENDTAB
  0
TABLE
  2
UCS
  5
7
330
0
100
AcDbSymbolTable
 70
     0
  0
ENDTAB
  0
TABLE
  2
APPID
  5
9
330
0
100
AcDbSymbolTable
 70
     1
  0
APPID
  5
12
330
9
100
AcDbSymbolTableRecord
100
AcDbRegAppTableRecord
  2
ACAD
 70
     0
  0
ENDTAB
  0
TABLE
  2
DIMSTYLE
  5
A
330
0
100
AcDbSymbolTable
 70
     1
100
AcDbDimStyleTable
  0
DIMSTYLE
105
27
330
A
100
AcDbSymbolTableRecord
100
AcDbDimStyleTableRecord
  2
ISO-25
 70
     0
 41
2.5
 42
0.625
 43
3.75
 44
1.25
 73
     0
 74
     0
 77
     1
 78
     8
140
2.5
141
2.5
143
0.0393700787
147
0.625
171
     3
172
     1
178
     0
271
     2
272
     2
274
     3
278
    44
283
     0
284
     8
340
11
  0
ENDTAB
  0
TABLE
  2
BLOCK_RECORD
  5
1
330
0
100
AcDbSymbolTable
 70
     1
  0
BLOCK_RECORD
  5
1F
330
1
100
AcDbSymbolTableRecord
100
AcDbBlockTableRecord
  2
*Model_Space
340
22
  0
BLOCK_RECORD
  5
1B
330
1
100
AcDbSymbolTableRecord
100
AcDbBlockTableRecord
  2
*Paper_Space
340
1E
  0
BLOCK_RECORD
  5
23
330
1
100
AcDbSymbolTableRecord
100
AcDbBlockTableRecord
  2
*Paper_Space0
340
26
  0
ENDTAB
  0
ENDSEC
  0
SECTION
  2
BLOCKS
  0
BLOCK
  5
20
330
1F
100
AcDbEntity
  8
0
100
AcDbBlockBegin
  2
*Model_Space
 70
     0
 10
0.0
 20
0.0
 30
0.0
  3
*Model_Space
  1

  0
ENDBLK
  5
21
330
1F
100
AcDbEntity
  8
0
100
AcDbBlockEnd
  0
BLOCK
  5
1C
330
1B
100
AcDbEntity
 67
     1
  8
0
100
AcDbBlockBegin
  2
*Paper_Space
 70
     0
 10
0.0
 20
0.0
 30
0.0
  3
*Paper_Space
  1

  0
ENDBLK
  5
1D
330
1B
100
AcDbEntity
 67
     1
  8
0
100
AcDbBlockEnd
  0
BLOCK
  5
24
330
23
100
AcDbEntity
  8
0
100
AcDbBlockBegin
  2
*Paper_Space0
 70
     0
 10
0.0
 20
0.0
 30
0.0
  3
*Paper_Space0
  1

  0
ENDBLK
  5
25
330
23
100
AcDbEntity
  8
0
100
AcDbBlockEnd
  0
ENDSEC
  0
SECTION
  2
ENTITIES
  0
CIRCLE
  5
73
330
1F
100
AcDbEntity
  8
0
  6
Continuous
 62
     7
100
AcDbCircle
 10
4014.7159162547
 20
7912.0402331824
 30
0.0
 40
2.999999999999091
  0
CIRCLE
  5
74
330
1F
100
AcDbEntity
  8
0
  6
Continuous
 62
     7
100
AcDbCircle
 10
4014.7159162547
 20
7912.0402331824
 30
0.0
 40
17.99999999999864
  0
CIRCLE
  5
75
330
1F
100
AcDbEntity
  8
0
  6
Continuous
 62
     7
100
AcDbCircle
 10
2134.7159162547
 20
7392.0402331824
 30
0.0
 40
3.0
  0
CIRCLE
  5
76
330
1F
100
AcDbEntity
  8
0
  6
Continuous
 62
     7
100
AcDbCircle
 10
2134.7159162547
 20
7392.0402331824
 30
0.0
 40
17.99999999999955
  0
CIRCLE
  5
77
330
1F
100
AcDbEntity
  8
0
  6
Continuous
 62
     7
100
AcDbCircle
 10
2134.7159162547
 20
7912.0402331824
 30
0.0
 40
3.0
  0
CIRCLE
  5
78
330
1F
100
AcDbEntity
  8
0
  6
Continuous
 62
     7
100
AcDbCircle
 10
2134.7159162547
 20
7912.0402331824
 30
0.0
 40
17.99999999999955
  0
CIRCLE
  5
79
330
1F
100
AcDbEntity
  8
0
  6
Continuous
 62
     7
100
AcDbCircle
 10
4014.7159162547
 20
7392.0402331824
 30
0.0
 40
2.999999999999091
  0
CIRCLE
  5
7A
330
1F
100
AcDbEntity
  8
0
  6
Continuous
 62
     7
100
AcDbCircle
 10
4014.7159162547
 20
7392.0402331824
 30
0.0
 40
17.99999999999864
  0
ARC
  5
7B
330
1F
100
AcDbEntity
  8
0
  6
Continuous
 62
     7
100
AcDbCircle
 10
2094.7159162547
 20
7972.0402331824
 30
0.0
 40
16.00000000000182
100
AcDbArc
 50
90.0
 51
180.0
  0
ARC
  5
7C
330
1F
100
AcDbEntity
  8
0
  6
Continuous
 62
     7
100
AcDbCircle
 10
4054.7159162547
 20
7972.0402331824
 30
0.0
 40
16.0
100
AcDbArc
 50
0.0
 51
90.0
  0
ARC
  5
7D
330
1F
100
AcDbEntity
  8
0
  6
Continuous
 62
     7
100
AcDbCircle
 10
4054.7159162547
 20
7332.0402331824
 30
0.0
 40
16.00000000000273
100
AcDbArc
 50
270.0
 51
0.0
  0
ARC
  5
7E
330
1F
100
AcDbEntity
  8
0
  6
Continuous
 62
     7
100
AcDbCircle
 10
2094.7159162547
 20
7332.0402331824
 30
0.0
 40
16.00000000000182
100
AcDbArc
 50
180.0
 51
270.0
  0
CIRCLE
  5
7F
330
1F
100
AcDbEntity
  8
0
  6
Continuous
 62
     7
100
AcDbCircle
 10
4014.7159162547
 20
7392.0402331824
 30
0.0
 40
20.00000000000045
  0
CIRCLE
  5
80
330
1F
100
AcDbEntity
  8
0
  6
Continuous
 62
     7
100
AcDbCircle
 10
4014.7159162547
 20
7912.0402331824
 30
0.0
 40
20.00000000000045
  0
CIRCLE
  5
81
330
1F
100
AcDbEntity
  8
0
  6
Continuous
 62
     7
100
AcDbCircle
 10
2134.7159162547
 20
7392.0402331824
 30
0.0
 40
19.99999999999955
  0
CIRCLE
  5
82
330
1F
100
AcDbEntity
  8
0
  6
Continuous
 62
     7
100
AcDbCircle
 10
2134.7159162547
 20
7912.0402331824
 30
0.0
 40
19.99999999999955
  0
ARC
  5
83
330
1F
100
AcDbEntity
  8
0
  6
Continuous
 62
     7
100
AcDbCircle
 10
4054.7159162547
 20
7332.0402331824
 30
0.0
 40
20.00000000000318
100
AcDbArc
 50
270.0
 51
0.0
  0
ARC
  5
84
330
1F
100
AcDbEntity
  8
0
  6
Continuous
 62
     7
100
AcDbCircle
 10
2094.7159162547
 20
7332.0402331824
 30
0.0
 40
20.00000000000091
100
AcDbArc
 50
180.0
 51
270.0
  0
ARC
  5
85
330
1F
100
AcDbEntity
  8
0
  6
Continuous
 62
     7
100
AcDbCircle
 10
2094.7159162547
 20
7972.0402331824
 30
0.0
 40
20.00000000000227
100
AcDbArc
 50
90.0
 51
180.0
  0
ARC
  5
86
330
1F
100
AcDbEntity
  8
0
  6
Continuous
 62
     7
100
AcDbCircle
 10
4054.7159162547
 20
7972.0402331824
 30
0.0
 40
20.00000000000045
100
AcDbArc
 50
0.0
 51
90.0
  0
ARC
  5
87
330
1F
100
AcDbEntity
  8
0
  6
Continuous
 62
     7
100
AcDbCircle
 10
5152.1173551966
 20
7696.5696516388
 30
0.0
 40
48.00000000000053
100
AcDbArc
 50
172.2708705959
 51
174.788079678
  0
ARC
  5
88
330
1F
100
AcDbEntity
  8
0
  6
Continuous
 62
     7
100
AcDbCircle
 10
5152.1173551967
 20
7607.5108147257
 30
0.0
 40
48.00000000000194
100
AcDbArc
 50
185.2119203213
 51
187.7379939401
  0
ARC
  5
89
330
1F
100
AcDbEntity
  8
0
  6
Continuous
 62
     7
100
AcDbCircle
 10
5068.5142651751
 20
7696.5696516376
 30
0.0
 40
47.99999999999858
100
AcDbArc
 50
5.2119203233
 51
7.737993942
  0
ARC
  5
8A
330
1F
100
AcDbEntity
  8
0
  6
Continuous
 62
     7
100
AcDbCircle
 10
5068.5142651751
 20
7607.5108147272
 30
0.0
 40
47.99999999999972
100
AcDbArc
 50
352.2708705945
 51
354.7880796767
  0
ARC
  5
8B
330
1F
100
AcDbEntity
  8
0
  6
Continuous
 62
     7
100
AcDbCircle
 10
3119.2453347107
 20
6248.2656706457
 30
0.0
 40
48.00000000000001
100
AcDbArc
 50
74.9415804048
 51
84.7880796779
  0
ARC
  5
8C
330
1F
100
AcDbEntity
  8
0
  6
Continuous
 62
     7
100
AcDbCircle
 10
3030.1864977987
 20
6248.2656706457
 30
0.0
 40
47.99999999999888
100
AcDbArc
 50
95.2119203225
 51
105.0584195953
  0
ARC
  5
8D
330
1F
100
AcDbEntity
  8
0
  6
Continuous
 62
     7
100
AcDbCircle
 10
3119.2453347102
 20
6331.8687606673
 30
0.0
 40
48.00000000000913
100
AcDbArc
 50
275.2119203228
 51
285.0584195958
  0
ARC
  5
8E
330
1F
100
AcDbEntity
  8
0
  6
Continuous
 62
     7
100
AcDbCircle
 10
3030.1864977991
 20
6331.8687606673
 30
0.0
 40
48.00000000000478
100
AcDbArc
 50
254.9415804042
 51
264.7880796772
  0
CIRCLE
  5
8F
330
1F
100
AcDbEntity
  8
0
  6
Continuous
 62
     7
100
AcDbCircle
 10
3074.7159162547
 20
7652.0402331824
 30
0.0
 40
50.00000000000136
  0
ARC
  5
90
330
1F
100
AcDbEntity
  8
0
  6
Continuous
 62
     7
100
AcDbCircle
 10
3066.6880397321
 20
7687.0086870124
 30
0.0
 40
6.468171580961553
100
AcDbArc
 50
0.0
 51
180.0
  0
ARC
  5
91
330
1F
100
AcDbEntity
  8
0
  6
Continuous
 62
     7
100
AcDbCircle
 10
3052.8396670985
 20
7649.7043654614
 30
0.0
 40
10.27605154349024
100
AcDbArc
 50
44.0944057146
 51
105.4941474427
  0
ARC
  5
92
330
1F
100
AcDbEntity
  8
0
  6
Continuous
 62
     7
100
AcDbCircle
 10
3075.3846445825
 20
7637.9225038638
 30
0.0
 40
25.29012131092986
100
AcDbArc
 50
179.9999999998
 51
270.0
  0
ARC
  5
93
330
1F
100
AcDbEntity
  8
0
  6
Continuous
 62
     7
100
AcDbCircle
 10
3084.8535422105
 20
7630.8547847555
 30
0.0
 40
18.22240220254844
100
AcDbArc
 50
270.0
 51
0.0
  0
ARC
  5
94
330
1F
100
AcDbEntity
  8
0
  6
Continuous
 62
     7
100
AcDbCircle
 10
3097.6614994282
 20
7662.2018668686
 30
0.0
 40
5.414444984839065
100
AcDbArc
 50
359.999999999
 51
89.9999999989
  0
ARC
  5
95
330
1F
100
AcDbEntity
  8
0
  6
Continuous
 62
     7
100
AcDbCircle
 10
3095.6845975695
 20
7662.2018668686
 30
0.0
 40
5.414444984837246
100
AcDbArc
 50
90.0000000001
 51
118.7365577359
  0
ARC
  5
96
330
1F
100
AcDbEntity
  8
0
  6
Continuous
 62
     7
100
AcDbCircle
 10
3087.7515580906
 20
7665.9961865625
 30
0.0
 40
5.414444984833414
100
AcDbArc
 50
10.1404867647
 51
90.0
  0
ARC
  5
97
330
1F
100
AcDbEntity
  8
0
  6
Continuous
 62
     7
100
AcDbCircle
 10
3085.4342889623
 20
7665.9961865625
 30
0.0
 40
5.414444984835742
100
AcDbArc
 50
90.0
 51
124.7440022269
  0
ARC
  5
98
330
1F
100
AcDbEntity
  8
0
  6
Continuous
 62
     7
100
AcDbCircle
 10
3077.5012494834
 20
7668.0328035033
 30
0.0
 40
5.41444498483155
100
AcDbArc
 50
26.4592691591
 51
89.9999999999
  0
ARC
  5
99
330
1F
100
AcDbEntity
  8
0
  6
Continuous
 62
     7
100
AcDbCircle
 10
3075.6748058072
 20
7668.0328035033
 30
0.0
 40
5.414444984835646
100
AcDbArc
 50
90.0000000001
 51
117.7207121262
  0
ARC
  5
9A
330
1F
100
AcDbEntity
  8
0
  6
Continuous
 62
     7
100
AcDbCircle
 10
3071.7082860677
 20
7656.3253259159
 30
0.0
 40
2.670474754641418
100
AcDbArc
 50
180.0
 51
0.0
  0
ARC
  5
9B
330
1F
100
AcDbEntity
  8
0
  6
Continuous
 62
     7
100
AcDbCircle
 10
3075.3392012875
 20
7668.0894520542
 30
0.0
 40
0.9604404651499863
100
AcDbArc
 50
90.0000000017
 51
180.0000000007
  0
ARC
  5
9C
330
1F
100
AcDbEntity
  8
0
  6
Continuous
 62
     7
100
AcDbCircle
 10
3077.8368540031
 20
7668.0894520542
 30
0.0
 40
0.96044046515226
100
AcDbArc
 50
359.9999999993
 51
90.0000000005
  0
ARC
  5
9D
330
1F
100
AcDbEntity
  8
0
  6
Continuous
 62
     7
100
AcDbCircle
 10
3081.4677692229
 20
7656.3253259159
 30
0.0
 40
2.67047475461959
100
AcDbArc
 50
180.0
 51
0.0
  0
ARC
  5
9E
330
1F
100
AcDbEntity
  8
0
  6
Continuous
 62
     7
100
AcDbCircle
 10
3085.0986844427
 20
7666.0528351135
 30
0.0
 40
0.96044046515226
100
AcDbArc
 50
89.9999999995
 51
180.0000000007
  0
ARC
  5
9F
330
1F
100
AcDbEntity
  8
0
  6
Continuous
 62
     7
100
AcDbCircle
 10
3088.0871626103
 20
7666.0528351135
 30
0.0
 40
0.9604404651499863
100
AcDbArc
 50
359.9999999993
 51
90.0000000005
  0
ARC
  5
A0
330
1F
100
AcDbEntity
  8
0
  6
Continuous
 62
     7
100
AcDbCircle
 10
3091.71807783
 20
7656.3253259159
 30
0.0
 40
2.670474754620955
100
AcDbArc
 50
180.0
 51
0.0
  0
ARC
  5
A1
330
1F
100
AcDbEntity
  8
0
  6
Continuous
 62
     7
100
AcDbCircle
 10
3095.3489930498
 20
7662.3874338789
 30
0.0
 40
0.9604404651499863
100
AcDbArc
 50
89.9999999993
 51
180.0000000004
  0
ARC
  5
A2
330
1F
100
AcDbEntity
  8
0
  6
Continuous
 62
     7
100
AcDbCircle
 10
3097.9971039479
 20
7662.3874338789
 30
0.0
 40
0.9604404651508958
100
AcDbArc
 50
359.9999999946
 51
89.9999999946
  0
ARC
  5
A3
330
1F
100
AcDbEntity
  8
0
  6
Continuous
 62
     7
100
AcDbCircle
 10
3084.8535422105
 20
7630.8547847555
 30
0.0
 40
14.10400220255542
100
AcDbArc
 50
270.0
 51
0.0
  0
ARC
  5
A4
330
1F
100
AcDbEntity
  8
0
  6
Continuous
 62
     7
100
AcDbCircle
 10
3075.3846445825
 20
7637.9225038638
 30
0.0
 40
21.17172131093685
100
AcDbArc
 50
180.0
 51
270.0
  0
ARC
  5
A5
330
1F
100
AcDbEntity
  8
0
  6
Continuous
 62
     7
100
AcDbCircle
 10
3052.8396670985
 20
7649.7043654614
 30
0.0
 40
6.157651543463754
100
AcDbArc
 50
0.0000000001
 51
77.1137478482
  0
ARC
  5
A6
330
1F
100
AcDbEntity
  8
0
  6
Continuous
 62
     7
100
AcDbCircle
 10
3061.6677933965
 20
7641.8866819333
 30
0.0
 40
2.670474754641418
100
AcDbArc
 50
180.0
 51
0.0
  0
ARC
  5
A7
330
1F
100
AcDbEntity
  8
0
  6
Continuous
 62
     7
100
AcDbCircle
 10
3066.6880397321
 20
7687.0086870124
 30
0.0
 40
2.349771580960351
100
AcDbArc
 50
0.0
 51
180.0
  0
CIRCLE
  5
A8
330
1F
100
AcDbEntity
  8
0
  6
Continuous
 62
     7
100
AcDbCircle
 10
3074.7159162547
 20
7652.0402331824
 30
0.0
 40
56.00000000000136
  0
LINE
  5
A9
330
1F
100
AcDbEntity
  8
0
  6
Continuous
 62
     7
100
AcDbLine
 10
4012.8571828397
 20
7904.324352086
 30
0.0
 11
4012.2106320671
 21
7903.6282573312
 31
0.0
  0
LINE
  5
AA
330
1F
100
AcDbEntity
  8
0
  6
Continuous
 62
     7
100
AcDbLine
 10
4016.4841447069
 20
7903.4430734934
 30
0.0
 11
4015.9002320837
 21
7904.1924878362
 31
0.0
  0
LINE
  5
AB
330
1F
100
AcDbEntity
  8
0
  6
Continuous
 62
     7
100
AcDbLine
 10
4020.4686985893
 20
7906.5725822782
 30
0.0
 11
4020.7482589441
 21
7905.6646055068
 31
0.0
  0
LINE
  5
AC
330
1F
100
AcDbEntity
  8
0
  6
Continuous
 62
     7
100
AcDbLine
 10
4023.0453891721
 20
7909.2729840974
 30
0.0
 11
4022.1044210013
 21
7909.1420081034
 31
0.0
  0
LINE
  5
AD
330
1F
100
AcDbEntity
  8
0
  6
Continuous
 62
     7
100
AcDbLine
 10
4022.3274320041
 20
7914.2884633746
 30
0.0
 11
4023.2535431315
 21
7914.076581358
 31
0.0
  0
LINE
  5
AE
330
1F
100
AcDbEntity
  8
0
  6
Continuous
 62
     7
100
AcDbLine
 10
4021.2771607197
 20
7917.8701437864
 30
0.0
 11
4020.9201051723
 21
7916.9897534496
 31
0.0
  0
LINE
  5
AF
330
1F
100
AcDbEntity
  8
0
  6
Continuous
 62
     7
100
AcDbLine
 10
4016.5746496695
 20
7919.7561142788
 30
0.0
 11
4017.2212004421
 21
7920.4522090336
 31
0.0
  0
LINE
  5
B0
330
1F
100
AcDbEntity
  8
0
  6
Continuous
 62
     7
100
AcDbLine
 10
4012.9476878023
 20
7920.6373928716
 30
0.0
 11
4013.5316004257
 21
7919.8879785286
 31
0.0
  0
LINE
  5
B1
330
1F
100
AcDbEntity
  8
0
  6
Continuous
 62
     7
100
AcDbLine
 10
4008.9631339199
 20
7917.5078840868
 30
0.0
 11
4008.6835735653
 21
7918.415860858
 31
0.0
  0
LINE
  5
B2
330
1F
100
AcDbEntity
  8
0
  6
Continuous
 62
     7
100
AcDbLine
 10
4006.3864433373
 20
7914.8074822676
 30
0.0
 11
4007.3274115079
 21
7914.9384582616
 31
0.0
  0
LINE
  5
B3
330
1F
100
AcDbEntity
  8
0
  6
Continuous
 62
     7
100
AcDbLine
 10
4007.1044005051
 20
7909.7920029904
 30
0.0
 11
4006.1782893777
 21
7910.003885007
 31
0.0
  0
LINE
  5
B4
330
1F
100
AcDbEntity
  8
0
  6
Continuous
 62
     7
100
AcDbLine
 10
4008.1546717897
 20
7906.2103225784
 30
0.0
 11
4008.5117273369
 21
7907.0907129154
 31
0.0
  0
LINE
  5
B5
330
1F
100
AcDbEntity
  8
0
  6
Continuous
 62
     7
100
AcDbLine
 10
2132.8571828397
 20
7384.324352086
 30
0.0
 11
2132.2106320671
 21
7383.6282573312
 31
0.0
  0
LINE
  5
B6
330
1F
100
AcDbEntity
  8
0
  6
Continuous
 62
     7
100
AcDbLine
 10
2136.4841447069
 20
7383.4430734934
 30
0.0
 11
2135.9002320837
 21
7384.1924878362
 31
0.0
  0
LINE
  5
B7
330
1F
100
AcDbEntity
  8
0
  6
Continuous
 62
     7
100
AcDbLine
 10
2140.4686985893
 20
7386.5725822782
 30
0.0
 11
2140.7482589441
 21
7385.6646055068
 31
0.0
  0
LINE
  5
B8
330
1F
100
AcDbEntity
  8
0
  6
Continuous
 62
     7
100
AcDbLine
 10
2143.0453891721
 20
7389.2729840974
 30
0.0
 11
2142.1044210013
 21
7389.1420081034
 31
0.0
  0
LINE
  5
B9
330
1F
100
AcDbEntity
  8
0
  6
Continuous
 62
     7
100
AcDbLine
 10
2142.3274320041
 20
7394.2884633746
 30
0.0
 11
2143.2535431315
 21
7394.076581358
 31
0.0
  0
LINE
  5
BA
330
1F
100
AcDbEntity
  8
0
  6
Continuous
 62
     7
100
AcDbLine
 10
2141.2771607197
 20
7397.8701437864
 30
0.0
 11
2140.9201051723
 21
7396.9897534496
 31
0.0
  0
LINE
  5
BB
330
1F
100
AcDbEntity
  8
0
  6
Continuous
 62
     7
100
AcDbLine
 10
2136.5746496695
 20
7399.7561142788
 30
0.0
 11
2137.2212004421
 21
7400.4522090336
 31
0.0
  0
LINE
  5
BC
330
1F
100
AcDbEntity
  8
0
  6
Continuous
 62
     7
100
AcDbLine
 10
2132.9476878023
 20
7400.6373928716
 30
0.0
 11
2133.5316004257
 21
7399.8879785286
 31
0.0
  0
LINE
  5
BD
330
1F
100
AcDbEntity
  8
0
  6
Continuous
 62
     7
100
AcDbLine
 10
2128.9631339199
 20
7397.5078840868
 30
0.0
 11
2128.6835735653
 21
7398.415860858
 31
0.0
  0
LINE
  5
BE
330
1F
100
AcDbEntity
  8
0
  6
Continuous
 62
     7
100
AcDbLine
 10
2126.3864433373
 20
7394.8074822676
 30
0.0
 11
2127.3274115079
 21
7394.9384582616
 31
0.0
  0
LINE
  5
BF
330
1F
100
AcDbEntity
  8
0
  6
Continuous
 62
     7
100
AcDbLine
 10
2127.1044005051
 20
7389.7920029904
 30
0.0
 11
2126.1782893777
 21
7390.003885007
 31
0.0
  0
LINE
  5
C0
330
1F
100
AcDbEntity
  8
0
  6
Continuous
 62
     7
100
AcDbLine
 10
2128.1546717897
 20
7386.2103225784
 30
0.0
 11
2128.5117273369
 21
7387.0907129154
 31
0.0
  0
LINE
  5
C1
330
1F
100
AcDbEntity
  8
0
  6
Continuous
 62
     7
100
AcDbLine
 10
2132.8571828397
 20
7904.324352086
 30
0.0
 11
2132.2106320671
 21
7903.6282573312
 31
0.0
  0
LINE
  5
C2
330
1F
100
AcDbEntity
  8
0
  6
Continuous
 62
     7
100
AcDbLine
 10
2136.4841447069
 20
7903.4430734934
 30
0.0
 11
2135.9002320837
 21
7904.1924878362
 31
0.0
  0
LINE
  5
C3
330
1F
100
AcDbEntity
  8
0
  6
Continuous
 62
     7
100
AcDbLine
 10
2140.4686985893
 20
7906.5725822782
 30
0.0
 11
2140.7482589441
 21
7905.6646055068
 31
0.0
  0
LINE
  5
C4
330
1F
100
AcDbEntity
  8
0
  6
Continuous
 62
     7
100
AcDbLine
 10
2143.0453891721
 20
7909.2729840974
 30
0.0
 11
2142.1044210013
 21
7909.1420081034
 31
0.0
  0
LINE
  5
C5
330
1F
100
AcDbEntity
  8
0
  6
Continuous
 62
     7
100
AcDbLine
 10
2142.3274320041
 20
7914.2884633746
 30
0.0
 11
2143.2535431315
 21
7914.076581358
 31
0.0
  0
LINE
  5
C6
330
1F
100
AcDbEntity
  8
0
  6
Continuous
 62
     7
100
AcDbLine
 10
2141.2771607197
 20
7917.8701437864
 30
0.0
 11
2140.9201051723
 21
7916.9897534496
 31
0.0
  0
LINE
  5
C7
330
1F
100
AcDbEntity
  8
0
  6
Continuous
 62
     7
100
AcDbLine
 10
2136.5746496695
 20
7919.7561142788
 30
0.0
 11
2137.2212004421
 21
7920.4522090336
 31
0.0
  0
LINE
  5
C8
330
1F
100
AcDbEntity
  8
0
  6
Continuous
 62
     7
100
AcDbLine
 10
2132.9476878023
 20
7920.6373928716
 30
0.0
 11
2133.5316004257
 21
7919.8879785286
 31
0.0
  0
LINE
  5
C9
330
1F
100
AcDbEntity
  8
0
  6
Continuous
 62
     7
100
AcDbLine
 10
2128.9631339199
 20
7917.5078840868
 30
0.0
 11
2128.6835735653
 21
7918.415860858
 31
0.0
  0
LINE
  5
CA
330
1F
100
AcDbEntity
  8
0
  6
Continuous
 62
     7
100
AcDbLine
 10
2126.3864433373
 20
7914.8074822676
 30
0.0
 11
2127.3274115079
 21
7914.9384582616
 31
0.0
  0
LINE
  5
CB
330
1F
100
AcDbEntity
  8
0
  6
Continuous
 62
     7
100
AcDbLine
 10
2127.1044005051
 20
7909.7920029904
 30
0.0
 11
2126.1782893777
 21
7910.003885007
 31
0.0
  0
LINE
  5
CC
330
1F
100
AcDbEntity
  8
0
  6
Continuous
 62
     7
100
AcDbLine
 10
2128.1546717897
 20
7906.2103225784
 30
0.0
 11
2128.5117273369
 21
7907.0907129154
 31
0.0
  0
LINE
  5
CD
330
1F
100
AcDbEntity
  8
0
  6
Continuous
 62
     7
100
AcDbLine
 10
4012.8571828397
 20
7384.324352086
 30
0.0
 11
4012.2106320671
 21
7383.6282573312
 31
0.0
  0
LINE
  5
CE
330
1F
100
AcDbEntity
  8
0
  6
Continuous
 62
     7
100
AcDbLine
 10
4016.4841447069
 20
7383.4430734934
 30
0.0
 11
4015.9002320837
 21
7384.1924878362
 31
0.0
  0
LINE
  5
CF
330
1F
100
AcDbEntity
  8
0
  6
Continuous
 62
     7
100
AcDbLine
 10
4020.4686985893
 20
7386.5725822782
 30
0.0
 11
4020.7482589441
 21
7385.6646055068
 31
0.0
  0
LINE
  5
D0
330
1F
100
AcDbEntity
  8
0
  6
Continuous
 62
     7
100
AcDbLine
 10
4023.0453891721
 20
7389.2729840974
 30
0.0
 11
4022.1044210013
 21
7389.1420081034
 31
0.0
  0
LINE
  5
D1
330
1F
100
AcDbEntity
  8
0
  6
Continuous
 62
     7
100
AcDbLine
 10
4022.3274320041
 20
7394.2884633746
 30
0.0
 11
4023.2535431315
 21
7394.076581358
 31
0.0
  0
LINE
  5
D2
330
1F
100
AcDbEntity
  8
0
  6
Continuous
 62
     7
100
AcDbLine
 10
4021.2771607197
 20
7397.8701437864
 30
0.0
 11
4020.9201051723
 21
7396.9897534496
 31
0.0
  0
LINE
  5
D3
330
1F
100
AcDbEntity
  8
0
  6
Continuous
 62
     7
100
AcDbLine
 10
4016.5746496695
 20
7399.7561142788
 30
0.0
 11
4017.2212004421
 21
7400.4522090336
 31
0.0
  0
LINE
  5
D4
330
1F
100
AcDbEntity
  8
0
  6
Continuous
 62
     7
100
AcDbLine
 10
4012.9476878023
 20
7400.6373928716
 30
0.0
 11
4013.5316004257
 21
7399.8879785286
 31
0.0
  0
LINE
  5
D5
330
1F
100
AcDbEntity
  8
0
  6
Continuous
 62
     7
100
AcDbLine
 10
4008.9631339199
 20
7397.5078840868
 30
0.0
 11
4008.6835735653
 21
7398.415860858
 31
0.0
  0
LINE
  5
D6
330
1F
100
AcDbEntity
  8
0
  6
Continuous
 62
     7
100
AcDbLine
 10
4006.3864433373
 20
7394.8074822676
 30
0.0
 11
4007.3274115079
 21
7394.9384582616
 31
0.0
  0
LINE
  5
D7
330
1F
100
AcDbEntity
  8
0
  6
Continuous
 62
     7
100
AcDbLine
 10
4007.1044005051
 20
7389.7920029904
 30
0.0
 11
4006.1782893777
 21
7390.003885007
 31
0.0
  0
LINE
  5
D8
330
1F
100
AcDbEntity
  8
0
  6
Continuous
 62
     7
100
AcDbLine
 10
4008.1546717897
 20
7386.2103225784
 30
0.0
 11
4008.5117273369
 21
7387.0907129154
 31
0.0
  0
LINE
  5
D9
330
1F
100
AcDbEntity
  8
0
  6
Continuous
 62
     7
100
AcDbLine
 10
2078.7159162547
 20
7972.0402331824
 30
0.0
 11
2078.7159162547
 21
7332.0402331824
 31
0.0
  0
LINE
  5
DA
330
1F
100
AcDbEntity
  8
0
  6
Continuous
 62
     7
100
AcDbLine
 10
4054.7159162547
 20
7988.0402331824
 30
0.0
 11
2094.7159162547
 21
7988.0402331824
 31
0.0
  0
LINE
  5
DB
330
1F
100
AcDbEntity
  8
0
  6
Continuous
 62
     7
100
AcDbLine
 10
4070.7159162547
 20
7332.0402331824
 30
0.0
 11
4070.7159162547
 21
7972.0402331824
 31
0.0
  0
LINE
  5
DC
330
1F
100
AcDbEntity
  8
0
  6
Continuous
 62
     7
100
AcDbLine
 10
2094.7159162547
 20
7316.0402331824
 30
0.0
 11
4054.7159162547
 21
7316.0402331824
 31
0.0
  0
LINE
  5
DD
330
1F
100
AcDbEntity
  8
0
  6
Continuous
 62
     7
100
AcDbLine
 10
4074.7159162547
 20
7972.0402331824
 30
0.0
 11
4074.7159162547
 21
7332.0402331824
 31
0.0
  0
LINE
  5
DE
330
1F
100
AcDbEntity
  8
0
  6
Continuous
 62
     7
100
AcDbLine
 10
4074.7159162547
 20
7332.0402331824
 30
0.0
 11
4070.7159162547
 21
7332.0402331824
 31
0.0
  0
LINE
  5
DF
330
1F
100
AcDbEntity
  8
0
  6
Continuous
 62
     7
100
AcDbLine
 10
4074.7159162547
 20
7972.0402331824
 30
0.0
 11
4070.7159162547
 21
7972.0402331824
 31
0.0
  0
LINE
  5
E0
330
1F
100
AcDbEntity
  8
0
  6
Continuous
 62
     7
100
AcDbLine
 10
2078.7159162547
 20
7332.0402331824
 30
0.0
 11
2074.7159162547
 21
7332.0402331824
 31
0.0
  0
LINE
  5
E1
330
1F
100
AcDbEntity
  8
0
  6
Continuous
 62
     7
100
AcDbLine
 10
2074.7159162547
 20
7332.0402331824
 30
0.0
 11
2074.7159162547
 21
7972.0402331824
 31
0.0
  0
LINE
  5
E2
330
1F
100
AcDbEntity
  8
0
  6
Continuous
 62
     7
100
AcDbLine
 10
2078.7159162547
 20
7972.0402331824
 30
0.0
 11
2074.7159162547
 21
7972.0402331824
 31
0.0
  0
LINE
  5
E3
330
1F
100
AcDbEntity
  8
0
  6
Continuous
 62
     7
100
AcDbLine
 10
4054.7159162547
 20
7312.0402331824
 30
0.0
 11
4054.7159162547
 21
7316.0402331824
 31
0.0
  0
LINE
  5
E4
330
1F
100
AcDbEntity
  8
0
  6
Continuous
 62
     7
100
AcDbLine
 10
4054.7159162547
 20
7312.0402331824
 30
0.0
 11
2094.7159162547
 21
7312.0402331824
 31
0.0
  0
LINE
  5
E5
330
1F
100
AcDbEntity
  8
0
  6
Continuous
 62
     7
100
AcDbLine
 10
2094.7159162547
 20
7316.0402331824
 30
0.0
 11
2094.7159162547
 21
7312.0402331824
 31
0.0
  0
LINE
  5
E6
330
1F
100
AcDbEntity
  8
0
  6
Continuous
 62
     7
100
AcDbLine
 10
2094.7159162547
 20
7988.0402331824
 30
0.0
 11
2094.7159162547
 21
7992.0402331824
 31
0.0
  0
LINE
  5
E7
330
1F
100
AcDbEntity
  8
0
  6
Continuous
 62
     7
100
AcDbLine
 10
2094.7159162547
 20
7992.0402331824
 30
0.0
 11
4054.7159162547
 21
7992.0402331824
 31
0.0
  0
LINE
  5
E8
330
1F
100
AcDbEntity
  8
0
  6
Continuous
 62
     7
100
AcDbLine
 10
4054.7159162547
 20
7992.0402331824
 30
0.0
 11
4054.7159162547
 21
7988.0402331824
 31
0.0
  0
LINE
  5
E9
330
1F
100
AcDbEntity
  8
0
  6
Continuous
 62
     7
100
AcDbLine
 10
4726.3158101859
 20
7892.0402331824
 30
0.0
 11
5117.5158101859
 21
7892.0402331824
 31
0.0
  0
LINE
  5
EA
330
1F
100
AcDbEntity
  8
0
  6
Continuous
 62
     7
100
AcDbLine
 10
5117.5158101859
 20
7932.0402331824
 30
0.0
 11
4726.3158101859
 21
7932.0402331824
 31
0.0
  0
LINE
  5
EB
330
1F
100
AcDbEntity
  8
0
  6
Continuous
 62
     7
100
AcDbLine
 10
4726.3158101859
 20
7372.0402331824
 30
0.0
 11
5117.5158101859
 21
7372.0402331824
 31
0.0
  0
LINE
  5
EC
330
1F
100
AcDbEntity
  8
0
  6
Continuous
 62
     7
100
AcDbLine
 10
5117.5158101859
 20
7412.0402331824
 30
0.0
 11
4726.3158101859
 21
7412.0402331824
 31
0.0
  0
LINE
  5
ED
330
1F
100
AcDbEntity
  8
0
  6
Continuous
 62
     7
100
AcDbLine
 10
4675.7275168609
 20
7922.0402331824
 30
0.0
 11
4537.5158101859
 21
7922.0402331824
 31
0.0
  0
LINE
  5
EE
330
1F
100
AcDbEntity
  8
0
  6
Continuous
 62
     7
100
AcDbLine
 10
4537.5158101859
 20
7902.0402331824
 30
0.0
 11
4675.7275168609
 21
7902.0402331824
 31
0.0
  0
LINE
  5
EF
330
1F
100
AcDbEntity
  8
0
  6
Continuous
 62
     7
100
AcDbLine
 10
4537.5158101859
 20
7922.0402331824
 30
0.0
 11
4535.5158101859
 21
7920.0402331824
 31
0.0
  0
LINE
  5
F0
330
1F
100
AcDbEntity
  8
0
  6
Continuous
 62
     7
100
AcDbLine
 10
4535.5158101859
 20
7904.0402331824
 30
0.0
 11
4537.5158101859
 21
7902.0402331824
 31
0.0
  0
LINE
  5
F1
330
1F
100
AcDbEntity
  8
0
  6
Continuous
 62
     7
100
AcDbLine
 10
4675.7275168609
 20
7402.0402331824
 30
0.0
 11
4537.5158101859
 21
7402.0402331824
 31
0.0
  0
LINE
  5
F2
330
1F
100
AcDbEntity
  8
0
  6
Continuous
 62
     7
100
AcDbLine
 10
4537.5158101859
 20
7382.0402331824
 30
0.0
 11
4675.7275168609
 21
7382.0402331824
 31
0.0
  0
LINE
  5
F3
330
1F
100
AcDbEntity
  8
0
  6
Continuous
 62
     7
100
AcDbLine
 10
4537.5158101859
 20
7402.0402331824
 30
0.0
 11
4535.5158101859
 21
7400.0402331824
 31
0.0
  0
LINE
  5
F4
330
1F
100
AcDbEntity
  8
0
  6
Continuous
 62
     7
100
AcDbLine
 10
4535.5158101859
 20
7384.0402331824
 30
0.0
 11
4537.5158101859
 21
7382.0402331824
 31
0.0
  0
LINE
  5
F5
330
1F
100
AcDbEntity
  8
0
  6
Continuous
 62
     7
100
AcDbLine
 10
4723.7275168609
 20
7408.0402331824
 30
0.0
 11
4721.7275168609
 21
7406.0402331824
 31
0.0
  0
LINE
  5
F6
330
1F
100
AcDbEntity
  8
0
  6
Continuous
 62
     7
100
AcDbLine
 10
4721.7275168609
 20
7378.0402331824
 30
0.0
 11
4723.7275168609
 21
7376.0402331824
 31
0.0
  0
LINE
  5
F7
330
1F
100
AcDbEntity
  8
0
  6
Continuous
 62
     7
100
AcDbLine
 10
4721.7275168609
 20
7406.0402331824
 30
0.0
 11
4679.7275168609
 21
7406.0402331824
 31
0.0
  0
LINE
  5
F8
330
1F
100
AcDbEntity
  8
0
  6
Continuous
 62
     7
100
AcDbLine
 10
4679.7275168609
 20
7378.0402331824
 30
0.0
 11
4721.7275168609
 21
7378.0402331824
 31
0.0
  0
LINE
  5
F9
330
1F
100
AcDbEntity
  8
0
  6
Continuous
 62
     7
100
AcDbLine
 10
4679.7275168609
 20
7406.0402331824
 30
0.0
 11
4675.7275168609
 21
7402.0402331824
 31
0.0
  0
LINE
  5
FA
330
1F
100
AcDbEntity
  8
0
  6
Continuous
 62
     7
100
AcDbLine
 10
4675.7275168609
 20
7382.0402331824
 30
0.0
 11
4679.7275168609
 21
7378.0402331824
 31
0.0
  0
LINE
  5
FB
330
1F
100
AcDbEntity
  8
0
  6
Continuous
 62
     7
100
AcDbLine
 10
4723.7275168609
 20
7408.0402331824
 30
0.0
 11
4721.7275168609
 21
7406.0402331824
 31
0.0
  0
LINE
  5
FC
330
1F
100
AcDbEntity
  8
0
  6
Continuous
 62
     7
100
AcDbLine
 10
4721.7275168609
 20
7378.0402331824
 30
0.0
 11
4723.7275168609
 21
7376.0402331824
 31
0.0
  0
LINE
  5
FD
330
1F
100
AcDbEntity
  8
0
  6
Continuous
 62
     7
100
AcDbLine
 10
4721.7275168609
 20
7406.0402331824
 30
0.0
 11
4679.7275168609
 21
7406.0402331824
 31
0.0
  0
LINE
  5
FE
330
1F
100
AcDbEntity
  8
0
  6
Continuous
 62
     7
100
AcDbLine
 10
4679.7275168609
 20
7378.0402331824
 30
0.0
 11
4721.7275168609
 21
7378.0402331824
 31
0.0
  0
LINE
  5
FF
330
1F
100
AcDbEntity
  8
0
  6
Continuous
 62
     7
100
AcDbLine
 10
4679.7275168609
 20
7406.0402331824
 30
0.0
 11
4675.7275168609
 21
7402.0402331824
 31
0.0
  0
LINE
  5
100
330
1F
100
AcDbEntity
  8
0
  6
Continuous
 62
     7
100
AcDbLine
 10
4675.7275168609
 20
7382.0402331824
 30
0.0
 11
4679.7275168609
 21
7378.0402331824
 31
0.0
  0
LINE
  5
101
330
1F
100
AcDbEntity
  8
0
  6
Continuous
 62
     7
100
AcDbLine
 10
4723.7275168609
 20
7928.0402331824
 30
0.0
 11
4721.7275168609
 21
7926.0402331824
 31
0.0
  0
LINE
  5
102
330
1F
100
AcDbEntity
  8
0
  6
Continuous
 62
     7
100
AcDbLine
 10
4721.7275168609
 20
7898.0402331824
 30
0.0
 11
4723.7275168609
 21
7896.0402331824
 31
0.0
  0
LINE
  5
103
330
1F
100
AcDbEntity
  8
0
  6
Continuous
 62
     7
100
AcDbLine
 10
4721.7275168609
 20
7926.0402331824
 30
0.0
 11
4679.7275168609
 21
7926.0402331824
 31
0.0
  0
LINE
  5
104
330
1F
100
AcDbEntity
  8
0
  6
Continuous
 62
     7
100
AcDbLine
 10
4679.7275168609
 20
7898.0402331824
 30
0.0
 11
4721.7275168609
 21
7898.0402331824
 31
0.0
  0
LINE
  5
105
330
1F
100
AcDbEntity
  8
0
  6
Continuous
 62
     7
100
AcDbLine
 10
4679.7275168609
 20
7926.0402331824
 30
0.0
 11
4675.7275168609
 21
7922.0402331824
 31
0.0
  0
LINE
  5
106
330
1F
100
AcDbEntity
  8
0
  6
Continuous
 62
     7
100
AcDbLine
 10
4675.7275168609
 20
7902.0402331824
 30
0.0
 11
4679.7275168609
 21
7898.0402331824
 31
0.0
  0
LINE
  5
107
330
1F
100
AcDbEntity
  8
0
  6
Continuous
 62
     7
100
AcDbLine
 10
4723.7275168609
 20
7928.0402331824
 30
0.0
 11
4721.7275168609
 21
7926.0402331824
 31
0.0
  0
LINE
  5
108
330
1F
100
AcDbEntity
  8
0
  6
Continuous
 62
     7
100
AcDbLine
 10
4721.7275168609
 20
7898.0402331824
 30
0.0
 11
4723.7275168609
 21
7896.0402331824
 31
0.0
  0
LINE
  5
109
330
1F
100
AcDbEntity
  8
0
  6
Continuous
 62
     7
100
AcDbLine
 10
4721.7275168609
 20
7926.0402331824
 30
0.0
 11
4679.7275168609
 21
7926.0402331824
 31
0.0
  0
LINE
  5
10A
330
1F
100
AcDbEntity
  8
0
  6
Continuous
 62
     7
100
AcDbLine
 10
4679.7275168609
 20
7898.0402331824
 30
0.0
 11
4721.7275168609
 21
7898.0402331824
 31
0.0
  0
LINE
  5
10B
330
1F
100
AcDbEntity
  8
0
  6
Continuous
 62
     7
100
AcDbLine
 10
4679.7275168609
 20
7926.0402331824
 30
0.0
 11
4675.7275168609
 21
7922.0402331824
 31
0.0
  0
LINE
  5
10C
330
1F
100
AcDbEntity
  8
0
  6
Continuous
 62
     7
100
AcDbLine
 10
4675.7275168609
 20
7902.0402331824
 30
0.0
 11
4679.7275168609
 21
7898.0402331824
 31
0.0
  0
LINE
  5
10D
330
1F
100
AcDbEntity
  8
0
  6
Continuous
 62
     7
100
AcDbLine
 10
5139.5158101859
 20
7596.0402331824
 30
0.0
 11
5145.5158101859
 21
7602.0402331824
 31
0.0
  0
LINE
  5
10E
330
1F
100
AcDbEntity
  8
0
  6
Continuous
 62
     7
100
AcDbLine
 10
5145.5158101859
 20
7702.0402331824
 30
0.0
 11
5139.5158101859
 21
7708.0402331824
 31
0.0
  0
LINE
  5
10F
330
1F
100
AcDbEntity
  8
0
  6
Continuous
 62
     7
100
AcDbLine
 10
5137.5158101859
 20
7596.0402331824
 30
0.0
 11
5139.5158101859
 21
7596.0402331824
 31
0.0
  0
LINE
  5
110
330
1F
100
AcDbEntity
  8
0
  6
Continuous
 62
     7
100
AcDbLine
 10
5139.5158101859
 20
7708.0402331824
 30
0.0
 11
5137.5158101859
 21
7708.0402331824
 31
0.0
  0
LINE
  5
111
330
1F
100
AcDbEntity
  8
0
  6
Continuous
 62
     7
100
AcDbLine
 10
5094.4383068837
 20
7695.7627298802
 30
0.0
 11
5093.5158101859
 21
7694.8402331824
 31
0.0
  0
LINE
  5
112
330
1F
100
AcDbEntity
  8
0
  6
Continuous
 62
     7
100
AcDbLine
 10
5116.4840423837
 20
7696.813037885
 30
0.0
 11
5115.8216945863
 21
7695.6665242624
 31
0.0
  0
LINE
  5
113
330
1F
100
AcDbEntity
  8
0
  6
Continuous
 62
     7
100
AcDbLine
 10
5100.0162657377
 20
7696.8402331824
 30
0.0
 11
5098.5162657563
 21
7696.8402331824
 31
0.0
  0
LINE
  5
114
330
1F
100
AcDbEntity
  8
0
  6
Continuous
 62
     7
100
AcDbLine
 10
5101.5158101859
 20
7607.2402331824
 30
0.0
 11
5103.0158101675
 21
7607.2402331824
 31
0.0
  0
LINE
  5
115
330
1F
100
AcDbEntity
  8
0
  6
Continuous
 62
     7
100
AcDbLine
 10
5095.5158101859
 20
7607.2402331824
 30
0.0
 11
5097.0158101675
 21
7607.2402331824
 31
0.0
  0
LINE
  5
116
330
1F
100
AcDbEntity
  8
0
  6
Continuous
 62
     7
100
AcDbLine
 10
5093.5158101859
 20
7693.6402331824
 30
0.0
 11
5069.5158101859
 21
7693.6402331824
 31
0.0
  0
LINE
  5
117
330
1F
100
AcDbEntity
  8
0
  6
Continuous
 62
     7
100
AcDbLine
 10
5069.5158101859
 20
7610.4402331824
 30
0.0
 11
5092.8622747927
 21
7610.4402331824
 31
0.0
  0
LINE
  5
118
330
1F
100
AcDbEntity
  8
0
  6
Continuous
 62
     7
100
AcDbLine
 10
5117.5158101859
 20
7712.0402331824
 30
0.0
 11
5116.3158101859
 21
7712.0402331824
 31
0.0
  0
LINE
  5
119
330
1F
100
AcDbEntity
  8
0
  6
Continuous
 62
     7
100
AcDbLine
 10
5116.3158101859
 20
7592.0402331824
 30
0.0
 11
5117.5158101859
 21
7592.0402331824
 31
0.0
  0
LINE
  5
11A
330
1F
100
AcDbEntity
  8
0
  6
Continuous
 62
     7
100
AcDbLine
 10
4726.3158101859
 20
7384.8291516258
 30
0.0
 11
4723.7275168609
 21
7384.8291516258
 31
0.0
  0
LINE
  5
11B
330
1F
100
AcDbEntity
  8
0
  6
Continuous
 62
     7
100
AcDbLine
 10
4726.3158101859
 20
7373.7037648336
 30
0.0
 11
4723.7275168609
 21
7373.7037648336
 31
0.0
  0
LINE
  5
11C
330
1F
100
AcDbEntity
  8
0
  6
Continuous
 62
     7
100
AcDbLine
 10
4723.7275168609
 20
7384.8291516258
 30
0.0
 11
4723.7275168609
 21
7373.7037648336
 31
0.0
  0
LINE
  5
11D
330
1F
100
AcDbEntity
  8
0
  6
Continuous
 62
     7
100
AcDbLine
 10
4726.3158101859
 20
7403.1656199746
 30
0.0
 11
4723.7275168609
 21
7403.1656199746
 31
0.0
  0
LINE
  5
11E
330
1F
100
AcDbEntity
  8
0
  6
Continuous
 62
     7
100
AcDbLine
 10
4723.7275168609
 20
7403.1656199746
 30
0.0
 11
4723.7275168609
 21
7384.8291516258
 31
0.0
  0
LINE
  5
11F
330
1F
100
AcDbEntity
  8
0
  6
Continuous
 62
     7
100
AcDbLine
 10
4726.3158101859
 20
7410.3767015312
 30
0.0
 11
4723.7275168609
 21
7410.3767015312
 31
0.0
  0
LINE
  5
120
330
1F
100
AcDbEntity
  8
0
  6
Continuous
 62
     7
100
AcDbLine
 10
4723.7275168609
 20
7410.3767015312
 30
0.0
 11
4723.7275168609
 21
7403.1656199746
 31
0.0
  0
LINE
  5
121
330
1F
100
AcDbEntity
  8
0
  6
Continuous
 62
     7
100
AcDbLine
 10
4726.3158101859
 20
7904.8291516258
 30
0.0
 11
4723.7275168609
 21
7904.8291516258
 31
0.0
  0
LINE
  5
122
330
1F
100
AcDbEntity
  8
0
  6
Continuous
 62
     7
100
AcDbLine
 10
4726.3158101859
 20
7893.7037648336
 30
0.0
 11
4723.7275168609
 21
7893.7037648336
 31
0.0
  0
LINE
  5
123
330
1F
100
AcDbEntity
  8
0
  6
Continuous
 62
     7
100
AcDbLine
 10
4723.7275168609
 20
7904.8291516258
 30
0.0
 11
4723.7275168609
 21
7893.7037648336
 31
0.0
  0
LINE
  5
124
330
1F
100
AcDbEntity
  8
0
  6
Continuous
 62
     7
100
AcDbLine
 10
4726.3158101859
 20
7923.1656199746
 30
0.0
 11
4723.7275168609
 21
7923.1656199746
 31
0.0
  0
LINE
  5
125
330
1F
100
AcDbEntity
  8
0
  6
Continuous
 62
     7
100
AcDbLine
 10
4723.7275168609
 20
7923.1656199746
 30
0.0
 11
4723.7275168609
 21
7904.8291516258
 31
0.0
  0
LINE
  5
126
330
1F
100
AcDbEntity
  8
0
  6
Continuous
 62
     7
100
AcDbLine
 10
4726.3158101859
 20
7930.3767015312
 30
0.0
 11
4723.7275168609
 21
7930.3767015312
 31
0.0
  0
LINE
  5
127
330
1F
100
AcDbEntity
  8
0
  6
Continuous
 62
     7
100
AcDbLine
 10
4723.7275168609
 20
7930.3767015312
 30
0.0
 11
4723.7275168609
 21
7923.1656199746
 31
0.0
  0
LINE
  5
128
330
1F
100
AcDbEntity
  8
0
  6
Continuous
 62
     7
100
AcDbLine
 10
4726.3158101859
 20
7892.0743713636
 30
0.0
 11
4726.3158101859
 21
7892.0402331824
 31
0.0
  0
LINE
  5
129
330
1F
100
AcDbEntity
  8
0
  6
Continuous
 62
     7
100
AcDbLine
 10
4726.3158101859
 20
7932.0402331824
 30
0.0
 11
4726.3158101859
 21
7892.0743713636
 31
0.0
  0
LINE
  5
12A
330
1F
100
AcDbEntity
  8
0
  6
Continuous
 62
     7
100
AcDbLine
 10
4726.3158101859
 20
7372.0743713636
 30
0.0
 11
4726.3158101859
 21
7372.0402331824
 31
0.0
  0
LINE
  5
12B
330
1F
100
AcDbEntity
  8
0
  6
Continuous
 62
     7
100
AcDbLine
 10
4726.3158101859
 20
7412.0402331824
 30
0.0
 11
4726.3158101859
 21
7372.0743713636
 31
0.0
  0
LINE
  5
12C
330
1F
100
AcDbEntity
  8
0
  6
Continuous
 62
     7
100
AcDbLine
 10
4537.5158101859
 20
7905.7322848472
 30
0.0
 11
4537.5158101859
 21
7902.0402331824
 31
0.0
  0
LINE
  5
12D
330
1F
100
AcDbEntity
  8
0
  6
Continuous
 62
     7
100
AcDbLine
 10
4537.5158101859
 20
7922.0402331824
 30
0.0
 11
4537.5158101859
 21
7905.7322848472
 31
0.0
  0
LINE
  5
12E
330
1F
100
AcDbEntity
  8
0
  6
Continuous
 62
     7
100
AcDbLine
 10
4535.5158101859
 20
7906.9938745142
 30
0.0
 11
4535.5158101859
 21
7920.0402331824
 31
0.0
  0
LINE
  5
12F
330
1F
100
AcDbEntity
  8
0
  6
Continuous
 62
     7
100
AcDbLine
 10
4535.5158101859
 20
7904.0402331824
 30
0.0
 11
4535.5158101859
 21
7906.9938745142
 31
0.0
  0
LINE
  5
130
330
1F
100
AcDbEntity
  8
0
  6
Continuous
 62
     7
100
AcDbLine
 10
4537.5158101859
 20
7385.7322848472
 30
0.0
 11
4537.5158101859
 21
7382.0402331824
 31
0.0
  0
LINE
  5
131
330
1F
100
AcDbEntity
  8
0
  6
Continuous
 62
     7
100
AcDbLine
 10
4537.5158101859
 20
7402.0402331824
 30
0.0
 11
4537.5158101859
 21
7385.7322848472
 31
0.0
  0
LINE
  5
132
330
1F
100
AcDbEntity
  8
0
  6
Continuous
 62
     7
100
AcDbLine
 10
4535.5158101859
 20
7386.9938745142
 30
0.0
 11
4535.5158101859
 21
7400.0402331824
 31
0.0
  0
LINE
  5
133
330
1F
100
AcDbEntity
  8
0
  6
Continuous
 62
     7
100
AcDbLine
 10
4535.5158101859
 20
7384.0402331824
 30
0.0
 11
4535.5158101859
 21
7386.9938745142
 31
0.0
  0
LINE
  5
134
330
1F
100
AcDbEntity
  8
0
  6
Continuous
 62
     7
100
AcDbLine
 10
4721.7275168609
 20
7406.0402331824
 30
0.0
 11
4721.7275168609
 21
7378.0402331824
 31
0.0
  0
LINE
  5
135
330
1F
100
AcDbEntity
  8
0
  6
Continuous
 62
     7
100
AcDbLine
 10
4679.7275168609
 20
7386.585144347
 30
0.0
 11
4679.7275168609
 21
7378.0402331824
 31
0.0
  0
LINE
  5
136
330
1F
100
AcDbEntity
  8
0
  6
Continuous
 62
     7
100
AcDbLine
 10
4675.7275168609
 20
7388.1437411572
 30
0.0
 11
4675.7275168609
 21
7402.0402331824
 31
0.0
  0
LINE
  5
137
330
1F
100
AcDbEntity
  8
0
  6
Continuous
 62
     7
100
AcDbLine
 10
4721.7275168609
 20
7926.0402331824
 30
0.0
 11
4721.7275168609
 21
7898.0402331824
 31
0.0
  0
LINE
  5
138
330
1F
100
AcDbEntity
  8
0
  6
Continuous
 62
     7
100
AcDbLine
 10
4679.7275168609
 20
7906.585144347
 30
0.0
 11
4679.7275168609
 21
7898.0402331824
 31
0.0
  0
LINE
  5
139
330
1F
100
AcDbEntity
  8
0
  6
Continuous
 62
     7
100
AcDbLine
 10
4675.7275168609
 20
7908.1437411572
 30
0.0
 11
4675.7275168609
 21
7922.0402331824
 31
0.0
  0
LINE
  5
13A
330
1F
100
AcDbEntity
  8
0
  6
Continuous
 62
     7
100
AcDbLine
 10
5125.5158101859
 20
7372.0402331824
 30
0.0
 11
5125.5158101859
 21
7932.0402331824
 31
0.0
  0
LINE
  5
13B
330
1F
100
AcDbEntity
  8
0
  6
Continuous
 62
     7
100
AcDbLine
 10
5125.5158101859
 20
7372.0402331824
 30
0.0
 11
5117.5158101859
 21
7372.0402331824
 31
0.0
  0
LINE
  5
13C
330
1F
100
AcDbEntity
  8
0
  6
Continuous
 62
     7
100
AcDbLine
 10
5117.5158101859
 20
7372.0402331824
 30
0.0
 11
5117.5158101859
 21
7932.0402331824
 31
0.0
  0
LINE
  5
13D
330
1F
100
AcDbEntity
  8
0
  6
Continuous
 62
     7
100
AcDbLine
 10
5125.5158101859
 20
7932.0402331824
 30
0.0
 11
5117.5158101859
 21
7932.0402331824
 31
0.0
  0
LINE
  5
13E
330
1F
100
AcDbEntity
  8
0
  6
Continuous
 62
     7
100
AcDbLine
 10
5125.5158101859
 20
7968.0402331824
 30
0.0
 11
5125.5158101859
 21
7932.0402331824
 31
0.0
  0
LINE
  5
13F
330
1F
100
AcDbEntity
  8
0
  6
Continuous
 62
     7
100
AcDbLine
 10
5117.5158101859
 20
7932.0402331824
 30
0.0
 11
5117.5158101859
 21
7968.0402331824
 31
0.0
  0
LINE
  5
140
330
1F
100
AcDbEntity
  8
0
  6
Continuous
 62
     7
100
AcDbLine
 10
5117.5158101859
 20
7968.0402331824
 30
0.0
 11
5125.5158101859
 21
7968.0402331824
 31
0.0
  0
LINE
  5
141
330
1F
100
AcDbEntity
  8
0
  6
Continuous
 62
     7
100
AcDbLine
 10
5125.5158101859
 20
7372.0402331824
 30
0.0
 11
5125.5158101859
 21
7336.0402331824
 31
0.0
  0
LINE
  5
142
330
1F
100
AcDbEntity
  8
0
  6
Continuous
 62
     7
100
AcDbLine
 10
5125.5158101859
 20
7336.0402331824
 30
0.0
 11
5117.5158101859
 21
7336.0402331824
 31
0.0
  0
LINE
  5
143
330
1F
100
AcDbEntity
  8
0
  6
Continuous
 62
     7
100
AcDbLine
 10
5117.5158101859
 20
7336.0402331824
 30
0.0
 11
5117.5158101859
 21
7372.0402331824
 31
0.0
  0
LINE
  5
144
330
1F
100
AcDbEntity
  8
0
  6
Continuous
 62
     7
100
AcDbLine
 10
5125.5158101859
 20
7972.0402331824
 30
0.0
 11
5125.5158101859
 21
7992.0402331824
 31
0.0
  0
LINE
  5
145
330
1F
100
AcDbEntity
  8
0
  6
Continuous
 62
     7
100
AcDbLine
 10
5125.5158101859
 20
7992.0402331824
 30
0.0
 11
5133.5158101859
 21
7992.0402331824
 31
0.0
  0
LINE
  5
146
330
1F
100
AcDbEntity
  8
0
  6
Continuous
 62
     7
100
AcDbLine
 10
5133.5158101859
 20
7972.0402331824
 30
0.0
 11
5133.5158101859
 21
7992.0402331824
 31
0.0
  0
LINE
  5
147
330
1F
100
AcDbEntity
  8
0
  6
Continuous
 62
     7
100
AcDbLine
 10
5133.5158101859
 20
7972.0402331824
 30
0.0
 11
5125.5158101859
 21
7972.0402331824
 31
0.0
  0
LINE
  5
148
330
1F
100
AcDbEntity
  8
0
  6
Continuous
 62
     7
100
AcDbLine
 10
5125.5158101859
 20
7312.0402331824
 30
0.0
 11
5125.5158101859
 21
7332.0402331824
 31
0.0
  0
LINE
  5
149
330
1F
100
AcDbEntity
  8
0
  6
Continuous
 62
     7
100
AcDbLine
 10
5125.5158101859
 20
7332.0402331824
 30
0.0
 11
5133.5158101859
 21
7332.0402331824
 31
0.0
  0
LINE
  5
14A
330
1F
100
AcDbEntity
  8
0
  6
Continuous
 62
     7
100
AcDbLine
 10
5133.5158101859
 20
7312.0402331824
 30
0.0
 11
5133.5158101859
 21
7332.0402331824
 31
0.0
  0
LINE
  5
14B
330
1F
100
AcDbEntity
  8
0
  6
Continuous
 62
     7
100
AcDbLine
 10
5133.5158101859
 20
7312.0402331824
 30
0.0
 11
5125.5158101859
 21
7312.0402331824
 31
0.0
  0
LINE
  5
14C
330
1F
100
AcDbEntity
  8
0
  6
Continuous
 62
     7
100
AcDbLine
 10
5133.5158101859
 20
7332.0402331824
 30
0.0
 11
5133.5158101859
 21
7972.0402331824
 31
0.0
  0
LINE
  5
14D
330
1F
100
AcDbEntity
  8
0
  6
Continuous
 62
     7
100
AcDbLine
 10
5125.5158101859
 20
7972.0402331824
 30
0.0
 11
5125.5158101859
 21
7332.0402331824
 31
0.0
  0
LINE
  5
14E
330
1F
100
AcDbEntity
  8
0
  6
Continuous
 62
     7
100
AcDbLine
 10
5137.5158101859
 20
7332.0402331824
 30
0.0
 11
5137.5158101859
 21
7316.0402331824
 31
0.0
  0
LINE
  5
14F
330
1F
100
AcDbEntity
  8
0
  6
Continuous
 62
     7
100
AcDbLine
 10
5137.5158101859
 20
7316.0402331824
 30
0.0
 11
5133.5158101859
 21
7312.0402331824
 31
0.0
  0
LINE
  5
150
330
1F
100
AcDbEntity
  8
0
  6
Continuous
 62
     7
100
AcDbLine
 10
5137.5158101859
 20
7332.0402331824
 30
0.0
 11
5133.5158101859
 21
7332.0402331824
 31
0.0
  0
LINE
  5
151
330
1F
100
AcDbEntity
  8
0
  6
Continuous
 62
     7
100
AcDbLine
 10
5137.5158101859
 20
7972.0402331824
 30
0.0
 11
5137.5158101859
 21
7332.0402331824
 31
0.0
  0
LINE
  5
152
330
1F
100
AcDbEntity
  8
0
  6
Continuous
 62
     7
100
AcDbLine
 10
5137.5158101859
 20
7972.0402331824
 30
0.0
 11
5133.5158101859
 21
7972.0402331824
 31
0.0
  0
LINE
  5
153
330
1F
100
AcDbEntity
  8
0
  6
Continuous
 62
     7
100
AcDbLine
 10
5137.5158101859
 20
7988.0402331824
 30
0.0
 11
5137.5158101859
 21
7972.0402331824
 31
0.0
  0
LINE
  5
154
330
1F
100
AcDbEntity
  8
0
  6
Continuous
 62
     7
100
AcDbLine
 10
5137.5158101859
 20
7988.0402331824
 30
0.0
 11
5133.5158101859
 21
7992.0402331824
 31
0.0
  0
LINE
  5
155
330
1F
100
AcDbEntity
  8
0
  6
Continuous
 62
     7
100
AcDbLine
 10
5105.7656066217
 20
7699.5856408676
 30
0.0
 11
5105.7656066217
 21
7703.0402331824
 31
0.0
  0
LINE
  5
156
330
1F
100
AcDbEntity
  8
0
  6
Continuous
 62
     7
100
AcDbLine
 10
5105.7656066217
 20
7648.5856408676
 30
0.0
 11
5105.7656066217
 21
7655.4948254974
 31
0.0
  0
LINE
  5
157
330
1F
100
AcDbEntity
  8
0
  6
Continuous
 62
     7
100
AcDbLine
 10
5105.7656066217
 20
7601.0402331824
 30
0.0
 11
5105.7656066217
 21
7604.4948254974
 31
0.0
  0
LINE
  5
158
330
1F
100
AcDbEntity
  8
0
  6
Continuous
 62
     7
100
AcDbLine
 10
5104.5569713611
 20
7601.0402331824
 30
0.0
 11
5105.7656066217
 21
7601.0402331824
 31
0.0
  0
LINE
  5
159
330
1F
100
AcDbEntity
  8
0
  6
Continuous
 62
     7
100
AcDbLine
 10
5104.3158101859
 20
7700.9299606398
 30
0.0
 11
5104.3158101859
 21
7603.1505057252
 31
0.0
  0
LINE
  5
15A
330
1F
100
AcDbEntity
  8
0
  6
Continuous
 62
     7
100
AcDbLine
 10
5114.8660137499
 20
7655.4948254974
 30
0.0
 11
5114.8660137499
 21
7648.5856408676
 31
0.0
  0
LINE
  5
15B
330
1F
100
AcDbEntity
  8
0
  6
Continuous
 62
     7
100
AcDbLine
 10
5105.7656066217
 20
7648.5856408676
 30
0.0
 11
5114.8660137499
 21
7648.5856408676
 31
0.0
  0
LINE
  5
15C
330
1F
100
AcDbEntity
  8
0
  6
Continuous
 62
     7
100
AcDbLine
 10
5114.8660137499
 20
7655.4948254974
 30
0.0
 11
5105.7656066217
 21
7655.4948254974
 31
0.0
  0
LINE
  5
15D
330
1F
100
AcDbEntity
  8
0
  6
Continuous
 62
     7
100
AcDbLine
 10
5114.8660137499
 20
7604.4948254974
 30
0.0
 11
5114.8660137499
 21
7601.0402331824
 31
0.0
  0
LINE
  5
15E
330
1F
100
AcDbEntity
  8
0
  6
Continuous
 62
     7
100
AcDbLine
 10
5114.8660137499
 20
7703.0402331824
 30
0.0
 11
5114.8660137499
 21
7699.5856408676
 31
0.0
  0
LINE
  5
15F
330
1F
100
AcDbEntity
  8
0
  6
Continuous
 62
     7
100
AcDbLine
 10
5116.0746490105
 20
7703.0402331824
 30
0.0
 11
5114.8660137499
 21
7703.0402331824
 31
0.0
  0
LINE
  5
160
330
1F
100
AcDbEntity
  8
0
  6
Continuous
 62
     7
100
AcDbLine
 10
5105.7656066217
 20
7699.5856408676
 30
0.0
 11
5114.8660137499
 21
7699.5856408676
 31
0.0
  0
LINE
  5
161
330
1F
100
AcDbEntity
  8
0
  6
Continuous
 62
     7
100
AcDbLine
 10
5114.8660137499
 20
7604.4948254974
 30
0.0
 11
5105.7656066217
 21
7604.4948254974
 31
0.0
  0
LINE
  5
162
330
1F
100
AcDbEntity
  8
0
  6
Continuous
 62
     7
100
AcDbLine
 10
5105.7656066217
 20
7601.0402331824
 30
0.0
 11
5114.8660137499
 21
7601.0402331824
 31
0.0
  0
LINE
  5
163
330
1F
100
AcDbEntity
  8
0
  6
Continuous
 62
     7
100
AcDbLine
 10
5114.8660137499
 20
7703.0402331824
 30
0.0
 11
5105.7656066217
 21
7703.0402331824
 31
0.0
  0
LINE
  5
164
330
1F
100
AcDbEntity
  8
0
  6
Continuous
 62
     7
100
AcDbLine
 10
5145.5158101859
 20
7702.0402331824
 30
0.0
 11
5145.5158101859
 21
7602.0402331824
 31
0.0
  0
LINE
  5
165
330
1F
100
AcDbEntity
  8
0
  6
Continuous
 62
     7
100
AcDbLine
 10
5139.5158101859
 20
7596.0402331824
 30
0.0
 11
5139.5158101859
 21
7708.0402331824
 31
0.0
  0
LINE
  5
166
330
1F
100
AcDbEntity
  8
0
  6
Continuous
 62
     7
100
AcDbLine
 10
5093.5158101858
 20
7625.0562167443
 30
0.0
 11
5093.5158101859
 21
7694.8402331824
 31
0.0
  0
LINE
  5
167
330
1F
100
AcDbEntity
  8
0
  6
Continuous
 62
     7
100
AcDbLine
 10
5095.5158101858
 20
7652.0402322792
 30
0.0
 11
5095.5158101859
 21
7607.2402331824
 31
0.0
  0
LINE
  5
168
330
1F
100
AcDbEntity
  8
0
  6
Continuous
 62
     7
100
AcDbLine
 10
5098.5004532901
 20
7696.8338323524
 30
0.0
 11
5098.4830638593
 21
7696.7129525104
 31
0.0
  0
LINE
  5
169
330
1F
100
AcDbEntity
  8
0
  6
Continuous
 62
     7
100
AcDbLine
 10
5092.7720456491
 20
7627.5884364566
 30
0.0
 11
5091.9670876297
 21
7627.5884364566
 31
0.0
  0
LINE
  5
16A
330
1F
100
AcDbEntity
  8
0
  6
Continuous
 62
     7
100
AcDbLine
 10
5069.5158101859
 20
7652.0402331824
 30
0.0
 11
5069.5158101859
 21
7693.6402331824
 31
0.0
  0
LINE
  5
16B
330
1F
100
AcDbEntity
  8
0
  6
Continuous
 62
     7
100
AcDbLine
 10
5069.5158101859
 20
7610.4402331824
 30
0.0
 11
5069.5158101859
 21
7652.0402331824
 31
0.0
  0
LINE
  5
16C
330
1F
100
AcDbEntity
  8
0
  6
Continuous
 62
     7
100
AcDbLine
 10
5116.3158101859
 20
7592.0402331824
 30
0.0
 11
5116.3158101859
 21
7712.0402331824
 31
0.0
  0
LINE
  5
16D
330
1F
100
AcDbEntity
  8
0
  6
Continuous
 62
     7
100
AcDbLine
 10
4030.7159162547
 20
6676.6555089814
 30
0.0
 11
4028.7159162547
 21
6678.6555089814
 31
0.0
  0
LINE
  5
16E
330
1F
100
AcDbEntity
  8
0
  6
Continuous
 62
     7
100
AcDbLine
 10
4000.7159162547
 20
6678.6555089814
 30
0.0
 11
3998.7159162547
 21
6676.6555089814
 31
0.0
  0
LINE
  5
16F
330
1F
100
AcDbEntity
  8
0
  6
Continuous
 62
     7
100
AcDbLine
 10
4028.7159162547
 20
6678.6555089814
 30
0.0
 11
4028.7159162547
 21
6720.6555089814
 31
0.0
  0
LINE
  5
170
330
1F
100
AcDbEntity
  8
0
  6
Continuous
 62
     7
100
AcDbLine
 10
4000.7159162547
 20
6720.6555089814
 30
0.0
 11
4000.7159162547
 21
6678.6555089814
 31
0.0
  0
LINE
  5
171
330
1F
100
AcDbEntity
  8
0
  6
Continuous
 62
     7
100
AcDbLine
 10
4028.7159162547
 20
6720.6555089814
 30
0.0
 11
4024.7159162547
 21
6724.6555089814
 31
0.0
  0
LINE
  5
172
330
1F
100
AcDbEntity
  8
0
  6
Continuous
 62
     7
100
AcDbLine
 10
4004.7159162547
 20
6724.6555089814
 30
0.0
 11
4000.7159162547
 21
6720.6555089814
 31
0.0
  0
LINE
  5
173
330
1F
100
AcDbEntity
  8
0
  6
Continuous
 62
     7
100
AcDbLine
 10
2114.7159162547
 20
6674.0672156564
 30
0.0
 11
2114.7159162547
 21
6282.8672156564
 31
0.0
  0
LINE
  5
174
330
1F
100
AcDbEntity
  8
0
  6
Continuous
 62
     7
100
AcDbLine
 10
2154.7159162547
 20
6282.8672156564
 30
0.0
 11
2154.7159162547
 21
6674.0672156564
 31
0.0
  0
LINE
  5
175
330
1F
100
AcDbEntity
  8
0
  6
Continuous
 62
     7
100
AcDbLine
 10
3994.7159162547
 20
6674.0672156564
 30
0.0
 11
3994.7159162547
 21
6282.8672156564
 31
0.0
  0
LINE
  5
176
330
1F
100
AcDbEntity
  8
0
  6
Continuous
 62
     7
100
AcDbLine
 10
4034.7159162547
 20
6282.8672156564
 30
0.0
 11
4034.7159162547
 21
6674.0672156564
 31
0.0
  0
LINE
  5
177
330
1F
100
AcDbEntity
  8
0
  6
Continuous
 62
     7
100
AcDbLine
 10
2144.7159162547
 20
6724.6555089814
 30
0.0
 11
2144.7159162547
 21
6862.8672156564
 31
0.0
  0
LINE
  5
178
330
1F
100
AcDbEntity
  8
0
  6
Continuous
 62
     7
100
AcDbLine
 10
2124.7159162547
 20
6862.8672156564
 30
0.0
 11
2124.7159162547
 21
6724.6555089814
 31
0.0
  0
LINE
  5
179
330
1F
100
AcDbEntity
  8
0
  6
Continuous
 62
     7
100
AcDbLine
 10
2144.7159162547
 20
6862.8672156564
 30
0.0
 11
2142.7159162547
 21
6864.8672156564
 31
0.0
  0
LINE
  5
17A
330
1F
100
AcDbEntity
  8
0
  6
Continuous
 62
     7
100
AcDbLine
 10
2126.7159162547
 20
6864.8672156564
 30
0.0
 11
2124.7159162547
 21
6862.8672156564
 31
0.0
  0
LINE
  5
17B
330
1F
100
AcDbEntity
  8
0
  6
Continuous
 62
     7
100
AcDbLine
 10
4024.7159162547
 20
6724.6555089814
 30
0.0
 11
4024.7159162547
 21
6862.8672156564
 31
0.0
  0
LINE
  5
17C
330
1F
100
AcDbEntity
  8
0
  6
Continuous
 62
     7
100
AcDbLine
 10
4004.7159162547
 20
6862.8672156564
 30
0.0
 11
4004.7159162547
 21
6724.6555089814
 31
0.0
  0
LINE
  5
17D
330
1F
100
AcDbEntity
  8
0
  6
Continuous
 62
     7
100
AcDbLine
 10
4024.7159162547
 20
6862.8672156564
 30
0.0
 11
4022.7159162547
 21
6864.8672156564
 31
0.0
  0
LINE
  5
17E
330
1F
100
AcDbEntity
  8
0
  6
Continuous
 62
     7
100
AcDbLine
 10
4006.7159162547
 20
6864.8672156564
 30
0.0
 11
4004.7159162547
 21
6862.8672156564
 31
0.0
  0
LINE
  5
17F
330
1F
100
AcDbEntity
  8
0
  6
Continuous
 62
     7
100
AcDbLine
 10
4030.7159162547
 20
6676.6555089814
 30
0.0
 11
4028.7159162547
 21
6678.6555089814
 31
0.0
  0
LINE
  5
180
330
1F
100
AcDbEntity
  8
0
  6
Continuous
 62
     7
100
AcDbLine
 10
4000.7159162547
 20
6678.6555089814
 30
0.0
 11
3998.7159162547
 21
6676.6555089814
 31
0.0
  0
LINE
  5
181
330
1F
100
AcDbEntity
  8
0
  6
Continuous
 62
     7
100
AcDbLine
 10
4028.7159162547
 20
6720.6555089814
 30
0.0
 11
4024.7159162547
 21
6724.6555089814
 31
0.0
  0
LINE
  5
182
330
1F
100
AcDbEntity
  8
0
  6
Continuous
 62
     7
100
AcDbLine
 10
4004.7159162547
 20
6724.6555089814
 30
0.0
 11
4000.7159162547
 21
6720.6555089814
 31
0.0
  0
LINE
  5
183
330
1F
100
AcDbEntity
  8
0
  6
Continuous
 62
     7
100
AcDbLine
 10
4028.7159162547
 20
6678.6555089814
 30
0.0
 11
4028.7159162547
 21
6720.6555089814
 31
0.0
  0
LINE
  5
184
330
1F
100
AcDbEntity
  8
0
  6
Continuous
 62
     7
100
AcDbLine
 10
4000.7159162547
 20
6720.6555089814
 30
0.0
 11
4000.7159162547
 21
6678.6555089814
 31
0.0
  0
LINE
  5
185
330
1F
100
AcDbEntity
  8
0
  6
Continuous
 62
     7
100
AcDbLine
 10
2150.7159162547
 20
6676.6555089814
 30
0.0
 11
2148.7159162547
 21
6678.6555089814
 31
0.0
  0
LINE
  5
186
330
1F
100
AcDbEntity
  8
0
  6
Continuous
 62
     7
100
AcDbLine
 10
2120.7159162547
 20
6678.6555089814
 30
0.0
 11
2118.7159162547
 21
6676.6555089814
 31
0.0
  0
LINE
  5
187
330
1F
100
AcDbEntity
  8
0
  6
Continuous
 62
     7
100
AcDbLine
 10
2148.7159162547
 20
6720.6555089814
 30
0.0
 11
2144.7159162547
 21
6724.6555089814
 31
0.0
  0
LINE
  5
188
330
1F
100
AcDbEntity
  8
0
  6
Continuous
 62
     7
100
AcDbLine
 10
2124.7159162547
 20
6724.6555089814
 30
0.0
 11
2120.7159162547
 21
6720.6555089814
 31
0.0
  0
LINE
  5
189
330
1F
100
AcDbEntity
  8
0
  6
Continuous
 62
     7
100
AcDbLine
 10
2148.7159162547
 20
6678.6555089814
 30
0.0
 11
2148.7159162547
 21
6720.6555089814
 31
0.0
  0
LINE
  5
18A
330
1F
100
AcDbEntity
  8
0
  6
Continuous
 62
     7
100
AcDbLine
 10
2120.7159162547
 20
6720.6555089814
 30
0.0
 11
2120.7159162547
 21
6678.6555089814
 31
0.0
  0
LINE
  5
18B
330
1F
100
AcDbEntity
  8
0
  6
Continuous
 62
     7
100
AcDbLine
 10
2150.7159162547
 20
6676.6555089814
 30
0.0
 11
2148.7159162547
 21
6678.6555089814
 31
0.0
  0
LINE
  5
18C
330
1F
100
AcDbEntity
  8
0
  6
Continuous
 62
     7
100
AcDbLine
 10
2120.7159162547
 20
6678.6555089814
 30
0.0
 11
2118.7159162547
 21
6676.6555089814
 31
0.0
  0
LINE
  5
18D
330
1F
100
AcDbEntity
  8
0
  6
Continuous
 62
     7
100
AcDbLine
 10
2148.7159162547
 20
6720.6555089814
 30
0.0
 11
2144.7159162547
 21
6724.6555089814
 31
0.0
  0
LINE
  5
18E
330
1F
100
AcDbEntity
  8
0
  6
Continuous
 62
     7
100
AcDbLine
 10
2124.7159162547
 20
6724.6555089814
 30
0.0
 11
2120.7159162547
 21
6720.6555089814
 31
0.0
  0
LINE
  5
18F
330
1F
100
AcDbEntity
  8
0
  6
Continuous
 62
     7
100
AcDbLine
 10
2148.7159162547
 20
6678.6555089814
 30
0.0
 11
2148.7159162547
 21
6720.6555089814
 31
0.0
  0
LINE
  5
190
330
1F
100
AcDbEntity
  8
0
  6
Continuous
 62
     7
100
AcDbLine
 10
2120.7159162547
 20
6720.6555089814
 30
0.0
 11
2120.7159162547
 21
6678.6555089814
 31
0.0
  0
LINE
  5
191
330
1F
100
AcDbEntity
  8
0
  6
Continuous
 62
     7
100
AcDbLine
 10
3017.7159162547
 20
6294.6174192206
 30
0.0
 11
3017.7159162547
 21
6285.5170120924
 31
0.0
  0
LINE
  5
192
330
1F
100
AcDbEntity
  8
0
  6
Continuous
 62
     7
100
AcDbLine
 10
3131.7159162547
 20
6285.5170120924
 30
0.0
 11
3131.7159162547
 21
6294.6174192206
 31
0.0
  0
LINE
  5
193
330
1F
100
AcDbEntity
  8
0
  6
Continuous
 62
     7
100
AcDbLine
 10
3018.7159162547
 20
6260.8672156564
 30
0.0
 11
3024.7159162547
 21
6254.8672156564
 31
0.0
  0
LINE
  5
194
330
1F
100
AcDbEntity
  8
0
  6
Continuous
 62
     7
100
AcDbLine
 10
3124.7159162547
 20
6254.8672156564
 30
0.0
 11
3130.7159162547
 21
6260.8672156564
 31
0.0
  0
LINE
  5
195
330
1F
100
AcDbEntity
  8
0
  6
Continuous
 62
     7
100
AcDbLine
 10
3018.7159162547
 20
6262.8672156564
 30
0.0
 11
3018.7159162547
 21
6260.8672156564
 31
0.0
  0
LINE
  5
196
330
1F
100
AcDbEntity
  8
0
  6
Continuous
 62
     7
100
AcDbLine
 10
3130.7159162547
 20
6260.8672156564
 30
0.0
 11
3130.7159162547
 21
6262.8672156564
 31
0.0
  0
LINE
  5
197
330
1F
100
AcDbEntity
  8
0
  6
Continuous
 62
     7
100
AcDbLine
 10
3031.9159162547
 20
6306.8672156564
 30
0.0
 11
3029.9159162547
 21
6304.8672156564
 31
0.0
  0
LINE
  5
198
330
1F
100
AcDbEntity
  8
0
  6
Continuous
 62
     7
100
AcDbLine
 10
3116.2389596581
 20
6305.9579228066
 30
0.0
 11
3117.1958771071
 21
6306.5110005434
 31
0.0
  0
LINE
  5
199
330
1F
100
AcDbEntity
  8
0
  6
Continuous
 62
     7
100
AcDbLine
 10
3119.5159162547
 20
6301.8666049024
 30
0.0
 11
3119.5159162547
 21
6303.3666048836
 31
0.0
  0
LINE
  5
19A
330
1F
100
AcDbEntity
  8
0
  6
Continuous
 62
     7
100
AcDbLine
 10
3119.5159162547
 20
6296.0672156564
 30
0.0
 11
3119.5159162547
 21
6297.3666048836
 31
0.0
  0
LINE
  5
19B
330
1F
100
AcDbEntity
  8
0
  6
Continuous
 62
     7
100
AcDbLine
 10
3029.9159162547
 20
6300.3669626242
 30
0.0
 11
3029.9159162547
 21
6298.8669626428
 31
0.0
  0
LINE
  5
19C
330
1F
100
AcDbEntity
  8
0
  6
Continuous
 62
     7
100
AcDbLine
 10
3116.3159162547
 20
6306.8672156564
 30
0.0
 11
3116.3159162547
 21
6330.8672156564
 31
0.0
  0
LINE
  5
19D
330
1F
100
AcDbEntity
  8
0
  6
Continuous
 62
     7
100
AcDbLine
 10
3033.1159162547
 20
6330.8672156564
 30
0.0
 11
3033.1159162547
 21
6306.8672156564
 31
0.0
  0
LINE
  5
19E
330
1F
100
AcDbEntity
  8
0
  6
Continuous
 62
     7
100
AcDbLine
 10
3134.7159162547
 20
6282.8672156564
 30
0.0
 11
3134.7159162547
 21
6284.0672156564
 31
0.0
  0
LINE
  5
19F
330
1F
100
AcDbEntity
  8
0
  6
Continuous
 62
     7
100
AcDbLine
 10
3014.7159162547
 20
6284.0672156564
 30
0.0
 11
3014.7159162547
 21
6282.8672156564
 31
0.0
  0
LINE
  5
1A0
330
1F
100
AcDbEntity
  8
0
  6
Continuous
 62
     7
100
AcDbLine
 10
4007.6953751671
 20
6678.6555089814
 30
0.0
 11
4000.7159162547
 21
6678.6555089814
 31
0.0
  0
LINE
  5
1A1
330
1F
100
AcDbEntity
  8
0
  6
Continuous
 62
     7
100
AcDbLine
 10
4028.7159162547
 20
6678.6555089814
 30
0.0
 11
4007.6953751671
 21
6678.6555089814
 31
0.0
  0
LINE
  5
1A2
330
1F
100
AcDbEntity
  8
0
  6
Continuous
 62
     7
100
AcDbLine
 10
4028.7159162547
 20
6720.6555089814
 30
0.0
 11
4000.7159162547
 21
6720.6555089814
 31
0.0
  0
LINE
  5
1A3
330
1F
100
AcDbEntity
  8
0
  6
Continuous
 62
     7
100
AcDbLine
 10
4004.7159162547
 20
6724.6555089814
 30
0.0
 11
4024.7159162547
 21
6724.6555089814
 31
0.0
  0
LINE
  5
1A4
330
1F
100
AcDbEntity
  8
0
  6
Continuous
 62
     7
100
AcDbLine
 10
4016.9758414359
 20
6674.0672156564
 30
0.0
 11
4016.9758414359
 21
6676.6555089814
 31
0.0
  0
LINE
  5
1A5
330
1F
100
AcDbEntity
  8
0
  6
Continuous
 62
     7
100
AcDbLine
 10
3999.9660314395
 20
6674.0672156564
 30
0.0
 11
3999.9660314395
 21
6676.6555089814
 31
0.0
  0
LINE
  5
1A6
330
1F
100
AcDbEntity
  8
0
  6
Continuous
 62
     7
100
AcDbLine
 10
4016.9758414359
 20
6676.6555089814
 30
0.0
 11
3999.9660314395
 21
6676.6555089814
 31
0.0
  0
LINE
  5
1A7
330
1F
100
AcDbEntity
  8
0
  6
Continuous
 62
     7
100
AcDbLine
 10
4031.7257262511
 20
6674.0672156564
 30
0.0
 11
4031.7257262511
 21
6676.6555089814
 31
0.0
  0
LINE
  5
1A8
330
1F
100
AcDbEntity
  8
0
  6
Continuous
 62
     7
100
AcDbLine
 10
4031.7257262511
 20
6676.6555089814
 30
0.0
 11
4016.9758414359
 21
6676.6555089814
 31
0.0
  0
LINE
  5
1A9
330
1F
100
AcDbEntity
  8
0
  6
Continuous
 62
     7
100
AcDbLine
 10
3997.7061062581
 20
6674.0672156564
 30
0.0
 11
3997.7061062581
 21
6676.6555089814
 31
0.0
  0
LINE
  5
1AA
330
1F
100
AcDbEntity
  8
0
  6
Continuous
 62
     7
100
AcDbLine
 10
3999.9660314395
 20
6676.6555089814
 30
0.0
 11
3997.7061062581
 21
6676.6555089814
 31
0.0
  0
LINE
  5
1AB
330
1F
100
AcDbEntity
  8
0
  6
Continuous
 62
     7
100
AcDbLine
 10
2136.9758414359
 20
6674.0672156564
 30
0.0
 11
2136.9758414359
 21
6676.6555089814
 31
0.0
  0
LINE
  5
1AC
330
1F
100
AcDbEntity
  8
0
  6
Continuous
 62
     7
100
AcDbLine
 10
2119.9660314395
 20
6674.0672156564
 30
0.0
 11
2119.9660314395
 21
6676.6555089814
 31
0.0
  0
LINE
  5
1AD
330
1F
100
AcDbEntity
  8
0
  6
Continuous
 62
     7
100
AcDbLine
 10
2136.9758414359
 20
6676.6555089814
 30
0.0
 11
2119.9660314395
 21
6676.6555089814
 31
0.0
  0
LINE
  5
1AE
330
1F
100
AcDbEntity
  8
0
  6
Continuous
 62
     7
100
AcDbLine
 10
2151.7257262511
 20
6674.0672156564
 30
0.0
 11
2151.7257262511
 21
6676.6555089814
 31
0.0
  0
LINE
  5
1AF
330
1F
100
AcDbEntity
  8
0
  6
Continuous
 62
     7
100
AcDbLine
 10
2151.7257262511
 20
6676.6555089814
 30
0.0
 11
2136.9758414359
 21
6676.6555089814
 31
0.0
  0
LINE
  5
1B0
330
1F
100
AcDbEntity
  8
0
  6
Continuous
 62
     7
100
AcDbLine
 10
2117.7061062581
 20
6674.0672156564
 30
0.0
 11
2117.7061062581
 21
6676.6555089814
 31
0.0
  0
LINE
  5
1B1
330
1F
100
AcDbEntity
  8
0
  6
Continuous
 62
     7
100
AcDbLine
 10
2119.9660314395
 20
6676.6555089814
 30
0.0
 11
2117.7061062581
 21
6676.6555089814
 31
0.0
  0
LINE
  5
1B2
330
1F
100
AcDbEntity
  8
0
  6
Continuous
 62
     7
100
AcDbLine
 10
2154.7159162547
 20
6674.0672156564
 30
0.0
 11
2114.7159162547
 21
6674.0672156564
 31
0.0
  0
LINE
  5
1B3
330
1F
100
AcDbEntity
  8
0
  6
Continuous
 62
     7
100
AcDbLine
 10
4034.7159162547
 20
6674.0672156564
 30
0.0
 11
3994.7159162547
 21
6674.0672156564
 31
0.0
  0
LINE
  5
1B4
330
1F
100
AcDbEntity
  8
0
  6
Continuous
 62
     7
100
AcDbLine
 10
2144.7159162547
 20
6862.8672156564
 30
0.0
 11
2124.7159162547
 21
6862.8672156564
 31
0.0
  0
LINE
  5
1B5
330
1F
100
AcDbEntity
  8
0
  6
Continuous
 62
     7
100
AcDbLine
 10
2126.7159162547
 20
6864.8672156564
 30
0.0
 11
2142.7159162547
 21
6864.8672156564
 31
0.0
  0
LINE
  5
1B6
330
1F
100
AcDbEntity
  8
0
  6
Continuous
 62
     7
100
AcDbLine
 10
4024.7159162547
 20
6862.8672156564
 30
0.0
 11
4004.7159162547
 21
6862.8672156564
 31
0.0
  0
LINE
  5
1B7
330
1F
100
AcDbEntity
  8
0
  6
Continuous
 62
     7
100
AcDbLine
 10
4006.7159162547
 20
6864.8672156564
 30
0.0
 11
4022.7159162547
 21
6864.8672156564
 31
0.0
  0
LINE
  5
1B8
330
1F
100
AcDbEntity
  8
0
  6
Continuous
 62
     7
100
AcDbLine
 10
2147.6094032073
 20
6678.6555089814
 30
0.0
 11
2120.7159162547
 21
6678.6555089814
 31
0.0
  0
LINE
  5
1B9
330
1F
100
AcDbEntity
  8
0
  6
Continuous
 62
     7
100
AcDbLine
 10
2148.7159162547
 20
6720.6555089814
 30
0.0
 11
2120.7159162547
 21
6720.6555089814
 31
0.0
  0
LINE
  5
1BA
330
1F
100
AcDbEntity
  8
0
  6
Continuous
 62
     7
100
AcDbLine
 10
2124.7159162547
 20
6724.6555089814
 30
0.0
 11
2144.7159162547
 21
6724.6555089814
 31
0.0
  0
LINE
  5
1BB
330
1F
100
AcDbEntity
  8
0
  6
Continuous
 62
     7
100
AcDbLine
 10
4074.7159162547
 20
6282.8672156564
 30
0.0
 11
2074.7159162547
 21
6282.8672156564
 31
0.0
  0
LINE
  5
1BC
330
1F
100
AcDbEntity
  8
0
  6
Continuous
 62
     7
100
AcDbLine
 10
2074.7159162547
 20
6282.8672156564
 30
0.0
 11
2074.7159162547
 21
6274.8672156564
 31
0.0
  0
LINE
  5
1BD
330
1F
100
AcDbEntity
  8
0
  6
Continuous
 62
     7
100
AcDbLine
 10
4074.7159162547
 20
6282.8672156564
 30
0.0
 11
4074.7159162547
 21
6274.8672156564
 31
0.0
  0
LINE
  5
1BE
330
1F
100
AcDbEntity
  8
0
  6
Continuous
 62
     7
100
AcDbLine
 10
4054.7159162547
 20
6266.8672156564
 30
0.0
 11
4054.7159162547
 21
6274.8672156564
 31
0.0
  0
LINE
  5
1BF
330
1F
100
AcDbEntity
  8
0
  6
Continuous
 62
     7
100
AcDbLine
 10
2094.7159162547
 20
6266.8672156564
 30
0.0
 11
4054.7159162547
 21
6266.8672156564
 31
0.0
  0
LINE
  5
1C0
330
1F
100
AcDbEntity
  8
0
  6
Continuous
 62
     7
100
AcDbLine
 10
2094.7159162547
 20
6274.8672156564
 30
0.0
 11
2094.7159162547
 21
6266.8672156564
 31
0.0
  0
LINE
  5
1C1
330
1F
100
AcDbEntity
  8
0
  6
Continuous
 62
     7
100
AcDbLine
 10
4054.7159162547
 20
6274.8672156564
 30
0.0
 11
2094.7159162547
 21
6274.8672156564
 31
0.0
  0
LINE
  5
1C2
330
1F
100
AcDbEntity
  8
0
  6
Continuous
 62
     7
100
AcDbLine
 10
4074.7159162547
 20
6274.8672156564
 30
0.0
 11
4074.7159162547
 21
6266.8672156564
 31
0.0
  0
LINE
  5
1C3
330
1F
100
AcDbEntity
  8
0
  6
Continuous
 62
     7
100
AcDbLine
 10
4054.7159162547
 20
6266.8672156564
 30
0.0
 11
4074.7159162547
 21
6266.8672156564
 31
0.0
  0
LINE
  5
1C4
330
1F
100
AcDbEntity
  8
0
  6
Continuous
 62
     7
100
AcDbLine
 10
4054.7159162547
 20
6274.8672156564
 30
0.0
 11
4074.7159162547
 21
6274.8672156564
 31
0.0
  0
LINE
  5
1C5
330
1F
100
AcDbEntity
  8
0
  6
Continuous
 62
     7
100
AcDbLine
 10
2074.7159162547
 20
6266.8672156564
 30
0.0
 11
2094.7159162547
 21
6266.8672156564
 31
0.0
  0
LINE
  5
1C6
330
1F
100
AcDbEntity
  8
0
  6
Continuous
 62
     7
100
AcDbLine
 10
2074.7159162547
 20
6266.8672156564
 30
0.0
 11
2074.7159162547
 21
6274.8672156564
 31
0.0
  0
LINE
  5
1C7
330
1F
100
AcDbEntity
  8
0
  6
Continuous
 62
     7
100
AcDbLine
 10
2074.7159162547
 20
6274.8672156564
 30
0.0
 11
2094.7159162547
 21
6274.8672156564
 31
0.0
  0
LINE
  5
1C8
330
1F
100
AcDbEntity
  8
0
  6
Continuous
 62
     7
100
AcDbLine
 10
2094.7159162547
 20
6262.8672156564
 30
0.0
 11
2078.7159162547
 21
6262.8672156564
 31
0.0
  0
LINE
  5
1C9
330
1F
100
AcDbEntity
  8
0
  6
Continuous
 62
     7
100
AcDbLine
 10
2078.7159162547
 20
6262.8672156564
 30
0.0
 11
2074.7159162547
 21
6266.8672156564
 31
0.0
  0
LINE
  5
1CA
330
1F
100
AcDbEntity
  8
0
  6
Continuous
 62
     7
100
AcDbLine
 10
2094.7159162547
 20
6262.8672156564
 30
0.0
 11
2094.7159162547
 21
6266.8672156564
 31
0.0
  0
LINE
  5
1CB
330
1F
100
AcDbEntity
  8
0
  6
Continuous
 62
     7
100
AcDbLine
 10
4054.7159162547
 20
6262.8672156564
 30
0.0
 11
2094.7159162547
 21
6262.8672156564
 31
0.0
  0
LINE
  5
1CC
330
1F
100
AcDbEntity
  8
0
  6
Continuous
 62
     7
100
AcDbLine
 10
4054.7159162547
 20
6266.8672156564
 30
0.0
 11
4054.7159162547
 21
6262.8672156564
 31
0.0
  0
LINE
  5
1CD
330
1F
100
AcDbEntity
  8
0
  6
Continuous
 62
     7
100
AcDbLine
 10
4074.7159162547
 20
6266.8672156564
 30
0.0
 11
4070.7159162547
 21
6262.8672156564
 31
0.0
  0
LINE
  5
1CE
330
1F
100
AcDbEntity
  8
0
  6
Continuous
 62
     7
100
AcDbLine
 10
4070.7159162547
 20
6262.8672156564
 30
0.0
 11
4054.7159162547
 21
6262.8672156564
 31
0.0
  0
LINE
  5
1CF
330
1F
100
AcDbEntity
  8
0
  6
Continuous
 62
     7
100
AcDbLine
 10
3049.2600721319
 20
6285.5170120924
 30
0.0
 11
3049.2600721319
 21
6294.6174192206
 31
0.0
  0
LINE
  5
1D0
330
1F
100
AcDbEntity
  8
0
  6
Continuous
 62
     7
100
AcDbLine
 10
3100.1717603773
 20
6294.6174192206
 30
0.0
 11
3100.1717603773
 21
6285.5170120924
 31
0.0
  0
LINE
  5
1D1
330
1F
100
AcDbEntity
  8
0
  6
Continuous
 62
     7
100
AcDbLine
 10
3049.2600721319
 20
6285.5170120924
 30
0.0
 11
3043.2765427229
 21
6285.5170120924
 31
0.0
  0
LINE
  5
1D2
330
1F
100
AcDbEntity
  8
0
  6
Continuous
 62
     7
100
AcDbLine
 10
3043.2765427229
 20
6294.6174192206
 30
0.0
 11
3043.2765427229
 21
6285.5170120924
 31
0.0
  0
LINE
  5
1D3
330
1F
100
AcDbEntity
  8
0
  6
Continuous
 62
     7
100
AcDbLine
 10
3043.2765427229
 20
6294.6174192206
 30
0.0
 11
3049.2600721319
 21
6294.6174192206
 31
0.0
  0
LINE
  5
1D4
330
1F
100
AcDbEntity
  8
0
  6
Continuous
 62
     7
100
AcDbLine
 10
3131.6111339089
 20
6294.6174192206
 30
0.0
 11
3131.7159162547
 21
6294.6174192206
 31
0.0
  0
LINE
  5
1D5
330
1F
100
AcDbEntity
  8
0
  6
Continuous
 62
     7
100
AcDbLine
 10
3100.1717603773
 20
6294.6174192206
 30
0.0
 11
3106.1552897863
 21
6294.6174192206
 31
0.0
  0
LINE
  5
1D6
330
1F
100
AcDbEntity
  8
0
  6
Continuous
 62
     7
100
AcDbLine
 10
3017.7159162547
 20
6294.6174192206
 30
0.0
 11
3017.8206986003
 21
6294.6174192206
 31
0.0
  0
LINE
  5
1D7
330
1F
100
AcDbEntity
  8
0
  6
Continuous
 62
     7
100
AcDbLine
 10
3123.6056437119
 20
6296.0672156564
 30
0.0
 11
3025.8261887973
 21
6296.0672156564
 31
0.0
  0
LINE
  5
1D8
330
1F
100
AcDbEntity
  8
0
  6
Continuous
 62
     7
100
AcDbLine
 10
3106.1552897863
 20
6285.5170120924
 30
0.0
 11
3100.1717603773
 21
6285.5170120924
 31
0.0
  0
LINE
  5
1D9
330
1F
100
AcDbEntity
  8
0
  6
Continuous
 62
     7
100
AcDbLine
 10
3131.7159162547
 20
6285.5170120924
 30
0.0
 11
3131.6111339089
 21
6285.5170120924
 31
0.0
  0
LINE
  5
1DA
330
1F
100
AcDbEntity
  8
0
  6
Continuous
 62
     7
100
AcDbLine
 10
3017.8206986003
 20
6285.5170120924
 30
0.0
 11
3017.7159162547
 21
6285.5170120924
 31
0.0
  0
LINE
  5
1DB
330
1F
100
AcDbEntity
  8
0
  6
Continuous
 62
     7
100
AcDbLine
 10
3106.1552897863
 20
6285.5170120924
 30
0.0
 11
3106.1552897863
 21
6294.6174192206
 31
0.0
  0
LINE
  5
1DC
330
1F
100
AcDbEntity
  8
0
  6
Continuous
 62
     7
100
AcDbLine
 10
3017.8206986003
 20
6285.5170120924
 30
0.0
 11
3017.8206986003
 21
6294.6174192206
 31
0.0
  0
LINE
  5
1DD
330
1F
100
AcDbEntity
  8
0
  6
Continuous
 62
     7
100
AcDbLine
 10
3131.6111339089
 20
6294.6174192206
 30
0.0
 11
3131.6111339089
 21
6285.5170120924
 31
0.0
  0
LINE
  5
1DE
330
1F
100
AcDbEntity
  8
0
  6
Continuous
 62
     7
100
AcDbLine
 10
3124.7159162547
 20
6254.8672156564
 30
0.0
 11
3024.7159162547
 21
6254.8672156564
 31
0.0
  0
LINE
  5
1DF
330
1F
100
AcDbEntity
  8
0
  6
Continuous
 62
     7
100
AcDbLine
 10
3018.7159162547
 20
6260.8672156564
 30
0.0
 11
3130.7159162547
 21
6260.8672156564
 31
0.0
  0
LINE
  5
1E0
330
1F
100
AcDbEntity
  8
0
  6
Continuous
 62
     7
100
AcDbLine
 10
3031.9159162547
 20
6306.8672156564
 30
0.0
 11
3117.5159162547
 21
6306.8672156564
 31
0.0
  0
LINE
  5
1E1
330
1F
100
AcDbEntity
  8
0
  6
Continuous
 62
     7
100
AcDbLine
 10
3030.1118479401
 20
6304.8344438732
 30
0.0
 11
3029.9159162547
 21
6304.8672156564
 31
0.0
  0
LINE
  5
1E2
330
1F
100
AcDbEntity
  8
0
  6
Continuous
 62
     7
100
AcDbLine
 10
3033.1159162547
 20
6330.8672156564
 30
0.0
 11
3116.3159162547
 21
6330.8672156564
 31
0.0
  0
LINE
  5
1E3
330
1F
100
AcDbEntity
  8
0
  6
Continuous
 62
     7
100
AcDbLine
 10
3014.7159162547
 20
6284.0672156564
 30
0.0
 11
3134.7159162547
 21
6284.0672156564
 31
0.0
  0
LINE
  5
1E4
330
1F
100
AcDbEntity
  8
0
  6
Continuous
 62
     7
100
AcDbLine
 10
3073.1562113131
 20
7672.8258084342
 30
0.0
 11
3073.1562113131
 21
7687.0086870124
 31
0.0
  0
LINE
  5
1E5
330
1F
100
AcDbEntity
  8
0
  6
Continuous
 62
     7
100
AcDbLine
 10
3060.2198681512
 20
7687.0086870124
 30
0.0
 11
3060.2198681512
 21
7656.8548806698
 31
0.0
  0
LINE
  5
1E6
330
1F
100
AcDbEntity
  8
0
  6
Continuous
 62
     7
100
AcDbLine
 10
3050.0945232717
 20
7659.6069621256
 30
0.0
 11
3050.0945232717
 21
7637.9225038639
 31
0.0
  0
LINE
  5
1E7
330
1F
100
AcDbEntity
  8
0
  6
Continuous
 62
     7
100
AcDbLine
 10
3075.3846445826
 20
7612.6323825529
 30
0.0
 11
3084.8535422105
 21
7612.6323825529
 31
0.0
  0
LINE
  5
1E8
330
1F
100
AcDbEntity
  8
0
  6
Continuous
 62
     7
100
AcDbLine
 10
3103.075944413
 20
7630.8547847555
 30
0.0
 11
3103.075944413
 21
7662.2018668685
 31
0.0
  0
LINE
  5
1E9
330
1F
100
AcDbEntity
  8
0
  6
Continuous
 62
     7
100
AcDbLine
 10
3097.6614994283
 20
7667.6163118534
 30
0.0
 11
3095.6845975695
 21
7667.6163118534
 31
0.0
  0
LINE
  5
1EA
330
1F
100
AcDbEntity
  8
0
  6
Continuous
 62
     7
100
AcDbLine
 10
3087.7515580906
 20
7671.4106315473
 30
0.0
 11
3085.4342889623
 21
7671.4106315473
 31
0.0
  0
LINE
  5
1EB
330
1F
100
AcDbEntity
  8
0
  6
Continuous
 62
     7
100
AcDbLine
 10
3077.5012494834
 20
7673.4472484881
 30
0.0
 11
3075.6748058072
 21
7673.4472484881
 31
0.0
  0
LINE
  5
1EC
330
1F
100
AcDbEntity
  8
0
  6
Continuous
 62
     7
100
AcDbLine
 10
3074.3787608224
 20
7668.0894520542
 30
0.0
 11
3074.3787608224
 21
7656.3253259159
 31
0.0
  0
LINE
  5
1ED
330
1F
100
AcDbEntity
  8
0
  6
Continuous
 62
     7
100
AcDbLine
 10
3077.8368540031
 20
7669.0498925193
 30
0.0
 11
3075.3392012875
 21
7669.0498925193
 31
0.0
  0
LINE
  5
1EE
330
1F
100
AcDbEntity
  8
0
  6
Continuous
 62
     7
100
AcDbLine
 10
3078.7972944683
 20
7656.3253259159
 30
0.0
 11
3078.7972944683
 21
7668.0894520542
 31
0.0
  0
LINE
  5
1EF
330
1F
100
AcDbEntity
  8
0
  6
Continuous
 62
     7
100
AcDbLine
 10
3084.1382439775
 20
7666.0528351135
 30
0.0
 11
3084.1382439775
 21
7656.3253259159
 31
0.0
  0
LINE
  5
1F0
330
1F
100
AcDbEntity
  8
0
  6
Continuous
 62
     7
100
AcDbLine
 10
3088.0871626103
 20
7667.0132755786
 30
0.0
 11
3085.0986844427
 21
7667.0132755786
 31
0.0
  0
LINE
  5
1F1
330
1F
100
AcDbEntity
  8
0
  6
Continuous
 62
     7
100
AcDbLine
 10
3089.0476030754
 20
7656.3253259159
 30
0.0
 11
3089.0476030754
 21
7666.0528351135
 31
0.0
  0
LINE
  5
1F2
330
1F
100
AcDbEntity
  8
0
  6
Continuous
 62
     7
100
AcDbLine
 10
3094.3885525847
 20
7662.3874338789
 30
0.0
 11
3094.3885525847
 21
7656.3253259159
 31
0.0
  0
LINE
  5
1F3
330
1F
100
AcDbEntity
  8
0
  6
Continuous
 62
     7
100
AcDbLine
 10
3097.997103948
 20
7663.3478743441
 30
0.0
 11
3095.3489930498
 21
7663.3478743441
 31
0.0
  0
LINE
  5
1F4
330
1F
100
AcDbEntity
  8
0
  6
Continuous
 62
     7
100
AcDbLine
 10
3098.957544413
 20
7630.8547847555
 30
0.0
 11
3098.957544413
 21
7662.3874338788
 31
0.0
  0
LINE
  5
1F5
330
1F
100
AcDbEntity
  8
0
  6
Continuous
 62
     7
100
AcDbLine
 10
3075.3846445826
 20
7616.7507825529
 30
0.0
 11
3084.8535422105
 21
7616.7507825529
 31
0.0
  0
LINE
  5
1F6
330
1F
100
AcDbEntity
  8
0
  6
Continuous
 62
     7
100
AcDbLine
 10
3054.2129232716
 20
7655.7069349123
 30
0.0
 11
3054.2129232716
 21
7637.9225038638
 31
0.0
  0
LINE
  5
1F7
330
1F
100
AcDbEntity
  8
0
  6
Continuous
 62
     7
100
AcDbLine
 10
3058.9973186419
 20
7641.8866819333
 30
0.0
 11
3058.9973186419
 21
7649.7043654614
 31
0.0
  0
LINE
  5
1F8
330
1F
100
AcDbEntity
  8
0
  6
Continuous
 62
     7
100
AcDbLine
 10
3064.3382681512
 20
7687.0086870124
 30
0.0
 11
3064.3382681512
 21
7641.8866819333
 31
0.0
  0
LINE
  5
1F9
330
1F
100
AcDbEntity
  8
0
  6
Continuous
 62
     7
100
AcDbLine
 10
3069.0378113131
 20
7656.3253259159
 30
0.0
 11
3069.0378113131
 21
7687.0086870124
 31
0.0
  0
LWPOLYLINE
  5
1FA
330
1F
100
AcDbEntity
  8
0
  6
Continuous
 62
     7
100
AcDbPolyline
 90
        5
 70
   128
 43
0.0
 10
4012.20703125
 20
7903.6282573312
 10
4010.732895677
 20
7902.8678009221
 10
4009.1066476476
 20
7903.2301217725
 10
4008.0906617151
 20
7904.5505509116
 10
4008.1546717897
 20
7906.2103225784
  0
LWPOLYLINE
  5
1FB
330
1F
100
AcDbEntity
  8
0
  6
Continuous
 62
     7
100
AcDbPolyline
 90
        5
 70
   128
 43
0.0
 10
4020.7481384277
 20
7905.6646055068
 10
4020.6679654295
 20
7904.0046199037
 10
4019.5410621631
 20
7902.7774083138
 10
4017.8895440639
 20
7902.5577532682
 10
4016.4841447069
 20
7903.4430734934
  0
LWPOLYLINE
  5
1FC
330
1F
100
AcDbEntity
  8
0
  6
Continuous
 62
     7
100
AcDbPolyline
 90
        5
 70
   128
 43
0.0
 10
4023.250579834
 20
7914.076581358
 10
4024.6509839529
 20
7913.1770520475
 10
4025.1503307785
 20
7911.5875207993
 10
4024.5147984355
 20
7910.0474361153
 10
4023.0453891721
 20
7909.2729840974
  0
LWPOLYLINE
  5
1FD
330
1F
100
AcDbEntity
  8
0
  6
Continuous
 62
     7
100
AcDbPolyline
 90
        5
 70
   128
 43
0.0
 10
4017.219543457
 20
7920.4522090336
 10
4018.6989368322
 20
7921.2126654429
 10
4020.3251848616
 20
7920.8503445925
 10
4021.3411707941
 20
7919.5299154533
 10
4021.2771607197
 20
7917.8701437864
  0
LWPOLYLINE
  5
1FE
330
1F
100
AcDbEntity
  8
0
  6
Continuous
 62
     7
100
AcDbPolyline
 90
        5
 70
   128
 43
0.0
 10
4008.6822509766
 20
7918.415860858
 10
4008.7638670797
 20
7920.0758464613
 10
4009.890770346
 20
7921.3030580512
 10
4011.5422884452
 20
7921.5227130968
 10
4012.9476878023
 20
7920.6373928716
  0
LWPOLYLINE
  5
1FF
330
1F
100
AcDbEntity
  8
0
  6
Continuous
 62
     7
100
AcDbPolyline
 90
        5
 70
   128
 43
0.0
 10
4006.175994873
 20
7910.003885007
 10
4004.7808485563
 20
7910.9034143175
 10
4004.2815017306
 20
7912.4929455656
 10
4004.9170340737
 20
7914.0330302497
 10
4006.3864433373
 20
7914.8074822676
  0
LWPOLYLINE
  5
200
330
1F
100
AcDbEntity
  8
0
  6
Continuous
 62
     7
100
AcDbPolyline
 90
        3
 70
   128
 43
0.0
 10
4022.102355957
 20
7909.1420081034
 10
4020.5904941878
 20
7908.053709101
 10
4020.4686985893
 20
7906.5725822782
  0
LWPOLYLINE
  5
201
330
1F
100
AcDbEntity
  8
0
  6
Continuous
 62
     7
100
AcDbPolyline
 90
        3
 70
   128
 43
0.0
 10
4008.5105895996
 20
7907.0907129154
 10
4008.3261961606
 20
7908.9459614965
 10
4007.1044005051
 20
7909.7920029904
  0
LWPOLYLINE
  5
202
330
1F
100
AcDbEntity
  8
0
  6
Continuous
 62
     7
100
AcDbPolyline
 90
        3
 70
   128
 43
0.0
 10
4020.9197998047
 20
7916.9897534496
 10
4021.1056363486
 20
7915.1345048684
 10
4022.3274320041
 20
7914.2884633746
  0
LWPOLYLINE
  5
203
330
1F
100
AcDbEntity
  8
0
  6
Continuous
 62
     7
100
AcDbPolyline
 90
        3
 70
   128
 43
0.0
 10
4015.8996582031
 20
7904.1924878362
 10
4014.2007740938
 20
7904.959437415
 10
4012.8571828397
 20
7904.324352086
  0
LWPOLYLINE
  5
204
330
1F
100
AcDbEntity
  8
0
  6
Continuous
 62
     7
100
AcDbPolyline
 90
        3
 70
   128
 43
0.0
 10
4007.32421875
 20
7914.9384582616
 10
4008.8413383213
 20
7916.026757264
 10
4008.9631339199
 20
7917.5078840868
  0
LWPOLYLINE
  5
205
330
1F
100
AcDbEntity
  8
0
  6
Continuous
 62
     7
100
AcDbPolyline
 90
        3
 70
   128
 43
0.0
 10
4013.5307312012
 20
7919.8879785286
 10
4015.2310584153
 20
7919.1210289499
 10
4016.5746496695
 20
7919.7561142788
  0
LWPOLYLINE
  5
206
330
1F
100
AcDbEntity
  8
0
  6
Continuous
 62
     7
100
AcDbPolyline
 90
        5
 70
   128
 43
0.0
 10
2132.209777832
 20
7383.6282573312
 10
2130.732895677
 20
7382.8678009221
 10
2129.1066476476
 20
7383.2301217725
 10
2128.0906617151
 20
7384.5505509116
 10
2128.1546717897
 20
7386.2103225784
  0
LWPOLYLINE
  5
207
330
1F
100
AcDbEntity
  8
0
  6
Continuous
 62
     7
100
AcDbPolyline
 90
        5
 70
   128
 43
0.0
 10
2140.7470703125
 20
7385.6646055068
 10
2140.6679654295
 20
7384.0046199037
 10
2139.5410621631
 20
7382.7774083138
 10
2137.8895440639
 20
7382.5577532682
 10
2136.4841447069
 20
7383.4430734934
  0
LWPOLYLINE
  5
208
330
1F
100
AcDbEntity
  8
0
  6
Continuous
 62
     7
100
AcDbPolyline
 90
        5
 70
   128
 43
0.0
 10
2143.253326416
 20
7394.076581358
 10
2144.6509839529
 20
7393.1770520475
 10
2145.1503307785
 20
7391.5875207993
 10
2144.5147984355
 20
7390.0474361153
 10
2143.0453891721
 20
7389.2729840974
  0
LWPOLYLINE
  5
209
330
1F
100
AcDbEntity
  8
0
  6
Continuous
 62
     7
100
AcDbPolyline
 90
        5
 70
   128
 43
0.0
 10
2137.2203826904
 20
7400.4522090336
 10
2138.6989368322
 20
7401.2126654429
 10
2140.3251848616
 20
7400.8503445925
 10
2141.3411707941
 20
7399.5299154533
 10
2141.2771607197
 20
7397.8701437864
  0
LWPOLYLINE
  5
20A
330
1F
100
AcDbEntity
  8
0
  6
Continuous
 62
     7
100
AcDbPolyline
 90
        5
 70
   128
 43
0.0
 10
2128.68309021
 20
7398.415860858
 10
2128.7638670797
 20
7400.0758464613
 10
2129.890770346
 20
7401.3030580511
 10
2131.5422884452
 20
7401.5227130968
 10
2132.9476878023
 20
7400.6373928716
  0
LWPOLYLINE
  5
20B
330
1F
100
AcDbEntity
  8
0
  6
Continuous
 62
     7
100
AcDbPolyline
 90
        3
 70
   128
 43
0.0
 10
2127.326965332
 20
7394.9384582616
 10
2128.8413383213
 20
7396.026757264
 10
2128.9631339199
 20
7397.5078840868
  0
LWPOLYLINE
  5
20C
330
1F
100
AcDbEntity
  8
0
  6
Continuous
 62
     7
100
AcDbPolyline
 90
        5
 70
   128
 43
0.0
 10
2126.1768341064
 20
7390.003885007
 10
2124.7808485563
 20
7390.9034143175
 10
2124.2815017306
 20
7392.4929455656
 10
2124.9170340737
 20
7394.0330302497
 10
2126.3864433373
 20
7394.8074822676
  0
LWPOLYLINE
  5
20D
330
1F
100
AcDbEntity
  8
0
  6
Continuous
 62
     7
100
AcDbPolyline
 90
        3
 70
   128
 43
0.0
 10
2128.511428833
 20
7387.0907129154
 10
2128.3261961606
 20
7388.9459614965
 10
2127.1044005051
 20
7389.7920029904
  0
LWPOLYLINE
  5
20E
330
1F
100
AcDbEntity
  8
0
  6
Continuous
 62
     7
100
AcDbPolyline
 90
        3
 70
   128
 43
0.0
 10
2135.8985900879
 20
7384.1924878362
 10
2134.2007740938
 20
7384.959437415
 10
2132.8571828397
 20
7384.324352086
  0
LWPOLYLINE
  5
20F
330
1F
100
AcDbEntity
  8
0
  6
Continuous
 62
     7
100
AcDbPolyline
 90
        3
 70
   128
 43
0.0
 10
2142.1031951904
 20
7389.1420081034
 10
2140.5904941878
 20
7388.053709101
 10
2140.4686985893
 20
7386.5725822782
  0
LWPOLYLINE
  5
210
330
1F
100
AcDbEntity
  8
0
  6
Continuous
 62
     7
100
AcDbPolyline
 90
        3
 70
   128
 43
0.0
 10
2140.9187316895
 20
7396.9897534496
 10
2141.1056363486
 20
7395.1345048684
 10
2142.3274320041
 20
7394.2884633746
  0
LWPOLYLINE
  5
211
330
1F
100
AcDbEntity
  8
0
  6
Continuous
 62
     7
100
AcDbPolyline
 90
        3
 70
   128
 43
0.0
 10
2133.5315704346
 20
7399.8879785286
 10
2135.2310584153
 20
7399.1210289499
 10
2136.5746496695
 20
7399.7561142788
  0
LWPOLYLINE
  5
212
330
1F
100
AcDbEntity
  8
0
  6
Continuous
 62
     7
100
AcDbPolyline
 90
        5
 70
   128
 43
0.0
 10
2132.209777832
 20
7903.6282573312
 10
2130.732895677
 20
7902.8678009221
 10
2129.1066476476
 20
7903.2301217725
 10
2128.0906617151
 20
7904.5505509116
 10
2128.1546717897
 20
7906.2103225784
  0
LWPOLYLINE
  5
213
330
1F
100
AcDbEntity
  8
0
  6
Continuous
 62
     7
100
AcDbPolyline
 90
        5
 70
   128
 43
0.0
 10
2140.7470703125
 20
7905.6646055068
 10
2140.6679654295
 20
7904.0046199037
 10
2139.5410621631
 20
7902.7774083138
 10
2137.8895440639
 20
7902.5577532682
 10
2136.4841447069
 20
7903.4430734934
  0
LWPOLYLINE
  5
214
330
1F
100
AcDbEntity
  8
0
  6
Continuous
 62
     7
100
AcDbPolyline
 90
        5
 70
   128
 43
0.0
 10
2143.253326416
 20
7914.076581358
 10
2144.6509839529
 20
7913.1770520475
 10
2145.1503307785
 20
7911.5875207993
 10
2144.5147984355
 20
7910.0474361153
 10
2143.0453891721
 20
7909.2729840974
  0
LWPOLYLINE
  5
215
330
1F
100
AcDbEntity
  8
0
  6
Continuous
 62
     7
100
AcDbPolyline
 90
        3
 70
   128
 43
0.0
 10
2140.9187316895
 20
7916.9897534496
 10
2141.1056363486
 20
7915.1345048684
 10
2142.3274320041
 20
7914.2884633746
  0
LWPOLYLINE
  5
216
330
1F
100
AcDbEntity
  8
0
  6
Continuous
 62
     7
100
AcDbPolyline
 90
        5
 70
   128
 43
0.0
 10
2137.2203826904
 20
7920.4522090336
 10
2138.6989368322
 20
7921.2126654429
 10
2140.3251848616
 20
7920.8503445925
 10
2141.3411707941
 20
7919.5299154533
 10
2141.2771607197
 20
7917.8701437864
  0
LWPOLYLINE
  5
217
330
1F
100
AcDbEntity
  8
0
  6
Continuous
 62
     7
100
AcDbPolyline
 90
        3
 70
   128
 43
0.0
 10
2133.5315704346
 20
7919.8879785286
 10
2135.2310584153
 20
7919.1210289499
 10
2136.5746496695
 20
7919.7561142788
  0
LWPOLYLINE
  5
218
330
1F
100
AcDbEntity
  8
0
  6
Continuous
 62
     7
100
AcDbPolyline
 90
        5
 70
   128
 43
0.0
 10
2128.68309021
 20
7918.415860858
 10
2128.7638670797
 20
7920.0758464613
 10
2129.890770346
 20
7921.3030580511
 10
2131.5422884452
 20
7921.5227130968
 10
2132.9476878023
 20
7920.6373928716
  0
LWPOLYLINE
  5
219
330
1F
100
AcDbEntity
  8
0
  6
Continuous
 62
     7
100
AcDbPolyline
 90
        3
 70
   128
 43
0.0
 10
2127.326965332
 20
7914.9384582616
 10
2128.8413383213
 20
7916.026757264
 10
2128.9631339199
 20
7917.5078840868
  0
LWPOLYLINE
  5
21A
330
1F
100
AcDbEntity
  8
0
  6
Continuous
 62
     7
100
AcDbPolyline
 90
        5
 70
   128
 43
0.0
 10
2126.1768341064
 20
7910.003885007
 10
2124.7808485563
 20
7910.9034143175
 10
2124.2815017306
 20
7912.4929455656
 10
2124.9170340737
 20
7914.0330302497
 10
2126.3864433373
 20
7914.8074822676
  0
LWPOLYLINE
  5
21B
330
1F
100
AcDbEntity
  8
0
  6
Continuous
 62
     7
100
AcDbPolyline
 90
        3
 70
   128
 43
0.0
 10
2142.1031951904
 20
7909.1420081034
 10
2140.5904941878
 20
7908.053709101
 10
2140.4686985893
 20
7906.5725822782
  0
LWPOLYLINE
  5
21C
330
1F
100
AcDbEntity
  8
0
  6
Continuous
 62
     7
100
AcDbPolyline
 90
        3
 70
   128
 43
0.0
 10
2128.511428833
 20
7907.0907129154
 10
2128.3261961606
 20
7908.9459614965
 10
2127.1044005051
 20
7909.7920029904
  0
LWPOLYLINE
  5
21D
330
1F
100
AcDbEntity
  8
0
  6
Continuous
 62
     7
100
AcDbPolyline
 90
        3
 70
   128
 43
0.0
 10
2135.8985900879
 20
7904.1924878362
 10
2134.2007740938
 20
7904.959437415
 10
2132.8571828397
 20
7904.324352086
  0
LWPOLYLINE
  5
21E
330
1F
100
AcDbEntity
  8
0
  6
Continuous
 62
     7
100
AcDbPolyline
 90
        5
 70
   128
 43
0.0
 10
4012.20703125
 20
7383.6282573312
 10
4010.732895677
 20
7382.8678009221
 10
4009.1066476476
 20
7383.2301217725
 10
4008.0906617151
 20
7384.5505509116
 10
4008.1546717897
 20
7386.2103225784
  0
LWPOLYLINE
  5
21F
330
1F
100
AcDbEntity
  8
0
  6
Continuous
 62
     7
100
AcDbPolyline
 90
        5
 70
   128
 43
0.0
 10
4020.7481384277
 20
7385.6646055068
 10
4020.6679654295
 20
7384.0046199037
 10
4019.5410621631
 20
7382.7774083138
 10
4017.8895440639
 20
7382.5577532682
 10
4016.4841447069
 20
7383.4430734934
  0
LWPOLYLINE
  5
220
330
1F
100
AcDbEntity
  8
0
  6
Continuous
 62
     7
100
AcDbPolyline
 90
        3
 70
   128
 43
0.0
 10
4022.102355957
 20
7389.1420081034
 10
4020.5904941878
 20
7388.053709101
 10
4020.4686985893
 20
7386.5725822782
  0
LWPOLYLINE
  5
221
330
1F
100
AcDbEntity
  8
0
  6
Continuous
 62
     7
100
AcDbPolyline
 90
        5
 70
   128
 43
0.0
 10
4023.250579834
 20
7394.076581358
 10
4024.6509839529
 20
7393.1770520475
 10
4025.1503307785
 20
7391.5875207993
 10
4024.5147984355
 20
7390.0474361153
 10
4023.0453891721
 20
7389.2729840974
  0
LWPOLYLINE
  5
222
330
1F
100
AcDbEntity
  8
0
  6
Continuous
 62
     7
100
AcDbPolyline
 90
        5
 70
   128
 43
0.0
 10
4017.219543457
 20
7400.4522090336
 10
4018.6989368322
 20
7401.2126654429
 10
4020.3251848616
 20
7400.8503445925
 10
4021.3411707941
 20
7399.5299154533
 10
4021.2771607197
 20
7397.8701437864
  0
LWPOLYLINE
  5
223
330
1F
100
AcDbEntity
  8
0
  6
Continuous
 62
     7
100
AcDbPolyline
 90
        5
 70
   128
 43
0.0
 10
4008.6822509766
 20
7398.415860858
 10
4008.7638670797
 20
7400.0758464613
 10
4009.890770346
 20
7401.3030580512
 10
4011.5422884452
 20
7401.5227130968
 10
4012.9476878023
 20
7400.6373928716
  0
LWPOLYLINE
  5
224
330
1F
100
AcDbEntity
  8
0
  6
Continuous
 62
     7
100
AcDbPolyline
 90
        5
 70
   128
 43
0.0
 10
4006.175994873
 20
7390.003885007
 10
4004.7808485563
 20
7390.9034143175
 10
4004.2815017306
 20
7392.4929455656
 10
4004.9170340737
 20
7394.0330302497
 10
4006.3864433373
 20
7394.8074822676
  0
LWPOLYLINE
  5
225
330
1F
100
AcDbEntity
  8
0
  6
Continuous
 62
     7
100
AcDbPolyline
 90
        3
 70
   128
 43
0.0
 10
4020.9197998047
 20
7396.9897534496
 10
4021.1056363486
 20
7395.1345048684
 10
4022.3274320041
 20
7394.2884633746
  0
LWPOLYLINE
  5
226
330
1F
100
AcDbEntity
  8
0
  6
Continuous
 62
     7
100
AcDbPolyline
 90
        3
 70
   128
 43
0.0
 10
4007.32421875
 20
7394.9384582616
 10
4008.8413383213
 20
7396.026757264
 10
4008.9631339199
 20
7397.5078840868
  0
LWPOLYLINE
  5
227
330
1F
100
AcDbEntity
  8
0
  6
Continuous
 62
     7
100
AcDbPolyline
 90
        3
 70
   128
 43
0.0
 10
4008.5105895996
 20
7387.0907129154
 10
4008.3261961606
 20
7388.9459614965
 10
4007.1044005051
 20
7389.7920029904
  0
LWPOLYLINE
  5
228
330
1F
100
AcDbEntity
  8
0
  6
Continuous
 62
     7
100
AcDbPolyline
 90
        3
 70
   128
 43
0.0
 10
4013.5307312012
 20
7399.8879785286
 10
4015.2310584153
 20
7399.1210289499
 10
4016.5746496695
 20
7399.7561142788
  0
LWPOLYLINE
  5
229
330
1F
100
AcDbEntity
  8
0
  6
Continuous
 62
     7
100
AcDbPolyline
 90
        3
 70
   128
 43
0.0
 10
4015.8996582031
 20
7384.1924878362
 10
4014.2007740938
 20
7384.959437415
 10
4012.8571828397
 20
7384.324352086
  0
LWPOLYLINE
  5
22A
330
1F
100
AcDbEntity
  8
0
  6
Continuous
 62
     7
100
AcDbPolyline
 90
        3
 70
   128
 43
0.0
 10
5101.9248962402
 20
7693.5632801206
 10
5100.8734729389
 20
7695.3830334492
 10
5100.0475747348
 20
7696.8130433855
  0
LWPOLYLINE
  5
22B
330
1F
100
AcDbEntity
  8
0
  6
Continuous
 62
     7
100
AcDbPolyline
 90
        3
 70
   128
 43
0.0
 10
5095.9243774414
 20
7693.5632801206
 10
5095.1859776119
 20
7694.8419425832
 10
5094.6056053657
 20
7695.8467635936
  0
LWPOLYLINE
  5
22C
330
1F
100
AcDbEntity
  8
0
  6
Continuous
 62
     7
100
AcDbPolyline
 90
        3
 70
   128
 43
0.0
 10
5115.6997680664
 20
7608.515931232
 10
5116.4248152245
 20
7609.7619802777
 10
5116.9942727943
 20
7610.7478176184
  0
LWPOLYLINE
  5
22D
330
1F
100
AcDbEntity
  8
0
  6
Continuous
 62
     7
100
AcDbPolyline
 90
        3
 70
   128
 43
0.0
 10
5103.1150817871
 20
7607.5145593431
 10
5104.1673617691
 20
7609.3129017998
 10
5104.9942727943
 20
7610.7478176184
  0
LWPOLYLINE
  5
22E
330
1F
100
AcDbEntity
  8
0
  6
Continuous
 62
     7
100
AcDbPolyline
 90
        3
 70
   128
 43
0.0
 10
5097.1145629883
 20
7607.5145593431
 10
5098.166973206
 20
7609.3098164865
 10
5098.9942727943
 20
7610.7478176184
  0
LWPOLYLINE
  5
22F
330
1F
100
AcDbEntity
  8
0
  6
Continuous
 62
     7
100
AcDbPolyline
 90
        3
 70
   128
 43
0.0
 10
5104.4807434082
 20
7696.8130378849
 10
5103.4327395177
 20
7694.9930863642
 10
5102.6065169451
 20
7693.5632759527
  0
LWPOLYLINE
  5
230
330
1F
100
AcDbEntity
  8
0
  6
Continuous
 62
     7
100
AcDbPolyline
 90
        3
 70
   128
 43
0.0
 10
5098.4840393066
 20
7696.8130378849
 10
5097.4327762337
 20
7694.9930204792
 10
5096.6065169451
 20
7693.5632759527
  0
LWPOLYLINE
  5
231
330
1F
100
AcDbEntity
  8
0
  6
Continuous
 62
     7
100
AcDbPolyline
 90
        3
 70
   128
 43
0.0
 10
5099.536895752
 20
7610.7499711726
 10
5100.5857701532
 20
7608.958444975
 10
5101.4130411411
 20
7607.51686802
  0
LWPOLYLINE
  5
232
330
1F
100
AcDbEntity
  8
0
  6
Continuous
 62
     7
100
AcDbPolyline
 90
        3
 70
   128
 43
0.0
 10
5093.5363769531
 20
7610.7499711726
 10
5094.585501016
 20
7608.9616489114
 10
5095.4130411411
 20
7607.51686802
  0
LWPOLYLINE
  5
233
330
1F
100
AcDbEntity
  8
0
  6
Continuous
 62
     7
100
AcDbPolyline
 90
        3
 70
   128
 43
0.0
 10
5098.8883972168
 20
7610.4878284625
 10
5099.3098621587
 20
7610.4883004999
 10
5099.6408101767
 20
7610.4878284625
  0
LWPOLYLINE
  5
234
330
1F
100
AcDbEntity
  8
0
  6
Continuous
 62
     7
100
AcDbPolyline
 90
        3
 70
   128
 43
0.0
 10
5092.887878418
 20
7610.4878284625
 10
5093.3094159932
 20
7610.4884710174
 10
5093.6408101767
 20
7610.4878284625
  0
LWPOLYLINE
  5
235
330
1F
100
AcDbEntity
  8
0
  6
Continuous
 62
     7
100
AcDbPolyline
 90
        3
 70
   128
 43
0.0
 10
5102.6382446289
 20
7693.5926379013
 10
5102.2299370072
 20
7693.5923064938
 10
5101.9081436626
 20
7693.5926221995
  0
LWPOLYLINE
  5
236
330
1F
100
AcDbEntity
  8
0
  6
Continuous
 62
     7
100
AcDbPolyline
 90
        3
 70
   128
 43
0.0
 10
5096.6377258301
 20
7693.5926379013
 10
5096.2295854401
 20
7693.5921608448
 10
5095.9081458746
 20
7693.5926152543
  0
LINE
  5
237
330
1F
100
AcDbEntity
  8
0
  6
Continuous
 62
     7
100
AcDbLine
 10
5105.7624816895
 20
7703.0402331824
 30
0.0
 11
5104.4370523615
 21
7703.0402331825
 31
0.0
  0
LWPOLYLINE
  5
238
330
1F
100
AcDbEntity
  8
0
  6
Continuous
 62
     7
100
AcDbPolyline
 90
        3
 70
   128
 43
0.0
 10
5105.7624816895
 20
7655.4948254974
 10
5104.5812642784
 20
7680.1854042368
 10
5105.7656066217
 20
7699.5856408676
  0
LWPOLYLINE
  5
239
330
1F
100
AcDbEntity
  8
0
  6
Continuous
 62
     7
100
AcDbPolyline
 90
        3
 70
   128
 43
0.0
 10
5105.7624816895
 20
7604.4948254974
 10
5104.5812642784
 20
7629.1854042368
 10
5105.7656066217
 20
7648.5856408676
  0
LINE
  5
23A
330
1F
100
AcDbEntity
  8
0
  6
Continuous
 62
     7
100
AcDbLine
 10
5114.8643493652
 20
7601.0402331824
 30
0.0
 11
5116.19456801
 21
7601.0402331827
 31
0.0
  0
LWPOLYLINE
  5
23B
330
1F
100
AcDbEntity
  8
0
  6
Continuous
 62
     7
100
AcDbPolyline
 90
        3
 70
   128
 43
0.0
 10
5114.8643493652
 20
7648.5856408676
 10
5116.0503560932
 20
7623.8950621281
 10
5114.8660137499
 20
7604.4948254974
  0
LWPOLYLINE
  5
23C
330
1F
100
AcDbEntity
  8
0
  6
Continuous
 62
     7
100
AcDbPolyline
 90
        3
 70
   128
 43
0.0
 10
5114.8643493652
 20
7699.5856408676
 10
5116.0503560932
 20
7674.8950621281
 10
5114.8660137499
 20
7655.4948254974
  0
LWPOLYLINE
  5
23D
330
1F
100
AcDbEntity
  8
0
  6
Continuous
 62
     7
100
AcDbPolyline
 90
        3
 70
   128
 43
0.0
 10
5093.5134887695
 20
7625.0562167443
 10
5094.6442139257
 20
7611.3210368239
 10
5095.5158101859
 20
7607.2402331824
  0
LWPOLYLINE
  5
23E
330
1F
100
AcDbEntity
  8
0
  6
Continuous
 62
     7
100
AcDbPolyline
 90
        7
 70
   128
 43
0.0
 10
5095.5123901367
 20
7652.0402322792
 10
5094.8044360701
 20
7692.6899002494
 10
5094.6235437646
 20
7695.9947928201
 10
5094.6198063291
 20
7695.9994657971
 10
5094.6160703545
 20
7696.0005671204
 10
5094.6086028331
 20
7695.9918262287
 10
5094.563916076
 20
7695.6371206879
  0
LWPOLYLINE
  5
23F
330
1F
100
AcDbEntity
  8
0
  6
Continuous
 62
     7
100
AcDbPolyline
 90
        4
 70
   128
 43
0.0
 10
5091.9647216797
 20
7627.5884364566
 10
5092.6417862999
 20
7611.6002628239
 10
5092.7529372783
 20
7611.0828335793
 10
5092.8622747927
 20
7610.9723391747
  0
LWPOLYLINE
  5
240
330
1F
100
AcDbEntity
  8
0
  6
Continuous
 62
     7
100
AcDbPolyline
 90
        5
 70
   128
 43
0.0
 10
5104.3128967285
 20
7617.9711756455
 10
5103.5021613578
 20
7647.1027453904
 10
5102.9769861933
 20
7669.4425489026
 10
5102.4549393095
 20
7686.6113697578
 10
5101.9254024023
 20
7693.3368667315
  0
LWPOLYLINE
  5
241
330
1F
100
AcDbEntity
  8
0
  6
Continuous
 62
     7
100
AcDbPolyline
 90
        5
 70
   128
 43
0.0
 10
5098.8883972168
 20
7610.4878284625
 10
5097.8853259684
 20
7631.5762035222
 10
5097.2331456043
 20
7658.9989269346
 10
5096.579429574
 20
7683.2912100932
 10
5095.9252966212
 20
7693.337395825
  0
LWPOLYLINE
  5
242
330
1F
100
AcDbEntity
  8
0
  6
Continuous
 62
     7
100
AcDbPolyline
 90
        8
 70
   128
 43
0.0
 10
5103.1188964844
 20
7607.8404770982
 10
5103.0121874578
 20
7607.2310166723
 10
5102.994319249
 20
7607.2023561887
 10
5102.9853922156
 20
7607.1982776751
 10
5102.9764683309
 20
7607.2008398251
 10
5102.9288789934
 20
7607.3206567491
 10
5102.3432221722
 20
7617.8444405542
 10
5100.0162657377
 20
7696.7485605696
  0
LWPOLYLINE
  5
243
330
1F
100
AcDbEntity
  8
0
  6
Continuous
 62
     7
100
AcDbPolyline
 90
        9
 70
   128
 43
0.0
 10
5097.1183776855
 20
7607.8398211514
 10
5097.0207647406
 20
7607.2547206298
 10
5097.0022792578
 20
7607.2116784232
 10
5096.9930457546
 20
7607.2013193511
 10
5096.9838166968
 20
7607.1981944417
 10
5096.9653667259
 20
7607.2130039588
 10
5096.9469189626
 20
7607.2548206706
 10
5096.7220023943
 20
7609.3985780156
 10
5095.5158101859
 20
7652.0402322792
  0
LWPOLYLINE
  5
244
330
1F
100
AcDbEntity
  8
0
  6
Continuous
 62
     7
100
AcDbPolyline
 90
        5
 70
   128
 43
0.0
 10
5101.4060974121
 20
7607.8946488681
 10
5100.4259802717
 20
7633.4260510355
 10
5099.7916724947
 20
7662.5992763891
 10
5099.1547120974
 20
7687.2448765841
 10
5098.5162657563
 20
7696.7485604684
  0
LWPOLYLINE
  5
245
330
1F
100
AcDbEntity
  8
0
  6
Continuous
 62
     7
100
AcDbPolyline
 90
        3
 70
   128
 43
0.0
 10
5104.3128967285
 20
7644.4145118521
 10
5103.3792909054
 20
7681.7927121392
 10
5102.6412168586
 20
7693.5078551621
  0
LWPOLYLINE
  5
246
330
1F
100
AcDbEntity
  8
0
  6
Continuous
 62
     7
100
AcDbPolyline
 90
        5
 70
   128
 43
0.0
 10
5099.5330810547
 20
7611.0969780234
 10
5098.5506957274
 20
7634.7863731332
 10
5097.9164634846
 20
7661.8426235595
 10
5097.2795755221
 20
7684.6965756114
 10
5096.6411977959
 20
7693.5079505092
  0
LWPOLYLINE
  5
247
330
1F
100
AcDbEntity
  8
0
  6
Continuous
 62
     7
100
AcDbPolyline
 90
        3
 70
   128
 43
0.0
 10
5093.5325622559
 20
7611.0974397321
 10
5093.0860105348
 20
7617.240836204
 10
5092.7445665014
 20
7627.6164121804
  0
LWPOLYLINE
  5
248
330
1F
100
AcDbEntity
  8
0
  6
Continuous
 62
     7
100
AcDbPolyline
 90
        3
 70
   128
 43
0.0
 10
5093.5134887695
 20
7610.995843693
 10
5093.0919378902
 20
7617.7013650184
 10
5092.7720456491
 20
7627.5884364566
  0
LWPOLYLINE
  5
249
330
1F
100
AcDbEntity
  8
0
  6
Continuous
 62
     7
100
AcDbPolyline
 90
        3
 70
   128
 43
0.0
 10
5093.5134887695
 20
7610.995843693
 10
5093.5158101858
 20
7616.4410196265
 10
5093.5158101858
 20
7625.0562167443
  0
LWPOLYLINE
  5
24A
330
1F
100
AcDbEntity
  8
0
  6
Continuous
 62
     7
100
AcDbPolyline
 90
        3
 70
   128
 43
0.0
 10
3116.2376403809
 20
6299.9579228066
 10
3118.0587130207
 20
6301.0095506495
 10
3119.4887235456
 20
6301.8354493949
  0
LWPOLYLINE
  5
24B
330
1F
100
AcDbEntity
  8
0
  6
Continuous
 62
     7
100
AcDbPolyline
 90
        3
 70
   128
 43
0.0
 10
3029.9415588379
 20
6298.8354528095
 10
3031.7466533972
 20
6297.7937451084
 10
3033.1635272034
 20
6296.9748822396
  0
LWPOLYLINE
  5
24C
330
1F
100
AcDbEntity
  8
0
  6
Continuous
 62
     7
100
AcDbPolyline
 90
        3
 70
   128
 43
0.0
 10
3029.9415588379
 20
6304.8354528095
 10
3031.7466727875
 20
6303.7938324375
 10
3033.1635341412
 20
6302.9748800324
  0
LWPOLYLINE
  5
24D
330
1F
100
AcDbEntity
  8
0
  6
Continuous
 62
     7
100
AcDbPolyline
 90
        3
 70
   128
 43
0.0
 10
3119.4877624512
 20
6297.3989867795
 10
3117.6852010377
 20
6298.4407924401
 10
3116.2683055561
 20
6299.2595512427
  0
LWPOLYLINE
  5
24E
330
1F
100
AcDbEntity
  8
0
  6
Continuous
 62
     7
100
AcDbPolyline
 90
        3
 70
   128
 43
0.0
 10
3119.4877624512
 20
6303.3989867795
 10
3117.6851317937
 20
6304.4407574292
 10
3116.2682988303
 20
6305.2595537402
  0
LWPOLYLINE
  5
24F
330
1F
100
AcDbEntity
  8
0
  6
Continuous
 62
     7
100
AcDbPolyline
 90
        3
 70
   128
 43
0.0
 10
3033.1916809082
 20
6296.2765056046
 10
3032.0181797301
 20
6295.5976766993
 10
3031.0951192797
 20
6295.064431831
  0
LWPOLYLINE
  5
250
330
1F
100
AcDbEntity
  8
0
  6
Continuous
 62
     7
100
AcDbPolyline
 90
        3
 70
   128
 43
0.0
 10
3033.1916809082
 20
6302.2765056046
 10
3031.3731509524
 20
6301.2249433584
 10
3029.943105913
 20
6300.3989801423
  0
LWPOLYLINE
  5
251
330
1F
100
AcDbEntity
  8
0
  6
Continuous
 62
     7
100
AcDbPolyline
 90
        3
 70
   128
 43
0.0
 10
3116.268157959
 20
6299.242226107
 10
3116.2679889326
 20
6299.6530903291
 10
3116.268305237
 20
6299.9748821194
  0
LWPOLYLINE
  5
252
330
1F
100
AcDbEntity
  8
0
  6
Continuous
 62
     7
100
AcDbPolyline
 90
        3
 70
   128
 43
0.0
 10
3116.268157959
 20
6305.242226107
 10
3116.2678431569
 20
6305.6534418931
 10
3116.2682982842
 20
6305.9748799025
  0
LWPOLYLINE
  5
253
330
1F
100
AcDbEntity
  8
0
  6
Continuous
 62
     7
100
AcDbPolyline
 90
        3
 70
   128
 43
0.0
 10
3033.1630706787
 20
6296.9922191532
 10
3033.1638417139
 20
6296.5825011433
 10
3033.1635268979
 20
6296.2595511071
  0
LWPOLYLINE
  5
254
330
1F
100
AcDbEntity
  8
0
  6
Continuous
 62
     7
100
AcDbPolyline
 90
        3
 70
   128
 43
0.0
 10
3033.1630706787
 20
6302.9922191532
 10
3033.1639868684
 20
6302.5828547674
 10
3033.1635336148
 20
6302.2595536025
  0
LWPOLYLINE
  5
255
330
1F
100
AcDbEntity
  8
0
  6
Continuous
 62
     7
100
AcDbPolyline
 90
        3
 70
   128
 43
0.0
 10
3100.170135498
 20
6285.5170120924
 10
3071.6610171391
 20
6284.3665258678
 10
3049.2600721319
 20
6285.5170120924
  0
LWPOLYLINE
  5
256
330
1F
100
AcDbEntity
  8
0
  6
Continuous
 62
     7
100
AcDbPolyline
 90
        3
 70
   128
 43
0.0
 10
3049.259185791
 20
6294.6174192206
 10
3077.7708153701
 20
6295.7679054452
 10
3100.1717603773
 20
6294.6174192206
  0
LWPOLYLINE
  5
257
330
1F
100
AcDbEntity
  8
0
  6
Continuous
 62
     7
100
AcDbPolyline
 90
        3
 70
   128
 43
0.0
 10
3106.1534881592
 20
6294.6174192206
 10
3120.4104020679
 20
6295.8017615639
 10
3131.6111339089
 20
6294.6174192206
  0
LWPOLYLINE
  5
258
330
1F
100
AcDbEntity
  8
0
  6
Continuous
 62
     7
100
AcDbPolyline
 90
        3
 70
   128
 43
0.0
 10
3017.8203582764
 20
6294.6174192206
 10
3032.0758108819
 20
6295.8017615639
 10
3043.2765427229
 20
6294.6174192206
  0
LWPOLYLINE
  5
259
330
1F
100
AcDbEntity
  8
0
  6
Continuous
 62
     7
100
AcDbPolyline
 90
        3
 70
   128
 43
0.0
 10
3131.6108703613
 20
6285.5170120924
 10
3117.3560216273
 20
6284.3326697491
 10
3106.1552897863
 20
6285.5170120924
  0
LWPOLYLINE
  5
25A
330
1F
100
AcDbEntity
  8
0
  6
Continuous
 62
     7
100
AcDbPolyline
 90
        3
 70
   128
 43
0.0
 10
3043.2758331299
 20
6285.5170120924
 10
3029.0214304413
 20
6284.3326697491
 10
3017.8206986003
 20
6285.5170120924
  0
LWPOLYLINE
  5
25B
330
1F
100
AcDbEntity
  8
0
  6
Continuous
 62
     7
100
AcDbPolyline
 90
        5
 70
   128
 43
0.0
 10
3029.914855957
 20
6304.8672156564
 10
3073.9543110183
 20
6305.8085326019
 10
3114.555496977
 20
6306.5267320741
 10
3117.0716107065
 20
6306.7093491005
 10
3117.1491273072
 20
6306.7683133181
  0
LWPOLYLINE
  5
25C
330
1F
100
AcDbEntity
  8
0
  6
Continuous
 62
     7
100
AcDbPolyline
 90
       10
 70
   128
 43
0.0
 10
3033.2069396973
 20
6296.9919919346
 10
3033.0942927495
 20
6297.0176743555
 10
3033.0662889293
 20
6297.0304981859
 10
3033.0565981206
 20
6297.0433146266
 10
3033.0598959851
 20
6297.0518565062
 10
3033.0707097285
 20
6297.0603976381
 10
3033.1343948012
 20
6297.0831780521
 10
3036.3172383326
 20
6297.3627599863
 10
3073.9622974163
 20
6298.474911773
 10
3115.9866342642
 20
6299.9574094039
  0
LWPOLYLINE
  5
25D
330
1F
100
AcDbEntity
  8
0
  6
Continuous
 62
     7
100
AcDbPolyline
 90
       10
 70
   128
 43
0.0
 10
3033.2069396973
 20
6302.9920029901
 10
3033.0942514012
 20
6303.0176861827
 10
3033.0662604416
 20
6303.0305103999
 10
3033.0565836665
 20
6303.0433272295
 10
3033.0598914674
 20
6303.0518693697
 10
3033.0707155616
 20
6303.0604107636
 10
3033.1344299392
 20
6303.0831918828
 10
3036.3176114467
 20
6303.3627831984
 10
3073.9647584084
 20
6304.4749669505
 10
3115.9870981924
 20
6305.9575095169
  0
LWPOLYLINE
  5
25E
330
1F
100
AcDbEntity
  8
0
  6
Continuous
 62
     7
100
AcDbPolyline
 90
       10
 70
   128
 43
0.0
 10
3029.9625396729
 20
6298.8669626428
 10
3029.8404553705
 20
6298.8929465852
 10
3029.8104715163
 20
6298.9059208493
 10
3029.8006655766
 20
6298.9188876656
 10
3029.8048743936
 20
6298.9275298238
 10
3029.817355409
 20
6298.9361712992
 10
3029.88896348
 20
6298.9592198883
 10
3033.3926034178
 20
6299.2422138629
 10
3074.7192817464
 20
6300.3668807728
 10
3119.3830622981
 20
6301.8666049023
  0
LWPOLYLINE
  5
25F
330
1F
100
AcDbEntity
  8
0
  6
Continuous
 62
     7
100
AcDbPolyline
 90
        3
 70
   128
 43
0.0
 10
3084.077835083
 20
6296.0672156565
 10
3111.7299720271
 20
6296.7930253519
 10
3119.3830621573
 20
6297.3666048836
  0
LWPOLYLINE
  5
260
330
1F
100
AcDbEntity
  8
0
  6
Continuous
 62
     7
100
AcDbPolyline
 90
       10
 70
   128
 43
0.0
 10
3029.9625396729
 20
6300.3669626242
 10
3029.8404554174
 20
6300.3929465667
 10
3029.8104715576
 20
6300.4059208307
 10
3029.8006656121
 20
6300.4188876471
 10
3029.8048744251
 20
6300.4275298053
 10
3029.8173554366
 20
6300.4361712807
 10
3029.8889634974
 20
6300.4592198698
 10
3033.3926034174
 20
6300.7422138448
 10
3074.7192817493
 20
6301.8668807542
 10
3119.3830621573
 20
6303.3666048836
  0
LWPOLYLINE
  5
261
330
1F
100
AcDbEntity
  8
0
  6
Continuous
 62
     7
100
AcDbPolyline
 90
        5
 70
   128
 43
0.0
 10
3033.3290100098
 20
6296.2770850108
 10
3055.6007388283
 20
6297.2836170613
 10
3083.1732671027
 20
6297.934781171
 10
3106.943631404
 20
6298.5877106998
 10
3116.1454063684
 20
6299.2416715234
  0
LWPOLYLINE
  5
262
330
1F
100
AcDbEntity
  8
0
  6
Continuous
 62
     7
100
AcDbPolyline
 90
        5
 70
   128
 43
0.0
 10
3033.3309173584
 20
6302.2772068946
 10
3055.6042207163
 20
6303.2837090853
 10
3083.1761948228
 20
6303.9348499254
 10
3106.9449290878
 20
6304.5877574012
 10
3116.145524903
 20
6305.2416971024
  0
POINT
  5
263
330
1F
100
AcDbEntity
  8
0
  6
Continuous
 62
     7
100
AcDbPoint
 10
3074.7159162547
 20
7652.0402331824
 30
0.0
  0
ENDSEC
  0
SECTION
  2
OBJECTS
  0
DICTIONARY
  5
C
330
0
100
AcDbDictionary
281
     1
  3
ACAD_GROUP
350
D
  3
ACAD_LAYOUT
350
1A
  3
ACAD_MLINESTYLE
350
17
  3
ACAD_PLOTSETTINGS
350
19
  3
ACAD_PLOTSTYLENAME
350
E
  3
ACAD_SCALELIST
350
47
  3
DWGPROPS
350
264
  0
DICTIONARY
  5
D
102
{ACAD_REACTORS
330
C
102
}
330
C
100
AcDbDictionary
281
     1
  0
DICTIONARY
  5
1A
102
{ACAD_REACTORS
330
C
102
}
330
C
100
AcDbDictionary
281
     1
  3
Layout1
350
1E
  3
Layout2
350
26
  3
Model
350
22
  0
DICTIONARY
  5
17
102
{ACAD_REACTORS
330
C
102
}
330
C
100
AcDbDictionary
281
     1
  3
Standard
350
18
  0
DICTIONARY
  5
19
102
{ACAD_REACTORS
330
C
102
}
330
C
100
AcDbDictionary
281
     1
  0
ACDBDICTIONARYWDFLT
  5
E
102
{ACAD_REACTORS
330
C
102
}
330
C
100
AcDbDictionary
281
     1
  3
Normal
350
F
100
AcDbDictionaryWithDefault
340
F
  0
DICTIONARY
  5
47
102
{ACAD_REACTORS
330
C
102
}
330
C
100
AcDbDictionary
281
     1
  3
A0
350
48
  3
A1
350
49
  3
A2
350
4A
  3
A3
350
4B
  3
A4
350
4C
  3
A5
350
4D
  3
A6
350
4E
  3
A7
350
4F
  3
A8
350
50
  3
A9
350
51
  3
B0
350
52
  3
B1
350
53
  3
B2
350
54
  3
B3
350
55
  3
B4
350
56
  3
B5
350
57
  3
B6
350
58
  3
B7
350
59
  3
B8
350
5A
  3
B9
350
5B
  3
C0
350
5C
  3
C1
350
5D
  3
C2
350
5E
  3
C3
350
5F
  3
C4
350
60
  3
C5
350
61
  3
C6
350
62
  3
C7
350
63
  3
C8
350
64
  3
C9
350
65
  3
D0
350
66
  3
D1
350
67
  3
D2
350
68
  0
XRECORD
  5
264
102
{ACAD_REACTORS
330
C
102
}
330
C
100
AcDbXrecord
280
     1
  1
DWGPROPS COOKIE
  2

  3

  4

  6

  7

  8
radek.stransky
  9

300
=
301
=
302
=
303
=
304
=
305
=
306
=
307
=
308
=
309
=
 40
0.0
 41
2459100.229506123
 42
2459100.229534884
  1

 90
        0
  0
LAYOUT
  5
1E
102
{ACAD_REACTORS
330
1A
102
}
330
1A
100
AcDbPlotSettings
  1

  2
none_device
  4

  6

 40
0.0
 41
0.0
 42
0.0
 43
0.0
 44
0.0
 45
0.0
 46
0.0
 47
0.0
 48
0.0
 49
0.0
140
0.0
141
0.0
142
1.0
143
1.0
 70
   688
 72
     1
 73
     0
 74
     5
  7

 75
    16
147
1.0
148
0.0
149
0.0
100
AcDbLayout
  1
Layout1
 70
     1
 71
     1
 10
0.0
 20
0.0
 11
420.0
 21
297.0
 12
0.0
 22
0.0
 32
0.0
 14
1.0000000000E+20
 24
1.0000000000E+20
 34
1.0000000000E+20
 15
-1.0000000000E+20
 25
-1.0000000000E+20
 35
-1.0000000000E+20
146
0.0
 13
0.0
 23
0.0
 33
0.0
 16
1.0
 26
0.0
 36
0.0
 17
0.0
 27
1.0
 37
0.0
 76
     0
330
1B
  0
LAYOUT
  5
26
102
{ACAD_REACTORS
330
1A
102
}
330
1A
100
AcDbPlotSettings
  1

  2
none_device
  4

  6

 40
0.0
 41
0.0
 42
0.0
 43
0.0
 44
0.0
 45
0.0
 46
0.0
 47
0.0
 48
0.0
 49
0.0
140
0.0
141
0.0
142
1.0
143
1.0
 70
   688
 72
     1
 73
     0
 74
     5
  7

 75
    16
147
1.0
148
0.0
149
0.0
100
AcDbLayout
  1
Layout2
 70
     1
 71
     2
 10
0.0
 20
0.0
 11
0.0
 21
0.0
 12
0.0
 22
0.0
 32
0.0
 14
0.0
 24
0.0
 34
0.0
 15
0.0
 25
0.0
 35
0.0
146
0.0
 13
0.0
 23
0.0
 33
0.0
 16
1.0
 26
0.0
 36
0.0
 17
0.0
 27
1.0
 37
0.0
 76
     0
330
23
  0
LAYOUT
  5
22
102
{ACAD_REACTORS
330
1A
102
}
330
1A
100
AcDbPlotSettings
  1

  2
none_device
  4
ANSI_A_(11.00_x_8.50_Inches)
  6

 40
6.35
 41
19.05
 42
6.35000508
 43
19.05000254
 44
279.4
 45
215.9
 46
-191.835538216
 47
-552.7536774965
 48
0.0
 49
0.0
140
0.0
141
0.0
142
0.0035463073
143
1.0
 70
  1696
 72
     0
 73
     0
 74
     0
  7

 75
     0
147
0.0179189148
148
-1300.4909072572
149
0.0
100
AcDbLayout
  1
Model
 70
     1
 71
     0
 10
0.0
 20
0.0
 11
420.0
 21
297.0
 12
0.0
 22
0.0
 32
0.0
 14
2074.7159162547
 24
6254.8672156564
 34
0.0
 15
5145.5158101859
 25
7992.0402331824
 35
0.0
146
0.0
 13
0.0
 23
0.0
 33
0.0
 16
1.0
 26
0.0
 36
0.0
 17
0.0
 27
1.0
 37
0.0
 76
     0
330
1F
331
29
  0
MLINESTYLE
  5
18
102
{ACAD_REACTORS
330
17
102
}
330
17
100
AcDbMlineStyle
  2
Standard
 70
     0
  3

 62
   256
 51
90.0
 52
90.0
 71
     2
 49
0.5
 62
   256
  6
BYLAYER
 49
-0.5
 62
   256
  6
BYLAYER
  0
ACDBPLACEHOLDER
  5
F
102
{ACAD_REACTORS
330
E
102
}
330
E
  0
SCALE
  5
48
102
{ACAD_REACTORS
330
47
102
}
330
47
100
AcDbScale
 70
     0
300
1:1
140
1.0
141
1.0
290
     1
  0
SCALE
  5
49
102
{ACAD_REACTORS
330
47
102
}
330
47
100
AcDbScale
 70
     0
300
1:2
140
1.0
141
2.0
290
     0
  0
SCALE
  5
4A
102
{ACAD_REACTORS
330
47
102
}
330
47
100
AcDbScale
 70
     0
300
1:4
140
1.0
141
4.0
290
     0
  0
SCALE
  5
4B
102
{ACAD_REACTORS
330
47
102
}
330
47
100
AcDbScale
 70
     0
300
1:5
140
1.0
141
5.0
290
     0
  0
SCALE
  5
4C
102
{ACAD_REACTORS
330
47
102
}
330
47
100
AcDbScale
 70
     0
300
1:8
140
1.0
141
8.0
290
     0
  0
SCALE
  5
4D
102
{ACAD_REACTORS
330
47
102
}
330
47
100
AcDbScale
 70
     0
300
1:10
140
1.0
141
10.0
290
     0
  0
SCALE
  5
4E
102
{ACAD_REACTORS
330
47
102
}
330
47
100
AcDbScale
 70
     0
300
1:16
140
1.0
141
16.0
290
     0
  0
SCALE
  5
4F
102
{ACAD_REACTORS
330
47
102
}
330
47
100
AcDbScale
 70
     0
300
1:20
140
1.0
141
20.0
290
     0
  0
SCALE
  5
50
102
{ACAD_REACTORS
330
47
102
}
330
47
100
AcDbScale
 70
     0
300
1:30
140
1.0
141
30.0
290
     0
  0
SCALE
  5
51
102
{ACAD_REACTORS
330
47
102
}
330
47
100
AcDbScale
 70
     0
300
1:40
140
1.0
141
40.0
290
     0
  0
SCALE
  5
52
102
{ACAD_REACTORS
330
47
102
}
330
47
100
AcDbScale
 70
     0
300
1:50
140
1.0
141
50.0
290
     0
  0
SCALE
  5
53
102
{ACAD_REACTORS
330
47
102
}
330
47
100
AcDbScale
 70
     0
300
1:100
140
1.0
141
100.0
290
     0
  0
SCALE
  5
54
102
{ACAD_REACTORS
330
47
102
}
330
47
100
AcDbScale
 70
     0
300
2:1
140
2.0
141
1.0
290
     0
  0
SCALE
  5
55
102
{ACAD_REACTORS
330
47
102
}
330
47
100
AcDbScale
 70
     0
300
4:1
140
4.0
141
1.0
290
     0
  0
SCALE
  5
56
102
{ACAD_REACTORS
330
47
102
}
330
47
100
AcDbScale
 70
     0
300
8:1
140
8.0
141
1.0
290
     0
  0
SCALE
  5
57
102
{ACAD_REACTORS
330
47
102
}
330
47
100
AcDbScale
 70
     0
300
10:1
140
10.0
141
1.0
290
     0
  0
SCALE
  5
58
102
{ACAD_REACTORS
330
47
102
}
330
47
100
AcDbScale
 70
     0
300
100:1
140
100.0
141
1.0
290
     0
  0
SCALE
  5
59
102
{ACAD_REACTORS
330
47
102
}
330
47
100
AcDbScale
 70
     0
300
1/128" = 1'-0"
140
0.0078125
141
12.0
290
     0
  0
SCALE
  5
5A
102
{ACAD_REACTORS
330
47
102
}
330
47
100
AcDbScale
 70
     0
300
1/64" = 1'-0"
140
0.015625
141
12.0
290
     0
  0
SCALE
  5
5B
102
{ACAD_REACTORS
330
47
102
}
330
47
100
AcDbScale
 70
     0
300
1/32" = 1'-0"
140
0.03125
141
12.0
290
     0
  0
SCALE
  5
5C
102
{ACAD_REACTORS
330
47
102
}
330
47
100
AcDbScale
 70
     0
300
1/16" = 1'-0"
140
0.0625
141
12.0
290
     0
  0
SCALE
  5
5D
102
{ACAD_REACTORS
330
47
102
}
330
47
100
AcDbScale
 70
     0
300
3/32" = 1'-0"
140
0.09375
141
12.0
290
     0
  0
SCALE
  5
5E
102
{ACAD_REACTORS
330
47
102
}
330
47
100
AcDbScale
 70
     0
300
1/8" = 1'-0"
140
0.125
141
12.0
290
     0
  0
SCALE
  5
5F
102
{ACAD_REACTORS
330
47
102
}
330
47
100
AcDbScale
 70
     0
300
3/16" = 1'-0"
140
0.1875
141
12.0
290
     0
  0
SCALE
  5
60
102
{ACAD_REACTORS
330
47
102
}
330
47
100
AcDbScale
 70
     0
300
1/4" = 1'-0"
140
0.25
141
12.0
290
     0
  0
SCALE
  5
61
102
{ACAD_REACTORS
330
47
102
}
330
47
100
AcDbScale
 70
     0
300
3/8" = 1'-0"
140
0.375
141
12.0
290
     0
  0
SCALE
  5
62
102
{ACAD_REACTORS
330
47
102
}
330
47
100
AcDbScale
 70
     0
300
1/2" = 1'-0"
140
0.5
141
12.0
290
     0
  0
SCALE
  5
63
102
{ACAD_REACTORS
330
47
102
}
330
47
100
AcDbScale
 70
     0
300
3/4" = 1'-0"
140
0.75
141
12.0
290
     0
  0
SCALE
  5
64
102
{ACAD_REACTORS
330
47
102
}
330
47
100
AcDbScale
 70
     0
300
1" = 1'-0"
140
1.0
141
12.0
290
     0
  0
SCALE
  5
65
102
{ACAD_REACTORS
330
47
102
}
330
47
100
AcDbScale
 70
     0
300
1-1/2" = 1'-0"
140
1.5
141
12.0
290
     0
  0
SCALE
  5
66
102
{ACAD_REACTORS
330
47
102
}
330
47
100
AcDbScale
 70
     0
300
3" = 1'-0"
140
3.0
141
12.0
290
     0
  0
SCALE
  5
67
102
{ACAD_REACTORS
330
47
102
}
330
47
100
AcDbScale
 70
     0
300
6" = 1'-0"
140
6.0
141
12.0
290
     0
  0
SCALE
  5
68
102
{ACAD_REACTORS
330
47
102
}
330
47
100
AcDbScale
 70
     0
300
1'-0" = 1'-0"
140
12.0
141
12.0
290
     0
  0
ENDSEC
  0
EOF
