  0
SECTION
  2
HEADER
  9
$ACADVER
  1
AC1015
  9
$ACADMAINTVER
 70
     6
  9
$DWGCODEPAGE
  3
ANSI_1250
  9
$INSBASE
 10
0.0
 20
0.0
 30
0.0
  9
$EXTMIN
 10
6163.4187559036
 20
5051.5618726645
 30
0.0
  9
$EXTMAX
 10
6471.9606870494
 20
5288.699457573
 30
0.0
  9
$LIMMIN
 10
0.0
 20
0.0
  9
$LIMMAX
 10
420.0
 20
297.0
  9
$ORTHOMODE
 70
     0
  9
$REGENMODE
 70
     1
  9
$FILLMODE
 70
     1
  9
$QTEXTMODE
 70
     0
  9
$MIRRTEXT
 70
     1
  9
$LTSCALE
 40
1.0
  9
$ATTMODE
 70
     1
  9
$TEXTSIZE
 40
3.5
  9
$TRACEWID
 40
1.0
  9
$TEXTSTYLE
  7
Standard
  9
$CLAYER
  8
0
  9
$CELTYPE
  6
ByLayer
  9
$CECOLOR
 62
   256
  9
$CELTSCALE
 40
1.0
  9
$DISPSILH
 70
     0
  9
$DIMSCALE
 40
1.0
  9
$DIMASZ
 40
3.302
  9
$DIMEXO
 40
0.0
  9
$DIMDLI
 40
3.75
  9
$DIMRND
 40
0.0
  9
$DIMDLE
 40
0.0
  9
$DIMEXE
 40
1.0
  9
$DIMTP
 40
0.0
  9
$DIMTM
 40
0.0
  9
$DIMTXT
 40
3.5
  9
$DIMCEN
 40
2.5
  9
$DIMTSZ
 40
0.0
  9
$DIMTOL
 70
     0
  9
$DIMLIM
 70
     0
  9
$DIMTIH
 70
     1
  9
$DIMTOH
 70
     1
  9
$DIMSE1
 70
     0
  9
$DIMSE2
 70
     0
  9
$DIMTAD
 70
     1
  9
$DIMZIN
 70
     0
  9
$DIMBLK
  1

  9
$DIMASO
 70
     1
  9
$DIMSHO
 70
     1
  9
$DIMPOST
  1

  9
$DIMAPOST
  1

  9
$DIMALT
 70
     0
  9
$DIMALTD
 70
     3
  9
$DIMALTF
 40
0.0393700787
  9
$DIMLFAC
 40
1.0
  9
$DIMTOFL
 70
     1
  9
$DIMTVP
 40
0.0
  9
$DIMTIX
 70
     0
  9
$DIMSOXD
 70
     0
  9
$DIMSAH
 70
     0
  9
$DIMBLK1
  1

  9
$DIMBLK2
  1

  9
$DIMSTYLE
  2
ISO-25
  9
$DIMCLRD
 70
     0
  9
$DIMCLRE
 70
     0
  9
$DIMCLRT
 70
     0
  9
$DIMTFAC
 40
1.0
  9
$DIMGAP
 40
1.524
  9
$DIMJUST
 70
     0
  9
$DIMSD1
 70
     0
  9
$DIMSD2
 70
     0
  9
$DIMTOLJ
 70
     0
  9
$DIMTZIN
 70
     0
  9
$DIMALTZ
 70
     0
  9
$DIMALTTZ
 70
     0
  9
$DIMUPT
 70
     0
  9
$DIMDEC
 70
     2
  9
$DIMTDEC
 70
     2
  9
$DIMALTU
 70
     2
  9
$DIMALTTD
 70
     3
  9
$DIMTXSTY
  7
Standard
  9
$DIMAUNIT
 70
     0
  9
$DIMADEC
 70
     2
  9
$DIMALTRND
 40
0.0
  9
$DIMAZIN
 70
     0
  9
$DIMDSEP
 70
    44
  9
$DIMATFIT
 70
     3
  9
$DIMFRAC
 70
     0
  9
$DIMLDRBLK
  1

  9
$DIMLUNIT
 70
     2
  9
$DIMLWD
 70
    -2
  9
$DIMLWE
 70
    -2
  9
$DIMTMOVE
 70
     0
  9
$LUNITS
 70
     2
  9
$LUPREC
 70
     2
  9
$SKETCHINC
 40
1.0
  9
$FILLETRAD
 40
10.0
  9
$AUNITS
 70
     0
  9
$AUPREC
 70
     2
  9
$MENU
  1
.
  9
$ELEVATION
 40
0.0
  9
$PELEVATION
 40
0.0
  9
$THICKNESS
 40
0.0
  9
$LIMCHECK
 70
     0
  9
$CHAMFERA
 40
0.0
  9
$CHAMFERB
 40
0.0
  9
$CHAMFERC
 40
0.0
  9
$CHAMFERD
 40
0.0
  9
$SKPOLY
 70
     0
  9
$TDCREATE
 40
2459097.565769074
  9
$TDUCREATE
 40
2459097.482435741
  9
$TDUPDATE
 40
2459097.565798009
  9
$TDUUPDATE
 40
2459097.482464676
  9
$TDINDWG
 40
0.0000000116
  9
$TDUSRTIMER
 40
0.0000000116
  9
$USRTIMER
 70
     1
  9
$ANGBASE
 50
0.0
  9
$ANGDIR
 70
     0
  9
$PDMODE
 70
     0
  9
$PDSIZE
 40
-1.0
  9
$PLINEWID
 40
0.0
  9
$SPLFRAME
 70
     0
  9
$SPLINETYPE
 70
     6
  9
$SPLINESEGS
 70
     8
  9
$HANDSEED
  5
20D
  9
$SURFTAB1
 70
     6
  9
$SURFTAB2
 70
     6
  9
$SURFTYPE
 70
     6
  9
$SURFU
 70
     6
  9
$SURFV
 70
     6
  9
$UCSBASE
  2

  9
$UCSNAME
  2

  9
$UCSORG
 10
0.0
 20
0.0
 30
0.0
  9
$UCSXDIR
 10
1.0
 20
0.0
 30
0.0
  9
$UCSYDIR
 10
0.0
 20
1.0
 30
0.0
  9
$UCSORTHOREF
  2

  9
$UCSORTHOVIEW
 70
     0
  9
$UCSORGTOP
 10
0.0
 20
0.0
 30
0.0
  9
$UCSORGBOTTOM
 10
0.0
 20
0.0
 30
0.0
  9
$UCSORGLEFT
 10
0.0
 20
0.0
 30
0.0
  9
$UCSORGRIGHT
 10
0.0
 20
0.0
 30
0.0
  9
$UCSORGFRONT
 10
0.0
 20
0.0
 30
0.0
  9
$UCSORGBACK
 10
0.0
 20
0.0
 30
0.0
  9
$PUCSBASE
  2

  9
$PUCSNAME
  2

  9
$PUCSORG
 10
0.0
 20
0.0
 30
0.0
  9
$PUCSXDIR
 10
1.0
 20
0.0
 30
0.0
  9
$PUCSYDIR
 10
0.0
 20
1.0
 30
0.0
  9
$PUCSORTHOREF
  2

  9
$PUCSORTHOVIEW
 70
     0
  9
$PUCSORGTOP
 10
0.0
 20
0.0
 30
0.0
  9
$PUCSORGBOTTOM
 10
0.0
 20
0.0
 30
0.0
  9
$PUCSORGLEFT
 10
0.0
 20
0.0
 30
0.0
  9
$PUCSORGRIGHT
 10
0.0
 20
0.0
 30
0.0
  9
$PUCSORGFRONT
 10
0.0
 20
0.0
 30
0.0
  9
$PUCSORGBACK
 10
0.0
 20
0.0
 30
0.0
  9
$USERI1
 70
     0
  9
$USERI2
 70
     0
  9
$USERI3
 70
     0
  9
$USERI4
 70
     0
  9
$USERI5
 70
     0
  9
$USERR1
 40
0.0
  9
$USERR2
 40
0.0
  9
$USERR3
 40
0.0
  9
$USERR4
 40
0.0
  9
$USERR5
 40
0.0
  9
$WORLDVIEW
 70
     1
  9
$SHADEDGE
 70
     3
  9
$SHADEDIF
 70
    70
  9
$TILEMODE
 70
     1
  9
$MAXACTVP
 70
    64
  9
$PINSBASE
 10
0.0
 20
0.0
 30
0.0
  9
$PLIMCHECK
 70
     0
  9
$PEXTMIN
 10
1.0000000000E+20
 20
1.0000000000E+20
 30
1.0000000000E+20
  9
$PEXTMAX
 10
-1.0000000000E+20
 20
-1.0000000000E+20
 30
-1.0000000000E+20
  9
$PLIMMIN
 10
0.0
 20
0.0
  9
$PLIMMAX
 10
420.0
 20
297.0
  9
$UNITMODE
 70
     0
  9
$VISRETAIN
 70
     1
  9
$PLINEGEN
 70
     0
  9
$PSLTSCALE
 70
     1
  9
$TREEDEPTH
 70
  3020
  9
$CMLSTYLE
  2
Standard
  9
$CMLJUST
 70
     0
  9
$CMLSCALE
 40
20.0
  9
$PROXYGRAPHICS
 70
     1
  9
$MEASUREMENT
 70
     1
  9
$CELWEIGHT
370
    -1
  9
$ENDCAPS
280
     0
  9
$JOINSTYLE
280
     0
  9
$LWDISPLAY
290
     1
  9
$INSUNITS
 70
     4
  9
$HYPERLINKBASE
  1

  9
$STYLESHEET
  1

  9
$XEDIT
290
     1
  9
$CEPSNTYPE
380
     0
  9
$PSTYLEMODE
290
     1
  9
$FINGERPRINTGUID
  2
{5ad1efbc-5ee0-49cf-a632-c1f6bde20559}
  9
$VERSIONGUID
  2
{FAEB1C32-E019-11D5-929B-00C0DF256EC4}
  9
$EXTNAMES
290
     1
  9
$PSVPSCALE
 40
0.0
  9
$OLESTARTUP
290
     0
  0
ENDSEC
  0
SECTION
  2
CLASSES
  0
CLASS
  1
ACDBDICTIONARYWDFLT
  2
AcDbDictionaryWithDefault
  3
ObjectDBX Classes
 90
        0
280
     0
281
     0
  0
CLASS
  1
VISUALSTYLE
  2
AcDbVisualStyle
  3
ObjectDBX Classes
 90
     4095
280
     0
281
     0
  0
CLASS
  1
MATERIAL
  2
AcDbMaterial
  3
ObjectDBX Classes
 90
     1153
280
     0
281
     0
  0
CLASS
  1
SCALE
  2
AcDbScale
  3
ObjectDBX Classes
 90
     1153
280
     0
281
     0
  0
CLASS
  1
TABLESTYLE
  2
AcDbTableStyle
  3
ObjectDBX Classes
 90
     4095
280
     0
281
     0
  0
CLASS
  1
MLEADERSTYLE
  2
AcDbMLeaderStyle
  3
ACDB_MLEADERSTYLE_CLASS
 90
     4095
280
     0
281
     0
  0
CLASS
  1
SUN
  2
AcDbSun
  3
SCENEOE
 90
     1153
280
     0
281
     0
  0
CLASS
  1
ACDBPLACEHOLDER
  2
AcDbPlaceHolder
  3
ObjectDBX Classes
 90
        0
280
     0
281
     0
  0
CLASS
  1
LAYOUT
  2
AcDbLayout
  3
ObjectDBX Classes
 90
        0
280
     0
281
     0
  0
ENDSEC
  0
SECTION
  2
TABLES
  0
TABLE
  2
VPORT
  5
8
330
0
100
AcDbSymbolTable
 70
     1
  0
VPORT
  5
29
330
8
100
AcDbSymbolTableRecord
100
AcDbViewportTableRecord
  2
*Active
 70
     0
 10
0.0
 20
0.0
 11
1.0
 21
1.0
 12
6317.6897214765
 22
5170.1306651187
 13
0.0
 23
0.0
 14
10.0
 24
10.0
 15
10.0
 25
10.0
 16
0.0
 26
0.0
 36
1.0
 17
0.0
 27
0.0
 37
0.0
 40
241.8803366067
 41
1.3011093592
 42
50.0
 43
0.0
 44
0.0
 50
0.0
 51
0.0
 71
     0
 72
   100
 73
     1
 74
     3
 75
     0
 76
     0
 77
     0
 78
     0
281
     0
 65
     1
110
0.0
120
0.0
130
0.0
111
1.0
121
0.0
131
0.0
112
0.0
122
1.0
132
0.0
 79
     0
146
0.0
  0
ENDTAB
  0
TABLE
  2
LTYPE
  5
5
330
0
100
AcDbSymbolTable
 70
     6
  0
LTYPE
  5
14
330
5
100
AcDbSymbolTableRecord
100
AcDbLinetypeTableRecord
  2
ByBlock
 70
     0
  3

 72
    65
 73
     0
 40
0.0
  0
LTYPE
  5
15
330
5
100
AcDbSymbolTableRecord
100
AcDbLinetypeTableRecord
  2
ByLayer
 70
     0
  3

 72
    65
 73
     0
 40
0.0
  0
LTYPE
  5
16
330
5
100
AcDbSymbolTableRecord
100
AcDbLinetypeTableRecord
  2
Continuous
 70
     0
  3
Solid line
 72
    65
 73
     0
 40
0.0
  0
LTYPE
  5
6E
330
5
100
AcDbSymbolTableRecord
100
AcDbLinetypeTableRecord
  2
HIDDEN
 70
     0
  3
Hidden __ __ __ __ __ __ __ __ __ __ __ __ __ __
 72
    65
 73
     2
 40
1.905
 49
1.27
 74
     0
 49
-0.635
 74
     0
  0
LTYPE
  5
6F
330
5
100
AcDbSymbolTableRecord
100
AcDbLinetypeTableRecord
  2
PHANTOM
 70
     0
  3
Phantom ______  __  __  ______  __  __  ______
 72
    65
 73
     6
 40
12.7
 49
6.35
 74
     0
 49
-1.27
 74
     0
 49
1.27
 74
     0
 49
-1.27
 74
     0
 49
1.27
 74
     0
 49
-1.27
 74
     0
  0
LTYPE
  5
70
330
5
100
AcDbSymbolTableRecord
100
AcDbLinetypeTableRecord
  2
CENTER
 70
     0
  3
Center ____ _ ____ _ ____ _ ____ _ ____ _ ____
 72
    65
 73
     4
 40
10.16
 49
6.35
 74
     0
 49
-1.27
 74
     0
 49
1.27
 74
     0
 49
-1.27
 74
     0
  0
LTYPE
  5
71
330
5
100
AcDbSymbolTableRecord
100
AcDbLinetypeTableRecord
  2
CENTERX2
 70
     0
  3
Center (2x) ________  __  ________  __  _____
 72
    65
 73
     4
 40
20.32
 49
12.7
 74
     0
 49
-2.54
 74
     0
 49
2.54
 74
     0
 49
-2.54
 74
     0
  0
LTYPE
  5
72
330
5
100
AcDbSymbolTableRecord
100
AcDbLinetypeTableRecord
  2
DOT2
 70
     0
  3
Dot (.5x) ........................................
 72
    65
 73
     2
 40
0.635
 49
0.0
 74
     0
 49
-0.635
 74
     0
  0
ENDTAB
  0
TABLE
  2
LAYER
  5
2
330
0
100
AcDbSymbolTable
 70
     1
  0
LAYER
  5
10
330
2
100
AcDbSymbolTableRecord
100
AcDbLayerTableRecord
  2
0
 70
     0
 62
     7
  6
Continuous
370
    -3
390
F
  0
ENDTAB
  0
TABLE
  2
STYLE
  5
3
330
0
100
AcDbSymbolTable
 70
     1
  0
STYLE
  5
11
330
3
100
AcDbSymbolTableRecord
100
AcDbTextStyleTableRecord
  2
Standard
 70
     0
 40
0.0
 41
1.0
 50
0.0
 71
     0
 42
3.5
  3
txt
  4

  0
ENDTAB
  0
TABLE
  2
VIEW
  5
6
330
0
100
AcDbSymbolTable
 70
     0
  0
ENDTAB
  0
TABLE
  2
UCS
  5
7
330
0
100
AcDbSymbolTable
 70
     0
  0
ENDTAB
  0
TABLE
  2
APPID
  5
9
330
0
100
AcDbSymbolTable
 70
     1
  0
APPID
  5
12
330
9
100
AcDbSymbolTableRecord
100
AcDbRegAppTableRecord
  2
ACAD
 70
     0
  0
ENDTAB
  0
TABLE
  2
DIMSTYLE
  5
A
330
0
100
AcDbSymbolTable
 70
     1
100
AcDbDimStyleTable
  0
DIMSTYLE
105
27
330
A
100
AcDbSymbolTableRecord
100
AcDbDimStyleTableRecord
  2
ISO-25
 70
     0
 41
2.5
 42
0.625
 43
3.75
 44
1.25
 73
     0
 74
     0
 77
     1
 78
     8
140
2.5
141
2.5
143
0.0393700787
147
0.625
171
     3
172
     1
178
     0
271
     2
272
     2
274
     3
278
    44
283
     0
284
     8
340
11
  0
ENDTAB
  0
TABLE
  2
BLOCK_RECORD
  5
1
330
0
100
AcDbSymbolTable
 70
     1
  0
BLOCK_RECORD
  5
1F
330
1
100
AcDbSymbolTableRecord
100
AcDbBlockTableRecord
  2
*Model_Space
340
22
  0
BLOCK_RECORD
  5
1B
330
1
100
AcDbSymbolTableRecord
100
AcDbBlockTableRecord
  2
*Paper_Space
340
1E
  0
BLOCK_RECORD
  5
23
330
1
100
AcDbSymbolTableRecord
100
AcDbBlockTableRecord
  2
*Paper_Space0
340
26
  0
ENDTAB
  0
ENDSEC
  0
SECTION
  2
BLOCKS
  0
BLOCK
  5
20
330
1F
100
AcDbEntity
  8
0
100
AcDbBlockBegin
  2
*Model_Space
 70
     0
 10
0.0
 20
0.0
 30
0.0
  3
*Model_Space
  1

  0
ENDBLK
  5
21
330
1F
100
AcDbEntity
  8
0
100
AcDbBlockEnd
  0
BLOCK
  5
1C
330
1B
100
AcDbEntity
 67
     1
  8
0
100
AcDbBlockBegin
  2
*Paper_Space
 70
     0
 10
0.0
 20
0.0
 30
0.0
  3
*Paper_Space
  1

  0
ENDBLK
  5
1D
330
1B
100
AcDbEntity
 67
     1
  8
0
100
AcDbBlockEnd
  0
BLOCK
  5
24
330
23
100
AcDbEntity
  8
0
100
AcDbBlockBegin
  2
*Paper_Space0
 70
     0
 10
0.0
 20
0.0
 30
0.0
  3
*Paper_Space0
  1

  0
ENDBLK
  5
25
330
23
100
AcDbEntity
  8
0
100
AcDbBlockEnd
  0
ENDSEC
  0
SECTION
  2
ENTITIES
  0
ARC
  5
73
330
1F
100
AcDbEntity
  8
0
  6
Continuous
 62
     7
100
AcDbCircle
 10
6295.0059792289
 20
5167.0491215205
 30
0.0
 40
0.4461853441692591
100
AcDbArc
 50
191.5023821517
 51
278.0881457586
  0
ARC
  5
74
330
1F
100
AcDbEntity
  8
0
  6
Continuous
 62
     7
100
AcDbCircle
 10
6294.9442513399
 20
5110.0559228315
 30
0.0
 40
56.9054643494249
100
AcDbArc
 50
89.8746413624
 51
90.3780747315
  0
ARC
  5
75
330
1F
100
AcDbEntity
  8
0
  6
Continuous
 62
     7
100
AcDbCircle
 10
6353.381658571
 20
4995.9478739071
 30
0.0
 40
171.0133782412247
100
AcDbArc
 50
89.8882505995
 51
90.0067037448
  0
ARC
  5
76
330
1F
100
AcDbEntity
  8
0
  6
Continuous
 62
     7
100
AcDbCircle
 10
6352.984108112
 20
5167.3384683577
 30
0.0
 40
0.8228218717513492
100
AcDbArc
 50
297.3121149645
 51
332.6878850373
  0
ARC
  5
77
330
1F
100
AcDbEntity
  8
0
  6
Continuous
 62
     7
100
AcDbCircle
 10
6294.9436203181
 20
5131.7277858014
 30
0.0
 40
56.61933649716257
100
AcDbArc
 50
89.8733692948
 51
90.379346799
  0
ARC
  5
78
330
1F
100
AcDbEntity
  8
0
  6
Continuous
 62
     7
100
AcDbCircle
 10
6353.3844418009
 20
5019.3987899625
 30
0.0
 40
168.9481955908946
100
AcDbArc
 50
89.8878284844
 51
90.0077295727
  0
ARC
  5
79
330
1F
100
AcDbEntity
  8
0
  6
Continuous
 62
     7
100
AcDbCircle
 10
6295.0065303222
 20
5188.2580775292
 30
0.0
 40
0.4464939416410001
100
AcDbArc
 50
81.9889034001
 51
168.6587714464
  0
ARC
  5
7A
330
1F
100
AcDbEntity
  8
0
  6
Continuous
 62
     7
100
AcDbCircle
 10
6352.9866515474
 20
5187.9716637334
 30
0.0
 40
0.8193956834042144
100
AcDbArc
 50
27.2356966107
 51
62.7643034108
  0
ARC
  5
7B
330
1F
100
AcDbEntity
  8
0
  6
Continuous
 62
     7
100
AcDbCircle
 10
6355.6911876036
 20
5164.6254284015
 30
0.0
 40
0.8228614350278266
100
AcDbArc
 50
297.312993497
 51
332.687006519
  0
ARC
  5
7C
330
1F
100
AcDbEntity
  8
0
  6
Continuous
 62
     7
100
AcDbCircle
 10
6355.6937247338
 20
5190.6727596918
 30
0.0
 40
0.8194437215243771
100
AcDbArc
 50
27.2367726865
 51
62.7632272972
  0
ARC
  5
7D
330
1F
100
AcDbEntity
  8
0
  6
Continuous
 62
     7
100
AcDbCircle
 10
6295.0059792289
 20
5164.3360522008
 30
0.0
 40
0.4461853441703317
100
AcDbArc
 50
191.5023821518
 51
278.0881457585
  0
ARC
  5
7E
330
1F
100
AcDbEntity
  8
0
  6
Continuous
 62
     7
100
AcDbCircle
 10
6295.0065339232
 20
5190.9592040749
 30
0.0
 40
0.4464984715445903
100
AcDbArc
 50
81.9894518464
 51
168.6582230046
  0
ARC
  5
7F
330
1F
100
AcDbEntity
  8
0
  6
Continuous
 62
     7
100
AcDbCircle
 10
6356.4432646073
 20
5154.4168050115
 30
0.0
 40
9.831074876575844
100
AcDbArc
 50
89.2686360432
 51
90.1221191852
  0
ARC
  5
80
330
1F
100
AcDbEntity
  8
0
  6
Continuous
 62
     7
100
AcDbCircle
 10
6356.0687566029
 20
5164.2470733661
 30
0.0
 40
0.4999954073143646
100
AcDbArc
 50
270.0002113775
 51
0.0006424013
  0
ARC
  5
81
330
1F
100
AcDbEntity
  8
0
  6
Continuous
 62
     7
100
AcDbCircle
 10
6295.0687587655
 20
5164.2470818382
 30
0.0
 40
0.5000038793769197
100
AcDbArc
 50
180.0003284247
 51
269.9996715751
  0
ARC
  5
82
330
1F
100
AcDbEntity
  8
0
  6
Continuous
 62
     7
100
AcDbCircle
 10
6356.443377273
 20
5181.2613414401
 30
0.0
 40
9.786474639093319
100
AcDbArc
 50
89.265962456
 51
90.1233353366
  0
ARC
  5
83
330
1F
100
AcDbEntity
  8
0
  6
Continuous
 62
     7
100
AcDbCircle
 10
6356.0687584378
 20
5191.0470185352
 30
0.0
 40
0.4999935723881209
100
AcDbArc
 50
359.9993607759
 51
89.9999988936
  0
ARC
  5
84
330
1F
100
AcDbEntity
  8
0
  6
Continuous
 62
     7
100
AcDbCircle
 10
6295.0687569305
 20
5191.0470100632
 30
0.0
 40
0.5000020444087285
100
AcDbArc
 50
90.000118155
 51
179.9996683987
  0
ARC
  5
85
330
1F
100
AcDbEntity
  8
0
  6
Continuous
 62
     7
100
AcDbCircle
 10
6356.0687587227
 20
5164.2281244199
 30
0.0
 40
0.4999932874917097
100
AcDbArc
 50
269.9999684611
 51
0.0004584306
  0
ARC
  5
86
330
1F
100
AcDbEntity
  8
0
  6
Continuous
 62
     7
100
AcDbCircle
 10
6293.9315327534
 20
5167.0191194387
 30
0.0
 40
0.4461830492062056
100
AcDbArc
 50
261.9118114033
 51
348.4978617801
  0
ARC
  5
87
330
1F
100
AcDbEntity
  8
0
  6
Continuous
 62
     7
100
AcDbCircle
 10
6293.9932606533
 20
5110.0265604778
 30
0.0
 40
56.90482694192419
100
AcDbArc
 50
89.6219229275
 51
90.1253600602
  0
ARC
  5
88
330
1F
100
AcDbEntity
  8
0
  6
Continuous
 62
     7
100
AcDbCircle
 10
6194.9534302308
 20
5167.3084979588
 30
0.0
 40
0.8228614350079141
100
AcDbArc
 50
207.3129935136
 51
242.6870065527
  0
ARC
  5
89
330
1F
100
AcDbEntity
  8
0
  6
Continuous
 62
     7
100
AcDbCircle
 10
6194.5558584867
 20
4995.9090814384
 30
0.0
 40
171.0221709461508
100
AcDbArc
 50
89.9932993062
 51
90.1117463616
  0
ARC
  5
8A
330
1F
100
AcDbEntity
  8
0
  6
Continuous
 62
     7
100
AcDbCircle
 10
6293.9938916715
 20
5131.698420891
 30
0.0
 40
56.61870164637803
100
AcDbArc
 50
89.6206508474
 51
90.12663214
  0
ARC
  5
8B
330
1F
100
AcDbEntity
  8
0
  6
Continuous
 62
     7
100
AcDbCircle
 10
6194.55307512
 20
5019.3601072004
 30
0.0
 40
168.9568785891051
100
AcDbArc
 50
89.9922735175
 51
90.112168444
  0
ARC
  5
8C
330
1F
100
AcDbEntity
  8
0
  6
Continuous
 62
     7
100
AcDbCircle
 10
6293.9309809476
 20
5188.2280790728
 30
0.0
 40
0.4464925496771301
100
AcDbArc
 50
11.3410934035
 51
98.0110303755
  0
ARC
  5
8D
330
1F
100
AcDbEntity
  8
0
  6
Continuous
 62
     7
100
AcDbCircle
 10
6194.9508864873
 20
5187.9416349151
 30
0.0
 40
0.8194348147301558
100
AcDbArc
 50
117.2365731472
 51
152.763426797
  0
ARC
  5
8E
330
1F
100
AcDbEntity
  8
0
  6
Continuous
 62
     7
100
AcDbCircle
 10
6192.2462589611
 20
5164.5953587737
 30
0.0
 40
0.8227673017139622
100
AcDbArc
 50
207.3109030781
 51
242.6890969561
  0
ARC
  5
8F
330
1F
100
AcDbEntity
  8
0
  6
Continuous
 62
     7
100
AcDbCircle
 10
6192.2437156262
 20
5190.642837974
 30
0.0
 40
0.8193395156094581
100
AcDbArc
 50
117.2345407682
 51
152.7657610534
  0
ARC
  5
90
330
1F
100
AcDbEntity
  8
0
  6
Continuous
 62
     7
100
AcDbCircle
 10
6293.9315327534
 20
5164.306050119
 30
0.0
 40
0.4461830492074595
100
AcDbArc
 50
261.9118114035
 51
348.4978617799
  0
ARC
  5
91
330
1F
100
AcDbEntity
  8
0
  6
Continuous
 62
     7
100
AcDbCircle
 10
6293.9309780591
 20
5190.9292066238
 30
0.0
 40
0.4464961833642619
100
AcDbArc
 50
11.3415333327
 51
98.0105904313
  0
ARC
  5
92
330
1F
100
AcDbEntity
  8
0
  6
Continuous
 62
     7
100
AcDbCircle
 10
6191.8687566166
 20
5164.2170778431
 30
0.0
 40
0.4999996469669462
100
AcDbArc
 50
179.9998434408
 51
270.0001565573
  0
ARC
  5
93
330
1F
100
AcDbEntity
  8
0
  6
Continuous
 62
     7
100
AcDbCircle
 10
6191.4944145456
 20
5154.3549965726
 30
0.0
 40
9.862883136236363
100
AcDbArc
 50
89.8792199527
 51
90.7299938014
  0
ARC
  5
94
330
1F
100
AcDbEntity
  8
0
  6
Continuous
 62
     7
100
AcDbCircle
 10
6293.8687532179
 20
5164.2170802043
 30
0.0
 40
0.5000020082553316
100
AcDbArc
 50
270.0003274616
 51
359.9998859767
  0
ARC
  5
95
330
1F
100
AcDbEntity
  8
0
  6
Continuous
 62
     7
100
AcDbCircle
 10
6191.4940100882
 20
5181.2310070226
 30
0.0
 40
9.786807709045766
100
AcDbArc
 50
89.8759132405
 51
90.7333005005
  0
ARC
  5
96
330
1F
100
AcDbEntity
  8
0
  6
Continuous
 62
     7
100
AcDbCircle
 10
6191.8687555566
 20
5191.0170137579
 30
0.0
 40
0.4999985870158271
100
AcDbArc
 50
89.9997219806
 51
180.000064597
  0
ARC
  5
97
330
1F
100
AcDbEntity
  8
0
  6
Continuous
 62
     7
100
AcDbCircle
 10
6293.8687542778
 20
5191.0170113966
 30
0.0
 40
0.5000009483306289
100
AcDbArc
 50
0.0002059926
 51
89.9997939961
  0
ARC
  5
98
330
1F
100
AcDbEntity
  8
0
  6
Continuous
 62
     7
100
AcDbCircle
 10
6191.8687544967
 20
5164.1992315826
 30
0.0
 40
0.4999975270796879
100
AcDbArc
 50
180.000027395
 51
270.0003994802
  0
ARC
  5
99
330
1F
100
AcDbEntity
  8
0
  6
Continuous
 62
     7
100
AcDbCircle
 10
6165.0187559321
 20
5139.6994516125
 30
0.0
 40
1.000000000000234
100
AcDbArc
 50
179.99988389
 51
270.0001161157
  0
ARC
  5
9A
330
1F
100
AcDbEntity
  8
0
  6
Continuous
 62
     7
100
AcDbCircle
 10
6355.0187542036
 20
5165.6994555464
 30
0.0
 40
3.000000000000313
100
AcDbArc
 50
270.0000261823
 51
359.9999738177
  0
ARC
  5
9B
330
1F
100
AcDbEntity
  8
0
  6
Continuous
 62
     7
100
AcDbCircle
 10
6355.0187542036
 20
5165.6994555464
 30
0.0
 40
4.000002026599994
100
AcDbArc
 50
270.0000196367
 51
359.9999803633
  0
ARC
  5
9C
330
1F
100
AcDbEntity
  8
0
  6
Continuous
 62
     7
100
AcDbCircle
 10
6193.0187553733
 20
5189.6994550398
 30
0.0
 40
4.000000931299891
100
AcDbArc
 50
89.9999906078
 51
180.0000093922
  0
ARC
  5
9D
330
1F
100
AcDbEntity
  8
0
  6
Continuous
 62
     7
100
AcDbCircle
 10
6193.0187553733
 20
5189.6994550398
 30
0.0
 40
2.99999890469924
100
AcDbArc
 50
89.999987477
 51
180.000012523
  0
ARC
  5
9E
330
1F
100
AcDbEntity
  8
0
  6
Continuous
 62
     7
100
AcDbCircle
 10
6383.0187547401
 20
5287.699457573
 30
0.0
 40
1.000000000001144
100
AcDbArc
 50
359.9998838843
 51
90.0001161157
  0
ARC
  5
9F
330
1F
100
AcDbEntity
  8
0
  6
Continuous
 62
     7
100
AcDbCircle
 10
6383.0187547401
 20
5139.6994516125
 30
0.0
 40
0.9999999999993251
100
AcDbArc
 50
269.9998838842
 51
0.0001161101
  0
ARC
  5
A0
330
1F
100
AcDbEntity
  8
0
  6
Continuous
 62
     7
100
AcDbCircle
 10
6355.0187552989
 20
5189.6994550398
 30
0.0
 40
4.000000931300019
100
AcDbArc
 50
359.9999906078
 51
89.9999827124
  0
ARC
  5
A1
330
1F
100
AcDbEntity
  8
0
  6
Continuous
 62
     7
100
AcDbCircle
 10
6355.0187552989
 20
5189.6994550398
 30
0.0
 40
2.999998904699411
100
AcDbArc
 50
359.999987477
 51
89.9999769499
  0
ARC
  5
A2
330
1F
100
AcDbEntity
  8
0
  6
Continuous
 62
     7
100
AcDbCircle
 10
6165.0187559321
 20
5287.699457573
 30
0.0
 40
1.000000000000234
100
AcDbArc
 50
89.9998838842
 51
180.0001161157
  0
ARC
  5
A3
330
1F
100
AcDbEntity
  8
0
  6
Continuous
 62
     7
100
AcDbCircle
 10
6193.018754442
 20
5165.6994535198
 30
0.0
 40
4.000000000000053
100
AcDbArc
 50
179.9999906078
 51
270.0000093922
  0
ARC
  5
A4
330
1F
100
AcDbEntity
  8
0
  6
Continuous
 62
     7
100
AcDbCircle
 10
6193.018754442
 20
5165.6994535198
 30
0.0
 40
2.999997973400312
100
AcDbArc
 50
179.999987477
 51
270.000012523
  0
ARC
  5
A5
330
1F
100
AcDbEntity
  8
0
  6
Continuous
 62
     7
100
AcDbCircle
 10
6468.700394955
 20
5191.0470133242
 30
0.0
 40
0.5000000000000565
100
AcDbArc
 50
45.1263967213
 51
90.1263936327
  0
ARC
  5
A6
330
1F
100
AcDbEntity
  8
0
  6
Continuous
 62
     7
100
AcDbCircle
 10
6471.4134634016
 20
5188.3458825665
 30
0.0
 40
0.5000000000002445
100
AcDbArc
 50
0.1262169193
 51
45.1262555347
  0
ARC
  5
A7
330
1F
100
AcDbEntity
  8
0
  6
Continuous
 62
     7
100
AcDbCircle
 10
6468.8596911566
 20
5164.0405219975
 30
0.0
 40
0.3093028888317865
100
AcDbArc
 50
325.2691705763
 51
34.983481996
  0
ARC
  5
A8
330
1F
100
AcDbEntity
  8
0
  6
Continuous
 62
     7
100
AcDbCircle
 10
6468.7595544292
 20
5164.2170769767
 30
0.0
 40
0.4999999999997627
100
AcDbArc
 50
270.1265368287
 51
315.1265576977
  0
ARC
  5
A9
330
1F
100
AcDbEntity
  8
0
  6
Continuous
 62
     7
100
AcDbCircle
 10
6468.7998081805
 20
5191.1940092995
 30
0.0
 40
0.3093101890838971
100
AcDbArc
 50
325.2699015369
 51
34.9827497042
  0
ARC
  5
AA
330
1F
100
AcDbEntity
  8
0
  6
Continuous
 62
     7
100
AcDbCircle
 10
6468.7004610788
 20
5191.0170135615
 30
0.0
 40
0.5000000000016529
100
AcDbArc
 50
45.1263967052
 51
90.1263936212
  0
ARC
  5
AB
330
1F
100
AcDbEntity
  8
0
  6
Continuous
 62
     7
100
AcDbCircle
 10
6471.5608209455
 20
5166.7535906456
 30
0.0
 40
0.3093040168037408
100
AcDbArc
 50
325.2694668097
 51
34.983487609
  0
ARC
  5
AC
330
1F
100
AcDbEntity
  8
0
  6
Continuous
 62
     7
100
AcDbCircle
 10
6471.5128836348
 20
5188.4928786144
 30
0.0
 40
0.3093046228680996
100
AcDbArc
 50
325.2693943124
 51
34.9832582601
  0
ARC
  5
AD
330
1F
100
AcDbEntity
  8
0
  6
Continuous
 62
     7
100
AcDbCircle
 10
6471.4606870494
 20
5166.9301472941
 30
0.0
 40
0.5000000000008804
100
AcDbArc
 50
315.126396388
 51
0.1265001158
  0
ARC
  5
AE
330
1F
100
AcDbEntity
  8
0
  6
Continuous
 62
     7
100
AcDbCircle
 10
6471.4135304588
 20
5188.3158818744
 30
0.0
 40
0.500000000000864
100
AcDbArc
 50
0.1263234027
 51
45.1264064577
  0
ARC
  5
AF
330
1F
100
AcDbEntity
  8
0
  6
Continuous
 62
     7
100
AcDbCircle
 10
6445.8677846904
 20
5267.1994542947
 30
0.0
 40
1.500000000000157
100
AcDbArc
 50
89.9999906111
 51
179.9999738197
  0
ARC
  5
B0
330
1F
100
AcDbEntity
  8
0
  6
Continuous
 62
     7
100
AcDbCircle
 10
6445.8677846904
 20
5155.1994559338
 30
0.0
 40
1.500000000000157
100
AcDbArc
 50
180.0000261804
 51
270.0000093889
  0
ARC
  5
B1
330
1F
100
AcDbEntity
  8
0
  6
Continuous
 62
     7
100
AcDbCircle
 10
6467.1677852387
 20
5139.6994516125
 30
0.0
 40
1.000000000000234
100
AcDbArc
 50
269.9999906091
 51
0.0001161099
  0
ARC
  5
B2
330
1F
100
AcDbEntity
  8
0
  6
Continuous
 62
     7
100
AcDbCircle
 10
6467.1677852387
 20
5287.699457573
 30
0.0
 40
1.000000000001832
100
AcDbArc
 50
359.9998838845
 51
90.0000093908
  0
ARC
  5
B3
330
1F
100
AcDbEntity
  8
0
  6
Continuous
 62
     7
100
AcDbCircle
 10
6355.4687800634
 20
5054.8221477563
 30
0.0
 40
0.4999719185804251
100
AcDbArc
 50
314.9995498781
 51
0.0018438376
  0
ARC
  5
B4
330
1F
100
AcDbEntity
  8
0
  6
Continuous
 62
     7
100
AcDbCircle
 10
6355.646095573
 20
5054.7234234233
 30
0.0
 40
0.3098079366694401
100
AcDbArc
 50
235.0815476476
 51
304.66579978
  0
ARC
  5
B5
330
1F
100
AcDbEntity
  8
0
  6
Continuous
 62
     7
100
AcDbCircle
 10
6355.5938424314
 20
4998.1832165796
 30
0.0
 40
56.64018807000856
100
AcDbArc
 50
89.6207482263
 51
90.1265319214
  0
ARC
  5
B6
330
1F
100
AcDbEntity
  8
0
  6
Continuous
 62
     7
100
AcDbCircle
 10
6294.4059816945
 20
5054.9111417759
 30
0.0
 40
0.4461887256934439
100
AcDbArc
 50
191.502909854
 51
278.0877605579
  0
ARC
  5
B7
330
1F
100
AcDbEntity
  8
0
  6
Continuous
 62
     7
100
AcDbCircle
 10
6294.3436728321
 20
4998.1802383981
 30
0.0
 40
56.64316624209251
100
AcDbArc
 50
89.8734757163
 51
90.3792403547
  0
ARC
  5
B8
330
1F
100
AcDbEntity
  8
0
  6
Continuous
 62
     7
100
AcDbCircle
 10
6352.9389867178
 20
5052.0103541291
 30
0.0
 40
0.3098079576488513
100
AcDbArc
 50
235.0815503279
 51
304.6657970926
  0
ARC
  5
B9
330
1F
100
AcDbEntity
  8
0
  6
Continuous
 62
     7
100
AcDbCircle
 10
6294.4059811872
 20
5052.1980717372
 30
0.0
 40
0.4461880852260769
100
AcDbArc
 50
191.5028323846
 51
278.0878380439
  0
ARC
  5
BA
330
1F
100
AcDbEntity
  8
0
  6
Continuous
 62
     7
100
AcDbCircle
 10
6355.4687828631
 20
5054.7630513854
 30
0.0
 40
0.4999691189221513
100
AcDbArc
 50
314.9994169753
 51
0.0019767364
  0
ARC
  5
BB
330
1F
100
AcDbEntity
  8
0
  6
Continuous
 62
     7
100
AcDbCircle
 10
6352.7616523635
 20
5052.1090890688
 30
0.0
 40
0.4999927618772612
100
AcDbArc
 50
269.9996791655
 51
315.0002153562
  0
ARC
  5
BC
330
1F
100
AcDbEntity
  8
0
  6
Continuous
 62
     7
100
AcDbCircle
 10
6294.4687545009
 20
5052.1090959502
 30
0.0
 40
0.4999996433144258
100
AcDbArc
 50
180.0001631801
 51
270.0001569906
  0
ARC
  5
BD
330
1F
100
AcDbEntity
  8
0
  6
Continuous
 62
     7
100
AcDbCircle
 10
6352.7616552257
 20
5052.06192782
 30
0.0
 40
0.4999881003643614
100
AcDbArc
 50
269.9993511691
 51
315.0002856877
  0
ARC
  5
BE
330
1F
100
AcDbEntity
  8
0
  6
Continuous
 62
     7
100
AcDbCircle
 10
6294.468753971
 20
5052.061938833
 30
0.0
 40
0.4999991133626089
100
AcDbArc
 50
180.0001024517
 51
270.0002177171
  0
ARC
  5
BF
330
1F
100
AcDbEntity
  8
0
  6
Continuous
 62
     7
100
AcDbCircle
 10
6191.0914208054
 20
5054.7233548791
 30
0.0
 40
0.3098059490404702
100
AcDbArc
 50
235.3339448104
 51
304.9187077622
  0
ARC
  5
C0
330
1F
100
AcDbEntity
  8
0
  6
Continuous
 62
     7
100
AcDbCircle
 10
6191.2687205848
 20
5054.822085655
 30
0.0
 40
0.4999636441490267
100
AcDbArc
 50
179.9986171108
 51
225.0020503468
  0
ARC
  5
C1
330
1F
100
AcDbEntity
  8
0
  6
Continuous
 62
     7
100
AcDbCircle
 10
6191.1436723319
 20
4998.181343663
 30
0.0
 40
56.64199486182541
100
AcDbArc
 50
89.8734704866
 51
90.3792455844
  0
ARC
  5
C2
330
1F
100
AcDbEntity
  8
0
  6
Continuous
 62
     7
100
AcDbCircle
 10
6293.3315302305
 20
5054.911073333
 30
0.0
 40
0.4461864307269817
100
AcDbArc
 50
261.9121966069
 51
348.4973340713
  0
ARC
  5
C3
330
1F
100
AcDbEntity
  8
0
  6
Continuous
 62
     7
100
AcDbCircle
 10
6293.3938390906
 20
4998.1808088272
 30
0.0
 40
56.64252969069698
100
AcDbArc
 50
89.6207572727
 51
90.1265257108
  0
ARC
  5
C4
330
1F
100
AcDbEntity
  8
0
  6
Continuous
 62
     7
100
AcDbCircle
 10
6193.7985222089
 20
5052.0102860689
 30
0.0
 40
0.3098063675351737
100
AcDbArc
 50
235.3339985757
 51
304.9186539964
  0
ARC
  5
C5
330
1F
100
AcDbEntity
  8
0
  6
Continuous
 62
     7
100
AcDbCircle
 10
6293.3315307378
 20
5052.1980032943
 30
0.0
 40
0.4461857902603141
100
AcDbArc
 50
261.9121191225
 51
348.4974115468
  0
ARC
  5
C6
330
1F
100
AcDbEntity
  8
0
  6
Continuous
 62
     7
100
AcDbCircle
 10
6191.2687177847
 20
5054.7629892838
 30
0.0
 40
0.4999608441243018
100
AcDbArc
 50
179.9984841963
 51
225.0021832727
  0
ARC
  5
C7
330
1F
100
AcDbEntity
  8
0
  6
Continuous
 62
     7
100
AcDbCircle
 10
6193.9758709606
 20
5052.1090545336
 30
0.0
 40
0.500025282078826
100
AcDbArc
 50
225.0011772348
 51
269.9986705928
  0
ARC
  5
C8
330
1F
100
AcDbEntity
  8
0
  6
Continuous
 62
     7
100
AcDbCircle
 10
6293.2687546365
 20
5052.1090298125
 30
0.0
 40
0.5000005608109738
100
AcDbArc
 50
270.0001615967
 51
359.999838405
  0
ARC
  5
C9
330
1F
100
AcDbEntity
  8
0
  6
Continuous
 62
     7
100
AcDbCircle
 10
6193.9758646043
 20
5052.0618826015
 30
0.0
 40
0.5000099370102431
100
AcDbArc
 50
225.0004489493
 51
269.9993989062
  0
ARC
  5
CA
330
1F
100
AcDbEntity
  8
0
  6
Continuous
 62
     7
100
AcDbCircle
 10
6293.2687565076
 20
5052.0618713541
 30
0.0
 40
0.4999986896520874
100
AcDbArc
 50
269.9999471791
 51
0.000052821
  0
ARC
  5
CB
330
1F
100
AcDbEntity
  8
0
  6
Continuous
 62
     7
100
AcDbCircle
 10
6364.4187564997
 20
5077.6547738049
 30
0.0
 40
1.499999999999442
100
AcDbArc
 50
359.9999906072
 51
90.0001161119
  0
ARC
  5
CC
330
1F
100
AcDbEntity
  8
0
  6
Continuous
 62
     7
100
AcDbCircle
 10
6182.4187541155
 20
5077.6547738049
 30
0.0
 40
1.50000000000002
100
AcDbArc
 50
89.9998838882
 51
180.0000093928
  0
ARC
  5
CD
330
1F
100
AcDbEntity
  8
0
  6
Continuous
 62
     7
100
AcDbCircle
 10
6164.4187559036
 20
5056.3547732566
 30
0.0
 40
1.000000000000923
100
AcDbArc
 50
179.9999906092
 51
270.0001161156
  0
ARC
  5
CE
330
1F
100
AcDbEntity
  8
0
  6
Continuous
 62
     7
100
AcDbCircle
 10
6382.4187547116
 20
5056.3547732566
 30
0.0
 40
1.000000000000013
100
AcDbArc
 50
269.9998838844
 51
0.0000093909
  0
ELLIPSE
  5
CF
330
1F
100
AcDbEntity
  8
0
  6
Continuous
 62
     7
100
AcDbEllipse
 10
6295.0687553361
 20
5164.2106087121
 30
0.0
 11
0.0
 21
0.5001177628164442
 31
0.0
210
0.0
220
0.0
230
1.0
 40
0.9997645298
 41
1.570796326794897
 42
3.141592653589793
  0
ELLIPSE
  5
D0
330
1F
100
AcDbEntity
  8
0
  6
Continuous
 62
     7
100
AcDbEllipse
 10
6293.8687553364
 20
5164.1806405126
 30
0.0
 11
0.0
 21
0.5001494903890489
 31
0.0
210
0.0
220
0.0
230
1.0
 40
0.9997011086
 41
3.141592653589793
 42
4.712388980386522
  0
LINE
  5
D1
330
1F
100
AcDbEntity
  8
0
  6
Continuous
 62
     7
100
AcDbLine
 10
6295.0687558994
 20
5166.6073744764
 30
0.0
 11
6295.0687558994
 21
5166.9612509778
 31
0.0
  0
LINE
  5
D2
330
1F
100
AcDbEntity
  8
0
  6
Continuous
 62
     7
100
AcDbLine
 10
6295.0687558994
 20
5166.9612509778
 30
0.0
 11
6353.3616495922
 21
5166.9612509778
 31
0.0
  0
LINE
  5
D3
330
1F
100
AcDbEntity
  8
0
  6
Continuous
 62
     7
100
AcDbLine
 10
6353.3616495922
 20
5166.6073744764
 30
0.0
 11
6353.3616495922
 21
5166.9612509778
 31
0.0
  0
LINE
  5
D4
330
1F
100
AcDbEntity
  8
0
  6
Continuous
 62
     7
100
AcDbLine
 10
6353.3616495922
 20
5166.6073744764
 30
0.0
 11
6295.0687558994
 21
5166.6073744764
 31
0.0
  0
LINE
  5
D5
330
1F
100
AcDbEntity
  8
0
  6
Continuous
 62
     7
100
AcDbLine
 10
6295.0687558994
 20
5188.346984016
 30
0.0
 11
6295.0687558994
 21
5166.9612509778
 31
0.0
  0
LINE
  5
D6
330
1F
100
AcDbEntity
  8
0
  6
Continuous
 62
     7
100
AcDbLine
 10
6294.5687548861
 20
5166.9601482918
 30
0.0
 11
6294.5687548861
 21
5188.34588133
 31
0.0
  0
LINE
  5
D7
330
1F
100
AcDbEntity
  8
0
  6
Continuous
 62
     7
100
AcDbLine
 10
6353.7152019933
 20
5188.3466617784
 30
0.0
 11
6353.7152019933
 21
5166.9609268775
 31
0.0
  0
LINE
  5
D8
330
1F
100
AcDbEntity
  8
0
  6
Continuous
 62
     7
100
AcDbLine
 10
6353.3616495922
 20
5166.9612509778
 30
0.0
 11
6353.3616495922
 21
5188.346984016
 31
0.0
  0
LINE
  5
D9
330
1F
100
AcDbEntity
  8
0
  6
Continuous
 62
     7
100
AcDbLine
 10
6353.3616495922
 20
5188.346984016
 30
0.0
 11
6295.0687558994
 21
5188.346984016
 31
0.0
  0
LINE
  5
DA
330
1F
100
AcDbEntity
  8
0
  6
Continuous
 62
     7
100
AcDbLine
 10
6295.0687558994
 20
5188.346984016
 30
0.0
 11
6295.0687558994
 21
5188.7002141794
 31
0.0
  0
LINE
  5
DB
330
1F
100
AcDbEntity
  8
0
  6
Continuous
 62
     7
100
AcDbLine
 10
6295.0687558994
 20
5188.7002141794
 30
0.0
 11
6353.3616495922
 21
5188.7002141794
 31
0.0
  0
LINE
  5
DC
330
1F
100
AcDbEntity
  8
0
  6
Continuous
 62
     7
100
AcDbLine
 10
6353.3616495922
 20
5188.346984016
 30
0.0
 11
6353.3616495922
 21
5188.7002141794
 31
0.0
  0
LINE
  5
DD
330
1F
100
AcDbEntity
  8
0
  6
Continuous
 62
     7
100
AcDbLine
 10
6356.0687584475
 20
5163.8943051567
 30
0.0
 11
6353.3616495922
 21
5166.6073744764
 31
0.0
  0
LINE
  5
DE
330
1F
100
AcDbEntity
  8
0
  6
Continuous
 62
     7
100
AcDbLine
 10
6353.7152019933
 20
5166.9609268775
 30
0.0
 11
6356.4223108485
 21
5164.2478575578
 31
0.0
  0
LINE
  5
DF
330
1F
100
AcDbEntity
  8
0
  6
Continuous
 62
     7
100
AcDbLine
 10
6356.4223108485
 20
5191.0477934053
 30
0.0
 11
6353.7152019933
 21
5188.3466617784
 31
0.0
  0
LINE
  5
E0
330
1F
100
AcDbEntity
  8
0
  6
Continuous
 62
     7
100
AcDbLine
 10
6353.3616495922
 20
5188.7002141794
 30
0.0
 11
6356.0687584475
 21
5191.4013458064
 31
0.0
  0
LINE
  5
E1
330
1F
100
AcDbEntity
  8
0
  6
Continuous
 62
     7
100
AcDbLine
 10
6295.0687558994
 20
5166.6073744764
 30
0.0
 11
6295.0687558994
 21
5163.8943051567
 31
0.0
  0
LINE
  5
E2
330
1F
100
AcDbEntity
  8
0
  6
Continuous
 62
     7
100
AcDbLine
 10
6294.5687548861
 20
5164.2470789721
 30
0.0
 11
6294.5687548861
 21
5166.9601482918
 31
0.0
  0
LINE
  5
E3
330
1F
100
AcDbEntity
  8
0
  6
Continuous
 62
     7
100
AcDbLine
 10
6295.0687558994
 20
5163.8943051567
 30
0.0
 11
6356.0687584475
 21
5163.8943051567
 31
0.0
  0
LINE
  5
E4
330
1F
100
AcDbEntity
  8
0
  6
Continuous
 62
     7
100
AcDbLine
 10
6356.4223108485
 20
5164.2478575578
 30
0.0
 11
6356.4223108485
 21
5191.0477934053
 31
0.0
  0
LINE
  5
E5
330
1F
100
AcDbEntity
  8
0
  6
Continuous
 62
     7
100
AcDbLine
 10
6294.5687548861
 20
5188.34588133
 30
0.0
 11
6294.5687548861
 21
5191.047012957
 31
0.0
  0
LINE
  5
E6
330
1F
100
AcDbEntity
  8
0
  6
Continuous
 62
     7
100
AcDbLine
 10
6295.0687558994
 20
5191.4013458064
 30
0.0
 11
6295.0687558994
 21
5188.7002141794
 31
0.0
  0
LINE
  5
E7
330
1F
100
AcDbEntity
  8
0
  6
Continuous
 62
     7
100
AcDbLine
 10
6356.0687584475
 20
5191.4013458064
 30
0.0
 11
6295.0687558994
 21
5191.4013458064
 31
0.0
  0
LINE
  5
E8
330
1F
100
AcDbEntity
  8
0
  6
Continuous
 62
     7
100
AcDbLine
 10
6356.0687584475
 20
5163.7470779588
 30
0.0
 11
6356.0687584475
 21
5163.8943051567
 31
0.0
  0
LINE
  5
E9
330
1F
100
AcDbEntity
  8
0
  6
Continuous
 62
     7
100
AcDbLine
 10
6295.0687558994
 20
5163.8943051567
 30
0.0
 11
6295.0687558994
 21
5163.7470779588
 31
0.0
  0
LINE
  5
EA
330
1F
100
AcDbEntity
  8
0
  6
Continuous
 62
     7
100
AcDbLine
 10
6356.0687584475
 20
5163.7470779588
 30
0.0
 11
6295.0687558994
 21
5163.7470779588
 31
0.0
  0
LINE
  5
EB
330
1F
100
AcDbEntity
  8
0
  6
Continuous
 62
     7
100
AcDbLine
 10
6356.5687520102
 20
5191.047012957
 30
0.0
 11
6356.5687520102
 21
5164.2470789721
 31
0.0
  0
LINE
  5
EC
330
1F
100
AcDbEntity
  8
0
  6
Continuous
 62
     7
100
AcDbLine
 10
6356.0687584475
 20
5191.4013458064
 30
0.0
 11
6356.0687584475
 21
5191.5470121076
 31
0.0
  0
LINE
  5
ED
330
1F
100
AcDbEntity
  8
0
  6
Continuous
 62
     7
100
AcDbLine
 10
6295.0687558994
 20
5191.5470121076
 30
0.0
 11
6295.0687558994
 21
5191.4013458064
 31
0.0
  0
LINE
  5
EE
330
1F
100
AcDbEntity
  8
0
  6
Continuous
 62
     7
100
AcDbLine
 10
6295.0687558994
 20
5191.5470121076
 30
0.0
 11
6356.0687584475
 21
5191.5470121076
 31
0.0
  0
LINE
  5
EF
330
1F
100
AcDbEntity
  8
0
  6
Continuous
 62
     7
100
AcDbLine
 10
6295.0687558994
 20
5163.7470779588
 30
0.0
 11
6295.0687553361
 21
5163.7104909493
 31
0.0
  0
LINE
  5
F0
330
1F
100
AcDbEntity
  8
0
  6
Continuous
 62
     7
100
AcDbLine
 10
6294.5687553361
 20
5164.2106087121
 30
0.0
 11
6294.5687548861
 21
5164.2470789721
 31
0.0
  0
LINE
  5
F1
330
1F
100
AcDbEntity
  8
0
  6
Continuous
 62
     7
100
AcDbLine
 10
6332.7687551871
 20
5163.7281311324
 30
0.0
 11
6337.768754144
 21
5163.7281311324
 31
0.0
  0
LINE
  5
F2
330
1F
100
AcDbEntity
  8
0
  6
Continuous
 62
     7
100
AcDbLine
 10
6302.7687558576
 20
5163.7281311324
 30
0.0
 11
6332.7687551871
 21
5163.7281311324
 31
0.0
  0
LINE
  5
F3
330
1F
100
AcDbEntity
  8
0
  6
Continuous
 62
     7
100
AcDbLine
 10
6297.7687550381
 20
5163.7281311324
 30
0.0
 11
6302.7687558576
 21
5163.7281311324
 31
0.0
  0
LINE
  5
F4
330
1F
100
AcDbEntity
  8
0
  6
Continuous
 62
     7
100
AcDbLine
 10
6297.5687553778
 20
5163.7281311324
 30
0.0
 11
6297.7687550381
 21
5163.7281311324
 31
0.0
  0
LINE
  5
F5
330
1F
100
AcDbEntity
  8
0
  6
Continuous
 62
     7
100
AcDbLine
 10
6297.5687553778
 20
5163.7104918828
 30
0.0
 11
6297.5687553778
 21
5163.7281311324
 31
0.0
  0
LINE
  5
F6
330
1F
100
AcDbEntity
  8
0
  6
Continuous
 62
     7
100
AcDbLine
 10
6297.5687553778
 20
5163.7104918828
 30
0.0
 11
6295.0687553361
 21
5163.7104909493
 31
0.0
  0
LINE
  5
F7
330
1F
100
AcDbEntity
  8
0
  6
Continuous
 62
     7
100
AcDbLine
 10
6356.0687584475
 20
5163.7281311324
 30
0.0
 11
6356.0687584475
 21
5163.7470779588
 31
0.0
  0
LINE
  5
F8
330
1F
100
AcDbEntity
  8
0
  6
Continuous
 62
     7
100
AcDbLine
 10
6337.768754144
 20
5163.7281311324
 30
0.0
 11
6356.0687584475
 21
5163.7281311324
 31
0.0
  0
LINE
  5
F9
330
1F
100
AcDbEntity
  8
0
  6
Continuous
 62
     7
100
AcDbLine
 10
6356.5687520102
 20
5164.2470789721
 30
0.0
 11
6356.5687520102
 21
5164.2281284204
 31
0.0
  0
LINE
  5
FA
330
1F
100
AcDbEntity
  8
0
  6
Continuous
 62
     7
100
AcDbLine
 10
6342.9687527612
 20
5191.5470121076
 30
0.0
 11
6342.9687527612
 21
5192.6994548758
 31
0.0
  0
LINE
  5
FB
330
1F
100
AcDbEntity
  8
0
  6
Continuous
 62
     7
100
AcDbLine
 10
6340.9687561586
 20
5191.5470121076
 30
0.0
 11
6340.9687561586
 21
5192.6994548758
 31
0.0
  0
LINE
  5
FC
330
1F
100
AcDbEntity
  8
0
  6
Continuous
 62
     7
100
AcDbLine
 10
6299.5687557056
 20
5191.5470121076
 30
0.0
 11
6299.5687557056
 21
5192.6994548758
 31
0.0
  0
LINE
  5
FD
330
1F
100
AcDbEntity
  8
0
  6
Continuous
 62
     7
100
AcDbLine
 10
6297.5687553778
 20
5192.6994548758
 30
0.0
 11
6297.5687553778
 21
5191.5470121076
 31
0.0
  0
LINE
  5
FE
330
1F
100
AcDbEntity
  8
0
  6
Continuous
 62
     7
100
AcDbLine
 10
6302.7687558576
 20
5163.7281311324
 30
0.0
 11
6302.7687558576
 21
5162.6994555464
 31
0.0
  0
LINE
  5
FF
330
1F
100
AcDbEntity
  8
0
  6
Continuous
 62
     7
100
AcDbLine
 10
6297.7687550381
 20
5162.6994555464
 30
0.0
 11
6297.7687550381
 21
5163.7281311324
 31
0.0
  0
LINE
  5
100
330
1F
100
AcDbEntity
  8
0
  6
Continuous
 62
     7
100
AcDbLine
 10
6337.768754144
 20
5163.7281311324
 30
0.0
 11
6337.768754144
 21
5162.6994555464
 31
0.0
  0
LINE
  5
101
330
1F
100
AcDbEntity
  8
0
  6
Continuous
 62
     7
100
AcDbLine
 10
6332.7687551871
 20
5162.6994555464
 30
0.0
 11
6332.7687551871
 21
5163.7281311324
 31
0.0
  0
LINE
  5
102
330
1F
100
AcDbEntity
  8
0
  6
Continuous
 62
     7
100
AcDbLine
 10
6293.8687560755
 20
5166.931251215
 30
0.0
 11
6293.8687560755
 21
5166.5773747137
 31
0.0
  0
LINE
  5
103
330
1F
100
AcDbEntity
  8
0
  6
Continuous
 62
     7
100
AcDbLine
 10
6194.5758593875
 20
5166.931251215
 30
0.0
 11
6194.5758593875
 21
5166.5773747137
 31
0.0
  0
LINE
  5
104
330
1F
100
AcDbEntity
  8
0
  6
Continuous
 62
     7
100
AcDbLine
 10
6194.5758593875
 20
5166.931251215
 30
0.0
 11
6293.8687560755
 21
5166.931251215
 31
0.0
  0
LINE
  5
105
330
1F
100
AcDbEntity
  8
0
  6
Continuous
 62
     7
100
AcDbLine
 10
6293.8687560755
 20
5166.5773747137
 30
0.0
 11
6194.5758593875
 21
5166.5773747137
 31
0.0
  0
LINE
  5
106
330
1F
100
AcDbEntity
  8
0
  6
Continuous
 62
     7
100
AcDbLine
 10
6294.3687552261
 20
5188.3158815673
 30
0.0
 11
6294.3687552261
 21
5166.9301485291
 31
0.0
  0
LINE
  5
107
330
1F
100
AcDbEntity
  8
0
  6
Continuous
 62
     7
100
AcDbLine
 10
6293.8687560755
 20
5166.931251215
 30
0.0
 11
6293.8687560755
 21
5188.3169842532
 31
0.0
  0
LINE
  5
108
330
1F
100
AcDbEntity
  8
0
  6
Continuous
 62
     7
100
AcDbLine
 10
6194.5758593875
 20
5188.3169842532
 30
0.0
 11
6194.5758593875
 21
5166.931251215
 31
0.0
  0
LINE
  5
109
330
1F
100
AcDbEntity
  8
0
  6
Continuous
 62
     7
100
AcDbLine
 10
6194.2223069861
 20
5166.9309271147
 30
0.0
 11
6194.2223069861
 21
5188.3166620155
 31
0.0
  0
LINE
  5
10A
330
1F
100
AcDbEntity
  8
0
  6
Continuous
 62
     7
100
AcDbLine
 10
6293.8687560755
 20
5188.3169842532
 30
0.0
 11
6194.5758593875
 21
5188.3169842532
 31
0.0
  0
LINE
  5
10B
330
1F
100
AcDbEntity
  8
0
  6
Continuous
 62
     7
100
AcDbLine
 10
6293.8687560755
 20
5188.6702144166
 30
0.0
 11
6293.8687560755
 21
5188.3169842532
 31
0.0
  0
LINE
  5
10C
330
1F
100
AcDbEntity
  8
0
  6
Continuous
 62
     7
100
AcDbLine
 10
6194.5758593875
 20
5188.6702144166
 30
0.0
 11
6293.8687560755
 21
5188.6702144166
 31
0.0
  0
LINE
  5
10D
330
1F
100
AcDbEntity
  8
0
  6
Continuous
 62
     7
100
AcDbLine
 10
6194.5758593875
 20
5188.6702144166
 30
0.0
 11
6194.5758593875
 21
5188.3169842532
 31
0.0
  0
LINE
  5
10E
330
1F
100
AcDbEntity
  8
0
  6
Continuous
 62
     7
100
AcDbLine
 10
6194.5758593875
 20
5166.5773747137
 30
0.0
 11
6191.8687579828
 21
5163.8643053939
 31
0.0
  0
LINE
  5
10F
330
1F
100
AcDbEntity
  8
0
  6
Continuous
 62
     7
100
AcDbLine
 10
6191.5152055815
 20
5164.217857795
 30
0.0
 11
6194.2223069861
 21
5166.9309271147
 31
0.0
  0
LINE
  5
110
330
1F
100
AcDbEntity
  8
0
  6
Continuous
 62
     7
100
AcDbLine
 10
6194.2223069861
 20
5188.3166620155
 30
0.0
 11
6191.5152055814
 21
5191.0177917799
 31
0.0
  0
LINE
  5
111
330
1F
100
AcDbEntity
  8
0
  6
Continuous
 62
     7
100
AcDbLine
 10
6191.8687579828
 20
5191.3713460436
 30
0.0
 11
6194.5758593875
 21
5188.6702144166
 31
0.0
  0
LINE
  5
112
330
1F
100
AcDbEntity
  8
0
  6
Continuous
 62
     7
100
AcDbLine
 10
6294.3687552261
 20
5166.9301485291
 30
0.0
 11
6294.3687552261
 21
5164.2170792093
 31
0.0
  0
LINE
  5
113
330
1F
100
AcDbEntity
  8
0
  6
Continuous
 62
     7
100
AcDbLine
 10
6293.8687560755
 20
5163.8643053939
 30
0.0
 11
6293.8687560755
 21
5166.5773747137
 31
0.0
  0
LINE
  5
114
330
1F
100
AcDbEntity
  8
0
  6
Continuous
 62
     7
100
AcDbLine
 10
6191.8687579828
 20
5163.8643053939
 30
0.0
 11
6293.8687560755
 21
5163.8643053939
 31
0.0
  0
LINE
  5
115
330
1F
100
AcDbEntity
  8
0
  6
Continuous
 62
     7
100
AcDbLine
 10
6191.5152055814
 20
5191.0177917799
 30
0.0
 11
6191.5152055815
 21
5164.217857795
 31
0.0
  0
LINE
  5
116
330
1F
100
AcDbEntity
  8
0
  6
Continuous
 62
     7
100
AcDbLine
 10
6294.3687552261
 20
5191.0170131942
 30
0.0
 11
6294.3687552261
 21
5188.3158815673
 31
0.0
  0
LINE
  5
117
330
1F
100
AcDbEntity
  8
0
  6
Continuous
 62
     7
100
AcDbLine
 10
6293.8687560755
 20
5188.6702144166
 30
0.0
 11
6293.8687560755
 21
5191.3713460436
 31
0.0
  0
LINE
  5
118
330
1F
100
AcDbEntity
  8
0
  6
Continuous
 62
     7
100
AcDbLine
 10
6293.8687560755
 20
5191.3713460436
 30
0.0
 11
6191.8687579828
 21
5191.3713460436
 31
0.0
  0
LINE
  5
119
330
1F
100
AcDbEntity
  8
0
  6
Continuous
 62
     7
100
AcDbLine
 10
6191.8687579828
 20
5163.8643053939
 30
0.0
 11
6191.8687579828
 21
5163.7170781961
 31
0.0
  0
LINE
  5
11A
330
1F
100
AcDbEntity
  8
0
  6
Continuous
 62
     7
100
AcDbLine
 10
6293.8687560755
 20
5163.8643053939
 30
0.0
 11
6293.8687560755
 21
5163.7170781961
 31
0.0
  0
LINE
  5
11B
330
1F
100
AcDbEntity
  8
0
  6
Continuous
 62
     7
100
AcDbLine
 10
6293.8687560755
 20
5163.7170781961
 30
0.0
 11
6191.8687579828
 21
5163.7170781961
 31
0.0
  0
LINE
  5
11C
330
1F
100
AcDbEntity
  8
0
  6
Continuous
 62
     7
100
AcDbLine
 10
6191.3687569696
 20
5164.2170792093
 30
0.0
 11
6191.3687569696
 21
5191.0170131942
 31
0.0
  0
LINE
  5
11D
330
1F
100
AcDbEntity
  8
0
  6
Continuous
 62
     7
100
AcDbLine
 10
6191.8687579828
 20
5191.3713460436
 30
0.0
 11
6191.8687579828
 21
5191.5170123449
 31
0.0
  0
LINE
  5
11E
330
1F
100
AcDbEntity
  8
0
  6
Continuous
 62
     7
100
AcDbLine
 10
6293.8687560755
 20
5191.5170123449
 30
0.0
 11
6293.8687560755
 21
5191.3713460436
 31
0.0
  0
LINE
  5
11F
330
1F
100
AcDbEntity
  8
0
  6
Continuous
 62
     7
100
AcDbLine
 10
6191.8687579828
 20
5191.5170123449
 30
0.0
 11
6293.8687560755
 21
5191.5170123449
 31
0.0
  0
LINE
  5
120
330
1F
100
AcDbEntity
  8
0
  6
Continuous
 62
     7
100
AcDbLine
 10
6191.3687569696
 20
5164.1992313435
 30
0.0
 11
6191.3687569696
 21
5164.2170792093
 31
0.0
  0
LINE
  5
121
330
1F
100
AcDbEntity
  8
0
  6
Continuous
 62
     7
100
AcDbLine
 10
6191.8687579828
 20
5163.7170781961
 30
0.0
 11
6191.8687579828
 21
5163.6992340555
 31
0.0
  0
LINE
  5
122
330
1F
100
AcDbEntity
  8
0
  6
Continuous
 62
     7
100
AcDbLine
 10
6292.4687547284
 20
5163.68049212
 30
0.0
 11
6292.4687547284
 21
5163.6992340555
 31
0.0
  0
LINE
  5
123
330
1F
100
AcDbEntity
  8
0
  6
Continuous
 62
     7
100
AcDbLine
 10
6286.818755013
 20
5163.6992340555
 30
0.0
 11
6292.4687547284
 21
5163.6992340555
 31
0.0
  0
LINE
  5
124
330
1F
100
AcDbEntity
  8
0
  6
Continuous
 62
     7
100
AcDbLine
 10
6281.8187551248
 20
5163.6992340555
 30
0.0
 11
6286.818755013
 21
5163.6992340555
 31
0.0
  0
LINE
  5
125
330
1F
100
AcDbEntity
  8
0
  6
Continuous
 62
     7
100
AcDbLine
 10
6218.9187539417
 20
5163.6992340555
 30
0.0
 11
6281.8187551248
 21
5163.6992340555
 31
0.0
  0
LINE
  5
126
330
1F
100
AcDbEntity
  8
0
  6
Continuous
 62
     7
100
AcDbLine
 10
6213.9187549847
 20
5163.6992340555
 30
0.0
 11
6218.9187539417
 21
5163.6992340555
 31
0.0
  0
LINE
  5
127
330
1F
100
AcDbEntity
  8
0
  6
Continuous
 62
     7
100
AcDbLine
 10
6191.8687579828
 20
5163.6992340555
 30
0.0
 11
6213.9187549847
 21
5163.6992340555
 31
0.0
  0
LINE
  5
128
330
1F
100
AcDbEntity
  8
0
  6
Continuous
 62
     7
100
AcDbLine
 10
6293.8687553364
 20
5163.6804910222
 30
0.0
 11
6293.8687560755
 21
5163.7170781961
 31
0.0
  0
LINE
  5
129
330
1F
100
AcDbEntity
  8
0
  6
Continuous
 62
     7
100
AcDbLine
 10
6293.8687553364
 20
5163.6804910222
 30
0.0
 11
6292.4687547284
 21
5163.68049212
 31
0.0
  0
LINE
  5
12A
330
1F
100
AcDbEntity
  8
0
  6
Continuous
 62
     7
100
AcDbLine
 10
6294.3687552261
 20
5164.2170792093
 30
0.0
 11
6294.3687553364
 21
5164.1806405126
 31
0.0
  0
LINE
  5
12B
330
1F
100
AcDbEntity
  8
0
  6
Continuous
 62
     7
100
AcDbLine
 10
6213.9187549847
 20
5162.6994555464
 30
0.0
 11
6213.9187549847
 21
5163.6992340555
 31
0.0
  0
LINE
  5
12C
330
1F
100
AcDbEntity
  8
0
  6
Continuous
 62
     7
100
AcDbLine
 10
6218.9187539417
 20
5163.6992340555
 30
0.0
 11
6218.9187539417
 21
5162.6994555464
 31
0.0
  0
LINE
  5
12D
330
1F
100
AcDbEntity
  8
0
  6
Continuous
 62
     7
100
AcDbLine
 10
6286.818755013
 20
5163.6992340555
 30
0.0
 11
6286.818755013
 21
5162.6994555464
 31
0.0
  0
LINE
  5
12E
330
1F
100
AcDbEntity
  8
0
  6
Continuous
 62
     7
100
AcDbLine
 10
6281.8187551248
 20
5162.6994555464
 30
0.0
 11
6281.8187551248
 21
5163.6992340555
 31
0.0
  0
LINE
  5
12F
330
1F
100
AcDbEntity
  8
0
  6
Continuous
 62
     7
100
AcDbLine
 10
6273.4187553076
 20
5191.5170123449
 30
0.0
 11
6273.4187553076
 21
5192.6994548758
 31
0.0
  0
LINE
  5
130
330
1F
100
AcDbEntity
  8
0
  6
Continuous
 62
     7
100
AcDbLine
 10
6280.3687552594
 20
5192.6994548758
 30
0.0
 11
6280.3687552594
 21
5191.5170123449
 31
0.0
  0
LINE
  5
131
330
1F
100
AcDbEntity
  8
0
  6
Continuous
 62
     7
100
AcDbLine
 10
6230.7687570944
 20
5191.5170123449
 30
0.0
 11
6230.7687570944
 21
5192.6994548758
 31
0.0
  0
LINE
  5
132
330
1F
100
AcDbEntity
  8
0
  6
Continuous
 62
     7
100
AcDbLine
 10
6239.768756707
 20
5192.6994548758
 30
0.0
 11
6239.768756707
 21
5191.5170123449
 31
0.0
  0
LINE
  5
133
330
1F
100
AcDbEntity
  8
0
  6
Continuous
 62
     7
100
AcDbLine
 10
6219.3687541082
 20
5191.5170123449
 30
0.0
 11
6219.3687541082
 21
5192.6994548758
 31
0.0
  0
LINE
  5
134
330
1F
100
AcDbEntity
  8
0
  6
Continuous
 62
     7
100
AcDbLine
 10
6226.668754746
 20
5192.6994548758
 30
0.0
 11
6226.668754746
 21
5191.5170123449
 31
0.0
  0
LINE
  5
135
330
1F
100
AcDbEntity
  8
0
  6
Continuous
 62
     7
100
AcDbLine
 10
6291.568756257
 20
5192.6994548758
 30
0.0
 11
6291.568756257
 21
5191.5170123449
 31
0.0
  0
LINE
  5
136
330
1F
100
AcDbEntity
  8
0
  6
Continuous
 62
     7
100
AcDbLine
 10
6212.7513607636
 20
5191.5170123449
 30
0.0
 11
6212.7513607636
 21
5192.6994548758
 31
0.0
  0
LINE
  5
137
330
1F
100
AcDbEntity
  8
0
  6
Continuous
 62
     7
100
AcDbLine
 10
6191.3687569693
 20
5173.6994554868
 30
0.0
 11
6190.0187564686
 21
5173.6994554868
 31
0.0
  0
LINE
  5
138
330
1F
100
AcDbEntity
  8
0
  6
Continuous
 62
     7
100
AcDbLine
 10
6190.2277005508
 20
5190.7994543781
 30
0.0
 11
6191.3687569693
 21
5190.7994543781
 31
0.0
  0
LINE
  5
139
330
1F
100
AcDbEntity
  8
0
  6
Continuous
 62
     7
100
AcDbLine
 10
6346.5187532499
 20
5162.6994555464
 30
0.0
 11
6346.5187532499
 21
5163.7281311324
 31
0.0
  0
LINE
  5
13A
330
1F
100
AcDbEntity
  8
0
  6
Continuous
 62
     7
100
AcDbLine
 10
6346.5187532499
 20
5191.5470121076
 30
0.0
 11
6346.5187532499
 21
5192.6994548758
 31
0.0
  0
LINE
  5
13B
330
1F
100
AcDbEntity
  8
0
  6
Continuous
 62
     7
100
AcDbLine
 10
6201.5187574223
 20
5163.6992340555
 30
0.0
 11
6201.5187574223
 21
5162.6994555464
 31
0.0
  0
LINE
  5
13C
330
1F
100
AcDbEntity
  8
0
  6
Continuous
 62
     7
100
AcDbLine
 10
6201.5187574223
 20
5192.6994548758
 30
0.0
 11
6201.5187574223
 21
5191.5170123449
 31
0.0
  0
LINE
  5
13D
330
1F
100
AcDbEntity
  8
0
  6
Continuous
 62
     7
100
AcDbLine
 10
6258.218756099
 20
5163.6992340555
 30
0.0
 11
6258.218756099
 21
5162.6994555464
 31
0.0
  0
LINE
  5
13E
330
1F
100
AcDbEntity
  8
0
  6
Continuous
 62
     7
100
AcDbLine
 10
6323.7187547281
 20
5163.7281311324
 30
0.0
 11
6323.7187547281
 21
5162.6994555464
 31
0.0
  0
LINE
  5
13F
330
1F
100
AcDbEntity
  8
0
  6
Continuous
 62
     7
100
AcDbLine
 10
6309.7187561586
 20
5162.6994555464
 30
0.0
 11
6309.7187561586
 21
5163.7281311324
 31
0.0
  0
LINE
  5
140
330
1F
100
AcDbEntity
  8
0
  6
Continuous
 62
     7
100
AcDbLine
 10
6244.2187556669
 20
5162.6994555464
 30
0.0
 11
6244.2187556669
 21
5163.6992340555
 31
0.0
  0
LINE
  5
141
330
1F
100
AcDbEntity
  8
0
  6
Continuous
 62
     7
100
AcDbLine
 10
6164.0187559321
 20
5139.699453639
 30
0.0
 11
6165.0187559321
 21
5139.6994516125
 31
0.0
  0
LINE
  5
142
330
1F
100
AcDbEntity
  8
0
  6
Continuous
 62
     7
100
AcDbLine
 10
6165.0187559321
 20
5139.6994516125
 30
0.0
 11
6165.0187579587
 21
5138.6994516125
 31
0.0
  0
LINE
  5
143
330
1F
100
AcDbEntity
  8
0
  6
Continuous
 62
     7
100
AcDbLine
 10
6358.0187542036
 20
5165.6994541755
 30
0.0
 11
6359.0187562302
 21
5165.6994541755
 31
0.0
  0
LINE
  5
144
330
1F
100
AcDbEntity
  8
0
  6
Continuous
 62
     7
100
AcDbLine
 10
6355.0187555745
 20
5162.6994555464
 30
0.0
 11
6355.0187555745
 21
5161.6994535198
 31
0.0
  0
LINE
  5
145
330
1F
100
AcDbEntity
  8
0
  6
Continuous
 62
     7
100
AcDbLine
 10
6383.0187547401
 20
5139.6994516125
 30
0.0
 11
6384.0187547401
 21
5139.699453639
 31
0.0
  0
LINE
  5
146
330
1F
100
AcDbEntity
  8
0
  6
Continuous
 62
     7
100
AcDbLine
 10
6383.0187547401
 20
5139.6994516125
 30
0.0
 11
6383.0187547401
 21
5287.699457573
 31
0.0
  0
LINE
  5
147
330
1F
100
AcDbEntity
  8
0
  6
Continuous
 62
     7
100
AcDbLine
 10
6384.0187547401
 20
5287.6994555464
 30
0.0
 11
6383.0187547401
 21
5287.699457573
 31
0.0
  0
LINE
  5
148
330
1F
100
AcDbEntity
  8
0
  6
Continuous
 62
     7
100
AcDbLine
 10
6384.0187547401
 20
5287.6994555464
 30
0.0
 11
6384.0187547401
 21
5139.699453639
 31
0.0
  0
LINE
  5
149
330
1F
100
AcDbEntity
  8
0
  6
Continuous
 62
     7
100
AcDbLine
 10
6165.0187559321
 20
5139.6994516125
 30
0.0
 11
6383.0187547401
 21
5139.6994516125
 31
0.0
  0
LINE
  5
14A
330
1F
100
AcDbEntity
  8
0
  6
Continuous
 62
     7
100
AcDbLine
 10
6383.0187527135
 20
5138.6994516125
 30
0.0
 11
6383.0187547401
 21
5139.6994516125
 31
0.0
  0
LINE
  5
14B
330
1F
100
AcDbEntity
  8
0
  6
Continuous
 62
     7
100
AcDbLine
 10
6383.0187527135
 20
5138.6994516125
 30
0.0
 11
6165.0187579587
 21
5138.6994516125
 31
0.0
  0
LINE
  5
14C
330
1F
100
AcDbEntity
  8
0
  6
Continuous
 62
     7
100
AcDbLine
 10
6193.018756029
 20
5193.6994559711
 30
0.0
 11
6193.018756029
 21
5192.6994539445
 31
0.0
  0
LINE
  5
14D
330
1F
100
AcDbEntity
  8
0
  6
Continuous
 62
     7
100
AcDbLine
 10
6189.018754442
 20
5189.6994543841
 30
0.0
 11
6190.0187564686
 21
5189.6994543841
 31
0.0
  0
LINE
  5
14E
330
1F
100
AcDbEntity
  8
0
  6
Continuous
 62
     7
100
AcDbLine
 10
6165.0187559321
 20
5287.699457573
 30
0.0
 11
6164.0187559321
 21
5287.6994555464
 31
0.0
  0
LINE
  5
14F
330
1F
100
AcDbEntity
  8
0
  6
Continuous
 62
     7
100
AcDbLine
 10
6165.0187559321
 20
5287.699457573
 30
0.0
 11
6165.0187559321
 21
5139.6994516125
 31
0.0
  0
LINE
  5
150
330
1F
100
AcDbEntity
  8
0
  6
Continuous
 62
     7
100
AcDbLine
 10
6164.0187559321
 20
5139.699453639
 30
0.0
 11
6164.0187559321
 21
5287.6994555464
 31
0.0
  0
LINE
  5
151
330
1F
100
AcDbEntity
  8
0
  6
Continuous
 62
     7
100
AcDbLine
 10
6383.0187547401
 20
5287.699457573
 30
0.0
 11
6383.0187527135
 21
5288.699457573
 31
0.0
  0
LINE
  5
152
330
1F
100
AcDbEntity
  8
0
  6
Continuous
 62
     7
100
AcDbLine
 10
6193.0187550977
 20
5162.6994555464
 30
0.0
 11
6355.0187555745
 21
5162.6994555464
 31
0.0
  0
LINE
  5
153
330
1F
100
AcDbEntity
  8
0
  6
Continuous
 62
     7
100
AcDbLine
 10
6355.0187555745
 20
5161.6994535198
 30
0.0
 11
6193.0187550977
 21
5161.6994535198
 31
0.0
  0
LINE
  5
154
330
1F
100
AcDbEntity
  8
0
  6
Continuous
 62
     7
100
AcDbLine
 10
6193.0187550977
 20
5162.6994555464
 30
0.0
 11
6193.0187550977
 21
5161.6994535198
 31
0.0
  0
LINE
  5
155
330
1F
100
AcDbEntity
  8
0
  6
Continuous
 62
     7
100
AcDbLine
 10
6358.0187542036
 20
5189.6994543841
 30
0.0
 11
6359.0187562302
 21
5189.6994543841
 31
0.0
  0
LINE
  5
156
330
1F
100
AcDbEntity
  8
0
  6
Continuous
 62
     7
100
AcDbLine
 10
6355.0187565058
 20
5193.6994559711
 30
0.0
 11
6355.0187565058
 21
5192.6994539445
 31
0.0
  0
LINE
  5
157
330
1F
100
AcDbEntity
  8
0
  6
Continuous
 62
     7
100
AcDbLine
 10
6165.0187579587
 20
5288.699457573
 30
0.0
 11
6165.0187559321
 21
5287.699457573
 31
0.0
  0
LINE
  5
158
330
1F
100
AcDbEntity
  8
0
  6
Continuous
 62
     7
100
AcDbLine
 10
6189.018754442
 20
5165.6994541755
 30
0.0
 11
6189.018754442
 21
5189.6994543841
 31
0.0
  0
LINE
  5
159
330
1F
100
AcDbEntity
  8
0
  6
Continuous
 62
     7
100
AcDbLine
 10
6190.0187564686
 20
5189.6994543841
 30
0.0
 11
6190.0187564686
 21
5165.6994541755
 31
0.0
  0
LINE
  5
15A
330
1F
100
AcDbEntity
  8
0
  6
Continuous
 62
     7
100
AcDbLine
 10
6189.018754442
 20
5165.6994541755
 30
0.0
 11
6190.0187564686
 21
5165.6994541755
 31
0.0
  0
LINE
  5
15B
330
1F
100
AcDbEntity
  8
0
  6
Continuous
 62
     7
100
AcDbLine
 10
6358.0187542036
 20
5165.6994541755
 30
0.0
 11
6358.0187542036
 21
5189.6994543841
 31
0.0
  0
LINE
  5
15C
330
1F
100
AcDbEntity
  8
0
  6
Continuous
 62
     7
100
AcDbLine
 10
6359.0187562302
 20
5189.6994543841
 30
0.0
 11
6359.0187562302
 21
5165.6994541755
 31
0.0
  0
LINE
  5
15D
330
1F
100
AcDbEntity
  8
0
  6
Continuous
 62
     7
100
AcDbLine
 10
6165.0187579587
 20
5288.699457573
 30
0.0
 11
6383.0187527135
 21
5288.699457573
 31
0.0
  0
LINE
  5
15E
330
1F
100
AcDbEntity
  8
0
  6
Continuous
 62
     7
100
AcDbLine
 10
6383.0187547401
 20
5287.699457573
 30
0.0
 11
6165.0187559321
 21
5287.699457573
 31
0.0
  0
LINE
  5
15F
330
1F
100
AcDbEntity
  8
0
  6
Continuous
 62
     7
100
AcDbLine
 10
6193.018756029
 20
5193.6994559711
 30
0.0
 11
6355.0187565058
 21
5193.6994559711
 31
0.0
  0
LINE
  5
160
330
1F
100
AcDbEntity
  8
0
  6
Continuous
 62
     7
100
AcDbLine
 10
6355.0187565058
 20
5192.6994539445
 30
0.0
 11
6193.018756029
 21
5192.6994539445
 31
0.0
  0
LINE
  5
161
330
1F
100
AcDbEntity
  8
0
  6
Continuous
 62
     7
100
AcDbLine
 10
6234.8728796139
 20
5192.6994548758
 30
0.0
 11
6234.9215430811
 21
5191.5170123449
 31
0.0
  0
LINE
  5
162
330
1F
100
AcDbEntity
  8
0
  6
Continuous
 62
     7
100
AcDbLine
 10
6191.3687569693
 20
5189.2994550636
 30
0.0
 11
6190.0187564686
 21
5189.2994550636
 31
0.0
  0
LINE
  5
163
330
1F
100
AcDbEntity
  8
0
  6
Continuous
 62
     7
100
AcDbLine
 10
6190.0187564686
 20
5175.1994548013
 30
0.0
 11
6191.3687569693
 21
5175.1994548013
 31
0.0
  0
LINE
  5
164
330
1F
100
AcDbEntity
  8
0
  6
Continuous
 62
     7
100
AcDbLine
 10
6468.1677852387
 20
5191.5458405038
 30
0.0
 11
6468.6992919634
 21
5191.5470121076
 31
0.0
  0
LINE
  5
165
330
1F
100
AcDbEntity
  8
0
  6
Continuous
 62
     7
100
AcDbLine
 10
6469.0531675334
 20
5191.4013458064
 30
0.0
 11
6471.7662368531
 21
5188.7002141794
 31
0.0
  0
LINE
  5
166
330
1F
100
AcDbEntity
  8
0
  6
Continuous
 62
     7
100
AcDbLine
 10
6471.9134621884
 20
5188.346984016
 30
0.0
 11
6471.9135292436
 21
5188.3169842532
 31
0.0
  0
LINE
  5
167
330
1F
100
AcDbEntity
  8
0
  6
Continuous
 62
     7
100
AcDbLine
 10
6468.1677852387
 20
5191.5158388784
 30
0.0
 11
6468.6993580873
 21
5191.5170123449
 31
0.0
  0
LINE
  5
168
330
1F
100
AcDbEntity
  8
0
  6
Continuous
 62
     7
100
AcDbLine
 10
6468.6993580873
 20
5191.5170123449
 30
0.0
 11
6468.6993785764
 21
5191.5074048212
 31
0.0
  0
LINE
  5
169
330
1F
100
AcDbEntity
  8
0
  6
Continuous
 62
     7
100
AcDbLine
 10
6468.6993785764
 20
5191.5074048212
 30
0.0
 11
6468.6994419063
 21
5191.4789510539
 31
0.0
  0
LINE
  5
16A
330
1F
100
AcDbEntity
  8
0
  6
Continuous
 62
     7
100
AcDbLine
 10
6468.6994419063
 20
5191.4789510539
 30
0.0
 11
6468.6995434205
 21
5191.4327462783
 31
0.0
  0
LINE
  5
16B
330
1F
100
AcDbEntity
  8
0
  6
Continuous
 62
     7
100
AcDbLine
 10
6468.6995434205
 20
5191.4327462783
 30
0.0
 11
6468.6996803249
 21
5191.3705655953
 31
0.0
  0
LINE
  5
16C
330
1F
100
AcDbEntity
  8
0
  6
Continuous
 62
     7
100
AcDbLine
 10
6468.6996803249
 20
5191.3705655953
 30
0.0
 11
6468.699847963
 21
5191.2947969159
 31
0.0
  0
LINE
  5
16D
330
1F
100
AcDbEntity
  8
0
  6
Continuous
 62
     7
100
AcDbLine
 10
6468.699847963
 20
5191.2947969159
 30
0.0
 11
6468.7000388841
 21
5191.2083534172
 31
0.0
  0
LINE
  5
16E
330
1F
100
AcDbEntity
  8
0
  6
Continuous
 62
     7
100
AcDbLine
 10
6468.7000388841
 20
5191.2083534172
 30
0.0
 11
6468.7002456377
 21
5191.114558058
 31
0.0
  0
LINE
  5
16F
330
1F
100
AcDbEntity
  8
0
  6
Continuous
 62
     7
100
AcDbLine
 10
6468.7002456377
 20
5191.114558058
 30
0.0
 11
6468.7004610788
 21
5191.0170135615
 31
0.0
  0
LINE
  5
170
330
1F
100
AcDbEntity
  8
0
  6
Continuous
 62
     7
100
AcDbLine
 10
6468.7595544292
 20
5164.2170769767
 30
0.0
 11
6468.7597711201
 21
5164.1195324829
 31
0.0
  0
LINE
  5
171
330
1F
100
AcDbEntity
  8
0
  6
Continuous
 62
     7
100
AcDbLine
 10
6468.7597711201
 20
5164.1195324829
 30
0.0
 11
6468.7599778737
 21
5164.0257371237
 31
0.0
  0
LINE
  5
172
330
1F
100
AcDbEntity
  8
0
  6
Continuous
 62
     7
100
AcDbLine
 10
6468.7599778737
 20
5164.0257371237
 30
0.0
 11
6468.7601687948
 21
5163.9392954877
 31
0.0
  0
LINE
  5
173
330
1F
100
AcDbEntity
  8
0
  6
Continuous
 62
     7
100
AcDbLine
 10
6468.7601687948
 20
5163.9392954877
 30
0.0
 11
6468.7603355016
 21
5163.8635268083
 31
0.0
  0
LINE
  5
174
330
1F
100
AcDbEntity
  8
0
  6
Continuous
 62
     7
100
AcDbLine
 10
6468.7603355016
 20
5163.8635268083
 30
0.0
 11
6468.760472406
 21
5163.8013442626
 31
0.0
  0
LINE
  5
175
330
1F
100
AcDbEntity
  8
0
  6
Continuous
 62
     7
100
AcDbLine
 10
6468.760472406
 20
5163.8013442626
 30
0.0
 11
6468.7605748515
 21
5163.755139487
 31
0.0
  0
LINE
  5
176
330
1F
100
AcDbEntity
  8
0
  6
Continuous
 62
     7
100
AcDbLine
 10
6468.7605748515
 20
5163.755139487
 30
0.0
 11
6468.7606372501
 21
5163.7266857197
 31
0.0
  0
LINE
  5
177
330
1F
100
AcDbEntity
  8
0
  6
Continuous
 62
     7
100
AcDbLine
 10
6468.7606372501
 20
5163.7266857197
 30
0.0
 11
6468.7606586705
 21
5163.7170781961
 31
0.0
  0
LINE
  5
178
330
1F
100
AcDbEntity
  8
0
  6
Continuous
 62
     7
100
AcDbLine
 10
6468.7606586705
 20
5163.7170781961
 30
0.0
 11
6468.1677852387
 21
5163.7157706192
 31
0.0
  0
LINE
  5
179
330
1F
100
AcDbEntity
  8
0
  6
Continuous
 62
     7
100
AcDbLine
 10
6468.7595544292
 20
5164.2170769767
 30
0.0
 11
6468.7004610788
 21
5191.0170135615
 31
0.0
  0
LINE
  5
17A
330
1F
100
AcDbEntity
  8
0
  6
Continuous
 62
     7
100
AcDbLine
 10
6469.1131083856
 20
5164.217857795
 30
0.0
 11
6469.0767523463
 21
5164.2177758386
 31
0.0
  0
LINE
  5
17B
330
1F
100
AcDbEntity
  8
0
  6
Continuous
 62
     7
100
AcDbLine
 10
6469.0767523463
 20
5164.2177758386
 30
0.0
 11
6469.0373406376
 21
5164.217690157
 31
0.0
  0
LINE
  5
17C
330
1F
100
AcDbEntity
  8
0
  6
Continuous
 62
     7
100
AcDbLine
 10
6469.0373406376
 20
5164.217690157
 30
0.0
 11
6468.9952541704
 21
5164.2175970247
 31
0.0
  0
LINE
  5
17D
330
1F
100
AcDbEntity
  8
0
  6
Continuous
 62
     7
100
AcDbLine
 10
6468.9952541704
 20
5164.2175970247
 30
0.0
 11
6468.9508971388
 21
5164.2175001671
 31
0.0
  0
LINE
  5
17E
330
1F
100
AcDbEntity
  8
0
  6
Continuous
 62
     7
100
AcDbLine
 10
6468.9508971388
 20
5164.2175001671
 30
0.0
 11
6468.9046979512
 21
5164.2173995843
 31
0.0
  0
LINE
  5
17F
330
1F
100
AcDbEntity
  8
0
  6
Continuous
 62
     7
100
AcDbLine
 10
6468.9046979512
 20
5164.2173995843
 30
0.0
 11
6468.8571008484
 21
5164.2172915509
 31
0.0
  0
LINE
  5
180
330
1F
100
AcDbEntity
  8
0
  6
Continuous
 62
     7
100
AcDbLine
 10
6468.8571008484
 20
5164.2172915509
 30
0.0
 11
6468.8085649724
 21
5164.2171872428
 31
0.0
  0
LINE
  5
181
330
1F
100
AcDbEntity
  8
0
  6
Continuous
 62
     7
100
AcDbLine
 10
6468.8085649724
 20
5164.2171872428
 30
0.0
 11
6468.7595544292
 21
5164.2170769767
 31
0.0
  0
LINE
  5
182
330
1F
100
AcDbEntity
  8
0
  6
Continuous
 62
     7
100
AcDbLine
 10
6469.0540131743
 20
5191.0177917799
 30
0.0
 11
6469.0176562036
 21
5191.0177116861
 31
0.0
  0
LINE
  5
183
330
1F
100
AcDbEntity
  8
0
  6
Continuous
 62
     7
100
AcDbLine
 10
6469.0176562036
 20
5191.0177116861
 30
0.0
 11
6468.9782444949
 21
5191.0176260045
 31
0.0
  0
LINE
  5
184
330
1F
100
AcDbEntity
  8
0
  6
Continuous
 62
     7
100
AcDbLine
 10
6468.9782444949
 20
5191.0176260045
 30
0.0
 11
6468.9361580278
 21
5191.0175328722
 31
0.0
  0
LINE
  5
185
330
1F
100
AcDbEntity
  8
0
  6
Continuous
 62
     7
100
AcDbLine
 10
6468.9361580278
 20
5191.0175328722
 30
0.0
 11
6468.8918019275
 21
5191.017434152
 31
0.0
  0
LINE
  5
186
330
1F
100
AcDbEntity
  8
0
  6
Continuous
 62
     7
100
AcDbLine
 10
6468.8918019275
 20
5191.017434152
 30
0.0
 11
6468.8456027399
 21
5191.0173335692
 31
0.0
  0
LINE
  5
187
330
1F
100
AcDbEntity
  8
0
  6
Continuous
 62
     7
100
AcDbLine
 10
6468.8456027399
 20
5191.0173335692
 30
0.0
 11
6468.798005637
 21
5191.0172273984
 31
0.0
  0
LINE
  5
188
330
1F
100
AcDbEntity
  8
0
  6
Continuous
 62
     7
100
AcDbLine
 10
6468.798005637
 20
5191.0172273984
 30
0.0
 11
6468.7494688298
 21
5191.0171212276
 31
0.0
  0
LINE
  5
189
330
1F
100
AcDbEntity
  8
0
  6
Continuous
 62
     7
100
AcDbLine
 10
6468.7494688298
 20
5191.0171212276
 30
0.0
 11
6468.7004610788
 21
5191.0170135615
 31
0.0
  0
LINE
  5
18A
330
1F
100
AcDbEntity
  8
0
  6
Continuous
 62
     7
100
AcDbLine
 10
6469.0540131743
 20
5191.0177917799
 30
0.0
 11
6469.1131083856
 21
5164.217857795
 31
0.0
  0
LINE
  5
18B
330
1F
100
AcDbEntity
  8
0
  6
Continuous
 62
     7
100
AcDbLine
 10
6471.767082494
 20
5188.3166620156
 30
0.0
 11
6469.0540131743
 21
5191.0177917799
 31
0.0
  0
LINE
  5
18C
330
1F
100
AcDbEntity
  8
0
  6
Continuous
 62
     7
100
AcDbLine
 10
6471.8142390813
 20
5166.9309271147
 30
0.0
 11
6471.767082494
 21
5188.3166620156
 31
0.0
  0
LINE
  5
18D
330
1F
100
AcDbEntity
  8
0
  6
Continuous
 62
     7
100
AcDbLine
 10
6469.1131083856
 20
5164.217857795
 30
0.0
 11
6471.8142390813
 21
5166.9309271147
 31
0.0
  0
LINE
  5
18E
330
1F
100
AcDbEntity
  8
0
  6
Continuous
 62
     7
100
AcDbLine
 10
6471.8150195296
 20
5166.5773747137
 30
0.0
 11
6469.1138879026
 21
5163.8643053939
 31
0.0
  0
LINE
  5
18F
330
1F
100
AcDbEntity
  8
0
  6
Continuous
 62
     7
100
AcDbLine
 10
6469.0532336573
 20
5191.3713460436
 30
0.0
 11
6471.766302977
 21
5188.6702144166
 31
0.0
  0
LINE
  5
190
330
1F
100
AcDbEntity
  8
0
  6
Continuous
 62
     7
100
AcDbLine
 10
6471.9606858308
 20
5166.931251215
 30
0.0
 11
6471.9582774307
 21
5166.9312437644
 31
0.0
  0
LINE
  5
191
330
1F
100
AcDbEntity
  8
0
  6
Continuous
 62
     7
100
AcDbLine
 10
6471.9582774307
 20
5166.9312437644
 30
0.0
 11
6471.9510783072
 21
5166.9312288633
 31
0.0
  0
LINE
  5
192
330
1F
100
AcDbEntity
  8
0
  6
Continuous
 62
     7
100
AcDbLine
 10
6471.9510783072
 20
5166.9312288633
 30
0.0
 11
6471.9391555156
 21
5166.9312027862
 31
0.0
  0
LINE
  5
193
330
1F
100
AcDbEntity
  8
0
  6
Continuous
 62
     7
100
AcDbLine
 10
6471.9391555156
 20
5166.9312027862
 30
0.0
 11
6471.9226264025
 21
5166.9311655333
 31
0.0
  0
LINE
  5
194
330
1F
100
AcDbEntity
  8
0
  6
Continuous
 62
     7
100
AcDbLine
 10
6471.9226264025
 20
5166.9311655333
 30
0.0
 11
6471.9016474302
 21
5166.9311208298
 31
0.0
  0
LINE
  5
195
330
1F
100
AcDbEntity
  8
0
  6
Continuous
 62
     7
100
AcDbLine
 10
6471.9016474302
 20
5166.9311208298
 30
0.0
 11
6471.8764216269
 21
5166.9310649505
 31
0.0
  0
LINE
  5
196
330
1F
100
AcDbEntity
  8
0
  6
Continuous
 62
     7
100
AcDbLine
 10
6471.8764216269
 20
5166.9310649505
 30
0.0
 11
6471.8471911366
 21
5166.9310016205
 31
0.0
  0
LINE
  5
197
330
1F
100
AcDbEntity
  8
0
  6
Continuous
 62
     7
100
AcDbLine
 10
6471.8471911366
 20
5166.9310016205
 30
0.0
 11
6471.8142390813
 21
5166.9309271147
 31
0.0
  0
LINE
  5
198
330
1F
100
AcDbEntity
  8
0
  6
Continuous
 62
     7
100
AcDbLine
 10
6471.9135292436
 20
5188.3169842532
 30
0.0
 11
6471.9606858308
 21
5166.931251215
 31
0.0
  0
LINE
  5
199
330
1F
100
AcDbEntity
  8
0
  6
Continuous
 62
     7
100
AcDbLine
 10
6471.9135292436
 20
5188.3169842532
 30
0.0
 11
6471.9111208434
 21
5188.3169786652
 31
0.0
  0
LINE
  5
19A
330
1F
100
AcDbEntity
  8
0
  6
Continuous
 62
     7
100
AcDbLine
 10
6471.9111208434
 20
5188.3169786652
 30
0.0
 11
6471.9039217199
 21
5188.3169637641
 31
0.0
  0
LINE
  5
19B
330
1F
100
AcDbEntity
  8
0
  6
Continuous
 62
     7
100
AcDbLine
 10
6471.9039217199
 20
5188.3169637641
 30
0.0
 11
6471.8919989283
 21
5188.3169376871
 31
0.0
  0
LINE
  5
19C
330
1F
100
AcDbEntity
  8
0
  6
Continuous
 62
     7
100
AcDbLine
 10
6471.8919989283
 20
5188.3169376871
 30
0.0
 11
6471.8754679526
 21
5188.3169004342
 31
0.0
  0
LINE
  5
19D
330
1F
100
AcDbEntity
  8
0
  6
Continuous
 62
     7
100
AcDbLine
 10
6471.8754679526
 20
5188.3169004342
 30
0.0
 11
6471.8544889803
 21
5188.316853868
 31
0.0
  0
LINE
  5
19E
330
1F
100
AcDbEntity
  8
0
  6
Continuous
 62
     7
100
AcDbLine
 10
6471.8544889803
 20
5188.316853868
 30
0.0
 11
6471.829263177
 21
5188.3167998513
 31
0.0
  0
LINE
  5
19F
330
1F
100
AcDbEntity
  8
0
  6
Continuous
 62
     7
100
AcDbLine
 10
6471.829263177
 20
5188.3167998513
 30
0.0
 11
6471.8000345494
 21
5188.3167346587
 31
0.0
  0
LINE
  5
1A0
330
1F
100
AcDbEntity
  8
0
  6
Continuous
 62
     7
100
AcDbLine
 10
6471.8000345494
 20
5188.3167346587
 30
0.0
 11
6471.767082494
 21
5188.3166620156
 31
0.0
  0
LINE
  5
1A1
330
1F
100
AcDbEntity
  8
0
  6
Continuous
 62
     7
100
AcDbLine
 10
6444.3677846904
 20
5263.6994553378
 30
0.0
 11
6444.3677846904
 21
5267.1994549801
 31
0.0
  0
LINE
  5
1A2
330
1F
100
AcDbEntity
  8
0
  6
Continuous
 62
     7
100
AcDbLine
 10
6445.8677849362
 20
5268.6994542947
 30
0.0
 11
6445.8677849362
 21
5263.6994553378
 31
0.0
  0
LINE
  5
1A3
330
1F
100
AcDbEntity
  8
0
  6
Continuous
 62
     7
100
AcDbLine
 10
6444.3677846904
 20
5263.6994553378
 30
0.0
 11
6445.8677849362
 21
5263.6994553378
 31
0.0
  0
LINE
  5
1A4
330
1F
100
AcDbEntity
  8
0
  6
Continuous
 62
     7
100
AcDbLine
 10
6445.8677849362
 20
5268.6994542947
 30
0.0
 11
6456.1677851344
 21
5268.6994542947
 31
0.0
  0
LINE
  5
1A5
330
1F
100
AcDbEntity
  8
0
  6
Continuous
 62
     7
100
AcDbLine
 10
6444.3677846904
 20
5158.6994548907
 30
0.0
 11
6444.3677846904
 21
5263.6994553378
 31
0.0
  0
LINE
  5
1A6
330
1F
100
AcDbEntity
  8
0
  6
Continuous
 62
     7
100
AcDbLine
 10
6445.8677849362
 20
5263.6994553378
 30
0.0
 11
6445.8677849362
 21
5158.6994548907
 31
0.0
  0
LINE
  5
1A7
330
1F
100
AcDbEntity
  8
0
  6
Continuous
 62
     7
100
AcDbLine
 10
6444.3677846904
 20
5158.6994548907
 30
0.0
 11
6445.8677849362
 21
5158.6994548907
 31
0.0
  0
LINE
  5
1A8
330
1F
100
AcDbEntity
  8
0
  6
Continuous
 62
     7
100
AcDbLine
 10
6444.3677846904
 20
5155.1994552484
 30
0.0
 11
6444.3677846904
 21
5158.6994548907
 31
0.0
  0
LINE
  5
1A9
330
1F
100
AcDbEntity
  8
0
  6
Continuous
 62
     7
100
AcDbLine
 10
6445.8677849362
 20
5158.6994548907
 30
0.0
 11
6445.8677849362
 21
5153.6994559338
 31
0.0
  0
LINE
  5
1AA
330
1F
100
AcDbEntity
  8
0
  6
Continuous
 62
     7
100
AcDbLine
 10
6456.1677851344
 20
5153.6994559338
 30
0.0
 11
6445.8677849362
 21
5153.6994559338
 31
0.0
  0
LINE
  5
1AB
330
1F
100
AcDbEntity
  8
0
  6
Continuous
 62
     7
100
AcDbLine
 10
6456.1677851344
 20
5139.699453639
 30
0.0
 11
6467.1677852387
 21
5139.6994516125
 31
0.0
  0
LINE
  5
1AC
330
1F
100
AcDbEntity
  8
0
  6
Continuous
 62
     7
100
AcDbLine
 10
6467.1677852387
 20
5139.6994516125
 30
0.0
 11
6467.1677850748
 21
5138.6994516125
 31
0.0
  0
LINE
  5
1AD
330
1F
100
AcDbEntity
  8
0
  6
Continuous
 62
     7
100
AcDbLine
 10
6467.1677850748
 20
5138.6994516125
 30
0.0
 11
6456.1677851344
 21
5138.6994516125
 31
0.0
  0
LINE
  5
1AE
330
1F
100
AcDbEntity
  8
0
  6
Continuous
 62
     7
100
AcDbLine
 10
6456.1677851344
 20
5138.6994516125
 30
0.0
 11
6456.1677851344
 21
5139.699453639
 31
0.0
  0
LINE
  5
1AF
330
1F
100
AcDbEntity
  8
0
  6
Continuous
 62
     7
100
AcDbLine
 10
6456.1677851344
 20
5288.699457573
 30
0.0
 11
6467.1677850748
 21
5288.699457573
 31
0.0
  0
LINE
  5
1B0
330
1F
100
AcDbEntity
  8
0
  6
Continuous
 62
     7
100
AcDbLine
 10
6467.1677850748
 20
5288.699457573
 30
0.0
 11
6467.1677852387
 21
5287.699457573
 31
0.0
  0
LINE
  5
1B1
330
1F
100
AcDbEntity
  8
0
  6
Continuous
 62
     7
100
AcDbLine
 10
6467.1677852387
 20
5287.699457573
 30
0.0
 11
6456.1677851344
 21
5287.6994555464
 31
0.0
  0
LINE
  5
1B2
330
1F
100
AcDbEntity
  8
0
  6
Continuous
 62
     7
100
AcDbLine
 10
6456.1677851344
 20
5287.6994555464
 30
0.0
 11
6456.1677851344
 21
5288.699457573
 31
0.0
  0
LINE
  5
1B3
330
1F
100
AcDbEntity
  8
0
  6
Continuous
 62
     7
100
AcDbLine
 10
6467.1677852387
 20
5139.6994516125
 30
0.0
 11
6467.1677852387
 21
5287.699457573
 31
0.0
  0
LINE
  5
1B4
330
1F
100
AcDbEntity
  8
0
  6
Continuous
 62
     7
100
AcDbLine
 10
6456.1677851344
 20
5287.6994555464
 30
0.0
 11
6456.1677851344
 21
5139.699453639
 31
0.0
  0
LINE
  5
1B5
330
1F
100
AcDbEntity
  8
0
  6
Continuous
 62
     7
100
AcDbLine
 10
6467.1677852387
 20
5139.6994516125
 30
0.0
 11
6468.1677852387
 21
5139.699453639
 31
0.0
  0
LINE
  5
1B6
330
1F
100
AcDbEntity
  8
0
  6
Continuous
 62
     7
100
AcDbLine
 10
6468.1677852387
 20
5287.6994555464
 30
0.0
 11
6467.1677852387
 21
5287.699457573
 31
0.0
  0
LINE
  5
1B7
330
1F
100
AcDbEntity
  8
0
  6
Continuous
 62
     7
100
AcDbLine
 10
6468.1677852387
 20
5287.6994555464
 30
0.0
 11
6468.1677852387
 21
5139.699453639
 31
0.0
  0
LINE
  5
1B8
330
1F
100
AcDbEntity
  8
0
  6
Continuous
 62
     7
100
AcDbLine
 10
6468.6992919634
 20
5191.5470121076
 30
0.0
 11
6468.6993124525
 21
5191.5374045839
 31
0.0
  0
LINE
  5
1B9
330
1F
100
AcDbEntity
  8
0
  6
Continuous
 62
     7
100
AcDbLine
 10
6468.6993124525
 20
5191.5374045839
 30
0.0
 11
6468.6993580873
 21
5191.5170123449
 31
0.0
  0
LINE
  5
1BA
330
1F
100
AcDbEntity
  8
0
  6
Continuous
 62
     7
100
AcDbLine
 10
6469.0531675334
 20
5191.4013458064
 30
0.0
 11
6469.0463884364
 21
5191.3945359757
 31
0.0
  0
LINE
  5
1BB
330
1F
100
AcDbEntity
  8
0
  6
Continuous
 62
     7
100
AcDbLine
 10
6469.0463884364
 20
5191.3945359757
 30
0.0
 11
6469.0378826673
 21
5191.3859938851
 31
0.0
  0
LINE
  5
1BC
330
1F
100
AcDbEntity
  8
0
  6
Continuous
 62
     7
100
AcDbLine
 10
6471.7662368531
 20
5188.7002141794
 30
0.0
 11
6471.7594586874
 21
5188.6934062114
 31
0.0
  0
LINE
  5
1BD
330
1F
100
AcDbEntity
  8
0
  6
Continuous
 62
     7
100
AcDbLine
 10
6471.7594586874
 20
5188.6934062114
 30
0.0
 11
6471.751269568
 21
5188.6851807704
 31
0.0
  0
LINE
  5
1BE
330
1F
100
AcDbEntity
  8
0
  6
Continuous
 62
     7
100
AcDbLine
 10
6471.9134621884
 20
5188.346984016
 30
0.0
 11
6471.9125625308
 21
5188.3469821533
 31
0.0
  0
LINE
  5
1BF
330
1F
100
AcDbEntity
  8
0
  6
Continuous
 62
     7
100
AcDbLine
 10
6468.7004610788
 20
5191.0170135615
 30
0.0
 11
6468.1677852387
 21
5191.0158378651
 31
0.0
  0
LINE
  5
1C0
330
1F
100
AcDbEntity
  8
0
  6
Continuous
 62
     7
100
AcDbLine
 10
6468.1677852387
 20
5164.2157716324
 30
0.0
 11
6468.7595544292
 21
5164.2170769767
 31
0.0
  0
LINE
  5
1C1
330
1F
100
AcDbEntity
  8
0
  6
Continuous
 62
     7
100
AcDbLine
 10
6456.1677851344
 20
5263.6994553378
 30
0.0
 11
6445.8677849362
 21
5263.6994553378
 31
0.0
  0
LINE
  5
1C2
330
1F
100
AcDbEntity
  8
0
  6
Continuous
 62
     7
100
AcDbLine
 10
6445.8677849362
 20
5158.6994548907
 30
0.0
 11
6456.1677851344
 21
5158.6994548907
 31
0.0
  0
LINE
  5
1C3
330
1F
100
AcDbEntity
  8
0
  6
Continuous
 62
     7
100
AcDbLine
 10
6355.468758419
 20
5054.4693909619
 30
0.0
 11
6355.468758419
 21
5054.8232665319
 31
0.0
  0
LINE
  5
1C4
330
1F
100
AcDbEntity
  8
0
  6
Continuous
 62
     7
100
AcDbLine
 10
6355.468758419
 20
5054.4693909619
 30
0.0
 11
6294.4687558709
 21
5054.4693909619
 31
0.0
  0
LINE
  5
1C5
330
1F
100
AcDbEntity
  8
0
  6
Continuous
 62
     7
100
AcDbLine
 10
6294.4687558709
 20
5054.8232665319
 30
0.0
 11
6294.4687558709
 21
5054.4693909619
 31
0.0
  0
LINE
  5
1C6
330
1F
100
AcDbEntity
  8
0
  6
Continuous
 62
     7
100
AcDbLine
 10
6294.4687558709
 20
5054.8232665319
 30
0.0
 11
6355.468758419
 21
5054.8232665319
 31
0.0
  0
LINE
  5
1C7
330
1F
100
AcDbEntity
  8
0
  6
Continuous
 62
     7
100
AcDbLine
 10
6355.9687519817
 20
5055.3547732566
 30
0.0
 11
6355.9687519817
 21
5054.8221638459
 31
0.0
  0
LINE
  5
1C8
330
1F
100
AcDbEntity
  8
0
  6
Continuous
 62
     7
100
AcDbLine
 10
6293.9687548576
 20
5054.822163846
 30
0.0
 11
6293.9687548576
 21
5055.3547732566
 31
0.0
  0
LINE
  5
1C9
330
1F
100
AcDbEntity
  8
0
  6
Continuous
 62
     7
100
AcDbLine
 10
6355.82231082
 20
5054.4686114449
 30
0.0
 11
6353.1152019648
 21
5051.7555421252
 31
0.0
  0
LINE
  5
1CA
330
1F
100
AcDbEntity
  8
0
  6
Continuous
 62
     7
100
AcDbLine
 10
6352.7616495637
 20
5051.7563216422
 30
0.0
 11
6355.468758419
 21
5054.4693909619
 31
0.0
  0
LINE
  5
1CB
330
1F
100
AcDbEntity
  8
0
  6
Continuous
 62
     7
100
AcDbLine
 10
6294.4687558709
 20
5054.4693909619
 30
0.0
 11
6294.4687558709
 21
5051.7563216422
 31
0.0
  0
LINE
  5
1CC
330
1F
100
AcDbEntity
  8
0
  6
Continuous
 62
     7
100
AcDbLine
 10
6294.4687558709
 20
5051.7563216422
 30
0.0
 11
6352.7616495637
 21
5051.7563216422
 31
0.0
  0
LINE
  5
1CD
330
1F
100
AcDbEntity
  8
0
  6
Continuous
 62
     7
100
AcDbLine
 10
6293.9687548576
 20
5052.1090945262
 30
0.0
 11
6293.9687548576
 21
5054.822163846
 31
0.0
  0
LINE
  5
1CE
330
1F
100
AcDbEntity
  8
0
  6
Continuous
 62
     7
100
AcDbLine
 10
6355.82231082
 20
5054.4095162336
 30
0.0
 11
6355.82231082
 21
5054.4686114449
 31
0.0
  0
LINE
  5
1CF
330
1F
100
AcDbEntity
  8
0
  6
Continuous
 62
     7
100
AcDbLine
 10
6353.1152019648
 20
5051.7083846066
 30
0.0
 11
6355.82231082
 21
5054.4095162336
 31
0.0
  0
LINE
  5
1D0
330
1F
100
AcDbEntity
  8
0
  6
Continuous
 62
     7
100
AcDbLine
 10
6353.1152019648
 20
5051.7555421252
 30
0.0
 11
6353.1152019648
 21
5051.7083846066
 31
0.0
  0
LINE
  5
1D1
330
1F
100
AcDbEntity
  8
0
  6
Continuous
 62
     7
100
AcDbLine
 10
6355.9687519817
 20
5054.8221638459
 30
0.0
 11
6355.9687519817
 21
5054.7630686346
 31
0.0
  0
LINE
  5
1D2
330
1F
100
AcDbEntity
  8
0
  6
Continuous
 62
     7
100
AcDbLine
 10
6352.7616495637
 20
5051.6090963069
 30
0.0
 11
6352.7616495637
 21
5051.7563216422
 31
0.0
  0
LINE
  5
1D3
330
1F
100
AcDbEntity
  8
0
  6
Continuous
 62
     7
100
AcDbLine
 10
6294.4687558709
 20
5051.6090963069
 30
0.0
 11
6294.4687558709
 21
5051.7563216422
 31
0.0
  0
LINE
  5
1D4
330
1F
100
AcDbEntity
  8
0
  6
Continuous
 62
     7
100
AcDbLine
 10
6352.7616495637
 20
5051.6090963069
 30
0.0
 11
6294.4687558709
 21
5051.6090963069
 31
0.0
  0
LINE
  5
1D5
330
1F
100
AcDbEntity
  8
0
  6
Continuous
 62
     7
100
AcDbLine
 10
6352.7616495637
 20
5051.5619397197
 30
0.0
 11
6352.7616495637
 21
5051.6090963069
 31
0.0
  0
LINE
  5
1D6
330
1F
100
AcDbEntity
  8
0
  6
Continuous
 62
     7
100
AcDbLine
 10
6294.4687558709
 20
5051.5619397197
 30
0.0
 11
6352.7616495637
 21
5051.5619397197
 31
0.0
  0
LINE
  5
1D7
330
1F
100
AcDbEntity
  8
0
  6
Continuous
 62
     7
100
AcDbLine
 10
6294.4687558709
 20
5051.6090963069
 30
0.0
 11
6294.4687558709
 21
5051.5619397197
 31
0.0
  0
LINE
  5
1D8
330
1F
100
AcDbEntity
  8
0
  6
Continuous
 62
     7
100
AcDbLine
 10
6293.9687548576
 20
5052.061937939
 30
0.0
 11
6293.9687548576
 21
5052.1090945262
 31
0.0
  0
LINE
  5
1D9
330
1F
100
AcDbEntity
  8
0
  6
Continuous
 62
     7
100
AcDbLine
 10
6191.268757954
 20
5054.469324838
 30
0.0
 11
6191.268757954
 21
5054.823200408
 31
0.0
  0
LINE
  5
1DA
330
1F
100
AcDbEntity
  8
0
  6
Continuous
 62
     7
100
AcDbLine
 10
6191.268757954
 20
5054.823200408
 30
0.0
 11
6293.2687560467
 21
5054.823200408
 31
0.0
  0
LINE
  5
1DB
330
1F
100
AcDbEntity
  8
0
  6
Continuous
 62
     7
100
AcDbLine
 10
6293.2687560467
 20
5054.823200408
 30
0.0
 11
6293.2687560467
 21
5054.469324838
 31
0.0
  0
LINE
  5
1DC
330
1F
100
AcDbEntity
  8
0
  6
Continuous
 62
     7
100
AcDbLine
 10
6293.2687560467
 20
5054.469324838
 30
0.0
 11
6191.268757954
 21
5054.469324838
 31
0.0
  0
LINE
  5
1DD
330
1F
100
AcDbEntity
  8
0
  6
Continuous
 62
     7
100
AcDbLine
 10
6293.7687551973
 20
5055.3547732566
 30
0.0
 11
6293.7687551973
 21
5054.8220977221
 31
0.0
  0
LINE
  5
1DE
330
1F
100
AcDbEntity
  8
0
  6
Continuous
 62
     7
100
AcDbLine
 10
6190.7687569408
 20
5054.8220977221
 30
0.0
 11
6190.7687569408
 21
5055.3547732566
 31
0.0
  0
LINE
  5
1DF
330
1F
100
AcDbEntity
  8
0
  6
Continuous
 62
     7
100
AcDbLine
 10
6193.6223069576
 20
5051.7554760013
 30
0.0
 11
6190.915205553
 21
5054.468545321
 31
0.0
  0
LINE
  5
1E0
330
1F
100
AcDbEntity
  8
0
  6
Continuous
 62
     7
100
AcDbLine
 10
6191.268757954
 20
5054.469324838
 30
0.0
 11
6193.9758593587
 21
5051.7562555183
 31
0.0
  0
LINE
  5
1E1
330
1F
100
AcDbEntity
  8
0
  6
Continuous
 62
     7
100
AcDbLine
 10
6293.7687551973
 20
5054.8220977221
 30
0.0
 11
6293.7687551973
 21
5052.1090284023
 31
0.0
  0
LINE
  5
1E2
330
1F
100
AcDbEntity
  8
0
  6
Continuous
 62
     7
100
AcDbLine
 10
6293.2687560467
 20
5051.7562555183
 30
0.0
 11
6293.2687560467
 21
5054.469324838
 31
0.0
  0
LINE
  5
1E3
330
1F
100
AcDbEntity
  8
0
  6
Continuous
 62
     7
100
AcDbLine
 10
6193.9758593587
 20
5051.7562555183
 30
0.0
 11
6293.2687560467
 21
5051.7562555183
 31
0.0
  0
LINE
  5
1E4
330
1F
100
AcDbEntity
  8
0
  6
Continuous
 62
     7
100
AcDbLine
 10
6193.6223069576
 20
5051.708319414
 30
0.0
 11
6193.6223069576
 21
5051.7554760013
 31
0.0
  0
LINE
  5
1E5
330
1F
100
AcDbEntity
  8
0
  6
Continuous
 62
     7
100
AcDbLine
 10
6190.915205553
 20
5054.4094501097
 30
0.0
 11
6193.6223069576
 21
5051.708319414
 31
0.0
  0
LINE
  5
1E6
330
1F
100
AcDbEntity
  8
0
  6
Continuous
 62
     7
100
AcDbLine
 10
6190.915205553
 20
5054.468545321
 30
0.0
 11
6190.915205553
 21
5054.4094501097
 31
0.0
  0
LINE
  5
1E7
330
1F
100
AcDbEntity
  8
0
  6
Continuous
 62
     7
100
AcDbLine
 10
6190.7687569408
 20
5054.7630025107
 30
0.0
 11
6190.7687569408
 21
5054.8220977221
 31
0.0
  0
LINE
  5
1E8
330
1F
100
AcDbEntity
  8
0
  6
Continuous
 62
     7
100
AcDbLine
 10
6193.9758593587
 20
5051.7562555183
 30
0.0
 11
6193.9758593587
 21
5051.6090292517
 31
0.0
  0
LINE
  5
1E9
330
1F
100
AcDbEntity
  8
0
  6
Continuous
 62
     7
100
AcDbLine
 10
6293.2687560467
 20
5051.7562555183
 30
0.0
 11
6293.2687560467
 21
5051.6090292517
 31
0.0
  0
LINE
  5
1EA
330
1F
100
AcDbEntity
  8
0
  6
Continuous
 62
     7
100
AcDbLine
 10
6293.2687560467
 20
5051.6090292517
 30
0.0
 11
6193.9758593587
 21
5051.6090292517
 31
0.0
  0
LINE
  5
1EB
330
1F
100
AcDbEntity
  8
0
  6
Continuous
 62
     7
100
AcDbLine
 10
6193.9758593587
 20
5051.6090292517
 30
0.0
 11
6193.9758593587
 21
5051.5618726645
 31
0.0
  0
LINE
  5
1EC
330
1F
100
AcDbEntity
  8
0
  6
Continuous
 62
     7
100
AcDbLine
 10
6193.9758593587
 20
5051.5618726645
 30
0.0
 11
6293.2687560467
 21
5051.5618726645
 31
0.0
  0
LINE
  5
1ED
330
1F
100
AcDbEntity
  8
0
  6
Continuous
 62
     7
100
AcDbLine
 10
6293.2687560467
 20
5051.5618726645
 30
0.0
 11
6293.2687560467
 21
5051.6090292517
 31
0.0
  0
LINE
  5
1EE
330
1F
100
AcDbEntity
  8
0
  6
Continuous
 62
     7
100
AcDbLine
 10
6293.7687551973
 20
5052.1090284023
 30
0.0
 11
6293.7687551973
 21
5052.0618718151
 31
0.0
  0
LINE
  5
1EF
330
1F
100
AcDbEntity
  8
0
  6
Continuous
 62
     7
100
AcDbLine
 10
6365.9187564997
 20
5077.654773559
 30
0.0
 11
6360.9187538175
 21
5077.654773559
 31
0.0
  0
LINE
  5
1F0
330
1F
100
AcDbEntity
  8
0
  6
Continuous
 62
     7
100
AcDbLine
 10
6360.9187538175
 20
5077.654773559
 30
0.0
 11
6360.9187538175
 21
5079.1547738049
 31
0.0
  0
LINE
  5
1F1
330
1F
100
AcDbEntity
  8
0
  6
Continuous
 62
     7
100
AcDbLine
 10
6360.9187538175
 20
5079.1547738049
 30
0.0
 11
6364.4187534599
 21
5079.1547738049
 31
0.0
  0
LINE
  5
1F2
330
1F
100
AcDbEntity
  8
0
  6
Continuous
 62
     7
100
AcDbLine
 10
6360.9187538175
 20
5077.654773559
 30
0.0
 11
6185.9187567977
 21
5077.654773559
 31
0.0
  0
LINE
  5
1F3
330
1F
100
AcDbEntity
  8
0
  6
Continuous
 62
     7
100
AcDbLine
 10
6185.9187567977
 20
5077.654773559
 30
0.0
 11
6185.9187567977
 21
5079.1547738049
 31
0.0
  0
LINE
  5
1F4
330
1F
100
AcDbEntity
  8
0
  6
Continuous
 62
     7
100
AcDbLine
 10
6185.9187567977
 20
5079.1547738049
 30
0.0
 11
6360.9187538175
 21
5079.1547738049
 31
0.0
  0
LINE
  5
1F5
330
1F
100
AcDbEntity
  8
0
  6
Continuous
 62
     7
100
AcDbLine
 10
6365.9187564997
 20
5077.654773559
 30
0.0
 11
6365.9187564997
 21
5067.3547733609
 31
0.0
  0
LINE
  5
1F6
330
1F
100
AcDbEntity
  8
0
  6
Continuous
 62
     7
100
AcDbLine
 10
6182.4187571553
 20
5079.1547738049
 30
0.0
 11
6185.9187567977
 21
5079.1547738049
 31
0.0
  0
LINE
  5
1F7
330
1F
100
AcDbEntity
  8
0
  6
Continuous
 62
     7
100
AcDbLine
 10
6185.9187567977
 20
5077.654773559
 30
0.0
 11
6180.9187541155
 21
5077.654773559
 31
0.0
  0
LINE
  5
1F8
330
1F
100
AcDbEntity
  8
0
  6
Continuous
 62
     7
100
AcDbLine
 10
6180.9187541155
 20
5067.3547733609
 30
0.0
 11
6180.9187541155
 21
5077.654773559
 31
0.0
  0
LINE
  5
1F9
330
1F
100
AcDbEntity
  8
0
  6
Continuous
 62
     7
100
AcDbLine
 10
6164.4187579302
 20
5067.3547733609
 30
0.0
 11
6164.4187559036
 21
5056.3547732566
 31
0.0
  0
LINE
  5
1FA
330
1F
100
AcDbEntity
  8
0
  6
Continuous
 62
     7
100
AcDbLine
 10
6164.4187559036
 20
5056.3547732566
 30
0.0
 11
6163.4187559036
 21
5056.3547734205
 31
0.0
  0
LINE
  5
1FB
330
1F
100
AcDbEntity
  8
0
  6
Continuous
 62
     7
100
AcDbLine
 10
6163.4187559036
 20
5056.3547734205
 30
0.0
 11
6163.4187559036
 21
5067.3547733609
 31
0.0
  0
LINE
  5
1FC
330
1F
100
AcDbEntity
  8
0
  6
Continuous
 62
     7
100
AcDbLine
 10
6163.4187559036
 20
5067.3547733609
 30
0.0
 11
6164.4187579302
 21
5067.3547733609
 31
0.0
  0
LINE
  5
1FD
330
1F
100
AcDbEntity
  8
0
  6
Continuous
 62
     7
100
AcDbLine
 10
6382.4187547116
 20
5056.3547732566
 30
0.0
 11
6382.418752685
 21
5067.3547733609
 31
0.0
  0
LINE
  5
1FE
330
1F
100
AcDbEntity
  8
0
  6
Continuous
 62
     7
100
AcDbLine
 10
6164.4187559036
 20
5056.3547732566
 30
0.0
 11
6382.4187547116
 21
5056.3547732566
 31
0.0
  0
LINE
  5
1FF
330
1F
100
AcDbEntity
  8
0
  6
Continuous
 62
     7
100
AcDbLine
 10
6382.418752685
 20
5067.3547733609
 30
0.0
 11
6164.4187579302
 21
5067.3547733609
 31
0.0
  0
LINE
  5
200
330
1F
100
AcDbEntity
  8
0
  6
Continuous
 62
     7
100
AcDbLine
 10
6383.4187547116
 20
5067.3547733609
 30
0.0
 11
6383.4187547116
 21
5056.3547734205
 31
0.0
  0
LINE
  5
201
330
1F
100
AcDbEntity
  8
0
  6
Continuous
 62
     7
100
AcDbLine
 10
6383.4187547116
 20
5056.3547734205
 30
0.0
 11
6382.4187547116
 21
5056.3547732566
 31
0.0
  0
LINE
  5
202
330
1F
100
AcDbEntity
  8
0
  6
Continuous
 62
     7
100
AcDbLine
 10
6382.418752685
 20
5067.3547733609
 30
0.0
 11
6383.4187547116
 21
5067.3547733609
 31
0.0
  0
LINE
  5
203
330
1F
100
AcDbEntity
  8
0
  6
Continuous
 62
     7
100
AcDbLine
 10
6164.4187559036
 20
5056.3547732566
 30
0.0
 11
6164.4187579302
 21
5055.3547732566
 31
0.0
  0
LINE
  5
204
330
1F
100
AcDbEntity
  8
0
  6
Continuous
 62
     7
100
AcDbLine
 10
6382.418752685
 20
5055.3547732566
 30
0.0
 11
6382.4187547116
 21
5056.3547732566
 31
0.0
  0
LINE
  5
205
330
1F
100
AcDbEntity
  8
0
  6
Continuous
 62
     7
100
AcDbLine
 10
6382.418752685
 20
5055.3547732566
 30
0.0
 11
6164.4187579302
 21
5055.3547732566
 31
0.0
  0
LINE
  5
206
330
1F
100
AcDbEntity
  8
0
  6
Continuous
 62
     7
100
AcDbLine
 10
6355.468758419
 20
5054.8232665319
 30
0.0
 11
6355.468758419
 21
5055.3547732566
 31
0.0
  0
LINE
  5
207
330
1F
100
AcDbEntity
  8
0
  6
Continuous
 62
     7
100
AcDbLine
 10
6294.4687558709
 20
5055.3547732566
 30
0.0
 11
6294.4687558709
 21
5054.8232665319
 31
0.0
  0
LINE
  5
208
330
1F
100
AcDbEntity
  8
0
  6
Continuous
 62
     7
100
AcDbLine
 10
6293.2687560467
 20
5054.823200408
 30
0.0
 11
6293.2687560467
 21
5055.3547732566
 31
0.0
  0
LINE
  5
209
330
1F
100
AcDbEntity
  8
0
  6
Continuous
 62
     7
100
AcDbLine
 10
6191.268757954
 20
5055.3547732566
 30
0.0
 11
6191.268757954
 21
5054.823200408
 31
0.0
  0
LINE
  5
20A
330
1F
100
AcDbEntity
  8
0
  6
Continuous
 62
     7
100
AcDbLine
 10
6360.9187538175
 20
5067.3547733609
 30
0.0
 11
6360.9187538175
 21
5077.654773559
 31
0.0
  0
LINE
  5
20B
330
1F
100
AcDbEntity
  8
0
  6
Continuous
 62
     7
100
AcDbLine
 10
6185.9187567977
 20
5077.654773559
 30
0.0
 11
6185.9187567977
 21
5067.3547733609
 31
0.0
  0
ENDSEC
  0
SECTION
  2
OBJECTS
  0
DICTIONARY
  5
C
330
0
100
AcDbDictionary
281
     1
  3
ACAD_GROUP
350
D
  3
ACAD_LAYOUT
350
1A
  3
ACAD_MLINESTYLE
350
17
  3
ACAD_PLOTSETTINGS
350
19
  3
ACAD_PLOTSTYLENAME
350
E
  3
ACAD_SCALELIST
350
47
  3
DWGPROPS
350
20C
  0
DICTIONARY
  5
D
102
{ACAD_REACTORS
330
C
102
}
330
C
100
AcDbDictionary
281
     1
  0
DICTIONARY
  5
1A
102
{ACAD_REACTORS
330
C
102
}
330
C
100
AcDbDictionary
281
     1
  3
Layout1
350
1E
  3
Layout2
350
26
  3
Model
350
22
  0
DICTIONARY
  5
17
102
{ACAD_REACTORS
330
C
102
}
330
C
100
AcDbDictionary
281
     1
  3
Standard
350
18
  0
DICTIONARY
  5
19
102
{ACAD_REACTORS
330
C
102
}
330
C
100
AcDbDictionary
281
     1
  0
ACDBDICTIONARYWDFLT
  5
E
102
{ACAD_REACTORS
330
C
102
}
330
C
100
AcDbDictionary
281
     1
  3
Normal
350
F
100
AcDbDictionaryWithDefault
340
F
  0
DICTIONARY
  5
47
102
{ACAD_REACTORS
330
C
102
}
330
C
100
AcDbDictionary
281
     1
  3
A0
350
48
  3
A1
350
49
  3
A2
350
4A
  3
A3
350
4B
  3
A4
350
4C
  3
A5
350
4D
  3
A6
350
4E
  3
A7
350
4F
  3
A8
350
50
  3
A9
350
51
  3
B0
350
52
  3
B1
350
53
  3
B2
350
54
  3
B3
350
55
  3
B4
350
56
  3
B5
350
57
  3
B6
350
58
  3
B7
350
59
  3
B8
350
5A
  3
B9
350
5B
  3
C0
350
5C
  3
C1
350
5D
  3
C2
350
5E
  3
C3
350
5F
  3
C4
350
60
  3
C5
350
61
  3
C6
350
62
  3
C7
350
63
  3
C8
350
64
  3
C9
350
65
  3
D0
350
66
  3
D1
350
67
  3
D2
350
68
  0
XRECORD
  5
20C
102
{ACAD_REACTORS
330
C
102
}
330
C
100
AcDbXrecord
280
     1
  1
DWGPROPS COOKIE
  2

  3

  4

  6

  7

  8
radek.stransky
  9

300
=
301
=
302
=
303
=
304
=
305
=
306
=
307
=
308
=
309
=
 40
0.0
 41
2459097.482435741
 42
2459097.482464676
  1

 90
        0
  0
LAYOUT
  5
1E
102
{ACAD_REACTORS
330
1A
102
}
330
1A
100
AcDbPlotSettings
  1

  2
none_device
  4

  6

 40
0.0
 41
0.0
 42
0.0
 43
0.0
 44
0.0
 45
0.0
 46
0.0
 47
0.0
 48
0.0
 49
0.0
140
0.0
141
0.0
142
1.0
143
1.0
 70
   688
 72
     1
 73
     0
 74
     5
  7

 75
    16
147
1.0
148
0.0
149
0.0
100
AcDbLayout
  1
Layout1
 70
     1
 71
     1
 10
0.0
 20
0.0
 11
420.0
 21
297.0
 12
0.0
 22
0.0
 32
0.0
 14
1.0000000000E+20
 24
1.0000000000E+20
 34
1.0000000000E+20
 15
-1.0000000000E+20
 25
-1.0000000000E+20
 35
-1.0000000000E+20
146
0.0
 13
0.0
 23
0.0
 33
0.0
 16
1.0
 26
0.0
 36
0.0
 17
0.0
 27
1.0
 37
0.0
 76
     0
330
1B
  0
LAYOUT
  5
26
102
{ACAD_REACTORS
330
1A
102
}
330
1A
100
AcDbPlotSettings
  1

  2
none_device
  4

  6

 40
0.0
 41
0.0
 42
0.0
 43
0.0
 44
0.0
 45
0.0
 46
0.0
 47
0.0
 48
0.0
 49
0.0
140
0.0
141
0.0
142
1.0
143
1.0
 70
   688
 72
     1
 73
     0
 74
     5
  7

 75
    16
147
1.0
148
0.0
149
0.0
100
AcDbLayout
  1
Layout2
 70
     1
 71
     2
 10
0.0
 20
0.0
 11
0.0
 21
0.0
 12
0.0
 22
0.0
 32
0.0
 14
0.0
 24
0.0
 34
0.0
 15
0.0
 25
0.0
 35
0.0
146
0.0
 13
0.0
 23
0.0
 33
0.0
 16
1.0
 26
0.0
 36
0.0
 17
0.0
 27
1.0
 37
0.0
 76
     0
330
23
  0
LAYOUT
  5
22
102
{ACAD_REACTORS
330
1A
102
}
330
1A
100
AcDbPlotSettings
  1

  2
none_device
  4
ANSI_A_(11.00_x_8.50_Inches)
  6

 40
6.35
 41
19.05
 42
6.35000508
 43
19.05000254
 44
279.4
 45
215.9
 46
-5530.4211360425
 47
-4546.0912889859
 48
0.0
 49
0.0
140
0.0
141
0.0
142
0.0352950406
143
1.0
 70
  1696
 72
     0
 73
     0
 74
     0
  7

 75
     0
147
0.0179189148
148
-1300.4909072572
149
0.0
100
AcDbLayout
  1
Model
 70
     1
 71
     0
 10
0.0
 20
0.0
 11
420.0
 21
297.0
 12
0.0
 22
0.0
 32
0.0
 14
6163.4187559036
 24
5051.5618726645
 34
0.0
 15
6471.9606870494
 25
5288.699457573
 35
0.0
146
0.0
 13
0.0
 23
0.0
 33
0.0
 16
1.0
 26
0.0
 36
0.0
 17
0.0
 27
1.0
 37
0.0
 76
     0
330
1F
331
29
  0
MLINESTYLE
  5
18
102
{ACAD_REACTORS
330
17
102
}
330
17
100
AcDbMlineStyle
  2
Standard
 70
     0
  3

 62
   256
 51
90.0
 52
90.0
 71
     2
 49
0.5
 62
   256
  6
BYLAYER
 49
-0.5
 62
   256
  6
BYLAYER
  0
ACDBPLACEHOLDER
  5
F
102
{ACAD_REACTORS
330
E
102
}
330
E
  0
SCALE
  5
48
102
{ACAD_REACTORS
330
47
102
}
330
47
100
AcDbScale
 70
     0
300
1:1
140
1.0
141
1.0
290
     1
  0
SCALE
  5
49
102
{ACAD_REACTORS
330
47
102
}
330
47
100
AcDbScale
 70
     0
300
1:2
140
1.0
141
2.0
290
     0
  0
SCALE
  5
4A
102
{ACAD_REACTORS
330
47
102
}
330
47
100
AcDbScale
 70
     0
300
1:4
140
1.0
141
4.0
290
     0
  0
SCALE
  5
4B
102
{ACAD_REACTORS
330
47
102
}
330
47
100
AcDbScale
 70
     0
300
1:5
140
1.0
141
5.0
290
     0
  0
SCALE
  5
4C
102
{ACAD_REACTORS
330
47
102
}
330
47
100
AcDbScale
 70
     0
300
1:8
140
1.0
141
8.0
290
     0
  0
SCALE
  5
4D
102
{ACAD_REACTORS
330
47
102
}
330
47
100
AcDbScale
 70
     0
300
1:10
140
1.0
141
10.0
290
     0
  0
SCALE
  5
4E
102
{ACAD_REACTORS
330
47
102
}
330
47
100
AcDbScale
 70
     0
300
1:16
140
1.0
141
16.0
290
     0
  0
SCALE
  5
4F
102
{ACAD_REACTORS
330
47
102
}
330
47
100
AcDbScale
 70
     0
300
1:20
140
1.0
141
20.0
290
     0
  0
SCALE
  5
50
102
{ACAD_REACTORS
330
47
102
}
330
47
100
AcDbScale
 70
     0
300
1:30
140
1.0
141
30.0
290
     0
  0
SCALE
  5
51
102
{ACAD_REACTORS
330
47
102
}
330
47
100
AcDbScale
 70
     0
300
1:40
140
1.0
141
40.0
290
     0
  0
SCALE
  5
52
102
{ACAD_REACTORS
330
47
102
}
330
47
100
AcDbScale
 70
     0
300
1:50
140
1.0
141
50.0
290
     0
  0
SCALE
  5
53
102
{ACAD_REACTORS
330
47
102
}
330
47
100
AcDbScale
 70
     0
300
1:100
140
1.0
141
100.0
290
     0
  0
SCALE
  5
54
102
{ACAD_REACTORS
330
47
102
}
330
47
100
AcDbScale
 70
     0
300
2:1
140
2.0
141
1.0
290
     0
  0
SCALE
  5
55
102
{ACAD_REACTORS
330
47
102
}
330
47
100
AcDbScale
 70
     0
300
4:1
140
4.0
141
1.0
290
     0
  0
SCALE
  5
56
102
{ACAD_REACTORS
330
47
102
}
330
47
100
AcDbScale
 70
     0
300
8:1
140
8.0
141
1.0
290
     0
  0
SCALE
  5
57
102
{ACAD_REACTORS
330
47
102
}
330
47
100
AcDbScale
 70
     0
300
10:1
140
10.0
141
1.0
290
     0
  0
SCALE
  5
58
102
{ACAD_REACTORS
330
47
102
}
330
47
100
AcDbScale
 70
     0
300
100:1
140
100.0
141
1.0
290
     0
  0
SCALE
  5
59
102
{ACAD_REACTORS
330
47
102
}
330
47
100
AcDbScale
 70
     0
300
1/128" = 1'-0"
140
0.0078125
141
12.0
290
     0
  0
SCALE
  5
5A
102
{ACAD_REACTORS
330
47
102
}
330
47
100
AcDbScale
 70
     0
300
1/64" = 1'-0"
140
0.015625
141
12.0
290
     0
  0
SCALE
  5
5B
102
{ACAD_REACTORS
330
47
102
}
330
47
100
AcDbScale
 70
     0
300
1/32" = 1'-0"
140
0.03125
141
12.0
290
     0
  0
SCALE
  5
5C
102
{ACAD_REACTORS
330
47
102
}
330
47
100
AcDbScale
 70
     0
300
1/16" = 1'-0"
140
0.0625
141
12.0
290
     0
  0
SCALE
  5
5D
102
{ACAD_REACTORS
330
47
102
}
330
47
100
AcDbScale
 70
     0
300
3/32" = 1'-0"
140
0.09375
141
12.0
290
     0
  0
SCALE
  5
5E
102
{ACAD_REACTORS
330
47
102
}
330
47
100
AcDbScale
 70
     0
300
1/8" = 1'-0"
140
0.125
141
12.0
290
     0
  0
SCALE
  5
5F
102
{ACAD_REACTORS
330
47
102
}
330
47
100
AcDbScale
 70
     0
300
3/16" = 1'-0"
140
0.1875
141
12.0
290
     0
  0
SCALE
  5
60
102
{ACAD_REACTORS
330
47
102
}
330
47
100
AcDbScale
 70
     0
300
1/4" = 1'-0"
140
0.25
141
12.0
290
     0
  0
SCALE
  5
61
102
{ACAD_REACTORS
330
47
102
}
330
47
100
AcDbScale
 70
     0
300
3/8" = 1'-0"
140
0.375
141
12.0
290
     0
  0
SCALE
  5
62
102
{ACAD_REACTORS
330
47
102
}
330
47
100
AcDbScale
 70
     0
300
1/2" = 1'-0"
140
0.5
141
12.0
290
     0
  0
SCALE
  5
63
102
{ACAD_REACTORS
330
47
102
}
330
47
100
AcDbScale
 70
     0
300
3/4" = 1'-0"
140
0.75
141
12.0
290
     0
  0
SCALE
  5
64
102
{ACAD_REACTORS
330
47
102
}
330
47
100
AcDbScale
 70
     0
300
1" = 1'-0"
140
1.0
141
12.0
290
     0
  0
SCALE
  5
65
102
{ACAD_REACTORS
330
47
102
}
330
47
100
AcDbScale
 70
     0
300
1-1/2" = 1'-0"
140
1.5
141
12.0
290
     0
  0
SCALE
  5
66
102
{ACAD_REACTORS
330
47
102
}
330
47
100
AcDbScale
 70
     0
300
3" = 1'-0"
140
3.0
141
12.0
290
     0
  0
SCALE
  5
67
102
{ACAD_REACTORS
330
47
102
}
330
47
100
AcDbScale
 70
     0
300
6" = 1'-0"
140
6.0
141
12.0
290
     0
  0
SCALE
  5
68
102
{ACAD_REACTORS
330
47
102
}
330
47
100
AcDbScale
 70
     0
300
1'-0" = 1'-0"
140
12.0
141
12.0
290
     0
  0
ENDSEC
  0
EOF
