  0
SECTION
  2
HEADER
  9
$ACADVER
  1
AC1015
  9
$ACADMAINTVER
 70
     6
  9
$DWGCODEPAGE
  3
ANSI_1250
  9
$INSBASE
 10
0.0
 20
0.0
 30
0.0
  9
$EXTMIN
 10
5374.0158081055
 20
4120.1164956505
 30
0.0
  9
$EXTMAX
 10
8058.983182806
 20
5421.1994609339
 30
0.0
  9
$LIMMIN
 10
0.0
 20
0.0
  9
$LIMMAX
 10
420.0
 20
297.0
  9
$ORTHOMODE
 70
     0
  9
$REGENMODE
 70
     1
  9
$FILLMODE
 70
     1
  9
$QTEXTMODE
 70
     0
  9
$MIRRTEXT
 70
     1
  9
$LTSCALE
 40
1.0
  9
$ATTMODE
 70
     1
  9
$TEXTSIZE
 40
3.5
  9
$TRACEWID
 40
1.0
  9
$TEXTSTYLE
  7
Standard
  9
$CLAYER
  8
0
  9
$CELTYPE
  6
ByLayer
  9
$CECOLOR
 62
   256
  9
$CELTSCALE
 40
1.0
  9
$DISPSILH
 70
     0
  9
$DIMSCALE
 40
1.0
  9
$DIMASZ
 40
3.302
  9
$DIMEXO
 40
0.0
  9
$DIMDLI
 40
3.75
  9
$DIMRND
 40
0.0
  9
$DIMDLE
 40
0.0
  9
$DIMEXE
 40
1.0
  9
$DIMTP
 40
0.0
  9
$DIMTM
 40
0.0
  9
$DIMTXT
 40
3.5
  9
$DIMCEN
 40
2.5
  9
$DIMTSZ
 40
0.0
  9
$DIMTOL
 70
     0
  9
$DIMLIM
 70
     0
  9
$DIMTIH
 70
     1
  9
$DIMTOH
 70
     1
  9
$DIMSE1
 70
     0
  9
$DIMSE2
 70
     0
  9
$DIMTAD
 70
     1
  9
$DIMZIN
 70
     0
  9
$DIMBLK
  1

  9
$DIMASO
 70
     1
  9
$DIMSHO
 70
     1
  9
$DIMPOST
  1

  9
$DIMAPOST
  1

  9
$DIMALT
 70
     0
  9
$DIMALTD
 70
     3
  9
$DIMALTF
 40
0.0393700787
  9
$DIMLFAC
 40
1.0
  9
$DIMTOFL
 70
     1
  9
$DIMTVP
 40
0.0
  9
$DIMTIX
 70
     0
  9
$DIMSOXD
 70
     0
  9
$DIMSAH
 70
     0
  9
$DIMBLK1
  1

  9
$DIMBLK2
  1

  9
$DIMSTYLE
  2
ISO-25
  9
$DIMCLRD
 70
     0
  9
$DIMCLRE
 70
     0
  9
$DIMCLRT
 70
     0
  9
$DIMTFAC
 40
1.0
  9
$DIMGAP
 40
1.524
  9
$DIMJUST
 70
     0
  9
$DIMSD1
 70
     0
  9
$DIMSD2
 70
     0
  9
$DIMTOLJ
 70
     0
  9
$DIMTZIN
 70
     0
  9
$DIMALTZ
 70
     0
  9
$DIMALTTZ
 70
     0
  9
$DIMUPT
 70
     0
  9
$DIMDEC
 70
     2
  9
$DIMTDEC
 70
     2
  9
$DIMALTU
 70
     2
  9
$DIMALTTD
 70
     3
  9
$DIMTXSTY
  7
Standard
  9
$DIMAUNIT
 70
     0
  9
$DIMADEC
 70
     2
  9
$DIMALTRND
 40
0.0
  9
$DIMAZIN
 70
     0
  9
$DIMDSEP
 70
    44
  9
$DIMATFIT
 70
     3
  9
$DIMFRAC
 70
     0
  9
$DIMLDRBLK
  1

  9
$DIMLUNIT
 70
     2
  9
$DIMLWD
 70
    -2
  9
$DIMLWE
 70
    -2
  9
$DIMTMOVE
 70
     0
  9
$LUNITS
 70
     2
  9
$LUPREC
 70
     2
  9
$SKETCHINC
 40
1.0
  9
$FILLETRAD
 40
10.0
  9
$AUNITS
 70
     0
  9
$AUPREC
 70
     2
  9
$MENU
  1
.
  9
$ELEVATION
 40
0.0
  9
$PELEVATION
 40
0.0
  9
$THICKNESS
 40
0.0
  9
$LIMCHECK
 70
     0
  9
$CHAMFERA
 40
0.0
  9
$CHAMFERB
 40
0.0
  9
$CHAMFERC
 40
0.0
  9
$CHAMFERD
 40
0.0
  9
$SKPOLY
 70
     0
  9
$TDCREATE
 40
2459096.415611516
  9
$TDUCREATE
 40
2459096.332278183
  9
$TDUPDATE
 40
2459096.41563993
  9
$TDUUPDATE
 40
2459096.332306597
  9
$TDINDWG
 40
0.0000000116
  9
$TDUSRTIMER
 40
0.0000000116
  9
$USRTIMER
 70
     1
  9
$ANGBASE
 50
0.0
  9
$ANGDIR
 70
     0
  9
$PDMODE
 70
     0
  9
$PDSIZE
 40
-1.0
  9
$PLINEWID
 40
0.0
  9
$SPLFRAME
 70
     0
  9
$SPLINETYPE
 70
     6
  9
$SPLINESEGS
 70
     8
  9
$HANDSEED
  5
37E
  9
$SURFTAB1
 70
     6
  9
$SURFTAB2
 70
     6
  9
$SURFTYPE
 70
     6
  9
$SURFU
 70
     6
  9
$SURFV
 70
     6
  9
$UCSBASE
  2

  9
$UCSNAME
  2

  9
$UCSORG
 10
0.0
 20
0.0
 30
0.0
  9
$UCSXDIR
 10
1.0
 20
0.0
 30
0.0
  9
$UCSYDIR
 10
0.0
 20
1.0
 30
0.0
  9
$UCSORTHOREF
  2

  9
$UCSORTHOVIEW
 70
     0
  9
$UCSORGTOP
 10
0.0
 20
0.0
 30
0.0
  9
$UCSORGBOTTOM
 10
0.0
 20
0.0
 30
0.0
  9
$UCSORGLEFT
 10
0.0
 20
0.0
 30
0.0
  9
$UCSORGRIGHT
 10
0.0
 20
0.0
 30
0.0
  9
$UCSORGFRONT
 10
0.0
 20
0.0
 30
0.0
  9
$UCSORGBACK
 10
0.0
 20
0.0
 30
0.0
  9
$PUCSBASE
  2

  9
$PUCSNAME
  2

  9
$PUCSORG
 10
0.0
 20
0.0
 30
0.0
  9
$PUCSXDIR
 10
1.0
 20
0.0
 30
0.0
  9
$PUCSYDIR
 10
0.0
 20
1.0
 30
0.0
  9
$PUCSORTHOREF
  2

  9
$PUCSORTHOVIEW
 70
     0
  9
$PUCSORGTOP
 10
0.0
 20
0.0
 30
0.0
  9
$PUCSORGBOTTOM
 10
0.0
 20
0.0
 30
0.0
  9
$PUCSORGLEFT
 10
0.0
 20
0.0
 30
0.0
  9
$PUCSORGRIGHT
 10
0.0
 20
0.0
 30
0.0
  9
$PUCSORGFRONT
 10
0.0
 20
0.0
 30
0.0
  9
$PUCSORGBACK
 10
0.0
 20
0.0
 30
0.0
  9
$USERI1
 70
     0
  9
$USERI2
 70
     0
  9
$USERI3
 70
     0
  9
$USERI4
 70
     0
  9
$USERI5
 70
     0
  9
$USERR1
 40
0.0
  9
$USERR2
 40
0.0
  9
$USERR3
 40
0.0
  9
$USERR4
 40
0.0
  9
$USERR5
 40
0.0
  9
$WORLDVIEW
 70
     1
  9
$SHADEDGE
 70
     3
  9
$SHADEDIF
 70
    70
  9
$TILEMODE
 70
     1
  9
$MAXACTVP
 70
    64
  9
$PINSBASE
 10
0.0
 20
0.0
 30
0.0
  9
$PLIMCHECK
 70
     0
  9
$PEXTMIN
 10
1.0000000000E+20
 20
1.0000000000E+20
 30
1.0000000000E+20
  9
$PEXTMAX
 10
-1.0000000000E+20
 20
-1.0000000000E+20
 30
-1.0000000000E+20
  9
$PLIMMIN
 10
0.0
 20
0.0
  9
$PLIMMAX
 10
420.0
 20
297.0
  9
$UNITMODE
 70
     0
  9
$VISRETAIN
 70
     1
  9
$PLINEGEN
 70
     0
  9
$PSLTSCALE
 70
     1
  9
$TREEDEPTH
 70
  3020
  9
$CMLSTYLE
  2
Standard
  9
$CMLJUST
 70
     0
  9
$CMLSCALE
 40
20.0
  9
$PROXYGRAPHICS
 70
     1
  9
$MEASUREMENT
 70
     1
  9
$CELWEIGHT
370
    -1
  9
$ENDCAPS
280
     0
  9
$JOINSTYLE
280
     0
  9
$LWDISPLAY
290
     1
  9
$INSUNITS
 70
     4
  9
$HYPERLINKBASE
  1

  9
$STYLESHEET
  1

  9
$XEDIT
290
     1
  9
$CEPSNTYPE
380
     0
  9
$PSTYLEMODE
290
     1
  9
$FINGERPRINTGUID
  2
{afab4a1b-4cba-4f63-ba9c-23b63b73f445}
  9
$VERSIONGUID
  2
{FAEB1C32-E019-11D5-929B-00C0DF256EC4}
  9
$EXTNAMES
290
     1
  9
$PSVPSCALE
 40
0.0
  9
$OLESTARTUP
290
     0
  0
ENDSEC
  0
SECTION
  2
CLASSES
  0
CLASS
  1
ACDBDICTIONARYWDFLT
  2
AcDbDictionaryWithDefault
  3
ObjectDBX Classes
 90
        0
280
     0
281
     0
  0
CLASS
  1
VISUALSTYLE
  2
AcDbVisualStyle
  3
ObjectDBX Classes
 90
     4095
280
     0
281
     0
  0
CLASS
  1
MATERIAL
  2
AcDbMaterial
  3
ObjectDBX Classes
 90
     1153
280
     0
281
     0
  0
CLASS
  1
SCALE
  2
AcDbScale
  3
ObjectDBX Classes
 90
     1153
280
     0
281
     0
  0
CLASS
  1
TABLESTYLE
  2
AcDbTableStyle
  3
ObjectDBX Classes
 90
     4095
280
     0
281
     0
  0
CLASS
  1
MLEADERSTYLE
  2
AcDbMLeaderStyle
  3
ACDB_MLEADERSTYLE_CLASS
 90
     4095
280
     0
281
     0
  0
CLASS
  1
SUN
  2
AcDbSun
  3
SCENEOE
 90
     1153
280
     0
281
     0
  0
CLASS
  1
ACDBPLACEHOLDER
  2
AcDbPlaceHolder
  3
ObjectDBX Classes
 90
        0
280
     0
281
     0
  0
CLASS
  1
LAYOUT
  2
AcDbLayout
  3
ObjectDBX Classes
 90
        0
280
     0
281
     0
  0
ENDSEC
  0
SECTION
  2
TABLES
  0
TABLE
  2
VPORT
  5
8
330
0
100
AcDbSymbolTable
 70
     1
  0
VPORT
  5
29
330
8
100
AcDbSymbolTableRecord
100
AcDbViewportTableRecord
  2
*Active
 70
     0
 10
0.0
 20
0.0
 11
1.0
 21
1.0
 12
6716.4994954557
 22
4770.6579782922
 13
0.0
 23
0.0
 14
10.0
 24
10.0
 15
10.0
 25
10.0
 16
0.0
 26
0.0
 36
1.0
 17
0.0
 27
0.0
 37
0.0
 40
1327.1046245891
 41
2.0636404029
 42
50.0
 43
0.0
 44
0.0
 50
0.0
 51
0.0
 71
     0
 72
   100
 73
     1
 74
     3
 75
     0
 76
     0
 77
     0
 78
     0
281
     0
 65
     1
110
0.0
120
0.0
130
0.0
111
1.0
121
0.0
131
0.0
112
0.0
122
1.0
132
0.0
 79
     0
146
0.0
  0
ENDTAB
  0
TABLE
  2
LTYPE
  5
5
330
0
100
AcDbSymbolTable
 70
     6
  0
LTYPE
  5
14
330
5
100
AcDbSymbolTableRecord
100
AcDbLinetypeTableRecord
  2
ByBlock
 70
     0
  3

 72
    65
 73
     0
 40
0.0
  0
LTYPE
  5
15
330
5
100
AcDbSymbolTableRecord
100
AcDbLinetypeTableRecord
  2
ByLayer
 70
     0
  3

 72
    65
 73
     0
 40
0.0
  0
LTYPE
  5
16
330
5
100
AcDbSymbolTableRecord
100
AcDbLinetypeTableRecord
  2
Continuous
 70
     0
  3
Solid line
 72
    65
 73
     0
 40
0.0
  0
LTYPE
  5
6E
330
5
100
AcDbSymbolTableRecord
100
AcDbLinetypeTableRecord
  2
HIDDEN
 70
     0
  3
Hidden __ __ __ __ __ __ __ __ __ __ __ __ __ __
 72
    65
 73
     2
 40
1.905
 49
1.27
 74
     0
 49
-0.635
 74
     0
  0
LTYPE
  5
6F
330
5
100
AcDbSymbolTableRecord
100
AcDbLinetypeTableRecord
  2
PHANTOM
 70
     0
  3
Phantom ______  __  __  ______  __  __  ______
 72
    65
 73
     6
 40
12.7
 49
6.35
 74
     0
 49
-1.27
 74
     0
 49
1.27
 74
     0
 49
-1.27
 74
     0
 49
1.27
 74
     0
 49
-1.27
 74
     0
  0
LTYPE
  5
70
330
5
100
AcDbSymbolTableRecord
100
AcDbLinetypeTableRecord
  2
CENTER
 70
     0
  3
Center ____ _ ____ _ ____ _ ____ _ ____ _ ____
 72
    65
 73
     4
 40
10.16
 49
6.35
 74
     0
 49
-1.27
 74
     0
 49
1.27
 74
     0
 49
-1.27
 74
     0
  0
LTYPE
  5
71
330
5
100
AcDbSymbolTableRecord
100
AcDbLinetypeTableRecord
  2
CENTERX2
 70
     0
  3
Center (2x) ________  __  ________  __  _____
 72
    65
 73
     4
 40
20.32
 49
12.7
 74
     0
 49
-2.54
 74
     0
 49
2.54
 74
     0
 49
-2.54
 74
     0
  0
LTYPE
  5
72
330
5
100
AcDbSymbolTableRecord
100
AcDbLinetypeTableRecord
  2
DOT2
 70
     0
  3
Dot (.5x) ........................................
 72
    65
 73
     2
 40
0.635
 49
0.0
 74
     0
 49
-0.635
 74
     0
  0
ENDTAB
  0
TABLE
  2
LAYER
  5
2
330
0
100
AcDbSymbolTable
 70
     1
  0
LAYER
  5
10
330
2
100
AcDbSymbolTableRecord
100
AcDbLayerTableRecord
  2
0
 70
     0
 62
     7
  6
Continuous
370
    -3
390
F
  0
ENDTAB
  0
TABLE
  2
STYLE
  5
3
330
0
100
AcDbSymbolTable
 70
     1
  0
STYLE
  5
11
330
3
100
AcDbSymbolTableRecord
100
AcDbTextStyleTableRecord
  2
Standard
 70
     0
 40
0.0
 41
1.0
 50
0.0
 71
     0
 42
3.5
  3
txt
  4

  0
ENDTAB
  0
TABLE
  2
VIEW
  5
6
330
0
100
AcDbSymbolTable
 70
     0
  0
ENDTAB
  0
TABLE
  2
UCS
  5
7
330
0
100
AcDbSymbolTable
 70
     0
  0
ENDTAB
  0
TABLE
  2
APPID
  5
9
330
0
100
AcDbSymbolTable
 70
     1
  0
APPID
  5
12
330
9
100
AcDbSymbolTableRecord
100
AcDbRegAppTableRecord
  2
ACAD
 70
     0
  0
ENDTAB
  0
TABLE
  2
DIMSTYLE
  5
A
330
0
100
AcDbSymbolTable
 70
     1
100
AcDbDimStyleTable
  0
DIMSTYLE
105
27
330
A
100
AcDbSymbolTableRecord
100
AcDbDimStyleTableRecord
  2
ISO-25
 70
     0
 41
2.5
 42
0.625
 43
3.75
 44
1.25
 73
     0
 74
     0
 77
     1
 78
     8
140
2.5
141
2.5
143
0.0393700787
147
0.625
171
     3
172
     1
178
     0
271
     2
272
     2
274
     3
278
    44
283
     0
284
     8
340
11
  0
ENDTAB
  0
TABLE
  2
BLOCK_RECORD
  5
1
330
0
100
AcDbSymbolTable
 70
     1
  0
BLOCK_RECORD
  5
1F
330
1
100
AcDbSymbolTableRecord
100
AcDbBlockTableRecord
  2
*Model_Space
340
22
  0
BLOCK_RECORD
  5
1B
330
1
100
AcDbSymbolTableRecord
100
AcDbBlockTableRecord
  2
*Paper_Space
340
1E
  0
BLOCK_RECORD
  5
23
330
1
100
AcDbSymbolTableRecord
100
AcDbBlockTableRecord
  2
*Paper_Space0
340
26
  0
ENDTAB
  0
ENDSEC
  0
SECTION
  2
BLOCKS
  0
BLOCK
  5
20
330
1F
100
AcDbEntity
  8
0
100
AcDbBlockBegin
  2
*Model_Space
 70
     0
 10
0.0
 20
0.0
 30
0.0
  3
*Model_Space
  1

  0
ENDBLK
  5
21
330
1F
100
AcDbEntity
  8
0
100
AcDbBlockEnd
  0
BLOCK
  5
1C
330
1B
100
AcDbEntity
 67
     1
  8
0
100
AcDbBlockBegin
  2
*Paper_Space
 70
     0
 10
0.0
 20
0.0
 30
0.0
  3
*Paper_Space
  1

  0
ENDBLK
  5
1D
330
1B
100
AcDbEntity
 67
     1
  8
0
100
AcDbBlockEnd
  0
BLOCK
  5
24
330
23
100
AcDbEntity
  8
0
100
AcDbBlockBegin
  2
*Paper_Space0
 70
     0
 10
0.0
 20
0.0
 30
0.0
  3
*Paper_Space0
  1

  0
ENDBLK
  5
25
330
23
100
AcDbEntity
  8
0
100
AcDbBlockEnd
  0
ENDSEC
  0
SECTION
  2
ENTITIES
  0
ARC
  5
73
330
1F
100
AcDbEntity
  8
0
  6
Continuous
 62
     7
100
AcDbCircle
 10
7171.0187905537
 20
5378.1994534047
 30
0.0
 40
3.000000000001825
100
AcDbArc
 50
0.0000447594
 51
90.0004007057
  0
ARC
  5
74
330
1F
100
AcDbEntity
  8
0
  6
Continuous
 62
     7
100
AcDbCircle
 10
5377.0187786327
 20
5378.1994534048
 30
0.0
 40
3.000000000001251
100
AcDbArc
 50
90.0007376602
 51
179.9999552428
  0
ARC
  5
75
330
1F
100
AcDbEntity
  8
0
  6
Continuous
 62
     7
100
AcDbCircle
 10
7171.0187905537
 20
5378.1994534047
 30
0.0
 40
5.000002837107752
100
AcDbArc
 50
53.1301162869
 51
90.0002404232
  0
ARC
  5
76
330
1F
100
AcDbEntity
  8
0
  6
Continuous
 62
     7
100
AcDbCircle
 10
5377.0187786327
 20
5378.1994534048
 30
0.0
 40
5.000002837037777
100
AcDbArc
 50
90.0004425959
 51
126.8698837144
  0
ARC
  5
77
330
1F
100
AcDbEntity
  8
0
  6
Continuous
 62
     7
100
AcDbCircle
 10
7562.1831351223
 20
5383.1994534045
 30
0.0
 40
2.000000000000737
100
AcDbArc
 50
179.9999659613
 51
269.9995027615
  0
ARC
  5
78
330
1F
100
AcDbEntity
  8
0
  6
Continuous
 62
     7
100
AcDbCircle
 10
8055.983182806
 20
5378.1994534047
 30
0.0
 40
3.000000000001223
100
AcDbArc
 50
0.0000261809
 51
90.0004007056
  0
ARC
  5
79
330
1F
100
AcDbEntity
  8
0
  6
Continuous
 62
     7
100
AcDbCircle
 10
6874.0646787375
 20
4499.0961048585
 30
0.0
 40
8.552641741588985
100
AcDbArc
 50
275.0216404783
 51
299.4042997256
  0
ARC
  5
7A
330
1F
100
AcDbEntity
  8
0
  6
Continuous
 62
     7
100
AcDbCircle
 10
6874.0646787375
 20
4499.0961048585
 30
0.0
 40
8.55264827101809
100
AcDbArc
 50
240.5631073185
 51
264.9598208193
  0
ARC
  5
7B
330
1F
100
AcDbEntity
  8
0
  6
Continuous
 62
     7
100
AcDbCircle
 10
5674.06473147
 20
4499.096111063
 30
0.0
 40
8.552641741589943
100
AcDbArc
 50
275.0211655998
 51
299.4042150662
  0
ARC
  5
7C
330
1F
100
AcDbEntity
  8
0
  6
Continuous
 62
     7
100
AcDbCircle
 10
5674.0646534177
 20
4499.0961015588
 30
0.0
 40
8.552641741589204
100
AcDbArc
 50
240.5631398528
 51
264.9599878432
  0
ARC
  5
7D
330
1F
100
AcDbEntity
  8
0
  6
Continuous
 62
     7
100
AcDbCircle
 10
6274.0647078562
 20
4499.0961095119
 30
0.0
 40
8.552641741589923
100
AcDbArc
 50
275.0212843182
 51
299.4042362301
  0
ARC
  5
7E
330
1F
100
AcDbEntity
  8
0
  6
Continuous
 62
     7
100
AcDbCircle
 10
6274.0646463532
 20
4499.0961021818
 30
0.0
 40
8.552641741588918
100
AcDbArc
 50
240.5631483455
 51
264.9600353537
  0
ARC
  5
7F
330
1F
100
AcDbEntity
  8
0
  6
Continuous
 62
     7
100
AcDbCircle
 10
6874.0554728946
 20
4452.9698966582
 30
0.0
 40
43.43926986621042
100
AcDbArc
 50
75.0436506685
 51
104.9368411167
  0
ARC
  5
80
330
1F
100
AcDbEntity
  8
0
  6
Continuous
 62
     7
100
AcDbCircle
 10
6874.627000923
 20
4531.2528997524
 30
0.0
 40
40.3366262012606
100
AcDbArc
 50
272.9977178979
 51
285.2951069276
  0
ARC
  5
81
330
1F
100
AcDbEntity
  8
0
  6
Continuous
 62
     7
100
AcDbCircle
 10
6873.5185408221
 20
4531.2878070197
 30
0.0
 40
40.37153977413004
100
AcDbArc
 50
254.6916359859
 51
266.9776280036
  0
ARC
  5
82
330
1F
100
AcDbEntity
  8
0
  6
Continuous
 62
     7
100
AcDbCircle
 10
5674.0554848355
 20
4452.9701255528
 30
0.0
 40
43.43904102938487
100
AcDbArc
 50
75.0436107534
 51
104.9368809799
  0
ARC
  5
83
330
1F
100
AcDbEntity
  8
0
  6
Continuous
 62
     7
100
AcDbCircle
 10
5674.6270128439
 20
4531.2528997524
 30
0.0
 40
40.33662620126051
100
AcDbArc
 50
272.9977178979
 51
285.2951069276
  0
ARC
  5
84
330
1F
100
AcDbEntity
  8
0
  6
Continuous
 62
     7
100
AcDbCircle
 10
5673.5187895061
 20
4531.2895052688
 30
0.0
 40
40.37324814484835
100
AcDbArc
 50
254.6919074044
 51
266.9774195414
  0
ARC
  5
85
330
1F
100
AcDbEntity
  8
0
  6
Continuous
 62
     7
100
AcDbCircle
 10
6274.055478865
 20
4452.9700111056
 30
0.0
 40
43.43915544773795
100
AcDbArc
 50
75.0436307109
 51
104.9368610483
  0
ARC
  5
86
330
1F
100
AcDbEntity
  8
0
  6
Continuous
 62
     7
100
AcDbCircle
 10
6274.6270899781
 20
4531.2522682167
 30
0.0
 40
40.33599118425892
100
AcDbArc
 50
272.99764694
 51
285.2952092981
  0
ARC
  5
87
330
1F
100
AcDbEntity
  8
0
  6
Continuous
 62
     7
100
AcDbCircle
 10
6273.5188581246
 20
4531.2899444558
 30
0.0
 40
40.37369143913991
100
AcDbArc
 50
254.6919698698
 51
266.9773255981
  0
ARC
  5
88
330
1F
100
AcDbEntity
  8
0
  6
Continuous
 62
     7
100
AcDbCircle
 10
6874.0187553361
 20
4340.1165433343
 30
0.0
 40
15.00000000000091
100
AcDbArc
 50
270.0
 51
289.4629506361
  0
ARC
  5
89
330
1F
100
AcDbEntity
  8
0
  6
Continuous
 62
     7
100
AcDbCircle
 10
6874.0187553361
 20
4340.1165433343
 30
0.0
 40
14.9999999999989
100
AcDbArc
 50
310.5370498333
 51
349.4629501775
  0
ARC
  5
8A
330
1F
100
AcDbEntity
  8
0
  6
Continuous
 62
     7
100
AcDbCircle
 10
6874.0187553361
 20
4340.1165433343
 30
0.0
 40
14.99999999999782
100
AcDbArc
 50
10.5370511965
 51
49.4629488336
  0
ARC
  5
8B
330
1F
100
AcDbEntity
  8
0
  6
Continuous
 62
     7
100
AcDbCircle
 10
6874.0187553361
 20
4340.1165433343
 30
0.0
 40
15.00000000000016
100
AcDbArc
 50
70.5370490312
 51
109.4629509683
  0
ARC
  5
8C
330
1F
100
AcDbEntity
  8
0
  6
Continuous
 62
     7
100
AcDbCircle
 10
6874.0187553361
 20
4340.1165433343
 30
0.0
 40
15.00000000000334
100
AcDbArc
 50
130.537049981
 51
169.4629500058
  0
ARC
  5
8D
330
1F
100
AcDbEntity
  8
0
  6
Continuous
 62
     7
100
AcDbCircle
 10
6874.0187553361
 20
4340.1165433343
 30
0.0
 40
15.00000000000344
100
AcDbArc
 50
190.5370497741
 51
229.4629502157
  0
ARC
  5
8E
330
1F
100
AcDbEntity
  8
0
  6
Continuous
 62
     7
100
AcDbCircle
 10
6874.0187553361
 20
4340.1165433343
 30
0.0
 40
15.0000000000016
100
AcDbArc
 50
250.5370493566
 51
270.0
  0
ARC
  5
8F
330
1F
100
AcDbEntity
  8
0
  6
Continuous
 62
     7
100
AcDbCircle
 10
6274.0187553361
 20
4340.1165433343
 30
0.0
 40
15.00000000000005
100
AcDbArc
 50
270.0
 51
289.4629509302
  0
ARC
  5
90
330
1F
100
AcDbEntity
  8
0
  6
Continuous
 62
     7
100
AcDbCircle
 10
6274.0187553361
 20
4340.1165433343
 30
0.0
 40
15.00000000000247
100
AcDbArc
 50
310.5370490923
 51
349.4629509082
  0
ARC
  5
91
330
1F
100
AcDbEntity
  8
0
  6
Continuous
 62
     7
100
AcDbCircle
 10
6274.0187553361
 20
4340.1165433343
 30
0.0
 40
15.0000000000003
100
AcDbArc
 50
10.5370481821
 51
49.4629518057
  0
ARC
  5
92
330
1F
100
AcDbEntity
  8
0
  6
Continuous
 62
     7
100
AcDbCircle
 10
6274.0187553361
 20
4340.1165433343
 30
0.0
 40
15.00000000000068
100
AcDbArc
 50
70.5370490621
 51
109.4629509386
  0
ARC
  5
93
330
1F
100
AcDbEntity
  8
0
  6
Continuous
 62
     7
100
AcDbCircle
 10
6274.0187553361
 20
4340.1165433343
 30
0.0
 40
15.00000000000029
100
AcDbArc
 50
130.5370493496
 51
169.4629506462
  0
ARC
  5
94
330
1F
100
AcDbEntity
  8
0
  6
Continuous
 62
     7
100
AcDbCircle
 10
6274.0187553361
 20
4340.1165433343
 30
0.0
 40
15.00000000000018
100
AcDbArc
 50
190.5370493708
 51
229.4629506247
  0
ARC
  5
95
330
1F
100
AcDbEntity
  8
0
  6
Continuous
 62
     7
100
AcDbCircle
 10
6274.0187553361
 20
4340.1165433343
 30
0.0
 40
15.0
100
AcDbArc
 50
250.5370490685
 51
270.0
  0
ARC
  5
96
330
1F
100
AcDbEntity
  8
0
  6
Continuous
 62
     7
100
AcDbCircle
 10
5674.0187553361
 20
4340.1165433343
 30
0.0
 40
15.0
100
AcDbArc
 50
270.0
 51
289.4629508889
  0
ARC
  5
97
330
1F
100
AcDbEntity
  8
0
  6
Continuous
 62
     7
100
AcDbCircle
 10
5674.0187553361
 20
4340.1165433343
 30
0.0
 40
15.00000000000034
100
AcDbArc
 50
310.5370492636
 51
349.4629507393
  0
ARC
  5
98
330
1F
100
AcDbEntity
  8
0
  6
Continuous
 62
     7
100
AcDbCircle
 10
5674.0187553361
 20
4340.1165433343
 30
0.0
 40
14.99999999999993
100
AcDbArc
 50
10.5370487679
 51
49.4629512281
  0
ARC
  5
99
330
1F
100
AcDbEntity
  8
0
  6
Continuous
 62
     7
100
AcDbCircle
 10
5674.0187553361
 20
4340.1165433343
 30
0.0
 40
15.0000000000002
100
AcDbArc
 50
70.5370490835
 51
109.4629509148
  0
ARC
  5
9A
330
1F
100
AcDbEntity
  8
0
  6
Continuous
 62
     7
100
AcDbCircle
 10
5674.0187553361
 20
4340.1165433343
 30
0.0
 40
15.0000000000006
100
AcDbArc
 50
130.5370494219
 51
169.4629505729
  0
ARC
  5
9B
330
1F
100
AcDbEntity
  8
0
  6
Continuous
 62
     7
100
AcDbCircle
 10
5674.0187553361
 20
4340.1165433343
 30
0.0
 40
14.99999999999932
100
AcDbArc
 50
190.5370510487
 51
229.4629489232
  0
ARC
  5
9C
330
1F
100
AcDbEntity
  8
0
  6
Continuous
 62
     7
100
AcDbCircle
 10
5674.0187553361
 20
4340.1165433343
 30
0.0
 40
15.00000000000023
100
AcDbArc
 50
250.5370491144
 51
270.0
  0
ARC
  5
9D
330
1F
100
AcDbEntity
  8
0
  6
Continuous
 62
     7
100
AcDbCircle
 10
6874.0601195841
 20
4482.8306771929
 30
0.0
 40
12.36508877365847
100
AcDbArc
 50
86.5136174621
 51
93.4681681099
  0
ARC
  5
9E
330
1F
100
AcDbEntity
  8
0
  6
Continuous
 62
     7
100
AcDbCircle
 10
6874.0657763453
 20
4503.1521094432
 30
0.0
 40
12.39384863425414
100
AcDbArc
 50
266.5216963454
 51
273.4600892216
  0
ARC
  5
9F
330
1F
100
AcDbEntity
  8
0
  6
Continuous
 62
     7
100
AcDbCircle
 10
6274.0187553361
 20
4340.1165433343
 30
0.0
 40
5.250000000000943
100
AcDbArc
 50
278.2132107017
 51
81.7867892983
  0
ARC
  5
A0
330
1F
100
AcDbEntity
  8
0
  6
Continuous
 62
     7
100
AcDbCircle
 10
6274.0187553361
 20
4340.1165433343
 30
0.0
 40
5.250000000000943
100
AcDbArc
 50
98.2132107017
 51
261.7867892983
  0
ARC
  5
A1
330
1F
100
AcDbEntity
  8
0
  6
Continuous
 62
     7
100
AcDbCircle
 10
6274.0187553361
 20
4340.1165433343
 30
0.0
 40
5.250000000000043
100
AcDbArc
 50
81.7867892983
 51
98.2132107017
  0
ARC
  5
A2
330
1F
100
AcDbEntity
  8
0
  6
Continuous
 62
     7
100
AcDbCircle
 10
6274.0187553361
 20
4340.1165433343
 30
0.0
 40
5.250000000000943
100
AcDbArc
 50
261.7867892983
 51
278.2132107017
  0
ARC
  5
A3
330
1F
100
AcDbEntity
  8
0
  6
Continuous
 62
     7
100
AcDbCircle
 10
5674.0601165822
 20
4482.8302960485
 30
0.0
 40
12.36547012010691
100
AcDbArc
 50
86.5136558402
 51
93.4681300937
  0
ARC
  5
A4
330
1F
100
AcDbEntity
  8
0
  6
Continuous
 62
     7
100
AcDbCircle
 10
5674.0657734218
 20
4503.1527123606
 30
0.0
 40
12.39445134850054
100
AcDbArc
 50
266.5217964222
 51
273.4599895074
  0
ARC
  5
A5
330
1F
100
AcDbEntity
  8
0
  6
Continuous
 62
     7
100
AcDbCircle
 10
5674.0187553361
 20
4340.1165433343
 30
0.0
 40
5.250000000000943
100
AcDbArc
 50
98.2132107017
 51
261.7867892983
  0
ARC
  5
A6
330
1F
100
AcDbEntity
  8
0
  6
Continuous
 62
     7
100
AcDbCircle
 10
5674.0187553361
 20
4340.1165433343
 30
0.0
 40
5.250000000001073
100
AcDbArc
 50
278.2132107017
 51
81.7867892983
  0
ARC
  5
A7
330
1F
100
AcDbEntity
  8
0
  6
Continuous
 62
     7
100
AcDbCircle
 10
5674.0187553361
 20
4340.1165433343
 30
0.0
 40
5.250000000000173
100
AcDbArc
 50
81.7867892983
 51
98.2132107017
  0
ARC
  5
A8
330
1F
100
AcDbEntity
  8
0
  6
Continuous
 62
     7
100
AcDbCircle
 10
5674.0187553361
 20
4340.1165433343
 30
0.0
 40
5.250000000001073
100
AcDbArc
 50
261.7867892983
 51
278.2132107017
  0
ARC
  5
A9
330
1F
100
AcDbEntity
  8
0
  6
Continuous
 62
     7
100
AcDbCircle
 10
6874.0187553361
 20
4340.1165433343
 30
0.0
 40
5.250000000001454
100
AcDbArc
 50
278.2132107017
 51
81.7867892983
  0
ARC
  5
AA
330
1F
100
AcDbEntity
  8
0
  6
Continuous
 62
     7
100
AcDbCircle
 10
6874.0187553361
 20
4340.1165433343
 30
0.0
 40
5.250000000002233
100
AcDbArc
 50
98.2132107017
 51
261.7867892983
  0
ARC
  5
AB
330
1F
100
AcDbEntity
  8
0
  6
Continuous
 62
     7
100
AcDbCircle
 10
6874.0187553361
 20
4340.1165433343
 30
0.0
 40
5.249999999999533
100
AcDbArc
 50
81.7867892983
 51
98.2132107017
  0
ARC
  5
AC
330
1F
100
AcDbEntity
  8
0
  6
Continuous
 62
     7
100
AcDbCircle
 10
6874.0187553361
 20
4340.1165433343
 30
0.0
 40
5.250000000002233
100
AcDbArc
 50
261.7867892983
 51
278.2132107017
  0
ARC
  5
AD
330
1F
100
AcDbEntity
  8
0
  6
Continuous
 62
     7
100
AcDbCircle
 10
6274.0601180264
 20
4482.8298844651
 30
0.0
 40
12.36588139772268
100
AcDbArc
 50
86.5137371374
 51
93.4680489774
  0
ARC
  5
AE
330
1F
100
AcDbEntity
  8
0
  6
Continuous
 62
     7
100
AcDbCircle
 10
6274.0657749226
 20
4503.1529033202
 30
0.0
 40
12.39464240900235
100
AcDbArc
 50
266.5218155496
 51
273.4599705623
  0
CIRCLE
  5
AF
330
1F
100
AcDbEntity
  8
0
  6
Continuous
 62
     7
100
AcDbCircle
 10
6874.0187553361
 20
4340.1165433343
 30
0.0
 40
34.99999999999818
  0
CIRCLE
  5
B0
330
1F
100
AcDbEntity
  8
0
  6
Continuous
 62
     7
100
AcDbCircle
 10
6874.0187553361
 20
4340.1165433343
 30
0.0
 40
35.16921944985643
  0
CIRCLE
  5
B1
330
1F
100
AcDbEntity
  8
0
  6
Continuous
 62
     7
100
AcDbCircle
 10
6874.0187553361
 20
4340.1165433343
 30
0.0
 40
24.96512544439338
  0
CIRCLE
  5
B2
330
1F
100
AcDbEntity
  8
0
  6
Continuous
 62
     7
100
AcDbCircle
 10
6874.0187553361
 20
4340.1165433343
 30
0.0
 40
21.99999999999818
  0
CIRCLE
  5
B3
330
1F
100
AcDbEntity
  8
0
  6
Continuous
 62
     7
100
AcDbCircle
 10
6874.0187553361
 20
4340.1165433343
 30
0.0
 40
20.49999999999818
  0
CIRCLE
  5
B4
330
1F
100
AcDbEntity
  8
0
  6
Continuous
 62
     7
100
AcDbCircle
 10
6874.0187553361
 20
4340.1165433343
 30
0.0
 40
19.48700763430134
  0
CIRCLE
  5
B5
330
1F
100
AcDbEntity
  8
0
  6
Continuous
 62
     7
100
AcDbCircle
 10
6874.0187553361
 20
4340.1165433343
 30
0.0
 40
5.699999999998909
  0
CIRCLE
  5
B6
330
1F
100
AcDbEntity
  8
0
  6
Continuous
 62
     7
100
AcDbCircle
 10
6874.0187553361
 20
4354.1165433343
 30
0.0
 40
4.999999999999091
  0
CIRCLE
  5
B7
330
1F
100
AcDbEntity
  8
0
  6
Continuous
 62
     7
100
AcDbCircle
 10
6886.1431109891
 20
4347.1165433343
 30
0.0
 40
5.0
  0
CIRCLE
  5
B8
330
1F
100
AcDbEntity
  8
0
  6
Continuous
 62
     7
100
AcDbCircle
 10
6886.1431109891
 20
4333.1165433343
 30
0.0
 40
5.0
  0
CIRCLE
  5
B9
330
1F
100
AcDbEntity
  8
0
  6
Continuous
 62
     7
100
AcDbCircle
 10
6874.0187553361
 20
4326.1165433343
 30
0.0
 40
5.0
  0
CIRCLE
  5
BA
330
1F
100
AcDbEntity
  8
0
  6
Continuous
 62
     7
100
AcDbCircle
 10
6861.8943996831
 20
4333.1165433343
 30
0.0
 40
5.000000000000909
  0
CIRCLE
  5
BB
330
1F
100
AcDbEntity
  8
0
  6
Continuous
 62
     7
100
AcDbCircle
 10
6861.8943996831
 20
4347.1165433343
 30
0.0
 40
5.0
  0
CIRCLE
  5
BC
330
1F
100
AcDbEntity
  8
0
  6
Continuous
 62
     7
100
AcDbCircle
 10
6274.0187553361
 20
4340.1165433343
 30
0.0
 40
35.0
  0
CIRCLE
  5
BD
330
1F
100
AcDbEntity
  8
0
  6
Continuous
 62
     7
100
AcDbCircle
 10
6274.0187553361
 20
4340.1165433343
 30
0.0
 40
35.16921944985916
  0
CIRCLE
  5
BE
330
1F
100
AcDbEntity
  8
0
  6
Continuous
 62
     7
100
AcDbCircle
 10
6274.0187553361
 20
4340.1165433343
 30
0.0
 40
24.9651254443952
  0
CIRCLE
  5
BF
330
1F
100
AcDbEntity
  8
0
  6
Continuous
 62
     7
100
AcDbCircle
 10
6274.0187553361
 20
4340.1165433343
 30
0.0
 40
22.0
  0
CIRCLE
  5
C0
330
1F
100
AcDbEntity
  8
0
  6
Continuous
 62
     7
100
AcDbCircle
 10
6274.0187553361
 20
4340.1165433343
 30
0.0
 40
20.5
  0
CIRCLE
  5
C1
330
1F
100
AcDbEntity
  8
0
  6
Continuous
 62
     7
100
AcDbCircle
 10
6274.0187553361
 20
4340.1165433343
 30
0.0
 40
19.48700763430406
  0
CIRCLE
  5
C2
330
1F
100
AcDbEntity
  8
0
  6
Continuous
 62
     7
100
AcDbCircle
 10
6274.0187553361
 20
4340.1165433343
 30
0.0
 40
5.700000000000728
  0
CIRCLE
  5
C3
330
1F
100
AcDbEntity
  8
0
  6
Continuous
 62
     7
100
AcDbCircle
 10
6274.0187553361
 20
4354.1165433343
 30
0.0
 40
5.0
  0
CIRCLE
  5
C4
330
1F
100
AcDbEntity
  8
0
  6
Continuous
 62
     7
100
AcDbCircle
 10
6286.1431109891
 20
4347.1165433343
 30
0.0
 40
5.0
  0
CIRCLE
  5
C5
330
1F
100
AcDbEntity
  8
0
  6
Continuous
 62
     7
100
AcDbCircle
 10
6286.1431109891
 20
4333.1165433343
 30
0.0
 40
5.0
  0
CIRCLE
  5
C6
330
1F
100
AcDbEntity
  8
0
  6
Continuous
 62
     7
100
AcDbCircle
 10
6274.0187553361
 20
4326.1165433343
 30
0.0
 40
5.000000000000909
  0
CIRCLE
  5
C7
330
1F
100
AcDbEntity
  8
0
  6
Continuous
 62
     7
100
AcDbCircle
 10
6261.8943996831
 20
4333.1165433343
 30
0.0
 40
5.000000000000909
  0
CIRCLE
  5
C8
330
1F
100
AcDbEntity
  8
0
  6
Continuous
 62
     7
100
AcDbCircle
 10
6261.8943996831
 20
4347.1165433343
 30
0.0
 40
5.0
  0
CIRCLE
  5
C9
330
1F
100
AcDbEntity
  8
0
  6
Continuous
 62
     7
100
AcDbCircle
 10
5674.0187553361
 20
4340.1165433343
 30
0.0
 40
35.00000000000091
  0
CIRCLE
  5
CA
330
1F
100
AcDbEntity
  8
0
  6
Continuous
 62
     7
100
AcDbCircle
 10
5674.0187553361
 20
4340.1165433343
 30
0.0
 40
35.16921944985916
  0
CIRCLE
  5
CB
330
1F
100
AcDbEntity
  8
0
  6
Continuous
 62
     7
100
AcDbCircle
 10
5674.0187553361
 20
4340.1165433343
 30
0.0
 40
24.9651254443952
  0
CIRCLE
  5
CC
330
1F
100
AcDbEntity
  8
0
  6
Continuous
 62
     7
100
AcDbCircle
 10
5674.0187553361
 20
4340.1165433343
 30
0.0
 40
22.00000000000091
  0
CIRCLE
  5
CD
330
1F
100
AcDbEntity
  8
0
  6
Continuous
 62
     7
100
AcDbCircle
 10
5674.0187553361
 20
4340.1165433343
 30
0.0
 40
20.50000000000091
  0
CIRCLE
  5
CE
330
1F
100
AcDbEntity
  8
0
  6
Continuous
 62
     7
100
AcDbCircle
 10
5674.0187553361
 20
4340.1165433343
 30
0.0
 40
19.48700763430406
  0
CIRCLE
  5
CF
330
1F
100
AcDbEntity
  8
0
  6
Continuous
 62
     7
100
AcDbCircle
 10
5674.0187553361
 20
4340.1165433343
 30
0.0
 40
5.700000000001637
  0
CIRCLE
  5
D0
330
1F
100
AcDbEntity
  8
0
  6
Continuous
 62
     7
100
AcDbCircle
 10
5674.0187553361
 20
4354.1165433343
 30
0.0
 40
5.0
  0
CIRCLE
  5
D1
330
1F
100
AcDbEntity
  8
0
  6
Continuous
 62
     7
100
AcDbCircle
 10
5686.1431109891
 20
4347.1165433343
 30
0.0
 40
5.0
  0
CIRCLE
  5
D2
330
1F
100
AcDbEntity
  8
0
  6
Continuous
 62
     7
100
AcDbCircle
 10
5686.1431109891
 20
4333.1165433343
 30
0.0
 40
5.0
  0
CIRCLE
  5
D3
330
1F
100
AcDbEntity
  8
0
  6
Continuous
 62
     7
100
AcDbCircle
 10
5674.0187553361
 20
4326.1165433343
 30
0.0
 40
5.000000000000909
  0
CIRCLE
  5
D4
330
1F
100
AcDbEntity
  8
0
  6
Continuous
 62
     7
100
AcDbCircle
 10
5661.8943996831
 20
4333.1165433343
 30
0.0
 40
5.000000000000909
  0
CIRCLE
  5
D5
330
1F
100
AcDbEntity
  8
0
  6
Continuous
 62
     7
100
AcDbCircle
 10
5661.8943996831
 20
4347.1165433343
 30
0.0
 40
5.0
  0
CIRCLE
  5
D6
330
1F
100
AcDbEntity
  8
0
  6
Continuous
 62
     7
100
AcDbCircle
 10
5674.0187553361
 20
4340.1165433343
 30
0.0
 40
169.7761709255419
  0
CIRCLE
  5
D7
330
1F
100
AcDbEntity
  8
0
  6
Continuous
 62
     7
100
AcDbCircle
 10
6274.0187553361
 20
4340.1165433343
 30
0.0
 40
169.7761709255419
  0
CIRCLE
  5
D8
330
1F
100
AcDbEntity
  8
0
  6
Continuous
 62
     7
100
AcDbCircle
 10
6874.0187553361
 20
4340.1165433343
 30
0.0
 40
169.7761709255401
  0
CIRCLE
  5
D9
330
1F
100
AcDbEntity
  8
0
  6
Continuous
 62
     7
100
AcDbCircle
 10
6274.0187553361
 20
4340.1165433343
 30
0.0
 40
165.0000000000009
  0
CIRCLE
  5
DA
330
1F
100
AcDbEntity
  8
0
  6
Continuous
 62
     7
100
AcDbCircle
 10
6874.0187553361
 20
4340.1165433343
 30
0.0
 40
164.9999999999991
  0
CIRCLE
  5
DB
330
1F
100
AcDbEntity
  8
0
  6
Continuous
 62
     7
100
AcDbCircle
 10
5674.0187553361
 20
4340.1165433343
 30
0.0
 40
165.0000000000009
  0
ARC
  5
DC
330
1F
100
AcDbEntity
  8
0
  6
Continuous
 62
     7
100
AcDbCircle
 10
7171.0187905538
 20
4123.1164956505
 30
0.0
 40
3.000000000000607
100
AcDbArc
 50
269.9995992929
 51
0.0004007052
  0
ARC
  5
DD
330
1F
100
AcDbEntity
  8
0
  6
Continuous
 62
     7
100
AcDbCircle
 10
5377.0187786326
 20
4123.1164956504
 30
0.0
 40
3.00000000000034
100
AcDbArc
 50
179.9995992915
 51
269.9992623412
  0
CIRCLE
  5
DE
330
1F
100
AcDbEntity
  8
0
  6
Continuous
 62
     7
100
AcDbCircle
 10
6274.0187553361
 20
4340.1165433343
 30
0.0
 40
36.71817853400353
  0
CIRCLE
  5
DF
330
1F
100
AcDbEntity
  8
0
  6
Continuous
 62
     7
100
AcDbCircle
 10
5674.0187553361
 20
4340.1165433343
 30
0.0
 40
36.71817853400353
  0
CIRCLE
  5
E0
330
1F
100
AcDbEntity
  8
0
  6
Continuous
 62
     7
100
AcDbCircle
 10
6874.0187553361
 20
4340.1165433343
 30
0.0
 40
36.7181785340008
  0
LINE
  5
E1
330
1F
100
AcDbEntity
  8
0
  6
Continuous
 62
     7
100
AcDbLine
 10
5377.0187400089
 20
5378.1994557483
 30
0.0
 11
5377.0187400089
 21
5341.1994552714
 31
0.0
  0
LINE
  5
E2
330
1F
100
AcDbEntity
  8
0
  6
Continuous
 62
     7
100
AcDbLine
 10
7171.0187695728
 20
5378.1994557483
 30
0.0
 11
5377.0187400089
 21
5378.1994557483
 31
0.0
  0
LINE
  5
E3
330
1F
100
AcDbEntity
  8
0
  6
Continuous
 62
     7
100
AcDbLine
 10
7171.0187695728
 20
5341.1994552714
 30
0.0
 11
7171.0187695728
 21
5378.1994557483
 31
0.0
  0
LINE
  5
E4
330
1F
100
AcDbEntity
  8
0
  6
Continuous
 62
     7
100
AcDbLine
 10
7171.0187695728
 20
5341.1994552714
 30
0.0
 11
5377.0187400089
 21
5341.1994552714
 31
0.0
  0
LINE
  5
E5
330
1F
100
AcDbEntity
  8
0
  6
Continuous
 62
     7
100
AcDbLine
 10
5374.0187786327
 20
5341.1994552714
 30
0.0
 11
5374.0187786327
 21
5378.1994557483
 31
0.0
  0
LINE
  5
E6
330
1F
100
AcDbEntity
  8
0
  6
Continuous
 62
     7
100
AcDbLine
 10
5374.0187786327
 20
5378.1994557483
 30
0.0
 11
5377.0187400089
 21
5378.1994557483
 31
0.0
  0
LINE
  5
E7
330
1F
100
AcDbEntity
  8
0
  6
Continuous
 62
     7
100
AcDbLine
 10
5377.0187400089
 20
5341.1994552714
 30
0.0
 11
5374.0187786327
 21
5341.1994552714
 31
0.0
  0
LINE
  5
E8
330
1F
100
AcDbEntity
  8
0
  6
Continuous
 62
     7
100
AcDbLine
 10
5377.0187400089
 20
5381.1994534046
 30
0.0
 11
7171.0187695728
 21
5381.1994534046
 31
0.0
  0
LINE
  5
E9
330
1F
100
AcDbEntity
  8
0
  6
Continuous
 62
     7
100
AcDbLine
 10
7171.0187695728
 20
5381.1994534046
 30
0.0
 11
7171.0187695728
 21
5378.1994557483
 31
0.0
  0
LINE
  5
EA
330
1F
100
AcDbEntity
  8
0
  6
Continuous
 62
     7
100
AcDbLine
 10
5377.0187400089
 20
5381.1994534046
 30
0.0
 11
5377.0187400089
 21
5378.1994557483
 31
0.0
  0
LINE
  5
EB
330
1F
100
AcDbEntity
  8
0
  6
Continuous
 62
     7
100
AcDbLine
 10
7171.0187695728
 20
5378.1994557483
 30
0.0
 11
7174.0187905537
 21
5378.1994557483
 31
0.0
  0
LINE
  5
EC
330
1F
100
AcDbEntity
  8
0
  6
Continuous
 62
     7
100
AcDbLine
 10
7174.0187905537
 20
5378.1994557483
 30
0.0
 11
7174.0187905537
 21
5341.1994552714
 31
0.0
  0
LINE
  5
ED
330
1F
100
AcDbEntity
  8
0
  6
Continuous
 62
     7
100
AcDbLine
 10
7174.0187905537
 20
5341.1994552714
 30
0.0
 11
7171.0187695728
 21
5341.1994552714
 31
0.0
  0
LINE
  5
EE
330
1F
100
AcDbEntity
  8
0
  6
Continuous
 62
     7
100
AcDbLine
 10
7169.018795322
 20
5006.1994534046
 30
0.0
 11
7169.018795322
 21
5341.1994542986
 31
0.0
  0
LINE
  5
EF
330
1F
100
AcDbEntity
  8
0
  6
Continuous
 62
     7
100
AcDbLine
 10
7172.0186970936
 20
5341.1994542986
 30
0.0
 11
7172.0186970936
 21
5006.1994534046
 31
0.0
  0
LINE
  5
F0
330
1F
100
AcDbEntity
  8
0
  6
Continuous
 62
     7
100
AcDbLine
 10
7172.0186970936
 20
5006.1994534046
 30
0.0
 11
7169.018795322
 21
5006.1994534046
 31
0.0
  0
LINE
  5
F1
330
1F
100
AcDbEntity
  8
0
  6
Continuous
 62
     7
100
AcDbLine
 10
5379.0187738644
 20
5341.1994542986
 30
0.0
 11
5379.0187738644
 21
5006.1994534046
 31
0.0
  0
LINE
  5
F2
330
1F
100
AcDbEntity
  8
0
  6
Continuous
 62
     7
100
AcDbLine
 10
5379.0187738644
 20
5006.1994534046
 30
0.0
 11
5376.0187528835
 21
5006.1994534046
 31
0.0
  0
LINE
  5
F3
330
1F
100
AcDbEntity
  8
0
  6
Continuous
 62
     7
100
AcDbLine
 10
5376.0187528835
 20
5006.1994534046
 30
0.0
 11
5376.0187528835
 21
5341.1994542986
 31
0.0
  0
LINE
  5
F4
330
1F
100
AcDbEntity
  8
0
  6
Continuous
 62
     7
100
AcDbLine
 10
5379.0187738644
 20
5006.1994534046
 30
0.0
 11
7169.018795322
 21
5006.1994534046
 31
0.0
  0
LINE
  5
F5
330
1F
100
AcDbEntity
  8
0
  6
Continuous
 62
     7
100
AcDbLine
 10
7171.0187695728
 20
5381.1994534046
 30
0.0
 11
7171.0187695728
 21
5383.1994562417
 31
0.0
  0
LINE
  5
F6
330
1F
100
AcDbEntity
  8
0
  6
Continuous
 62
     7
100
AcDbLine
 10
5377.0187400089
 20
5381.1994534046
 30
0.0
 11
5377.0187400089
 21
5383.1994562417
 31
0.0
  0
LINE
  5
F7
330
1F
100
AcDbEntity
  8
0
  6
Continuous
 62
     7
100
AcDbLine
 10
5377.0187400089
 20
5383.1994562417
 30
0.0
 11
7171.0187695728
 21
5383.1994562417
 31
0.0
  0
LINE
  5
F8
330
1F
100
AcDbEntity
  8
0
  6
Continuous
 62
     7
100
AcDbLine
 10
5374.0187779031
 20
5421.1994609339
 30
0.0
 11
7174.0187912833
 21
5421.1994609339
 31
0.0
  0
LINE
  5
F9
330
1F
100
AcDbEntity
  8
0
  6
Continuous
 62
     7
100
AcDbLine
 10
5374.0187779031
 20
5421.1994609339
 30
0.0
 11
5374.0187779031
 21
5382.1994564039
 31
0.0
  0
LINE
  5
FA
330
1F
100
AcDbEntity
  8
0
  6
Continuous
 62
     7
100
AcDbLine
 10
7174.0187912833
 20
5421.1994609339
 30
0.0
 11
7174.0187912833
 21
5382.1994564039
 31
0.0
  0
LINE
  5
FB
330
1F
100
AcDbEntity
  8
0
  6
Continuous
 62
     7
100
AcDbLine
 10
7558.9831232013
 20
5171.1554791838
 30
0.0
 11
7558.7339161815
 21
5171.1554791838
 31
0.0
  0
LINE
  5
FC
330
1F
100
AcDbEntity
  8
0
  6
Continuous
 62
     7
100
AcDbLine
 10
7558.7339161815
 20
5091.1554884225
 30
0.0
 11
7558.9831232013
 21
5091.1554884225
 31
0.0
  0
LINE
  5
FD
330
1F
100
AcDbEntity
  8
0
  6
Continuous
 62
     7
100
AcDbLine
 10
7558.7339161815
 20
5151.1554833561
 30
0.0
 11
7548.7339257183
 21
5151.1554833561
 31
0.0
  0
LINE
  5
FE
330
1F
100
AcDbEntity
  8
0
  6
Continuous
 62
     7
100
AcDbLine
 10
7548.7339257183
 20
5111.1554842502
 30
0.0
 11
7558.7339161815
 21
5111.1554842502
 31
0.0
  0
LINE
  5
FF
330
1F
100
AcDbEntity
  8
0
  6
Continuous
 62
     7
100
AcDbLine
 10
7558.7339161815
 20
5171.1554791838
 30
0.0
 11
7558.7339161815
 21
5091.1554884225
 31
0.0
  0
LINE
  5
100
330
1F
100
AcDbEntity
  8
0
  6
Continuous
 62
     7
100
AcDbLine
 10
7548.7339257183
 20
5151.1554833561
 30
0.0
 11
7548.7339257183
 21
5111.1554842502
 31
0.0
  0
LINE
  5
101
330
1F
100
AcDbEntity
  8
0
  6
Continuous
 62
     7
100
AcDbLine
 10
8055.9831618251
 20
5381.1994534046
 30
0.0
 11
8055.9831618251
 21
5378.1994547755
 31
0.0
  0
LINE
  5
102
330
1F
100
AcDbEntity
  8
0
  6
Continuous
 62
     7
100
AcDbLine
 10
8055.9831618251
 20
5378.1994547755
 30
0.0
 11
7562.1831177654
 21
5378.1994547755
 31
0.0
  0
LINE
  5
103
330
1F
100
AcDbEntity
  8
0
  6
Continuous
 62
     7
100
AcDbLine
 10
7562.1831177654
 20
5381.1994534046
 30
0.0
 11
7562.1831177654
 21
5378.1994547755
 31
0.0
  0
LINE
  5
104
330
1F
100
AcDbEntity
  8
0
  6
Continuous
 62
     7
100
AcDbLine
 10
7562.1831177654
 20
5381.1994534046
 30
0.0
 11
8055.9831618251
 21
5381.1994534046
 31
0.0
  0
LINE
  5
105
330
1F
100
AcDbEntity
  8
0
  6
Continuous
 62
     7
100
AcDbLine
 10
7558.9831232013
 20
5421.1994599611
 30
0.0
 11
7560.1831435146
 21
5421.1994599611
 31
0.0
  0
LINE
  5
106
330
1F
100
AcDbEntity
  8
0
  6
Continuous
 62
     7
100
AcDbLine
 10
7560.1831435146
 20
5421.1994599611
 30
0.0
 11
7560.1831435146
 21
5382.1994554311
 31
0.0
  0
LINE
  5
107
330
1F
100
AcDbEntity
  8
0
  6
Continuous
 62
     7
100
AcDbLine
 10
8055.9831618251
 20
5341.1994542986
 30
0.0
 11
8055.9831618251
 21
5378.1994547755
 31
0.0
  0
LINE
  5
108
330
1F
100
AcDbEntity
  8
0
  6
Continuous
 62
     7
100
AcDbLine
 10
8055.9831618251
 20
5341.1994542986
 30
0.0
 11
7558.9831232013
 21
5341.1994542986
 31
0.0
  0
LINE
  5
109
330
1F
100
AcDbEntity
  8
0
  6
Continuous
 62
     7
100
AcDbLine
 10
7558.9831232013
 20
5341.1994542986
 30
0.0
 11
7558.9831232013
 21
5421.1994599611
 31
0.0
  0
LINE
  5
10A
330
1F
100
AcDbEntity
  8
0
  6
Continuous
 62
     7
100
AcDbLine
 10
8055.9831618251
 20
5378.1994547755
 30
0.0
 11
8058.983182806
 21
5378.1994547755
 31
0.0
  0
LINE
  5
10B
330
1F
100
AcDbEntity
  8
0
  6
Continuous
 62
     7
100
AcDbLine
 10
8058.983182806
 20
5378.1994547755
 30
0.0
 11
8058.983182806
 21
5341.1994542986
 31
0.0
  0
LINE
  5
10C
330
1F
100
AcDbEntity
  8
0
  6
Continuous
 62
     7
100
AcDbLine
 10
8058.983182806
 20
5341.1994542986
 30
0.0
 11
8055.9831618251
 21
5341.1994542986
 31
0.0
  0
LINE
  5
10D
330
1F
100
AcDbEntity
  8
0
  6
Continuous
 62
     7
100
AcDbLine
 10
8053.9831875744
 20
5006.1994534046
 30
0.0
 11
8053.9831875744
 21
5341.1994542986
 31
0.0
  0
LINE
  5
10E
330
1F
100
AcDbEntity
  8
0
  6
Continuous
 62
     7
100
AcDbLine
 10
7558.9831232013
 20
5006.1994534046
 30
0.0
 11
8053.9831875744
 21
5006.1994534046
 31
0.0
  0
LINE
  5
10F
330
1F
100
AcDbEntity
  8
0
  6
Continuous
 62
     7
100
AcDbLine
 10
7558.9831232013
 20
5341.1994542986
 30
0.0
 11
7558.9831232013
 21
5006.1994534046
 31
0.0
  0
LINE
  5
110
330
1F
100
AcDbEntity
  8
0
  6
Continuous
 62
     7
100
AcDbLine
 10
8056.9830893459
 20
5341.1994542986
 30
0.0
 11
8056.9830893459
 21
5006.1994534046
 31
0.0
  0
LINE
  5
111
330
1F
100
AcDbEntity
  8
0
  6
Continuous
 62
     7
100
AcDbLine
 10
8056.9830893459
 20
5006.1994534046
 30
0.0
 11
8053.9831875744
 21
5006.1994534046
 31
0.0
  0
LINE
  5
112
330
1F
100
AcDbEntity
  8
0
  6
Continuous
 62
     7
100
AcDbLine
 10
5374.0187553361
 20
4620.1165433343
 30
0.0
 11
7174.0187553361
 21
4620.1165433343
 31
0.0
  0
LINE
  5
113
330
1F
100
AcDbEntity
  8
0
  6
Continuous
 62
     7
100
AcDbLine
 10
5374.0187553361
 20
4620.1165433343
 30
0.0
 11
5374.0187553361
 21
4120.1165433343
 31
0.0
  0
LINE
  5
114
330
1F
100
AcDbEntity
  8
0
  6
Continuous
 62
     7
100
AcDbLine
 10
5374.0187553361
 20
4120.1165433343
 30
0.0
 11
7174.0187553361
 21
4120.1165433343
 31
0.0
  0
LINE
  5
115
330
1F
100
AcDbEntity
  8
0
  6
Continuous
 62
     7
100
AcDbLine
 10
7174.0187553361
 20
4620.1165433343
 30
0.0
 11
7174.0187553361
 21
4120.1165433343
 31
0.0
  0
LINE
  5
116
330
1F
100
AcDbEntity
  8
0
  6
Continuous
 62
     7
100
AcDbLine
 10
6879.3129227863
 20
4492.9754968103
 30
0.0
 11
6879.3131016003
 21
4493.6099286493
 31
0.0
  0
LINE
  5
117
330
1F
100
AcDbEntity
  8
0
  6
Continuous
 62
     7
100
AcDbLine
 10
6868.8131473766
 20
4493.6123128351
 30
0.0
 11
6868.8129685627
 21
4492.9784770425
 31
0.0
  0
LINE
  5
118
330
1F
100
AcDbEntity
  8
0
  6
Continuous
 62
     7
100
AcDbLine
 10
6877.1592281567
 20
4495.4024787362
 30
0.0
 11
6877.1234653698
 21
4495.4135652002
 31
0.0
  0
LINE
  5
119
330
1F
100
AcDbEntity
  8
0
  6
Continuous
 62
     7
100
AcDbLine
 10
6871.0037968861
 20
4495.4153533395
 30
0.0
 11
6870.9680340992
 21
4495.4042668756
 31
0.0
  0
LINE
  5
11A
330
1F
100
AcDbEntity
  8
0
  6
Continuous
 62
     7
100
AcDbLine
 10
5679.3129347073
 20
4492.9754968103
 30
0.0
 11
5679.3131135212
 21
4493.6099286493
 31
0.0
  0
LINE
  5
11B
330
1F
100
AcDbEntity
  8
0
  6
Continuous
 62
     7
100
AcDbLine
 10
5668.8131294952
 20
4493.6123128351
 30
0.0
 11
5668.8129506813
 21
4492.9784770425
 31
0.0
  0
LINE
  5
11C
330
1F
100
AcDbEntity
  8
0
  6
Continuous
 62
     7
100
AcDbLine
 10
5677.1592400776
 20
4495.4024787362
 30
0.0
 11
5677.1234772907
 21
4495.4135652002
 31
0.0
  0
LINE
  5
11D
330
1F
100
AcDbEntity
  8
0
  6
Continuous
 62
     7
100
AcDbLine
 10
5671.003808807
 20
4495.4153533395
 30
0.0
 11
5670.9680460201
 21
4495.4042668756
 31
0.0
  0
LINE
  5
11E
330
1F
100
AcDbEntity
  8
0
  6
Continuous
 62
     7
100
AcDbLine
 10
6279.312943648
 20
4492.9754968103
 30
0.0
 11
6279.3131224619
 21
4493.6099286493
 31
0.0
  0
LINE
  5
11F
330
1F
100
AcDbEntity
  8
0
  6
Continuous
 62
     7
100
AcDbLine
 10
6268.8131235348
 20
4493.6123128351
 30
0.0
 11
6268.8129447208
 21
4492.9784770425
 31
0.0
  0
LINE
  5
120
330
1F
100
AcDbEntity
  8
0
  6
Continuous
 62
     7
100
AcDbLine
 10
6277.1592341171
 20
4495.4024787362
 30
0.0
 11
6277.1234713303
 21
4495.4135652002
 31
0.0
  0
LINE
  5
121
330
1F
100
AcDbEntity
  8
0
  6
Continuous
 62
     7
100
AcDbLine
 10
6271.0038177477
 20
4495.4153533395
 30
0.0
 11
6270.9680549608
 21
4495.4042668756
 31
0.0
  0
LINE
  5
122
330
1F
100
AcDbEntity
  8
0
  6
Continuous
 62
     7
100
AcDbLine
 10
6914.0187404858
 20
4620.1165552553
 30
0.0
 11
6914.0187404858
 21
4620.3657622751
 31
0.0
  0
LINE
  5
123
330
1F
100
AcDbEntity
  8
0
  6
Continuous
 62
     7
100
AcDbLine
 10
6834.0187571751
 20
4620.3657622751
 30
0.0
 11
6834.0187571751
 21
4620.1165552553
 31
0.0
  0
LINE
  5
124
330
1F
100
AcDbEntity
  8
0
  6
Continuous
 62
     7
100
AcDbLine
 10
6894.0187595592
 20
4620.3657622751
 30
0.0
 11
6894.0187595592
 21
4630.3657527383
 31
0.0
  0
LINE
  5
125
330
1F
100
AcDbEntity
  8
0
  6
Continuous
 62
     7
100
AcDbLine
 10
6854.0187381016
 20
4630.3657527383
 30
0.0
 11
6854.0187381016
 21
4620.3657622751
 31
0.0
  0
LINE
  5
126
330
1F
100
AcDbEntity
  8
0
  6
Continuous
 62
     7
100
AcDbLine
 10
6314.0187464462
 20
4620.1165552553
 30
0.0
 11
6314.0187464462
 21
4620.3657622751
 31
0.0
  0
LINE
  5
127
330
1F
100
AcDbEntity
  8
0
  6
Continuous
 62
     7
100
AcDbLine
 10
6234.0187482344
 20
4620.3657622751
 30
0.0
 11
6234.0187482344
 21
4620.1165552553
 31
0.0
  0
LINE
  5
128
330
1F
100
AcDbEntity
  8
0
  6
Continuous
 62
     7
100
AcDbLine
 10
6294.0187655197
 20
4620.3657622751
 30
0.0
 11
6294.0187655197
 21
4630.3657527383
 31
0.0
  0
LINE
  5
129
330
1F
100
AcDbEntity
  8
0
  6
Continuous
 62
     7
100
AcDbLine
 10
6254.0187589632
 20
4630.3657527383
 30
0.0
 11
6254.0187589632
 21
4620.3657622751
 31
0.0
  0
LINE
  5
12A
330
1F
100
AcDbEntity
  8
0
  6
Continuous
 62
     7
100
AcDbLine
 10
5714.0187524067
 20
4620.1165552553
 30
0.0
 11
5714.0187524067
 21
4620.3657622751
 31
0.0
  0
LINE
  5
12B
330
1F
100
AcDbEntity
  8
0
  6
Continuous
 62
     7
100
AcDbLine
 10
5634.018769096
 20
4620.3657622751
 30
0.0
 11
5634.018769096
 21
4620.1165552553
 31
0.0
  0
LINE
  5
12C
330
1F
100
AcDbEntity
  8
0
  6
Continuous
 62
     7
100
AcDbLine
 10
5694.0187416779
 20
4620.3657622751
 30
0.0
 11
5694.0187416779
 21
4630.3657527383
 31
0.0
  0
LINE
  5
12D
330
1F
100
AcDbEntity
  8
0
  6
Continuous
 62
     7
100
AcDbLine
 10
5654.0187500225
 20
4630.3657527383
 30
0.0
 11
5654.0187500225
 21
4620.3657622751
 31
0.0
  0
LINE
  5
12E
330
1F
100
AcDbEntity
  8
0
  6
Continuous
 62
     7
100
AcDbLine
 10
5668.2467959629
 20
4502.2089715417
 30
0.0
 11
5668.7750719295
 21
4502.2832389291
 31
0.0
  0
LINE
  5
12F
330
1F
100
AcDbEntity
  8
0
  6
Continuous
 62
     7
100
AcDbLine
 10
5677.9732607113
 20
4502.4273629602
 30
0.0
 11
5678.2761417137
 21
4502.394341987
 31
0.0
  0
LINE
  5
130
330
1F
100
AcDbEntity
  8
0
  6
Continuous
 62
     7
100
AcDbLine
 10
6868.246784042
 20
4502.2089715417
 30
0.0
 11
6868.7750600086
 21
4502.2832389291
 31
0.0
  0
LINE
  5
131
330
1F
100
AcDbEntity
  8
0
  6
Continuous
 62
     7
100
AcDbLine
 10
6877.9732487904
 20
4502.4273629602
 30
0.0
 11
6878.2761595951
 21
4502.394341987
 31
0.0
  0
LINE
  5
132
330
1F
100
AcDbEntity
  8
0
  6
Continuous
 62
     7
100
AcDbLine
 10
6268.2467900024
 20
4502.2089715417
 30
0.0
 11
6268.7750659691
 21
4502.2832389291
 31
0.0
  0
LINE
  5
133
330
1F
100
AcDbEntity
  8
0
  6
Continuous
 62
     7
100
AcDbLine
 10
6277.9732547508
 20
4502.4273629602
 30
0.0
 11
6278.2761357532
 21
4502.394341987
 31
0.0
  0
LINE
  5
134
330
1F
100
AcDbEntity
  8
0
  6
Continuous
 62
     7
100
AcDbLine
 10
6874.0658663021
 20
4486.6699214395
 30
0.0
 11
6876.4682911144
 21
4486.743831199
 31
0.0
  0
LINE
  5
135
330
1F
100
AcDbEntity
  8
0
  6
Continuous
 62
     7
100
AcDbLine
 10
6876.4682911144
 20
4486.743831199
 30
0.0
 11
6878.8193963276
 21
4486.9648452218
 31
0.0
  0
LINE
  5
136
330
1F
100
AcDbEntity
  8
0
  6
Continuous
 62
     7
100
AcDbLine
 10
6878.8193963276
 20
4486.9648452218
 30
0.0
 11
6881.0691736446
 21
4487.3280759271
 31
0.0
  0
LINE
  5
137
330
1F
100
AcDbEntity
  8
0
  6
Continuous
 62
     7
100
AcDbLine
 10
6881.0691736446
 20
4487.3280759271
 30
0.0
 11
6883.1695817219
 21
4487.8260131296
 31
0.0
  0
LINE
  5
138
330
1F
100
AcDbEntity
  8
0
  6
Continuous
 62
     7
100
AcDbLine
 10
6883.1695817219
 20
4487.8260131296
 30
0.0
 11
6885.0759766804
 21
4488.4478087839
 31
0.0
  0
LINE
  5
139
330
1F
100
AcDbEntity
  8
0
  6
Continuous
 62
     7
100
AcDbLine
 10
6885.0759766804
 20
4488.4478087839
 30
0.0
 11
6886.7475889431
 21
4489.1804690774
 31
0.0
  0
LINE
  5
13A
330
1F
100
AcDbEntity
  8
0
  6
Continuous
 62
     7
100
AcDbLine
 10
6886.7475889431
 20
4489.1804690774
 30
0.0
 11
6888.1488345371
 21
4490.0081391748
 31
0.0
  0
LINE
  5
13B
330
1F
100
AcDbEntity
  8
0
  6
Continuous
 62
     7
100
AcDbLine
 10
6888.1488345371
 20
4490.0081391748
 30
0.0
 11
6889.2499111401
 21
4490.9134145196
 31
0.0
  0
LINE
  5
13C
330
1F
100
AcDbEntity
  8
0
  6
Continuous
 62
     7
100
AcDbLine
 10
6889.2499111401
 20
4490.9134145196
 30
0.0
 11
6890.0273345219
 21
4491.8767447885
 31
0.0
  0
LINE
  5
13D
330
1F
100
AcDbEntity
  8
0
  6
Continuous
 62
     7
100
AcDbLine
 10
6890.0273345219
 20
4491.8767447885
 30
0.0
 11
6890.4644749866
 21
4492.8777451928
 31
0.0
  0
LINE
  5
13E
330
1F
100
AcDbEntity
  8
0
  6
Continuous
 62
     7
100
AcDbLine
 10
6890.4644749866
 20
4492.8777451928
 30
0.0
 11
6890.5520342098
 21
4493.8950772699
 31
0.0
  0
LINE
  5
13F
330
1F
100
AcDbEntity
  8
0
  6
Continuous
 62
     7
100
AcDbLine
 10
6890.5520342098
 20
4493.8950772699
 30
0.0
 11
6890.2881644474
 21
4494.9070449289
 31
0.0
  0
LINE
  5
140
330
1F
100
AcDbEntity
  8
0
  6
Continuous
 62
     7
100
AcDbLine
 10
6890.2881644474
 20
4494.9070449289
 30
0.0
 11
6889.6785281406
 21
4495.8920712884
 31
0.0
  0
LINE
  5
141
330
1F
100
AcDbEntity
  8
0
  6
Continuous
 62
     7
100
AcDbLine
 10
6889.6785281406
 20
4495.8920712884
 30
0.0
 11
6888.7359998928
 21
4496.8291755136
 31
0.0
  0
LINE
  5
142
330
1F
100
AcDbEntity
  8
0
  6
Continuous
 62
     7
100
AcDbLine
 10
6888.7359998928
 20
4496.8291755136
 30
0.0
 11
6887.4807856785
 21
4497.6983304437
 31
0.0
  0
LINE
  5
143
330
1F
100
AcDbEntity
  8
0
  6
Continuous
 62
     7
100
AcDbLine
 10
6887.4807856785
 20
4497.6983304437
 30
0.0
 11
6885.9396479832
 21
4498.4810586389
 31
0.0
  0
LINE
  5
144
330
1F
100
AcDbEntity
  8
0
  6
Continuous
 62
     7
100
AcDbLine
 10
6885.9396479832
 20
4498.4810586389
 30
0.0
 11
6884.1453097568
 21
4499.1607900079
 31
0.0
  0
LINE
  5
145
330
1F
100
AcDbEntity
  8
0
  6
Continuous
 62
     7
100
AcDbLine
 10
6884.1453097568
 20
4499.1607900079
 30
0.0
 11
6882.1361563908
 21
4499.7227425989
 31
0.0
  0
LINE
  5
146
330
1F
100
AcDbEntity
  8
0
  6
Continuous
 62
     7
100
AcDbLine
 10
6882.1361563908
 20
4499.7227425989
 30
0.0
 11
6879.9548648106
 21
4500.1552339013
 31
0.0
  0
LINE
  5
147
330
1F
100
AcDbEntity
  8
0
  6
Continuous
 62
     7
100
AcDbLine
 10
6879.9548648106
 20
4500.1552339013
 30
0.0
 11
6877.6480458485
 21
4500.4489655908
 31
0.0
  0
LINE
  5
148
330
1F
100
AcDbEntity
  8
0
  6
Continuous
 62
     7
100
AcDbLine
 10
6877.6480458485
 20
4500.4489655908
 30
0.0
 11
6875.2648137318
 21
4500.5975003656
 31
0.0
  0
LINE
  5
149
330
1F
100
AcDbEntity
  8
0
  6
Continuous
 62
     7
100
AcDbLine
 10
6875.2648137318
 20
4500.5975003656
 30
0.0
 11
6872.8559516178
 21
4500.5979772027
 31
0.0
  0
LINE
  5
14A
330
1F
100
AcDbEntity
  8
0
  6
Continuous
 62
     7
100
AcDbLine
 10
6872.8559516178
 20
4500.5979772027
 30
0.0
 11
6870.4728387104
 21
4500.4501576837
 31
0.0
  0
LINE
  5
14B
330
1F
100
AcDbEntity
  8
0
  6
Continuous
 62
     7
100
AcDbLine
 10
6870.4728387104
 20
4500.4501576837
 30
0.0
 11
6868.1662581669
 21
4500.1572604593
 31
0.0
  0
LINE
  5
14C
330
1F
100
AcDbEntity
  8
0
  6
Continuous
 62
     7
100
AcDbLine
 10
6868.1662581669
 20
4500.1572604593
 30
0.0
 11
6865.9853242146
 21
4499.7254844125
 31
0.0
  0
LINE
  5
14D
330
1F
100
AcDbEntity
  8
0
  6
Continuous
 62
     7
100
AcDbLine
 10
6865.9853242146
 20
4499.7254844125
 30
0.0
 11
6863.976588081
 21
4499.164127868
 31
0.0
  0
LINE
  5
14E
330
1F
100
AcDbEntity
  8
0
  6
Continuous
 62
     7
100
AcDbLine
 10
6863.976588081
 20
4499.164127868
 30
0.0
 11
6862.1828459011
 21
4498.4851117547
 31
0.0
  0
LINE
  5
14F
330
1F
100
AcDbEntity
  8
0
  6
Continuous
 62
     7
100
AcDbLine
 10
6862.1828459011
 20
4498.4851117547
 30
0.0
 11
6860.6422446476
 21
4497.7028603967
 31
0.0
  0
LINE
  5
150
330
1F
100
AcDbEntity
  8
0
  6
Continuous
 62
     7
100
AcDbLine
 10
6860.6422446476
 20
4497.7028603967
 30
0.0
 11
6859.387745689
 21
4496.8340630945
 31
0.0
  0
LINE
  5
151
330
1F
100
AcDbEntity
  8
0
  6
Continuous
 62
     7
100
AcDbLine
 10
6859.387745689
 20
4496.8340630945
 30
0.0
 11
6858.4459923016
 21
4495.8973164972
 31
0.0
  0
LINE
  5
152
330
1F
100
AcDbEntity
  8
0
  6
Continuous
 62
     7
100
AcDbLine
 10
6858.4459923016
 20
4495.8973164972
 30
0.0
 11
6857.8371308552
 21
4494.9124093469
 31
0.0
  0
LINE
  5
153
330
1F
100
AcDbEntity
  8
0
  6
Continuous
 62
     7
100
AcDbLine
 10
6857.8371308552
 20
4494.9124093469
 30
0.0
 11
6857.5740359531
 21
4493.9005608972
 31
0.0
  0
LINE
  5
154
330
1F
100
AcDbEntity
  8
0
  6
Continuous
 62
     7
100
AcDbLine
 10
6857.5740359531
 20
4493.9005608972
 30
0.0
 11
6857.6624296413
 21
4492.8832288202
 31
0.0
  0
LINE
  5
155
330
1F
100
AcDbEntity
  8
0
  6
Continuous
 62
     7
100
AcDbLine
 10
6857.6624296413
 20
4492.8832288202
 30
0.0
 11
6858.1003449665
 21
4491.8821092065
 31
0.0
  0
LINE
  5
156
330
1F
100
AcDbEntity
  8
0
  6
Continuous
 62
     7
100
AcDbLine
 10
6858.1003449665
 20
4491.8821092065
 30
0.0
 11
6858.878483604
 21
4490.9184213098
 31
0.0
  0
LINE
  5
157
330
1F
100
AcDbEntity
  8
0
  6
Continuous
 62
     7
100
AcDbLine
 10
6858.878483604
 20
4490.9184213098
 30
0.0
 11
6859.9802754627
 21
4490.0129075464
 31
0.0
  0
LINE
  5
158
330
1F
100
AcDbEntity
  8
0
  6
Continuous
 62
     7
100
AcDbLine
 10
6859.9802754627
 20
4490.0129075464
 30
0.0
 11
6861.3822363125
 21
4489.1846414026
 31
0.0
  0
LINE
  5
159
330
1F
100
AcDbEntity
  8
0
  6
Continuous
 62
     7
100
AcDbLine
 10
6861.3822363125
 20
4489.1846414026
 30
0.0
 11
6863.0544446217
 21
4488.4515042718
 31
0.0
  0
LINE
  5
15A
330
1F
100
AcDbEntity
  8
0
  6
Continuous
 62
     7
100
AcDbLine
 10
6863.0544446217
 20
4488.4515042718
 30
0.0
 11
6864.9612568127
 21
4487.8289933618
 31
0.0
  0
LINE
  5
15B
330
1F
100
AcDbEntity
  8
0
  6
Continuous
 62
     7
100
AcDbLine
 10
6864.9612568127
 20
4487.8289933618
 30
0.0
 11
6867.0620821224
 21
4487.3304601129
 31
0.0
  0
LINE
  5
15C
330
1F
100
AcDbEntity
  8
0
  6
Continuous
 62
     7
100
AcDbLine
 10
6867.0620821224
 20
4487.3304601129
 30
0.0
 11
6869.3121574627
 21
4486.9663949426
 31
0.0
  0
LINE
  5
15D
330
1F
100
AcDbEntity
  8
0
  6
Continuous
 62
     7
100
AcDbLine
 10
6869.3121574627
 20
4486.9663949426
 30
0.0
 11
6871.6634414898
 21
4486.744665664
 31
0.0
  0
LINE
  5
15E
330
1F
100
AcDbEntity
  8
0
  6
Continuous
 62
     7
100
AcDbLine
 10
6871.6634414898
 20
4486.744665664
 30
0.0
 11
6874.0658663021
 21
4486.6699214395
 31
0.0
  0
LINE
  5
15F
330
1F
100
AcDbEntity
  8
0
  6
Continuous
 62
     7
100
AcDbLine
 10
6892.0624159084
 20
4495.0835938867
 30
0.0
 11
6891.9646046864
 21
4495.7947965082
 31
0.0
  0
LINE
  5
160
330
1F
100
AcDbEntity
  8
0
  6
Continuous
 62
     7
100
AcDbLine
 10
6891.9646046864
 20
4495.7947965082
 30
0.0
 11
6891.5281198727
 21
4496.8400235589
 31
0.0
  0
LINE
  5
161
330
1F
100
AcDbEntity
  8
0
  6
Continuous
 62
     7
100
AcDbLine
 10
6891.5281198727
 20
4496.8400235589
 30
0.0
 11
6890.7517097698
 21
4497.8494878229
 31
0.0
  0
LINE
  5
162
330
1F
100
AcDbEntity
  8
0
  6
Continuous
 62
     7
100
AcDbLine
 10
6890.7517097698
 20
4497.8494878229
 30
0.0
 11
6889.6505139576
 21
4498.8035197671
 31
0.0
  0
LINE
  5
163
330
1F
100
AcDbEntity
  8
0
  6
Continuous
 62
     7
100
AcDbLine
 10
6889.6505139576
 20
4498.8035197671
 30
0.0
 11
6888.2458708988
 21
4499.6836419519
 31
0.0
  0
LINE
  5
164
330
1F
100
AcDbEntity
  8
0
  6
Continuous
 62
     7
100
AcDbLine
 10
6888.2458708988
 20
4499.6836419519
 30
0.0
 11
6886.5651987301
 21
4500.4726882394
 31
0.0
  0
LINE
  5
165
330
1F
100
AcDbEntity
  8
0
  6
Continuous
 62
     7
100
AcDbLine
 10
6886.5651987301
 20
4500.4726882394
 30
0.0
 11
6884.6412204014
 21
4501.1551614221
 31
0.0
  0
LINE
  5
166
330
1F
100
AcDbEntity
  8
0
  6
Continuous
 62
     7
100
AcDbLine
 10
6884.6412204014
 20
4501.1551614221
 30
0.0
 11
6882.5113676296
 21
4501.7179484781
 31
0.0
  0
LINE
  5
167
330
1F
100
AcDbEntity
  8
0
  6
Continuous
 62
     7
100
AcDbLine
 10
6882.5113676296
 20
4501.7179484781
 30
0.0
 11
6880.2170656429
 21
4502.1499629434
 31
0.0
  0
LINE
  5
168
330
1F
100
AcDbEntity
  8
0
  6
Continuous
 62
     7
100
AcDbLine
 10
6880.2170656429
 20
4502.1499629434
 30
0.0
 11
6877.8030179249
 21
4502.4428601678
 31
0.0
  0
LINE
  5
169
330
1F
100
AcDbEntity
  8
0
  6
Continuous
 62
     7
100
AcDbLine
 10
6877.8030179249
 20
4502.4428601678
 30
0.0
 11
6875.3161333309
 21
4502.5910373147
 31
0.0
  0
LINE
  5
16A
330
1F
100
AcDbEntity
  8
0
  6
Continuous
 62
     7
100
AcDbLine
 10
6875.3161333309
 20
4502.5910373147
 30
0.0
 11
6872.8049300419
 21
4502.5913949426
 31
0.0
  0
LINE
  5
16B
330
1F
100
AcDbEntity
  8
0
  6
Continuous
 62
     7
100
AcDbLine
 10
6872.8049300419
 20
4502.5913949426
 30
0.0
 11
6870.3181646572
 21
4502.44417147
 31
0.0
  0
LINE
  5
16C
330
1F
100
AcDbEntity
  8
0
  6
Continuous
 62
     7
100
AcDbLine
 10
6870.3181646572
 20
4502.44417147
 30
0.0
 11
6867.9043553577
 21
4502.1519895013
 31
0.0
  0
LINE
  5
16D
330
1F
100
AcDbEntity
  8
0
  6
Continuous
 62
     7
100
AcDbLine
 10
6867.9043553577
 20
4502.1519895013
 30
0.0
 11
6865.6104109989
 21
4501.7206902917
 31
0.0
  0
LINE
  5
16E
330
1F
100
AcDbEntity
  8
0
  6
Continuous
 62
     7
100
AcDbLine
 10
6865.6104109989
 20
4501.7206902917
 30
0.0
 11
6863.4809754597
 21
4501.1586184915
 31
0.0
  0
LINE
  5
16F
330
1F
100
AcDbEntity
  8
0
  6
Continuous
 62
     7
100
AcDbLine
 10
6863.4809754597
 20
4501.1586184915
 30
0.0
 11
6861.5575335728
 21
4500.4768605646
 31
0.0
  0
LINE
  5
170
330
1F
100
AcDbEntity
  8
0
  6
Continuous
 62
     7
100
AcDbLine
 10
6861.5575335728
 20
4500.4768605646
 30
0.0
 11
6859.8775170551
 21
4499.6884103235
 31
0.0
  0
LINE
  5
171
330
1F
100
AcDbEntity
  8
0
  6
Continuous
 62
     7
100
AcDbLine
 10
6859.8775170551
 20
4499.6884103235
 30
0.0
 11
6858.4735892521
 21
4498.8087649759
 31
0.0
  0
LINE
  5
172
330
1F
100
AcDbEntity
  8
0
  6
Continuous
 62
     7
100
AcDbLine
 10
6858.4735892521
 20
4498.8087649759
 30
0.0
 11
6857.3731086956
 21
4497.8550906595
 31
0.0
  0
LINE
  5
173
330
1F
100
AcDbEntity
  8
0
  6
Continuous
 62
     7
100
AcDbLine
 10
6857.3731086956
 20
4497.8550906595
 30
0.0
 11
6856.5974734531
 21
4496.8458648141
 31
0.0
  0
LINE
  5
174
330
1F
100
AcDbEntity
  8
0
  6
Continuous
 62
     7
100
AcDbLine
 10
6856.5974734531
 20
4496.8458648141
 30
0.0
 11
6856.1618231045
 21
4495.8007569726
 31
0.0
  0
LINE
  5
175
330
1F
100
AcDbEntity
  8
0
  6
Continuous
 62
     7
100
AcDbLine
 10
6856.1618231045
 20
4495.8007569726
 30
0.0
 11
6856.064250301
 21
4494.9378009256
 31
0.0
  0
LINE
  5
176
330
1F
100
AcDbEntity
  8
0
  6
Continuous
 62
     7
100
AcDbLine
 10
6886.0248826252
 20
4495.1738353189
 30
0.0
 11
6885.2375052677
 21
4496.0080619272
 31
0.0
  0
LINE
  5
177
330
1F
100
AcDbEntity
  8
0
  6
Continuous
 62
     7
100
AcDbLine
 10
6885.2375052677
 20
4496.0080619272
 30
0.0
 11
6884.1272495495
 21
4496.7739816125
 31
0.0
  0
LINE
  5
178
330
1F
100
AcDbEntity
  8
0
  6
Continuous
 62
     7
100
AcDbLine
 10
6884.1272495495
 20
4496.7739816125
 30
0.0
 11
6882.7261231647
 21
4497.4494214471
 31
0.0
  0
LINE
  5
179
330
1F
100
AcDbEntity
  8
0
  6
Continuous
 62
     7
100
AcDbLine
 10
6882.7261231647
 20
4497.4494214471
 30
0.0
 11
6881.0747168766
 21
4498.0148311075
 31
0.0
  0
LINE
  5
17A
330
1F
100
AcDbEntity
  8
0
  6
Continuous
 62
     7
100
AcDbLine
 10
6881.0747168766
 20
4498.0148311075
 30
0.0
 11
6879.2207144009
 21
4498.4539981302
 31
0.0
  0
LINE
  5
17B
330
1F
100
AcDbEntity
  8
0
  6
Continuous
 62
     7
100
AcDbLine
 10
6879.2207144009
 20
4498.4539981302
 30
0.0
 11
6877.2177003132
 21
4498.7541671213
 31
0.0
  0
LINE
  5
17C
330
1F
100
AcDbEntity
  8
0
  6
Continuous
 62
     7
100
AcDbLine
 10
6877.2177003132
 20
4498.7541671213
 30
0.0
 11
6875.123491119
 21
4498.9066358026
 31
0.0
  0
LINE
  5
17D
330
1F
100
AcDbEntity
  8
0
  6
Continuous
 62
     7
100
AcDbLine
 10
6875.123491119
 20
4498.9066358026
 30
0.0
 11
6872.9986451374
 21
4498.9069934305
 31
0.0
  0
LINE
  5
17E
330
1F
100
AcDbEntity
  8
0
  6
Continuous
 62
     7
100
AcDbLine
 10
6872.9986451374
 20
4498.9069934305
 30
0.0
 11
6870.9045551525
 21
4498.7552400049
 31
0.0
  0
LINE
  5
17F
330
1F
100
AcDbEntity
  8
0
  6
Continuous
 62
     7
100
AcDbLine
 10
6870.9045551525
 20
4498.7552400049
 30
0.0
 11
6868.9017794834
 21
4498.4557862695
 31
0.0
  0
LINE
  5
180
330
1F
100
AcDbEntity
  8
0
  6
Continuous
 62
     7
100
AcDbLine
 10
6868.9017794834
 20
4498.4557862695
 30
0.0
 11
6867.0480750309
 21
4498.0172152933
 31
0.0
  0
LINE
  5
181
330
1F
100
AcDbEntity
  8
0
  6
Continuous
 62
     7
100
AcDbLine
 10
6867.0480750309
 20
4498.0172152933
 30
0.0
 11
6865.3971455799
 21
4497.4522824701
 31
0.0
  0
LINE
  5
182
330
1F
100
AcDbEntity
  8
0
  6
Continuous
 62
     7
100
AcDbLine
 10
6865.3971455799
 20
4497.4522824701
 30
0.0
 11
6863.996555637
 21
4496.7773194726
 31
0.0
  0
LINE
  5
183
330
1F
100
AcDbEntity
  8
0
  6
Continuous
 62
     7
100
AcDbLine
 10
6863.996555637
 20
4496.7773194726
 30
0.0
 11
6862.8868959652
 21
4496.0117574151
 31
0.0
  0
LINE
  5
184
330
1F
100
AcDbEntity
  8
0
  6
Continuous
 62
     7
100
AcDbLine
 10
6862.8868959652
 20
4496.0117574151
 30
0.0
 11
6862.1001742588
 21
4495.1777692254
 31
0.0
  0
LINE
  5
185
330
1F
100
AcDbEntity
  8
0
  6
Continuous
 62
     7
100
AcDbLine
 10
6862.1001742588
 20
4495.1777692254
 30
0.0
 11
6862.0787165867
 21
4495.113753837
 31
0.0
  0
LINE
  5
186
330
1F
100
AcDbEntity
  8
0
  6
Continuous
 62
     7
100
AcDbLine
 10
6862.0787165867
 20
4495.113753837
 30
0.0
 11
6862.10416777
 21
4495.0498576578
 31
0.0
  0
LINE
  5
187
330
1F
100
AcDbEntity
  8
0
  6
Continuous
 62
     7
100
AcDbLine
 10
6862.10416777
 20
4495.0498576578
 30
0.0
 11
6862.174143623
 21
4494.9922795709
 31
0.0
  0
LINE
  5
188
330
1F
100
AcDbEntity
  8
0
  6
Continuous
 62
     7
100
AcDbLine
 10
6862.174143623
 20
4494.9922795709
 30
0.0
 11
6862.28202803
 21
4494.9463839944
 31
0.0
  0
LINE
  5
189
330
1F
100
AcDbEntity
  8
0
  6
Continuous
 62
     7
100
AcDbLine
 10
6862.28202803
 20
4494.9463839944
 30
0.0
 11
6862.4178074108
 21
4494.9163432535
 31
0.0
  0
LINE
  5
18A
330
1F
100
AcDbEntity
  8
0
  6
Continuous
 62
     7
100
AcDbLine
 10
6862.4178074108
 20
4494.9163432535
 30
0.0
 11
6862.5686071621
 21
4494.9051375802
 31
0.0
  0
LINE
  5
18B
330
1F
100
AcDbEntity
  8
0
  6
Continuous
 62
     7
100
AcDbLine
 10
6862.5686071621
 20
4494.9051375802
 30
0.0
 11
6862.7203605877
 21
4494.9137206491
 31
0.0
  0
LINE
  5
18C
330
1F
100
AcDbEntity
  8
0
  6
Continuous
 62
     7
100
AcDbLine
 10
6862.7203605877
 20
4494.9137206491
 30
0.0
 11
6862.8588221775
 21
4494.9413772043
 31
0.0
  0
LINE
  5
18D
330
1F
100
AcDbEntity
  8
0
  6
Continuous
 62
     7
100
AcDbLine
 10
6885.2664135204
 20
4494.937562507
 30
0.0
 11
6885.4048751102
 21
4494.9099059518
 31
0.0
  0
LINE
  5
18E
330
1F
100
AcDbEntity
  8
0
  6
Continuous
 62
     7
100
AcDbLine
 10
6885.4048751102
 20
4494.9099059518
 30
0.0
 11
6885.5566881405
 21
4494.901322883
 31
0.0
  0
LINE
  5
18F
330
1F
100
AcDbEntity
  8
0
  6
Continuous
 62
     7
100
AcDbLine
 10
6885.5566881405
 20
4494.901322883
 30
0.0
 11
6885.7074878918
 21
4494.9125285562
 31
0.0
  0
LINE
  5
190
330
1F
100
AcDbEntity
  8
0
  6
Continuous
 62
     7
100
AcDbLine
 10
6885.7074878918
 20
4494.9125285562
 30
0.0
 11
6885.8432076679
 21
4494.9424500879
 31
0.0
  0
LINE
  5
191
330
1F
100
AcDbEntity
  8
0
  6
Continuous
 62
     7
100
AcDbLine
 10
6885.8432076679
 20
4494.9424500879
 30
0.0
 11
6885.9510324703
 21
4494.9883456643
 31
0.0
  0
LINE
  5
192
330
1F
100
AcDbEntity
  8
0
  6
Continuous
 62
     7
100
AcDbLine
 10
6885.9510324703
 20
4494.9883456643
 30
0.0
 11
6886.0209487186
 21
4495.0459237512
 31
0.0
  0
LINE
  5
193
330
1F
100
AcDbEntity
  8
0
  6
Continuous
 62
     7
100
AcDbLine
 10
6886.0209487186
 20
4495.0459237512
 30
0.0
 11
6886.046399902
 21
4495.1097007211
 31
0.0
  0
LINE
  5
194
330
1F
100
AcDbEntity
  8
0
  6
Continuous
 62
     7
100
AcDbLine
 10
6886.046399902
 20
4495.1097007211
 30
0.0
 11
6886.0248826252
 21
4495.1738353189
 31
0.0
  0
LINE
  5
195
330
1F
100
AcDbEntity
  8
0
  6
Continuous
 62
     7
100
AcDbLine
 10
6862.8598950611
 20
4492.3486943658
 30
0.0
 11
6862.7213738666
 21
4492.376350921
 31
0.0
  0
LINE
  5
196
330
1F
100
AcDbEntity
  8
0
  6
Continuous
 62
     7
100
AcDbLine
 10
6862.7213738666
 20
4492.376350921
 30
0.0
 11
6862.5696204411
 21
4492.3850531991
 31
0.0
  0
LINE
  5
197
330
1F
100
AcDbEntity
  8
0
  6
Continuous
 62
     7
100
AcDbLine
 10
6862.5696204411
 20
4492.3850531991
 30
0.0
 11
6862.4187610851
 21
4492.3738475259
 31
0.0
  0
LINE
  5
198
330
1F
100
AcDbEntity
  8
0
  6
Continuous
 62
     7
100
AcDbLine
 10
6862.4187610851
 20
4492.3738475259
 30
0.0
 11
6862.2831009136
 21
4492.343806785
 31
0.0
  0
LINE
  5
199
330
1F
100
AcDbEntity
  8
0
  6
Continuous
 62
     7
100
AcDbLine
 10
6862.2831009136
 20
4492.343806785
 30
0.0
 11
6862.1752165066
 21
4492.2979112085
 31
0.0
  0
LINE
  5
19A
330
1F
100
AcDbEntity
  8
0
  6
Continuous
 62
     7
100
AcDbLine
 10
6862.1752165066
 20
4492.2979112085
 30
0.0
 11
6862.1053002583
 21
4492.2404523309
 31
0.0
  0
LINE
  5
19B
330
1F
100
AcDbEntity
  8
0
  6
Continuous
 62
     7
100
AcDbLine
 10
6862.1053002583
 20
4492.2404523309
 30
0.0
 11
6862.0799086796
 21
4492.1765561517
 31
0.0
  0
LINE
  5
19C
330
1F
100
AcDbEntity
  8
0
  6
Continuous
 62
     7
100
AcDbLine
 10
6862.0799086796
 20
4492.1765561517
 30
0.0
 11
6862.1013663517
 21
4492.1125407632
 31
0.0
  0
LINE
  5
19D
330
1F
100
AcDbEntity
  8
0
  6
Continuous
 62
     7
100
AcDbLine
 10
6862.1013663517
 20
4492.1125407632
 30
0.0
 11
6862.8887437092
 21
4491.2783141549
 31
0.0
  0
LINE
  5
19E
330
1F
100
AcDbEntity
  8
0
  6
Continuous
 62
     7
100
AcDbLine
 10
6862.8887437092
 20
4491.2783141549
 30
0.0
 11
6863.9990590321
 21
4490.5123944696
 31
0.0
  0
LINE
  5
19F
330
1F
100
AcDbEntity
  8
0
  6
Continuous
 62
     7
100
AcDbLine
 10
6863.9990590321
 20
4490.5123944696
 30
0.0
 11
6865.4001258121
 21
4489.8368354257
 31
0.0
  0
LINE
  5
1A0
330
1F
100
AcDbEntity
  8
0
  6
Continuous
 62
     7
100
AcDbLine
 10
6865.4001258121
 20
4489.8368354257
 30
0.0
 11
6867.0515321003
 21
4489.2714257654
 31
0.0
  0
LINE
  5
1A1
330
1F
100
AcDbEntity
  8
0
  6
Continuous
 62
     7
100
AcDbLine
 10
6867.0515321003
 20
4489.2714257654
 30
0.0
 11
6868.905534576
 21
4488.8322587427
 31
0.0
  0
LINE
  5
1A2
330
1F
100
AcDbEntity
  8
0
  6
Continuous
 62
     7
100
AcDbLine
 10
6868.905534576
 20
4488.8322587427
 30
0.0
 11
6870.9086082684
 21
4488.5322089609
 31
0.0
  0
LINE
  5
1A3
330
1F
100
AcDbEntity
  8
0
  6
Continuous
 62
     7
100
AcDbLine
 10
6870.9086082684
 20
4488.5322089609
 30
0.0
 11
6873.0028174625
 21
4488.3797402795
 31
0.0
  0
LINE
  5
1A4
330
1F
100
AcDbEntity
  8
0
  6
Continuous
 62
     7
100
AcDbLine
 10
6873.0028174625
 20
4488.3797402795
 30
0.0
 11
6875.1276038395
 21
4488.3793826517
 31
0.0
  0
LINE
  5
1A5
330
1F
100
AcDbEntity
  8
0
  6
Continuous
 62
     7
100
AcDbLine
 10
6875.1276038395
 20
4488.3793826517
 30
0.0
 11
6877.2216938244
 21
4488.5311360772
 31
0.0
  0
LINE
  5
1A6
330
1F
100
AcDbEntity
  8
0
  6
Continuous
 62
     7
100
AcDbLine
 10
6877.2216938244
 20
4488.5311360772
 30
0.0
 11
6879.2245290981
 21
4488.8305898126
 31
0.0
  0
LINE
  5
1A7
330
1F
100
AcDbEntity
  8
0
  6
Continuous
 62
     7
100
AcDbLine
 10
6879.2245290981
 20
4488.8305898126
 30
0.0
 11
6881.078173946
 21
4489.2690415796
 31
0.0
  0
LINE
  5
1A8
330
1F
100
AcDbEntity
  8
0
  6
Continuous
 62
     7
100
AcDbLine
 10
6881.078173946
 20
4489.2690415796
 30
0.0
 11
6882.7291630016
 21
4489.8339744027
 31
0.0
  0
LINE
  5
1A9
330
1F
100
AcDbEntity
  8
0
  6
Continuous
 62
     7
100
AcDbLine
 10
6882.7291630016
 20
4489.8339744027
 30
0.0
 11
6884.1296933399
 21
4490.5089374002
 31
0.0
  0
LINE
  5
1AA
330
1F
100
AcDbEntity
  8
0
  6
Continuous
 62
     7
100
AcDbLine
 10
6884.1296933399
 20
4490.5089374002
 30
0.0
 11
6885.2393530117
 21
4491.2744994577
 31
0.0
  0
LINE
  5
1AB
330
1F
100
AcDbEntity
  8
0
  6
Continuous
 62
     7
100
AcDbLine
 10
6885.2393530117
 20
4491.2744994577
 30
0.0
 11
6886.0261343227
 21
4492.1084876474
 31
0.0
  0
LINE
  5
1AC
330
1F
100
AcDbEntity
  8
0
  6
Continuous
 62
     7
100
AcDbLine
 10
6886.0261343227
 20
4492.1084876474
 30
0.0
 11
6886.0475323902
 21
4492.1726222452
 31
0.0
  0
LINE
  5
1AD
330
1F
100
AcDbEntity
  8
0
  6
Continuous
 62
     7
100
AcDbLine
 10
6886.0475323902
 20
4492.1726222452
 30
0.0
 11
6886.0220812069
 21
4492.2363992151
 31
0.0
  0
LINE
  5
1AE
330
1F
100
AcDbEntity
  8
0
  6
Continuous
 62
     7
100
AcDbLine
 10
6886.0220812069
 20
4492.2363992151
 30
0.0
 11
6885.9521053539
 21
4492.2939773019
 31
0.0
  0
LINE
  5
1AF
330
1F
100
AcDbEntity
  8
0
  6
Continuous
 62
     7
100
AcDbLine
 10
6885.9521053539
 20
4492.2939773019
 30
0.0
 11
6885.8442209469
 21
4492.3398728784
 31
0.0
  0
LINE
  5
1B0
330
1F
100
AcDbEntity
  8
0
  6
Continuous
 62
     7
100
AcDbLine
 10
6885.8442209469
 20
4492.3398728784
 30
0.0
 11
6885.7085011707
 21
4492.3699136194
 31
0.0
  0
LINE
  5
1B1
330
1F
100
AcDbEntity
  8
0
  6
Continuous
 62
     7
100
AcDbLine
 10
6885.7085011707
 20
4492.3699136194
 30
0.0
 11
6885.5576418148
 21
4492.3811192926
 31
0.0
  0
LINE
  5
1B2
330
1F
100
AcDbEntity
  8
0
  6
Continuous
 62
     7
100
AcDbLine
 10
6885.5576418148
 20
4492.3811192926
 30
0.0
 11
6885.4058883892
 21
4492.3725362237
 31
0.0
  0
LINE
  5
1B3
330
1F
100
AcDbEntity
  8
0
  6
Continuous
 62
     7
100
AcDbLine
 10
6885.4058883892
 20
4492.3725362237
 30
0.0
 11
6885.2674267994
 21
4492.3449988778
 31
0.0
  0
LINE
  5
1B4
330
1F
100
AcDbEntity
  8
0
  6
Continuous
 62
     7
100
AcDbLine
 10
5674.065878223
 20
4486.6699214395
 30
0.0
 11
5676.468273233
 21
4486.743831199
 31
0.0
  0
LINE
  5
1B5
330
1F
100
AcDbEntity
  8
0
  6
Continuous
 62
     7
100
AcDbLine
 10
5676.468273233
 20
4486.743831199
 30
0.0
 11
5678.8194082485
 21
4486.9648452218
 31
0.0
  0
LINE
  5
1B6
330
1F
100
AcDbEntity
  8
0
  6
Continuous
 62
     7
100
AcDbLine
 10
5678.8194082485
 20
4486.9648452218
 30
0.0
 11
5681.0691557632
 21
4487.3280759271
 31
0.0
  0
LINE
  5
1B7
330
1F
100
AcDbEntity
  8
0
  6
Continuous
 62
     7
100
AcDbLine
 10
5681.0691557632
 20
4487.3280759271
 30
0.0
 11
5683.1695936428
 21
4487.8260131296
 31
0.0
  0
LINE
  5
1B8
330
1F
100
AcDbEntity
  8
0
  6
Continuous
 62
     7
100
AcDbLine
 10
5683.1695936428
 20
4487.8260131296
 30
0.0
 11
5685.075958799
 21
4488.4478087839
 31
0.0
  0
LINE
  5
1B9
330
1F
100
AcDbEntity
  8
0
  6
Continuous
 62
     7
100
AcDbLine
 10
5685.075958799
 20
4488.4478087839
 30
0.0
 11
5686.7475710617
 21
4489.1804690774
 31
0.0
  0
LINE
  5
1BA
330
1F
100
AcDbEntity
  8
0
  6
Continuous
 62
     7
100
AcDbLine
 10
5686.7475710617
 20
4489.1804690774
 30
0.0
 11
5688.148846458
 21
4490.0081391748
 31
0.0
  0
LINE
  5
1BB
330
1F
100
AcDbEntity
  8
0
  6
Continuous
 62
     7
100
AcDbLine
 10
5688.148846458
 20
4490.0081391748
 30
0.0
 11
5689.249923061
 21
4490.9134145196
 31
0.0
  0
LINE
  5
1BC
330
1F
100
AcDbEntity
  8
0
  6
Continuous
 62
     7
100
AcDbLine
 10
5689.249923061
 20
4490.9134145196
 30
0.0
 11
5690.0273166405
 21
4491.8767447885
 31
0.0
  0
LINE
  5
1BD
330
1F
100
AcDbEntity
  8
0
  6
Continuous
 62
     7
100
AcDbLine
 10
5690.0273166405
 20
4491.8767447885
 30
0.0
 11
5690.4644571053
 21
4492.8777451928
 31
0.0
  0
LINE
  5
1BE
330
1F
100
AcDbEntity
  8
0
  6
Continuous
 62
     7
100
AcDbLine
 10
5690.4644571053
 20
4492.8777451928
 30
0.0
 11
5690.5520163284
 21
4493.8950772699
 31
0.0
  0
LINE
  5
1BF
330
1F
100
AcDbEntity
  8
0
  6
Continuous
 62
     7
100
AcDbLine
 10
5690.5520163284
 20
4493.8950772699
 30
0.0
 11
5690.2881763683
 21
4494.9070449289
 31
0.0
  0
LINE
  5
1C0
330
1F
100
AcDbEntity
  8
0
  6
Continuous
 62
     7
100
AcDbLine
 10
5690.2881763683
 20
4494.9070449289
 30
0.0
 11
5689.6785102592
 21
4495.8920712884
 31
0.0
  0
LINE
  5
1C1
330
1F
100
AcDbEntity
  8
0
  6
Continuous
 62
     7
100
AcDbLine
 10
5689.6785102592
 20
4495.8920712884
 30
0.0
 11
5688.7360118137
 21
4496.8291755136
 31
0.0
  0
LINE
  5
1C2
330
1F
100
AcDbEntity
  8
0
  6
Continuous
 62
     7
100
AcDbLine
 10
5688.7360118137
 20
4496.8291755136
 30
0.0
 11
5687.4808274017
 21
4497.6983304437
 31
0.0
  0
LINE
  5
1C3
330
1F
100
AcDbEntity
  8
0
  6
Continuous
 62
     7
100
AcDbLine
 10
5687.4808274017
 20
4497.6983304437
 30
0.0
 11
5685.9396301018
 21
4498.4810586389
 31
0.0
  0
LINE
  5
1C4
330
1F
100
AcDbEntity
  8
0
  6
Continuous
 62
     7
100
AcDbLine
 10
5685.9396301018
 20
4498.4810586389
 30
0.0
 11
5684.1453216778
 21
4499.1607900079
 31
0.0
  0
LINE
  5
1C5
330
1F
100
AcDbEntity
  8
0
  6
Continuous
 62
     7
100
AcDbLine
 10
5684.1453216778
 20
4499.1607900079
 30
0.0
 11
5682.1361385094
 21
4499.7227425989
 31
0.0
  0
LINE
  5
1C6
330
1F
100
AcDbEntity
  8
0
  6
Continuous
 62
     7
100
AcDbLine
 10
5682.1361385094
 20
4499.7227425989
 30
0.0
 11
5679.9548767315
 21
4500.1552339013
 31
0.0
  0
LINE
  5
1C7
330
1F
100
AcDbEntity
  8
0
  6
Continuous
 62
     7
100
AcDbLine
 10
5679.9548767315
 20
4500.1552339013
 30
0.0
 11
5677.6480577694
 21
4500.4489655908
 31
0.0
  0
LINE
  5
1C8
330
1F
100
AcDbEntity
  8
0
  6
Continuous
 62
     7
100
AcDbLine
 10
5677.6480577694
 20
4500.4489655908
 30
0.0
 11
5675.2648256527
 21
4500.5975003656
 31
0.0
  0
LINE
  5
1C9
330
1F
100
AcDbEntity
  8
0
  6
Continuous
 62
     7
100
AcDbLine
 10
5675.2648256527
 20
4500.5975003656
 30
0.0
 11
5672.8559635387
 21
4500.5979772027
 31
0.0
  0
LINE
  5
1CA
330
1F
100
AcDbEntity
  8
0
  6
Continuous
 62
     7
100
AcDbLine
 10
5672.8559635387
 20
4500.5979772027
 30
0.0
 11
5670.4728506313
 21
4500.4501576837
 31
0.0
  0
LINE
  5
1CB
330
1F
100
AcDbEntity
  8
0
  6
Continuous
 62
     7
100
AcDbLine
 10
5670.4728506313
 20
4500.4501576837
 30
0.0
 11
5668.1662700878
 21
4500.1572604593
 31
0.0
  0
LINE
  5
1CC
330
1F
100
AcDbEntity
  8
0
  6
Continuous
 62
     7
100
AcDbLine
 10
5668.1662700878
 20
4500.1572604593
 30
0.0
 11
5665.9853361355
 21
4499.7254844125
 31
0.0
  0
LINE
  5
1CD
330
1F
100
AcDbEntity
  8
0
  6
Continuous
 62
     7
100
AcDbLine
 10
5665.9853361355
 20
4499.7254844125
 30
0.0
 11
5663.9766000019
 21
4499.164127868
 31
0.0
  0
LINE
  5
1CE
330
1F
100
AcDbEntity
  8
0
  6
Continuous
 62
     7
100
AcDbLine
 10
5663.9766000019
 20
4499.164127868
 30
0.0
 11
5662.1828280197
 21
4498.4851117547
 31
0.0
  0
LINE
  5
1CF
330
1F
100
AcDbEntity
  8
0
  6
Continuous
 62
     7
100
AcDbLine
 10
5662.1828280197
 20
4498.4851117547
 30
0.0
 11
5660.6422565685
 21
4497.7028603967
 31
0.0
  0
LINE
  5
1D0
330
1F
100
AcDbEntity
  8
0
  6
Continuous
 62
     7
100
AcDbLine
 10
5660.6422565685
 20
4497.7028603967
 30
0.0
 11
5659.3877278076
 21
4496.8340630945
 31
0.0
  0
LINE
  5
1D1
330
1F
100
AcDbEntity
  8
0
  6
Continuous
 62
     7
100
AcDbLine
 10
5659.3877278076
 20
4496.8340630945
 30
0.0
 11
5658.4460042225
 21
4495.8973164972
 31
0.0
  0
LINE
  5
1D2
330
1F
100
AcDbEntity
  8
0
  6
Continuous
 62
     7
100
AcDbLine
 10
5658.4460042225
 20
4495.8973164972
 30
0.0
 11
5657.8371129738
 21
4494.9124093469
 31
0.0
  0
LINE
  5
1D3
330
1F
100
AcDbEntity
  8
0
  6
Continuous
 62
     7
100
AcDbLine
 10
5657.8371129738
 20
4494.9124093469
 30
0.0
 11
5657.5740478741
 21
4493.9005608972
 31
0.0
  0
LINE
  5
1D4
330
1F
100
AcDbEntity
  8
0
  6
Continuous
 62
     7
100
AcDbLine
 10
5657.5740478741
 20
4493.9005608972
 30
0.0
 11
5657.6624117599
 21
4492.8832288202
 31
0.0
  0
LINE
  5
1D5
330
1F
100
AcDbEntity
  8
0
  6
Continuous
 62
     7
100
AcDbLine
 10
5657.6624117599
 20
4492.8832288202
 30
0.0
 11
5658.1003568874
 21
4491.8821092065
 31
0.0
  0
LINE
  5
1D6
330
1F
100
AcDbEntity
  8
0
  6
Continuous
 62
     7
100
AcDbLine
 10
5658.1003568874
 20
4491.8821092065
 30
0.0
 11
5658.878495525
 21
4490.9184213098
 31
0.0
  0
LINE
  5
1D7
330
1F
100
AcDbEntity
  8
0
  6
Continuous
 62
     7
100
AcDbLine
 10
5658.878495525
 20
4490.9184213098
 30
0.0
 11
5659.9802873836
 21
4490.0129075464
 31
0.0
  0
LINE
  5
1D8
330
1F
100
AcDbEntity
  8
0
  6
Continuous
 62
     7
100
AcDbLine
 10
5659.9802873836
 20
4490.0129075464
 30
0.0
 11
5661.3822184311
 21
4489.1846414026
 31
0.0
  0
LINE
  5
1D9
330
1F
100
AcDbEntity
  8
0
  6
Continuous
 62
     7
100
AcDbLine
 10
5661.3822184311
 20
4489.1846414026
 30
0.0
 11
5663.0544267403
 21
4488.4515042718
 31
0.0
  0
LINE
  5
1DA
330
1F
100
AcDbEntity
  8
0
  6
Continuous
 62
     7
100
AcDbLine
 10
5663.0544267403
 20
4488.4515042718
 30
0.0
 11
5664.9612687336
 21
4487.8289933618
 31
0.0
  0
LINE
  5
1DB
330
1F
100
AcDbEntity
  8
0
  6
Continuous
 62
     7
100
AcDbLine
 10
5664.9612687336
 20
4487.8289933618
 30
0.0
 11
5667.0620940433
 21
4487.3304601129
 31
0.0
  0
LINE
  5
1DC
330
1F
100
AcDbEntity
  8
0
  6
Continuous
 62
     7
100
AcDbLine
 10
5667.0620940433
 20
4487.3304601129
 30
0.0
 11
5669.3121395813
 21
4486.9663949426
 31
0.0
  0
LINE
  5
1DD
330
1F
100
AcDbEntity
  8
0
  6
Continuous
 62
     7
100
AcDbLine
 10
5669.3121395813
 20
4486.9663949426
 30
0.0
 11
5671.6634534107
 21
4486.744665664
 31
0.0
  0
LINE
  5
1DE
330
1F
100
AcDbEntity
  8
0
  6
Continuous
 62
     7
100
AcDbLine
 10
5671.6634534107
 20
4486.744665664
 30
0.0
 11
5674.065878223
 21
4486.6699214395
 31
0.0
  0
LINE
  5
1DF
330
1F
100
AcDbEntity
  8
0
  6
Continuous
 62
     7
100
AcDbLine
 10
5692.062398027
 20
4495.0835938867
 30
0.0
 11
5691.9646166073
 21
4495.7947965082
 31
0.0
  0
LINE
  5
1E0
330
1F
100
AcDbEntity
  8
0
  6
Continuous
 62
     7
100
AcDbLine
 10
5691.9646166073
 20
4495.7947965082
 30
0.0
 11
5691.5281317936
 21
4496.8400235589
 31
0.0
  0
LINE
  5
1E1
330
1F
100
AcDbEntity
  8
0
  6
Continuous
 62
     7
100
AcDbLine
 10
5691.5281317936
 20
4496.8400235589
 30
0.0
 11
5690.7517216907
 21
4497.8494878229
 31
0.0
  0
LINE
  5
1E2
330
1F
100
AcDbEntity
  8
0
  6
Continuous
 62
     7
100
AcDbLine
 10
5690.7517216907
 20
4497.8494878229
 30
0.0
 11
5689.6504960762
 21
4498.8035197671
 31
0.0
  0
LINE
  5
1E3
330
1F
100
AcDbEntity
  8
0
  6
Continuous
 62
     7
100
AcDbLine
 10
5689.6504960762
 20
4498.8035197671
 30
0.0
 11
5688.2458828197
 21
4499.6836419519
 31
0.0
  0
LINE
  5
1E4
330
1F
100
AcDbEntity
  8
0
  6
Continuous
 62
     7
100
AcDbLine
 10
5688.2458828197
 20
4499.6836419519
 30
0.0
 11
5686.565210651
 21
4500.4726882394
 31
0.0
  0
LINE
  5
1E5
330
1F
100
AcDbEntity
  8
0
  6
Continuous
 62
     7
100
AcDbLine
 10
5686.565210651
 20
4500.4726882394
 30
0.0
 11
5684.6412323223
 21
4501.1551614221
 31
0.0
  0
LINE
  5
1E6
330
1F
100
AcDbEntity
  8
0
  6
Continuous
 62
     7
100
AcDbLine
 10
5684.6412323223
 20
4501.1551614221
 30
0.0
 11
5682.5113795505
 21
4501.7179484781
 31
0.0
  0
LINE
  5
1E7
330
1F
100
AcDbEntity
  8
0
  6
Continuous
 62
     7
100
AcDbLine
 10
5682.5113795505
 20
4501.7179484781
 30
0.0
 11
5680.2170775639
 21
4502.1499629434
 31
0.0
  0
LINE
  5
1E8
330
1F
100
AcDbEntity
  8
0
  6
Continuous
 62
     7
100
AcDbLine
 10
5680.2170775639
 20
4502.1499629434
 30
0.0
 11
5677.8030000435
 21
4502.4428601678
 31
0.0
  0
LINE
  5
1E9
330
1F
100
AcDbEntity
  8
0
  6
Continuous
 62
     7
100
AcDbLine
 10
5677.8030000435
 20
4502.4428601678
 30
0.0
 11
5675.3161452518
 21
4502.5910373147
 31
0.0
  0
LINE
  5
1EA
330
1F
100
AcDbEntity
  8
0
  6
Continuous
 62
     7
100
AcDbLine
 10
5675.3161452518
 20
4502.5910373147
 30
0.0
 11
5672.8049121605
 21
4502.5913949426
 31
0.0
  0
LINE
  5
1EB
330
1F
100
AcDbEntity
  8
0
  6
Continuous
 62
     7
100
AcDbLine
 10
5672.8049121605
 20
4502.5913949426
 30
0.0
 11
5670.3181765781
 21
4502.44417147
 31
0.0
  0
LINE
  5
1EC
330
1F
100
AcDbEntity
  8
0
  6
Continuous
 62
     7
100
AcDbLine
 10
5670.3181765781
 20
4502.44417147
 30
0.0
 11
5667.9043374763
 21
4502.1519895013
 31
0.0
  0
LINE
  5
1ED
330
1F
100
AcDbEntity
  8
0
  6
Continuous
 62
     7
100
AcDbLine
 10
5667.9043374763
 20
4502.1519895013
 30
0.0
 11
5665.6103931175
 21
4501.7206902917
 31
0.0
  0
LINE
  5
1EE
330
1F
100
AcDbEntity
  8
0
  6
Continuous
 62
     7
100
AcDbLine
 10
5665.6103931175
 20
4501.7206902917
 30
0.0
 11
5663.4809575783
 21
4501.1586184915
 31
0.0
  0
LINE
  5
1EF
330
1F
100
AcDbEntity
  8
0
  6
Continuous
 62
     7
100
AcDbLine
 10
5663.4809575783
 20
4501.1586184915
 30
0.0
 11
5661.5575156914
 21
4500.4768605646
 31
0.0
  0
LINE
  5
1F0
330
1F
100
AcDbEntity
  8
0
  6
Continuous
 62
     7
100
AcDbLine
 10
5661.5575156914
 20
4500.4768605646
 30
0.0
 11
5659.8774991737
 21
4499.6884103235
 31
0.0
  0
LINE
  5
1F1
330
1F
100
AcDbEntity
  8
0
  6
Continuous
 62
     7
100
AcDbLine
 10
5659.8774991737
 20
4499.6884103235
 30
0.0
 11
5658.4735713707
 21
4498.8087649759
 31
0.0
  0
LINE
  5
1F2
330
1F
100
AcDbEntity
  8
0
  6
Continuous
 62
     7
100
AcDbLine
 10
5658.4735713707
 20
4498.8087649759
 30
0.0
 11
5657.3730908142
 21
4497.8550906595
 31
0.0
  0
LINE
  5
1F3
330
1F
100
AcDbEntity
  8
0
  6
Continuous
 62
     7
100
AcDbLine
 10
5657.3730908142
 20
4497.8550906595
 30
0.0
 11
5656.5974853741
 21
4496.8458648141
 31
0.0
  0
LINE
  5
1F4
330
1F
100
AcDbEntity
  8
0
  6
Continuous
 62
     7
100
AcDbLine
 10
5656.5974853741
 20
4496.8458648141
 30
0.0
 11
5656.1618350254
 21
4495.8007569726
 31
0.0
  0
LINE
  5
1F5
330
1F
100
AcDbEntity
  8
0
  6
Continuous
 62
     7
100
AcDbLine
 10
5656.1618350254
 20
4495.8007569726
 30
0.0
 11
5656.0642622219
 21
4494.9378009256
 31
0.0
  0
LINE
  5
1F6
330
1F
100
AcDbEntity
  8
0
  6
Continuous
 62
     7
100
AcDbLine
 10
5686.0248945461
 20
4495.1738353189
 30
0.0
 11
5685.2375171886
 21
4496.0080619272
 31
0.0
  0
LINE
  5
1F7
330
1F
100
AcDbEntity
  8
0
  6
Continuous
 62
     7
100
AcDbLine
 10
5685.2375171886
 20
4496.0080619272
 30
0.0
 11
5684.1272316681
 21
4496.7739816125
 31
0.0
  0
LINE
  5
1F8
330
1F
100
AcDbEntity
  8
0
  6
Continuous
 62
     7
100
AcDbLine
 10
5684.1272316681
 20
4496.7739816125
 30
0.0
 11
5682.7261350857
 21
4497.4494214471
 31
0.0
  0
LINE
  5
1F9
330
1F
100
AcDbEntity
  8
0
  6
Continuous
 62
     7
100
AcDbLine
 10
5682.7261350857
 20
4497.4494214471
 30
0.0
 11
5681.0747287975
 21
4498.0148311075
 31
0.0
  0
LINE
  5
1FA
330
1F
100
AcDbEntity
  8
0
  6
Continuous
 62
     7
100
AcDbLine
 10
5681.0747287975
 20
4498.0148311075
 30
0.0
 11
5679.2207263218
 21
4498.4539981302
 31
0.0
  0
LINE
  5
1FB
330
1F
100
AcDbEntity
  8
0
  6
Continuous
 62
     7
100
AcDbLine
 10
5679.2207263218
 20
4498.4539981302
 30
0.0
 11
5677.2176824318
 21
4498.7541671213
 31
0.0
  0
LINE
  5
1FC
330
1F
100
AcDbEntity
  8
0
  6
Continuous
 62
     7
100
AcDbLine
 10
5677.2176824318
 20
4498.7541671213
 30
0.0
 11
5675.1234732376
 21
4498.9066358026
 31
0.0
  0
LINE
  5
1FD
330
1F
100
AcDbEntity
  8
0
  6
Continuous
 62
     7
100
AcDbLine
 10
5675.1234732376
 20
4498.9066358026
 30
0.0
 11
5672.998627256
 21
4498.9069934305
 31
0.0
  0
LINE
  5
1FE
330
1F
100
AcDbEntity
  8
0
  6
Continuous
 62
     7
100
AcDbLine
 10
5672.998627256
 20
4498.9069934305
 30
0.0
 11
5670.9045670734
 21
4498.7552400049
 31
0.0
  0
LINE
  5
1FF
330
1F
100
AcDbEntity
  8
0
  6
Continuous
 62
     7
100
AcDbLine
 10
5670.9045670734
 20
4498.7552400049
 30
0.0
 11
5668.901761602
 21
4498.4557862695
 31
0.0
  0
LINE
  5
200
330
1F
100
AcDbEntity
  8
0
  6
Continuous
 62
     7
100
AcDbLine
 10
5668.901761602
 20
4498.4557862695
 30
0.0
 11
5667.0480869518
 21
4498.0172152933
 31
0.0
  0
LINE
  5
201
330
1F
100
AcDbEntity
  8
0
  6
Continuous
 62
     7
100
AcDbLine
 10
5667.0480869518
 20
4498.0172152933
 30
0.0
 11
5665.3971276985
 21
4497.4522824701
 31
0.0
  0
LINE
  5
202
330
1F
100
AcDbEntity
  8
0
  6
Continuous
 62
     7
100
AcDbLine
 10
5665.3971276985
 20
4497.4522824701
 30
0.0
 11
5663.9965675579
 21
4496.7773194726
 31
0.0
  0
LINE
  5
203
330
1F
100
AcDbEntity
  8
0
  6
Continuous
 62
     7
100
AcDbLine
 10
5663.9965675579
 20
4496.7773194726
 30
0.0
 11
5662.8869078861
 21
4496.0117574151
 31
0.0
  0
LINE
  5
204
330
1F
100
AcDbEntity
  8
0
  6
Continuous
 62
     7
100
AcDbLine
 10
5662.8869078861
 20
4496.0117574151
 30
0.0
 11
5662.1001563774
 21
4495.1777692254
 31
0.0
  0
LINE
  5
205
330
1F
100
AcDbEntity
  8
0
  6
Continuous
 62
     7
100
AcDbLine
 10
5662.1001563774
 20
4495.1777692254
 30
0.0
 11
5662.0787285076
 21
4495.113753837
 31
0.0
  0
LINE
  5
206
330
1F
100
AcDbEntity
  8
0
  6
Continuous
 62
     7
100
AcDbLine
 10
5662.0787285076
 20
4495.113753837
 30
0.0
 11
5662.1041796909
 21
4495.0498576578
 31
0.0
  0
LINE
  5
207
330
1F
100
AcDbEntity
  8
0
  6
Continuous
 62
     7
100
AcDbLine
 10
5662.1041796909
 20
4495.0498576578
 30
0.0
 11
5662.1741555439
 21
4494.9922795709
 31
0.0
  0
LINE
  5
208
330
1F
100
AcDbEntity
  8
0
  6
Continuous
 62
     7
100
AcDbLine
 10
5662.1741555439
 20
4494.9922795709
 30
0.0
 11
5662.2820697533
 21
4494.9463839944
 31
0.0
  0
LINE
  5
209
330
1F
100
AcDbEntity
  8
0
  6
Continuous
 62
     7
100
AcDbLine
 10
5662.2820697533
 20
4494.9463839944
 30
0.0
 11
5662.4177895294
 21
4494.9163432535
 31
0.0
  0
LINE
  5
20A
330
1F
100
AcDbEntity
  8
0
  6
Continuous
 62
     7
100
AcDbLine
 10
5662.4177895294
 20
4494.9163432535
 30
0.0
 11
5662.568619083
 21
4494.9051375802
 31
0.0
  0
LINE
  5
20B
330
1F
100
AcDbEntity
  8
0
  6
Continuous
 62
     7
100
AcDbLine
 10
5662.568619083
 20
4494.9051375802
 30
0.0
 11
5662.7203725086
 21
4494.9137206491
 31
0.0
  0
LINE
  5
20C
330
1F
100
AcDbEntity
  8
0
  6
Continuous
 62
     7
100
AcDbLine
 10
5662.7203725086
 20
4494.9137206491
 30
0.0
 11
5662.8588639008
 21
4494.9413772043
 31
0.0
  0
LINE
  5
20D
330
1F
100
AcDbEntity
  8
0
  6
Continuous
 62
     7
100
AcDbLine
 10
5685.266395639
 20
4494.937562507
 30
0.0
 11
5685.4048870312
 21
4494.9099059518
 31
0.0
  0
LINE
  5
20E
330
1F
100
AcDbEntity
  8
0
  6
Continuous
 62
     7
100
AcDbLine
 10
5685.4048870312
 20
4494.9099059518
 30
0.0
 11
5685.5566702591
 21
4494.901322883
 31
0.0
  0
LINE
  5
20F
330
1F
100
AcDbEntity
  8
0
  6
Continuous
 62
     7
100
AcDbLine
 10
5685.5566702591
 20
4494.901322883
 30
0.0
 11
5685.7074998127
 21
4494.9125285562
 31
0.0
  0
LINE
  5
210
330
1F
100
AcDbEntity
  8
0
  6
Continuous
 62
     7
100
AcDbLine
 10
5685.7074998127
 20
4494.9125285562
 30
0.0
 11
5685.8431897865
 21
4494.9424500879
 31
0.0
  0
LINE
  5
211
330
1F
100
AcDbEntity
  8
0
  6
Continuous
 62
     7
100
AcDbLine
 10
5685.8431897865
 20
4494.9424500879
 30
0.0
 11
5685.9510741936
 21
4494.9883456643
 31
0.0
  0
LINE
  5
212
330
1F
100
AcDbEntity
  8
0
  6
Continuous
 62
     7
100
AcDbLine
 10
5685.9510741936
 20
4494.9883456643
 30
0.0
 11
5686.0209904419
 21
4495.0459237512
 31
0.0
  0
LINE
  5
213
330
1F
100
AcDbEntity
  8
0
  6
Continuous
 62
     7
100
AcDbLine
 10
5686.0209904419
 20
4495.0459237512
 30
0.0
 11
5686.0463820206
 21
4495.1097007211
 31
0.0
  0
LINE
  5
214
330
1F
100
AcDbEntity
  8
0
  6
Continuous
 62
     7
100
AcDbLine
 10
5686.0463820206
 20
4495.1097007211
 30
0.0
 11
5686.0248945461
 21
4495.1738353189
 31
0.0
  0
LINE
  5
215
330
1F
100
AcDbEntity
  8
0
  6
Continuous
 62
     7
100
AcDbLine
 10
5662.8598771797
 20
4492.3486943658
 30
0.0
 11
5662.7213857876
 21
4492.376350921
 31
0.0
  0
LINE
  5
216
330
1F
100
AcDbEntity
  8
0
  6
Continuous
 62
     7
100
AcDbLine
 10
5662.7213857876
 20
4492.376350921
 30
0.0
 11
5662.5696025597
 21
4492.3850531991
 31
0.0
  0
LINE
  5
217
330
1F
100
AcDbEntity
  8
0
  6
Continuous
 62
     7
100
AcDbLine
 10
5662.5696025597
 20
4492.3850531991
 30
0.0
 11
5662.4188028084
 21
4492.3738475259
 31
0.0
  0
LINE
  5
218
330
1F
100
AcDbEntity
  8
0
  6
Continuous
 62
     7
100
AcDbLine
 10
5662.4188028084
 20
4492.3738475259
 30
0.0
 11
5662.2830830322
 21
4492.343806785
 31
0.0
  0
LINE
  5
219
330
1F
100
AcDbEntity
  8
0
  6
Continuous
 62
     7
100
AcDbLine
 10
5662.2830830322
 20
4492.343806785
 30
0.0
 11
5662.1752284275
 21
4492.2979112085
 31
0.0
  0
LINE
  5
21A
330
1F
100
AcDbEntity
  8
0
  6
Continuous
 62
     7
100
AcDbLine
 10
5662.1752284275
 20
4492.2979112085
 30
0.0
 11
5662.1052823769
 21
4492.2404523309
 31
0.0
  0
LINE
  5
21B
330
1F
100
AcDbEntity
  8
0
  6
Continuous
 62
     7
100
AcDbLine
 10
5662.1052823769
 20
4492.2404523309
 30
0.0
 11
5662.0798907982
 21
4492.1765561517
 31
0.0
  0
LINE
  5
21C
330
1F
100
AcDbEntity
  8
0
  6
Continuous
 62
     7
100
AcDbLine
 10
5662.0798907982
 20
4492.1765561517
 30
0.0
 11
5662.1013782726
 21
4492.1125407632
 31
0.0
  0
LINE
  5
21D
330
1F
100
AcDbEntity
  8
0
  6
Continuous
 62
     7
100
AcDbLine
 10
5662.1013782726
 20
4492.1125407632
 30
0.0
 11
5662.8887556301
 21
4491.2783141549
 31
0.0
  0
LINE
  5
21E
330
1F
100
AcDbEntity
  8
0
  6
Continuous
 62
     7
100
AcDbLine
 10
5662.8887556301
 20
4491.2783141549
 30
0.0
 11
5663.9990411507
 21
4490.5123944696
 31
0.0
  0
LINE
  5
21F
330
1F
100
AcDbEntity
  8
0
  6
Continuous
 62
     7
100
AcDbLine
 10
5663.9990411507
 20
4490.5123944696
 30
0.0
 11
5665.4001377331
 21
4489.8368354257
 31
0.0
  0
LINE
  5
220
330
1F
100
AcDbEntity
  8
0
  6
Continuous
 62
     7
100
AcDbLine
 10
5665.4001377331
 20
4489.8368354257
 30
0.0
 11
5667.0515440212
 21
4489.2714257654
 31
0.0
  0
LINE
  5
221
330
1F
100
AcDbEntity
  8
0
  6
Continuous
 62
     7
100
AcDbLine
 10
5667.0515440212
 20
4489.2714257654
 30
0.0
 11
5668.905546497
 21
4488.8322587427
 31
0.0
  0
LINE
  5
222
330
1F
100
AcDbEntity
  8
0
  6
Continuous
 62
     7
100
AcDbLine
 10
5668.905546497
 20
4488.8322587427
 30
0.0
 11
5670.908590387
 21
4488.5322089609
 31
0.0
  0
LINE
  5
223
330
1F
100
AcDbEntity
  8
0
  6
Continuous
 62
     7
100
AcDbLine
 10
5670.908590387
 20
4488.5322089609
 30
0.0
 11
5673.0027995811
 21
4488.3797402795
 31
0.0
  0
LINE
  5
224
330
1F
100
AcDbEntity
  8
0
  6
Continuous
 62
     7
100
AcDbLine
 10
5673.0027995811
 20
4488.3797402795
 30
0.0
 11
5675.1276455627
 21
4488.3793826517
 31
0.0
  0
LINE
  5
225
330
1F
100
AcDbEntity
  8
0
  6
Continuous
 62
     7
100
AcDbLine
 10
5675.1276455627
 20
4488.3793826517
 30
0.0
 11
5677.2217057453
 21
4488.5311360772
 31
0.0
  0
LINE
  5
226
330
1F
100
AcDbEntity
  8
0
  6
Continuous
 62
     7
100
AcDbLine
 10
5677.2217057453
 20
4488.5311360772
 30
0.0
 11
5679.2245112167
 21
4488.8305898126
 31
0.0
  0
LINE
  5
227
330
1F
100
AcDbEntity
  8
0
  6
Continuous
 62
     7
100
AcDbLine
 10
5679.2245112167
 20
4488.8305898126
 30
0.0
 11
5681.0781858669
 21
4489.2690415796
 31
0.0
  0
LINE
  5
228
330
1F
100
AcDbEntity
  8
0
  6
Continuous
 62
     7
100
AcDbLine
 10
5681.0781858669
 20
4489.2690415796
 30
0.0
 11
5682.7291451202
 21
4489.8339744027
 31
0.0
  0
LINE
  5
229
330
1F
100
AcDbEntity
  8
0
  6
Continuous
 62
     7
100
AcDbLine
 10
5682.7291451202
 20
4489.8339744027
 30
0.0
 11
5684.1297052608
 21
4490.5089374002
 31
0.0
  0
LINE
  5
22A
330
1F
100
AcDbEntity
  8
0
  6
Continuous
 62
     7
100
AcDbLine
 10
5684.1297052608
 20
4490.5089374002
 30
0.0
 11
5685.2393649326
 21
4491.2744994577
 31
0.0
  0
LINE
  5
22B
330
1F
100
AcDbEntity
  8
0
  6
Continuous
 62
     7
100
AcDbLine
 10
5685.2393649326
 20
4491.2744994577
 30
0.0
 11
5686.0261164413
 21
4492.1084876474
 31
0.0
  0
LINE
  5
22C
330
1F
100
AcDbEntity
  8
0
  6
Continuous
 62
     7
100
AcDbLine
 10
5686.0261164413
 20
4492.1084876474
 30
0.0
 11
5686.0475443111
 21
4492.1726222452
 31
0.0
  0
LINE
  5
22D
330
1F
100
AcDbEntity
  8
0
  6
Continuous
 62
     7
100
AcDbLine
 10
5686.0475443111
 20
4492.1726222452
 30
0.0
 11
5686.0220931278
 21
4492.2363992151
 31
0.0
  0
LINE
  5
22E
330
1F
100
AcDbEntity
  8
0
  6
Continuous
 62
     7
100
AcDbLine
 10
5686.0220931278
 20
4492.2363992151
 30
0.0
 11
5685.9521172749
 21
4492.2939773019
 31
0.0
  0
LINE
  5
22F
330
1F
100
AcDbEntity
  8
0
  6
Continuous
 62
     7
100
AcDbLine
 10
5685.9521172749
 20
4492.2939773019
 30
0.0
 11
5685.8442328678
 21
4492.3398728784
 31
0.0
  0
LINE
  5
230
330
1F
100
AcDbEntity
  8
0
  6
Continuous
 62
     7
100
AcDbLine
 10
5685.8442328678
 20
4492.3398728784
 30
0.0
 11
5685.7084832893
 21
4492.3699136194
 31
0.0
  0
LINE
  5
231
330
1F
100
AcDbEntity
  8
0
  6
Continuous
 62
     7
100
AcDbLine
 10
5685.7084832893
 20
4492.3699136194
 30
0.0
 11
5685.5576537357
 21
4492.3811192926
 31
0.0
  0
LINE
  5
232
330
1F
100
AcDbEntity
  8
0
  6
Continuous
 62
     7
100
AcDbLine
 10
5685.5576537357
 20
4492.3811192926
 30
0.0
 11
5685.4059003101
 21
4492.3725362237
 31
0.0
  0
LINE
  5
233
330
1F
100
AcDbEntity
  8
0
  6
Continuous
 62
     7
100
AcDbLine
 10
5685.4059003101
 20
4492.3725362237
 30
0.0
 11
5685.2674387203
 21
4492.3449988778
 31
0.0
  0
LINE
  5
234
330
1F
100
AcDbEntity
  8
0
  6
Continuous
 62
     7
100
AcDbLine
 10
6274.0658871637
 20
4486.6699214395
 30
0.0
 11
6276.4682821737
 21
4486.743831199
 31
0.0
  0
LINE
  5
235
330
1F
100
AcDbEntity
  8
0
  6
Continuous
 62
     7
100
AcDbLine
 10
6276.4682821737
 20
4486.743831199
 30
0.0
 11
6278.8194022881
 21
4486.9648452218
 31
0.0
  0
LINE
  5
236
330
1F
100
AcDbEntity
  8
0
  6
Continuous
 62
     7
100
AcDbLine
 10
6278.8194022881
 20
4486.9648452218
 30
0.0
 11
6281.0691647039
 21
4487.3280759271
 31
0.0
  0
LINE
  5
237
330
1F
100
AcDbEntity
  8
0
  6
Continuous
 62
     7
100
AcDbLine
 10
6281.0691647039
 20
4487.3280759271
 30
0.0
 11
6283.1696025835
 21
4487.8260131296
 31
0.0
  0
LINE
  5
238
330
1F
100
AcDbEntity
  8
0
  6
Continuous
 62
     7
100
AcDbLine
 10
6283.1696025835
 20
4487.8260131296
 30
0.0
 11
6285.0759528385
 21
4488.4478087839
 31
0.0
  0
LINE
  5
239
330
1F
100
AcDbEntity
  8
0
  6
Continuous
 62
     7
100
AcDbLine
 10
6285.0759528385
 20
4488.4478087839
 30
0.0
 11
6286.7475800024
 21
4489.1804690774
 31
0.0
  0
LINE
  5
23A
330
1F
100
AcDbEntity
  8
0
  6
Continuous
 62
     7
100
AcDbLine
 10
6286.7475800024
 20
4489.1804690774
 30
0.0
 11
6288.1488702999
 21
4490.0081391748
 31
0.0
  0
LINE
  5
23B
330
1F
100
AcDbEntity
  8
0
  6
Continuous
 62
     7
100
AcDbLine
 10
6288.1488702999
 20
4490.0081391748
 30
0.0
 11
6289.2499171005
 21
4490.9134145196
 31
0.0
  0
LINE
  5
23C
330
1F
100
AcDbEntity
  8
0
  6
Continuous
 62
     7
100
AcDbLine
 10
6289.2499171005
 20
4490.9134145196
 30
0.0
 11
6290.02731068
 21
4491.8767447885
 31
0.0
  0
LINE
  5
23D
330
1F
100
AcDbEntity
  8
0
  6
Continuous
 62
     7
100
AcDbLine
 10
6290.02731068
 20
4491.8767447885
 30
0.0
 11
6290.4644511448
 21
4492.8777451928
 31
0.0
  0
LINE
  5
23E
330
1F
100
AcDbEntity
  8
0
  6
Continuous
 62
     7
100
AcDbLine
 10
6290.4644511448
 20
4492.8777451928
 30
0.0
 11
6290.5520401703
 21
4493.8950772699
 31
0.0
  0
LINE
  5
23F
330
1F
100
AcDbEntity
  8
0
  6
Continuous
 62
     7
100
AcDbLine
 10
6290.5520401703
 20
4493.8950772699
 30
0.0
 11
6290.2881704079
 21
4494.9070449289
 31
0.0
  0
LINE
  5
240
330
1F
100
AcDbEntity
  8
0
  6
Continuous
 62
     7
100
AcDbLine
 10
6290.2881704079
 20
4494.9070449289
 30
0.0
 11
6289.6785042988
 21
4495.8920712884
 31
0.0
  0
LINE
  5
241
330
1F
100
AcDbEntity
  8
0
  6
Continuous
 62
     7
100
AcDbLine
 10
6289.6785042988
 20
4495.8920712884
 30
0.0
 11
6288.7360356556
 21
4496.8291755136
 31
0.0
  0
LINE
  5
242
330
1F
100
AcDbEntity
  8
0
  6
Continuous
 62
     7
100
AcDbLine
 10
6288.7360356556
 20
4496.8291755136
 30
0.0
 11
6287.4808214413
 21
4497.6983304437
 31
0.0
  0
LINE
  5
243
330
1F
100
AcDbEntity
  8
0
  6
Continuous
 62
     7
100
AcDbLine
 10
6287.4808214413
 20
4497.6983304437
 30
0.0
 11
6285.9396390425
 21
4498.4810586389
 31
0.0
  0
LINE
  5
244
330
1F
100
AcDbEntity
  8
0
  6
Continuous
 62
     7
100
AcDbLine
 10
6285.9396390425
 20
4498.4810586389
 30
0.0
 11
6284.1453306185
 21
4499.1607900079
 31
0.0
  0
LINE
  5
245
330
1F
100
AcDbEntity
  8
0
  6
Continuous
 62
     7
100
AcDbLine
 10
6284.1453306185
 20
4499.1607900079
 30
0.0
 11
6282.1361325489
 21
4499.7227425989
 31
0.0
  0
LINE
  5
246
330
1F
100
AcDbEntity
  8
0
  6
Continuous
 62
     7
100
AcDbLine
 10
6282.1361325489
 20
4499.7227425989
 30
0.0
 11
6279.954870771
 21
4500.1552339013
 31
0.0
  0
LINE
  5
247
330
1F
100
AcDbEntity
  8
0
  6
Continuous
 62
     7
100
AcDbLine
 10
6279.954870771
 20
4500.1552339013
 30
0.0
 11
6277.6480518089
 21
4500.4489655908
 31
0.0
  0
LINE
  5
248
330
1F
100
AcDbEntity
  8
0
  6
Continuous
 62
     7
100
AcDbLine
 10
6277.6480518089
 20
4500.4489655908
 30
0.0
 11
6275.2648196922
 21
4500.5975003656
 31
0.0
  0
LINE
  5
249
330
1F
100
AcDbEntity
  8
0
  6
Continuous
 62
     7
100
AcDbLine
 10
6275.2648196922
 20
4500.5975003656
 30
0.0
 11
6272.8559724794
 21
4500.5979772027
 31
0.0
  0
LINE
  5
24A
330
1F
100
AcDbEntity
  8
0
  6
Continuous
 62
     7
100
AcDbLine
 10
6272.8559724794
 20
4500.5979772027
 30
0.0
 11
6270.4728446709
 21
4500.4501576837
 31
0.0
  0
LINE
  5
24B
330
1F
100
AcDbEntity
  8
0
  6
Continuous
 62
     7
100
AcDbLine
 10
6270.4728446709
 20
4500.4501576837
 30
0.0
 11
6268.1662492262
 21
4500.1572604593
 31
0.0
  0
LINE
  5
24C
330
1F
100
AcDbEntity
  8
0
  6
Continuous
 62
     7
100
AcDbLine
 10
6268.1662492262
 20
4500.1572604593
 30
0.0
 11
6265.9853450762
 21
4499.7254844125
 31
0.0
  0
LINE
  5
24D
330
1F
100
AcDbEntity
  8
0
  6
Continuous
 62
     7
100
AcDbLine
 10
6265.9853450762
 20
4499.7254844125
 30
0.0
 11
6263.9765940414
 21
4499.164127868
 31
0.0
  0
LINE
  5
24E
330
1F
100
AcDbEntity
  8
0
  6
Continuous
 62
     7
100
AcDbLine
 10
6263.9765940414
 20
4499.164127868
 30
0.0
 11
6262.1828220592
 21
4498.4851117547
 31
0.0
  0
LINE
  5
24F
330
1F
100
AcDbEntity
  8
0
  6
Continuous
 62
     7
100
AcDbLine
 10
6262.1828220592
 20
4498.4851117547
 30
0.0
 11
6260.6422506081
 21
4497.7028603967
 31
0.0
  0
LINE
  5
250
330
1F
100
AcDbEntity
  8
0
  6
Continuous
 62
     7
100
AcDbLine
 10
6260.6422506081
 20
4497.7028603967
 30
0.0
 11
6259.3877367483
 21
4496.8340630945
 31
0.0
  0
LINE
  5
251
330
1F
100
AcDbEntity
  8
0
  6
Continuous
 62
     7
100
AcDbLine
 10
6259.3877367483
 20
4496.8340630945
 30
0.0
 11
6258.445998262
 21
4495.8973164972
 31
0.0
  0
LINE
  5
252
330
1F
100
AcDbEntity
  8
0
  6
Continuous
 62
     7
100
AcDbLine
 10
6258.445998262
 20
4495.8973164972
 30
0.0
 11
6257.8371070133
 21
4494.9124093469
 31
0.0
  0
LINE
  5
253
330
1F
100
AcDbEntity
  8
0
  6
Continuous
 62
     7
100
AcDbLine
 10
6257.8371070133
 20
4494.9124093469
 30
0.0
 11
6257.5740419136
 21
4493.9005608972
 31
0.0
  0
LINE
  5
254
330
1F
100
AcDbEntity
  8
0
  6
Continuous
 62
     7
100
AcDbLine
 10
6257.5740419136
 20
4493.9005608972
 30
0.0
 11
6257.6624207006
 21
4492.8832288202
 31
0.0
  0
LINE
  5
255
330
1F
100
AcDbEntity
  8
0
  6
Continuous
 62
     7
100
AcDbLine
 10
6257.6624207006
 20
4492.8832288202
 30
0.0
 11
6258.100350927
 21
4491.8821092065
 31
0.0
  0
LINE
  5
256
330
1F
100
AcDbEntity
  8
0
  6
Continuous
 62
     7
100
AcDbLine
 10
6258.100350927
 20
4491.8821092065
 30
0.0
 11
6258.8785044657
 21
4490.9184213098
 31
0.0
  0
LINE
  5
257
330
1F
100
AcDbEntity
  8
0
  6
Continuous
 62
     7
100
AcDbLine
 10
6258.8785044657
 20
4490.9184213098
 30
0.0
 11
6259.9802814232
 21
4490.0129075464
 31
0.0
  0
LINE
  5
258
330
1F
100
AcDbEntity
  8
0
  6
Continuous
 62
     7
100
AcDbLine
 10
6259.9802814232
 20
4490.0129075464
 30
0.0
 11
6261.3822273718
 21
4489.1846414026
 31
0.0
  0
LINE
  5
259
330
1F
100
AcDbEntity
  8
0
  6
Continuous
 62
     7
100
AcDbLine
 10
6261.3822273718
 20
4489.1846414026
 30
0.0
 11
6263.054435681
 21
4488.4515042718
 31
0.0
  0
LINE
  5
25A
330
1F
100
AcDbEntity
  8
0
  6
Continuous
 62
     7
100
AcDbLine
 10
6263.054435681
 20
4488.4515042718
 30
0.0
 11
6264.9612627731
 21
4487.8289933618
 31
0.0
  0
LINE
  5
25B
330
1F
100
AcDbEntity
  8
0
  6
Continuous
 62
     7
100
AcDbLine
 10
6264.9612627731
 20
4487.8289933618
 30
0.0
 11
6267.062102984
 21
4487.3304601129
 31
0.0
  0
LINE
  5
25C
330
1F
100
AcDbEntity
  8
0
  6
Continuous
 62
     7
100
AcDbLine
 10
6267.062102984
 20
4487.3304601129
 30
0.0
 11
6269.3121336208
 21
4486.9663949426
 31
0.0
  0
LINE
  5
25D
330
1F
100
AcDbEntity
  8
0
  6
Continuous
 62
     7
100
AcDbLine
 10
6269.3121336208
 20
4486.9663949426
 30
0.0
 11
6271.6634474503
 21
4486.744665664
 31
0.0
  0
LINE
  5
25E
330
1F
100
AcDbEntity
  8
0
  6
Continuous
 62
     7
100
AcDbLine
 10
6271.6634474503
 20
4486.744665664
 30
0.0
 11
6274.0658871637
 21
4486.6699214395
 31
0.0
  0
LINE
  5
25F
330
1F
100
AcDbEntity
  8
0
  6
Continuous
 62
     7
100
AcDbLine
 10
6292.0623920666
 20
4495.0835938867
 30
0.0
 11
6291.9646106468
 21
4495.7947965082
 31
0.0
  0
LINE
  5
260
330
1F
100
AcDbEntity
  8
0
  6
Continuous
 62
     7
100
AcDbLine
 10
6291.9646106468
 20
4495.7947965082
 30
0.0
 11
6291.5281258331
 21
4496.8400235589
 31
0.0
  0
LINE
  5
261
330
1F
100
AcDbEntity
  8
0
  6
Continuous
 62
     7
100
AcDbLine
 10
6291.5281258331
 20
4496.8400235589
 30
0.0
 11
6290.7517157303
 21
4497.8494878229
 31
0.0
  0
LINE
  5
262
330
1F
100
AcDbEntity
  8
0
  6
Continuous
 62
     7
100
AcDbLine
 10
6290.7517157303
 20
4497.8494878229
 30
0.0
 11
6289.6504901157
 21
4498.8035197671
 31
0.0
  0
LINE
  5
263
330
1F
100
AcDbEntity
  8
0
  6
Continuous
 62
     7
100
AcDbLine
 10
6289.6504901157
 20
4498.8035197671
 30
0.0
 11
6288.2458768593
 21
4499.6836419519
 31
0.0
  0
LINE
  5
264
330
1F
100
AcDbEntity
  8
0
  6
Continuous
 62
     7
100
AcDbLine
 10
6288.2458768593
 20
4499.6836419519
 30
0.0
 11
6286.5652195917
 21
4500.4726882394
 31
0.0
  0
LINE
  5
265
330
1F
100
AcDbEntity
  8
0
  6
Continuous
 62
     7
100
AcDbLine
 10
6286.5652195917
 20
4500.4726882394
 30
0.0
 11
6284.641241263
 21
4501.1551614221
 31
0.0
  0
LINE
  5
266
330
1F
100
AcDbEntity
  8
0
  6
Continuous
 62
     7
100
AcDbLine
 10
6284.641241263
 20
4501.1551614221
 30
0.0
 11
6282.5113586889
 21
4501.7179484781
 31
0.0
  0
LINE
  5
267
330
1F
100
AcDbEntity
  8
0
  6
Continuous
 62
     7
100
AcDbLine
 10
6282.5113586889
 20
4501.7179484781
 30
0.0
 11
6280.2170716034
 21
4502.1499629434
 31
0.0
  0
LINE
  5
268
330
1F
100
AcDbEntity
  8
0
  6
Continuous
 62
     7
100
AcDbLine
 10
6280.2170716034
 20
4502.1499629434
 30
0.0
 11
6277.8030089842
 21
4502.4428601678
 31
0.0
  0
LINE
  5
269
330
1F
100
AcDbEntity
  8
0
  6
Continuous
 62
     7
100
AcDbLine
 10
6277.8030089842
 20
4502.4428601678
 30
0.0
 11
6275.3161541925
 21
4502.5910373147
 31
0.0
  0
LINE
  5
26A
330
1F
100
AcDbEntity
  8
0
  6
Continuous
 62
     7
100
AcDbLine
 10
6275.3161541925
 20
4502.5910373147
 30
0.0
 11
6272.8049211012
 21
4502.5913949426
 31
0.0
  0
LINE
  5
26B
330
1F
100
AcDbEntity
  8
0
  6
Continuous
 62
     7
100
AcDbLine
 10
6272.8049211012
 20
4502.5913949426
 30
0.0
 11
6270.3181855188
 21
4502.44417147
 31
0.0
  0
LINE
  5
26C
330
1F
100
AcDbEntity
  8
0
  6
Continuous
 62
     7
100
AcDbLine
 10
6270.3181855188
 20
4502.44417147
 30
0.0
 11
6267.904346417
 21
4502.1519895013
 31
0.0
  0
LINE
  5
26D
330
1F
100
AcDbEntity
  8
0
  6
Continuous
 62
     7
100
AcDbLine
 10
6267.904346417
 20
4502.1519895013
 30
0.0
 11
6265.6103871571
 21
4501.7206902917
 31
0.0
  0
LINE
  5
26E
330
1F
100
AcDbEntity
  8
0
  6
Continuous
 62
     7
100
AcDbLine
 10
6265.6103871571
 20
4501.7206902917
 30
0.0
 11
6263.480966519
 21
4501.1586184915
 31
0.0
  0
LINE
  5
26F
330
1F
100
AcDbEntity
  8
0
  6
Continuous
 62
     7
100
AcDbLine
 10
6263.480966519
 20
4501.1586184915
 30
0.0
 11
6261.5575246321
 21
4500.4768605646
 31
0.0
  0
LINE
  5
270
330
1F
100
AcDbEntity
  8
0
  6
Continuous
 62
     7
100
AcDbLine
 10
6261.5575246321
 20
4500.4768605646
 30
0.0
 11
6259.8774932133
 21
4499.6884103235
 31
0.0
  0
LINE
  5
271
330
1F
100
AcDbEntity
  8
0
  6
Continuous
 62
     7
100
AcDbLine
 10
6259.8774932133
 20
4499.6884103235
 30
0.0
 11
6258.4735654102
 21
4498.8087649759
 31
0.0
  0
LINE
  5
272
330
1F
100
AcDbEntity
  8
0
  6
Continuous
 62
     7
100
AcDbLine
 10
6258.4735654102
 20
4498.8087649759
 30
0.0
 11
6257.3730997549
 21
4497.8550906595
 31
0.0
  0
LINE
  5
273
330
1F
100
AcDbEntity
  8
0
  6
Continuous
 62
     7
100
AcDbLine
 10
6257.3730997549
 20
4497.8550906595
 30
0.0
 11
6256.5974794136
 21
4496.8458648141
 31
0.0
  0
LINE
  5
274
330
1F
100
AcDbEntity
  8
0
  6
Continuous
 62
     7
100
AcDbLine
 10
6256.5974794136
 20
4496.8458648141
 30
0.0
 11
6256.1618290649
 21
4495.8007569726
 31
0.0
  0
LINE
  5
275
330
1F
100
AcDbEntity
  8
0
  6
Continuous
 62
     7
100
AcDbLine
 10
6256.1618290649
 20
4495.8007569726
 30
0.0
 11
6256.0642711626
 21
4494.9378009256
 31
0.0
  0
LINE
  5
276
330
1F
100
AcDbEntity
  8
0
  6
Continuous
 62
     7
100
AcDbLine
 10
6286.0249034868
 20
4495.1738353189
 30
0.0
 11
6285.2375112282
 21
4496.0080619272
 31
0.0
  0
LINE
  5
277
330
1F
100
AcDbEntity
  8
0
  6
Continuous
 62
     7
100
AcDbLine
 10
6285.2375112282
 20
4496.0080619272
 30
0.0
 11
6284.1272257076
 21
4496.7739816125
 31
0.0
  0
LINE
  5
278
330
1F
100
AcDbEntity
  8
0
  6
Continuous
 62
     7
100
AcDbLine
 10
6284.1272257076
 20
4496.7739816125
 30
0.0
 11
6282.7261291252
 21
4497.4494214471
 31
0.0
  0
LINE
  5
279
330
1F
100
AcDbEntity
  8
0
  6
Continuous
 62
     7
100
AcDbLine
 10
6282.7261291252
 20
4497.4494214471
 30
0.0
 11
6281.0747228371
 21
4498.0148311075
 31
0.0
  0
LINE
  5
27A
330
1F
100
AcDbEntity
  8
0
  6
Continuous
 62
     7
100
AcDbLine
 10
6281.0747228371
 20
4498.0148311075
 30
0.0
 11
6279.2207203613
 21
4498.4539981302
 31
0.0
  0
LINE
  5
27B
330
1F
100
AcDbEntity
  8
0
  6
Continuous
 62
     7
100
AcDbLine
 10
6279.2207203613
 20
4498.4539981302
 30
0.0
 11
6277.2176764713
 21
4498.7541671213
 31
0.0
  0
LINE
  5
27C
330
1F
100
AcDbEntity
  8
0
  6
Continuous
 62
     7
100
AcDbLine
 10
6277.2176764713
 20
4498.7541671213
 30
0.0
 11
6275.1234821783
 21
4498.9066358026
 31
0.0
  0
LINE
  5
27D
330
1F
100
AcDbEntity
  8
0
  6
Continuous
 62
     7
100
AcDbLine
 10
6275.1234821783
 20
4498.9066358026
 30
0.0
 11
6272.9986361967
 21
4498.9069934305
 31
0.0
  0
LINE
  5
27E
330
1F
100
AcDbEntity
  8
0
  6
Continuous
 62
     7
100
AcDbLine
 10
6272.9986361967
 20
4498.9069934305
 30
0.0
 11
6270.904561113
 21
4498.7552400049
 31
0.0
  0
LINE
  5
27F
330
1F
100
AcDbEntity
  8
0
  6
Continuous
 62
     7
100
AcDbLine
 10
6270.904561113
 20
4498.7552400049
 30
0.0
 11
6268.9017556416
 21
4498.4557862695
 31
0.0
  0
LINE
  5
280
330
1F
100
AcDbEntity
  8
0
  6
Continuous
 62
     7
100
AcDbLine
 10
6268.9017556416
 20
4498.4557862695
 30
0.0
 11
6267.0480958925
 21
4498.0172152933
 31
0.0
  0
LINE
  5
281
330
1F
100
AcDbEntity
  8
0
  6
Continuous
 62
     7
100
AcDbLine
 10
6267.0480958925
 20
4498.0172152933
 30
0.0
 11
6265.3971366392
 21
4497.4522824701
 31
0.0
  0
LINE
  5
282
330
1F
100
AcDbEntity
  8
0
  6
Continuous
 62
     7
100
AcDbLine
 10
6265.3971366392
 20
4497.4522824701
 30
0.0
 11
6263.9965764986
 21
4496.7773194726
 31
0.0
  0
LINE
  5
283
330
1F
100
AcDbEntity
  8
0
  6
Continuous
 62
     7
100
AcDbLine
 10
6263.9965764986
 20
4496.7773194726
 30
0.0
 11
6262.8869019257
 21
4496.0117574151
 31
0.0
  0
LINE
  5
284
330
1F
100
AcDbEntity
  8
0
  6
Continuous
 62
     7
100
AcDbLine
 10
6262.8869019257
 20
4496.0117574151
 30
0.0
 11
6262.1001653181
 21
4495.1777692254
 31
0.0
  0
LINE
  5
285
330
1F
100
AcDbEntity
  8
0
  6
Continuous
 62
     7
100
AcDbLine
 10
6262.1001653181
 20
4495.1777692254
 30
0.0
 11
6262.0787374483
 21
4495.113753837
 31
0.0
  0
LINE
  5
286
330
1F
100
AcDbEntity
  8
0
  6
Continuous
 62
     7
100
AcDbLine
 10
6262.0787374483
 20
4495.113753837
 30
0.0
 11
6262.1041886316
 21
4495.0498576578
 31
0.0
  0
LINE
  5
287
330
1F
100
AcDbEntity
  8
0
  6
Continuous
 62
     7
100
AcDbLine
 10
6262.1041886316
 20
4495.0498576578
 30
0.0
 11
6262.1741495834
 21
4494.9922795709
 31
0.0
  0
LINE
  5
288
330
1F
100
AcDbEntity
  8
0
  6
Continuous
 62
     7
100
AcDbLine
 10
6262.1741495834
 20
4494.9922795709
 30
0.0
 11
6262.2820488916
 21
4494.9463839944
 31
0.0
  0
LINE
  5
289
330
1F
100
AcDbEntity
  8
0
  6
Continuous
 62
     7
100
AcDbLine
 10
6262.2820488916
 20
4494.9463839944
 30
0.0
 11
6262.417783569
 21
4494.9163432535
 31
0.0
  0
LINE
  5
28A
330
1F
100
AcDbEntity
  8
0
  6
Continuous
 62
     7
100
AcDbLine
 10
6262.417783569
 20
4494.9163432535
 30
0.0
 11
6262.5686131226
 21
4494.9051375802
 31
0.0
  0
LINE
  5
28B
330
1F
100
AcDbEntity
  8
0
  6
Continuous
 62
     7
100
AcDbLine
 10
6262.5686131226
 20
4494.9051375802
 30
0.0
 11
6262.7203665482
 21
4494.9137206491
 31
0.0
  0
LINE
  5
28C
330
1F
100
AcDbEntity
  8
0
  6
Continuous
 62
     7
100
AcDbLine
 10
6262.7203665482
 20
4494.9137206491
 30
0.0
 11
6262.8588430391
 21
4494.9413772043
 31
0.0
  0
LINE
  5
28D
330
1F
100
AcDbEntity
  8
0
  6
Continuous
 62
     7
100
AcDbLine
 10
6285.2664045797
 20
4494.937562507
 30
0.0
 11
6285.4048959719
 21
4494.9099059518
 31
0.0
  0
LINE
  5
28E
330
1F
100
AcDbEntity
  8
0
  6
Continuous
 62
     7
100
AcDbLine
 10
6285.4048959719
 20
4494.9099059518
 30
0.0
 11
6285.5566791998
 21
4494.901322883
 31
0.0
  0
LINE
  5
28F
330
1F
100
AcDbEntity
  8
0
  6
Continuous
 62
     7
100
AcDbLine
 10
6285.5566791998
 20
4494.901322883
 30
0.0
 11
6285.7074789511
 21
4494.9125285562
 31
0.0
  0
LINE
  5
290
330
1F
100
AcDbEntity
  8
0
  6
Continuous
 62
     7
100
AcDbLine
 10
6285.7074789511
 20
4494.9125285562
 30
0.0
 11
6285.8431838261
 21
4494.9424500879
 31
0.0
  0
LINE
  5
291
330
1F
100
AcDbEntity
  8
0
  6
Continuous
 62
     7
100
AcDbLine
 10
6285.8431838261
 20
4494.9424500879
 30
0.0
 11
6285.9510682331
 21
4494.9883456643
 31
0.0
  0
LINE
  5
292
330
1F
100
AcDbEntity
  8
0
  6
Continuous
 62
     7
100
AcDbLine
 10
6285.9510682331
 20
4494.9883456643
 30
0.0
 11
6286.0209844814
 21
4495.0459237512
 31
0.0
  0
LINE
  5
293
330
1F
100
AcDbEntity
  8
0
  6
Continuous
 62
     7
100
AcDbLine
 10
6286.0209844814
 20
4495.0459237512
 30
0.0
 11
6286.0463909613
 21
4495.1097007211
 31
0.0
  0
LINE
  5
294
330
1F
100
AcDbEntity
  8
0
  6
Continuous
 62
     7
100
AcDbLine
 10
6286.0463909613
 20
4495.1097007211
 30
0.0
 11
6286.0249034868
 21
4495.1738353189
 31
0.0
  0
LINE
  5
295
330
1F
100
AcDbEntity
  8
0
  6
Continuous
 62
     7
100
AcDbLine
 10
6262.8598712192
 20
4492.3486943658
 30
0.0
 11
6262.7213798271
 21
4492.376350921
 31
0.0
  0
LINE
  5
296
330
1F
100
AcDbEntity
  8
0
  6
Continuous
 62
     7
100
AcDbLine
 10
6262.7213798271
 20
4492.376350921
 30
0.0
 11
6262.5695965992
 21
4492.3850531991
 31
0.0
  0
LINE
  5
297
330
1F
100
AcDbEntity
  8
0
  6
Continuous
 62
     7
100
AcDbLine
 10
6262.5695965992
 20
4492.3850531991
 30
0.0
 11
6262.4187968479
 21
4492.3738475259
 31
0.0
  0
LINE
  5
298
330
1F
100
AcDbEntity
  8
0
  6
Continuous
 62
     7
100
AcDbLine
 10
6262.4187968479
 20
4492.3738475259
 30
0.0
 11
6262.2830770718
 21
4492.343806785
 31
0.0
  0
LINE
  5
299
330
1F
100
AcDbEntity
  8
0
  6
Continuous
 62
     7
100
AcDbLine
 10
6262.2830770718
 20
4492.343806785
 30
0.0
 11
6262.1752075659
 21
4492.2979112085
 31
0.0
  0
LINE
  5
29A
330
1F
100
AcDbEntity
  8
0
  6
Continuous
 62
     7
100
AcDbLine
 10
6262.1752075659
 20
4492.2979112085
 30
0.0
 11
6262.1052913176
 21
4492.2404523309
 31
0.0
  0
LINE
  5
29B
330
1F
100
AcDbEntity
  8
0
  6
Continuous
 62
     7
100
AcDbLine
 10
6262.1052913176
 20
4492.2404523309
 30
0.0
 11
6262.0798848377
 21
4492.1765561517
 31
0.0
  0
LINE
  5
29C
330
1F
100
AcDbEntity
  8
0
  6
Continuous
 62
     7
100
AcDbLine
 10
6262.0798848377
 20
4492.1765561517
 30
0.0
 11
6262.1013723122
 21
4492.1125407632
 31
0.0
  0
LINE
  5
29D
330
1F
100
AcDbEntity
  8
0
  6
Continuous
 62
     7
100
AcDbLine
 10
6262.1013723122
 20
4492.1125407632
 30
0.0
 11
6262.8887645708
 21
4491.2783141549
 31
0.0
  0
LINE
  5
29E
330
1F
100
AcDbEntity
  8
0
  6
Continuous
 62
     7
100
AcDbLine
 10
6262.8887645708
 20
4491.2783141549
 30
0.0
 11
6263.9990500914
 21
4490.5123944696
 31
0.0
  0
LINE
  5
29F
330
1F
100
AcDbEntity
  8
0
  6
Continuous
 62
     7
100
AcDbLine
 10
6263.9990500914
 20
4490.5123944696
 30
0.0
 11
6265.4001317726
 21
4489.8368354257
 31
0.0
  0
LINE
  5
2A0
330
1F
100
AcDbEntity
  8
0
  6
Continuous
 62
     7
100
AcDbLine
 10
6265.4001317726
 20
4489.8368354257
 30
0.0
 11
6267.0515529619
 21
4489.2714257654
 31
0.0
  0
LINE
  5
2A1
330
1F
100
AcDbEntity
  8
0
  6
Continuous
 62
     7
100
AcDbLine
 10
6267.0515529619
 20
4489.2714257654
 30
0.0
 11
6268.9055554377
 21
4488.8322587427
 31
0.0
  0
LINE
  5
2A2
330
1F
100
AcDbEntity
  8
0
  6
Continuous
 62
     7
100
AcDbLine
 10
6268.9055554377
 20
4488.8322587427
 30
0.0
 11
6270.9085993277
 21
4488.5322089609
 31
0.0
  0
LINE
  5
2A3
330
1F
100
AcDbEntity
  8
0
  6
Continuous
 62
     7
100
AcDbLine
 10
6270.9085993277
 20
4488.5322089609
 30
0.0
 11
6273.0027936207
 21
4488.3797402795
 31
0.0
  0
LINE
  5
2A4
330
1F
100
AcDbEntity
  8
0
  6
Continuous
 62
     7
100
AcDbLine
 10
6273.0027936207
 20
4488.3797402795
 30
0.0
 11
6275.1276396023
 21
4488.3793826517
 31
0.0
  0
LINE
  5
2A5
330
1F
100
AcDbEntity
  8
0
  6
Continuous
 62
     7
100
AcDbLine
 10
6275.1276396023
 20
4488.3793826517
 30
0.0
 11
6277.221714686
 21
4488.5311360772
 31
0.0
  0
LINE
  5
2A6
330
1F
100
AcDbEntity
  8
0
  6
Continuous
 62
     7
100
AcDbLine
 10
6277.221714686
 20
4488.5311360772
 30
0.0
 11
6279.2245201574
 21
4488.8305898126
 31
0.0
  0
LINE
  5
2A7
330
1F
100
AcDbEntity
  8
0
  6
Continuous
 62
     7
100
AcDbLine
 10
6279.2245201574
 20
4488.8305898126
 30
0.0
 11
6281.0781799065
 21
4489.2690415796
 31
0.0
  0
LINE
  5
2A8
330
1F
100
AcDbEntity
  8
0
  6
Continuous
 62
     7
100
AcDbLine
 10
6281.0781799065
 20
4489.2690415796
 30
0.0
 11
6282.7291391598
 21
4489.8339744027
 31
0.0
  0
LINE
  5
2A9
330
1F
100
AcDbEntity
  8
0
  6
Continuous
 62
     7
100
AcDbLine
 10
6282.7291391598
 20
4489.8339744027
 30
0.0
 11
6284.1296993004
 21
4490.5089374002
 31
0.0
  0
LINE
  5
2AA
330
1F
100
AcDbEntity
  8
0
  6
Continuous
 62
     7
100
AcDbLine
 10
6284.1296993004
 20
4490.5089374002
 30
0.0
 11
6285.2393738733
 21
4491.2744994577
 31
0.0
  0
LINE
  5
2AB
330
1F
100
AcDbEntity
  8
0
  6
Continuous
 62
     7
100
AcDbLine
 10
6285.2393738733
 20
4491.2744994577
 30
0.0
 11
6286.0261104809
 21
4492.1084876474
 31
0.0
  0
LINE
  5
2AC
330
1F
100
AcDbEntity
  8
0
  6
Continuous
 62
     7
100
AcDbLine
 10
6286.0261104809
 20
4492.1084876474
 30
0.0
 11
6286.0475383507
 21
4492.1726222452
 31
0.0
  0
LINE
  5
2AD
330
1F
100
AcDbEntity
  8
0
  6
Continuous
 62
     7
100
AcDbLine
 10
6286.0475383507
 20
4492.1726222452
 30
0.0
 11
6286.0220871674
 21
4492.2363992151
 31
0.0
  0
LINE
  5
2AE
330
1F
100
AcDbEntity
  8
0
  6
Continuous
 62
     7
100
AcDbLine
 10
6286.0220871674
 20
4492.2363992151
 30
0.0
 11
6285.9521262155
 21
4492.2939773019
 31
0.0
  0
LINE
  5
2AF
330
1F
100
AcDbEntity
  8
0
  6
Continuous
 62
     7
100
AcDbLine
 10
6285.9521262155
 20
4492.2939773019
 30
0.0
 11
6285.8442120062
 21
4492.3398728784
 31
0.0
  0
LINE
  5
2B0
330
1F
100
AcDbEntity
  8
0
  6
Continuous
 62
     7
100
AcDbLine
 10
6285.8442120062
 20
4492.3398728784
 30
0.0
 11
6285.70849223
 21
4492.3699136194
 31
0.0
  0
LINE
  5
2B1
330
1F
100
AcDbEntity
  8
0
  6
Continuous
 62
     7
100
AcDbLine
 10
6285.70849223
 20
4492.3699136194
 30
0.0
 11
6285.5576626764
 21
4492.3811192926
 31
0.0
  0
LINE
  5
2B2
330
1F
100
AcDbEntity
  8
0
  6
Continuous
 62
     7
100
AcDbLine
 10
6285.5576626764
 20
4492.3811192926
 30
0.0
 11
6285.4059092508
 21
4492.3725362237
 31
0.0
  0
LINE
  5
2B3
330
1F
100
AcDbEntity
  8
0
  6
Continuous
 62
     7
100
AcDbLine
 10
6285.4059092508
 20
4492.3725362237
 30
0.0
 11
6285.2674178587
 21
4492.3449988778
 31
0.0
  0
LINE
  5
2B4
330
1F
100
AcDbEntity
  8
0
  6
Continuous
 62
     7
100
AcDbLine
 10
6878.263761829
 20
4491.6452403482
 30
0.0
 11
6878.9204262005
 21
4492.1341176446
 31
0.0
  0
LINE
  5
2B5
330
1F
100
AcDbEntity
  8
0
  6
Continuous
 62
     7
100
AcDbLine
 10
6878.9204262005
 20
4492.1341176446
 30
0.0
 11
6879.2689345585
 21
4492.6890368875
 31
0.0
  0
LINE
  5
2B6
330
1F
100
AcDbEntity
  8
0
  6
Continuous
 62
     7
100
AcDbLine
 10
6879.2689345585
 20
4492.6890368875
 30
0.0
 11
6879.2686961399
 21
4493.2632680353
 31
0.0
  0
LINE
  5
2B7
330
1F
100
AcDbEntity
  8
0
  6
Continuous
 62
     7
100
AcDbLine
 10
6879.2686961399
 20
4493.2632680353
 30
0.0
 11
6878.9197705494
 21
4493.8183064874
 31
0.0
  0
LINE
  5
2B8
330
1F
100
AcDbEntity
  8
0
  6
Continuous
 62
     7
100
AcDbLine
 10
6878.9197705494
 20
4493.8183064874
 30
0.0
 11
6878.2455228077
 21
4494.3169589456
 31
0.0
  0
LINE
  5
2B9
330
1F
100
AcDbEntity
  8
0
  6
Continuous
 62
     7
100
AcDbLine
 10
6878.2455228077
 20
4494.3169589456
 30
0.0
 11
6877.2911332355
 21
4494.725966018
 31
0.0
  0
LINE
  5
2BA
330
1F
100
AcDbEntity
  8
0
  6
Continuous
 62
     7
100
AcDbLine
 10
6877.2911332355
 20
4494.725966018
 30
0.0
 11
6876.1204980122
 21
4495.0177903589
 31
0.0
  0
LINE
  5
2BB
330
1F
100
AcDbEntity
  8
0
  6
Continuous
 62
     7
100
AcDbLine
 10
6876.1204980122
 20
4495.0177903589
 30
0.0
 11
6874.81205685
 21
4495.1728816446
 31
0.0
  0
LINE
  5
2BC
330
1F
100
AcDbEntity
  8
0
  6
Continuous
 62
     7
100
AcDbLine
 10
6874.8133085476
 20
4490.5762906488
 30
0.0
 11
6874.813070129
 21
4490.6262393411
 31
0.0
  0
LINE
  5
2BD
330
1F
100
AcDbEntity
  8
0
  6
Continuous
 62
     7
100
AcDbLine
 10
6874.813070129
 20
4490.6262393411
 30
0.0
 11
6874.8127721058
 21
4490.8902879175
 31
0.0
  0
LINE
  5
2BE
330
1F
100
AcDbEntity
  8
0
  6
Continuous
 62
     7
100
AcDbLine
 10
6874.8127721058
 20
4490.8902879175
 30
0.0
 11
6874.8124740826
 21
4491.3745160516
 31
0.0
  0
LINE
  5
2BF
330
1F
100
AcDbEntity
  8
0
  6
Continuous
 62
     7
100
AcDbLine
 10
6874.8124740826
 20
4491.3745160516
 30
0.0
 11
6874.8122952686
 21
4492.065929931
 31
0.0
  0
LINE
  5
2C0
330
1F
100
AcDbEntity
  8
0
  6
Continuous
 62
     7
100
AcDbLine
 10
6874.8122952686
 20
4492.065929931
 30
0.0
 11
6874.8121164547
 21
4492.9459329065
 31
0.0
  0
LINE
  5
2C1
330
1F
100
AcDbEntity
  8
0
  6
Continuous
 62
     7
100
AcDbLine
 10
6874.8121164547
 20
4492.9459329065
 30
0.0
 11
6874.81205685
 21
4493.9909215387
 31
0.0
  0
LINE
  5
2C2
330
1F
100
AcDbEntity
  8
0
  6
Continuous
 62
     7
100
AcDbLine
 10
6874.81205685
 20
4493.9909215387
 30
0.0
 11
6874.81205685
 21
4495.1728816446
 31
0.0
  0
LINE
  5
2C3
330
1F
100
AcDbEntity
  8
0
  6
Continuous
 62
     7
100
AcDbLine
 10
6873.3121059643
 20
4495.1731200631
 30
0.0
 11
6872.0037840115
 21
4495.0183864053
 31
0.0
  0
LINE
  5
2C4
330
1F
100
AcDbEntity
  8
0
  6
Continuous
 62
     7
100
AcDbLine
 10
6872.0037840115
 20
4495.0183864053
 30
0.0
 11
6870.8333872066
 21
4494.7270389017
 31
0.0
  0
LINE
  5
2C5
330
1F
100
AcDbEntity
  8
0
  6
Continuous
 62
     7
100
AcDbLine
 10
6870.8333872066
 20
4494.7270389017
 30
0.0
 11
6869.8792956577
 21
4494.3183894571
 31
0.0
  0
LINE
  5
2C6
330
1F
100
AcDbEntity
  8
0
  6
Continuous
 62
     7
100
AcDbLine
 10
6869.8792956577
 20
4494.3183894571
 30
0.0
 11
6869.2054651485
 21
4493.8199754175
 31
0.0
  0
LINE
  5
2C7
330
1F
100
AcDbEntity
  8
0
  6
Continuous
 62
     7
100
AcDbLine
 10
6869.2054651485
 20
4493.8199754175
 30
0.0
 11
6868.8569567905
 21
4493.2649369653
 31
0.0
  0
LINE
  5
2C8
330
1F
100
AcDbEntity
  8
0
  6
Continuous
 62
     7
100
AcDbLine
 10
6868.8569567905
 20
4493.2649369653
 30
0.0
 11
6868.8571952091
 21
4492.6907058175
 31
0.0
  0
LINE
  5
2C9
330
1F
100
AcDbEntity
  8
0
  6
Continuous
 62
     7
100
AcDbLine
 10
6868.8571952091
 20
4492.6907058175
 30
0.0
 11
6869.2061207996
 21
4492.1356673654
 31
0.0
  0
LINE
  5
2CA
330
1F
100
AcDbEntity
  8
0
  6
Continuous
 62
     7
100
AcDbLine
 10
6869.2061207996
 20
4492.1356673654
 30
0.0
 11
6869.8613546596
 21
4491.647624534
 31
0.0
  0
LINE
  5
2CB
330
1F
100
AcDbEntity
  8
0
  6
Continuous
 62
     7
100
AcDbLine
 10
6873.3121059643
 20
4495.1731200631
 30
0.0
 11
6873.3120463596
 21
4493.9911599573
 31
0.0
  0
LINE
  5
2CC
330
1F
100
AcDbEntity
  8
0
  6
Continuous
 62
     7
100
AcDbLine
 10
6873.3120463596
 20
4493.9911599573
 30
0.0
 11
6873.3121655689
 21
4492.9461713251
 31
0.0
  0
LINE
  5
2CD
330
1F
100
AcDbEntity
  8
0
  6
Continuous
 62
     7
100
AcDbLine
 10
6873.3121655689
 20
4492.9461713251
 30
0.0
 11
6873.3122847782
 21
4492.0661683496
 31
0.0
  0
LINE
  5
2CE
330
1F
100
AcDbEntity
  8
0
  6
Continuous
 62
     7
100
AcDbLine
 10
6873.3122847782
 20
4492.0661683496
 30
0.0
 11
6873.3124635921
 21
4491.3747544702
 31
0.0
  0
LINE
  5
2CF
330
1F
100
AcDbEntity
  8
0
  6
Continuous
 62
     7
100
AcDbLine
 10
6873.3124635921
 20
4491.3747544702
 30
0.0
 11
6873.3127616154
 21
4490.890526336
 31
0.0
  0
LINE
  5
2D0
330
1F
100
AcDbEntity
  8
0
  6
Continuous
 62
     7
100
AcDbLine
 10
6873.3127616154
 20
4490.890526336
 30
0.0
 11
6873.3130596386
 21
4490.6264777597
 31
0.0
  0
LINE
  5
2D1
330
1F
100
AcDbEntity
  8
0
  6
Continuous
 62
     7
100
AcDbLine
 10
6873.3130596386
 20
4490.6264777597
 30
0.0
 11
6873.3134172665
 21
4490.5896420892
 31
0.0
  0
LINE
  5
2D2
330
1F
100
AcDbEntity
  8
0
  6
Continuous
 62
     7
100
AcDbLine
 10
6873.3134172665
 20
4490.5896420892
 30
0.0
 11
6873.313834499
 21
4490.7810922082
 31
0.0
  0
LINE
  5
2D3
330
1F
100
AcDbEntity
  8
0
  6
Continuous
 62
     7
100
AcDbLine
 10
6873.3121059643
 20
4495.1731200631
 30
0.0
 11
6873.313834499
 21
4490.7810922082
 31
0.0
  0
LINE
  5
2D4
330
1F
100
AcDbEntity
  8
0
  6
Continuous
 62
     7
100
AcDbLine
 10
6879.3131016003
 20
4493.6099286493
 30
0.0
 11
6879.3131016003
 21
4493.6105246957
 31
0.0
  0
LINE
  5
2D5
330
1F
100
AcDbEntity
  8
0
  6
Continuous
 62
     7
100
AcDbLine
 10
6879.3131016003
 20
4493.6105246957
 30
0.0
 11
6879.1339896427
 21
4494.1848750528
 31
0.0
  0
LINE
  5
2D6
330
1F
100
AcDbEntity
  8
0
  6
Continuous
 62
     7
100
AcDbLine
 10
6879.1339896427
 20
4494.1848750528
 30
0.0
 11
6878.6093495594
 21
4494.7200055536
 31
0.0
  0
LINE
  5
2D7
330
1F
100
AcDbEntity
  8
0
  6
Continuous
 62
     7
100
AcDbLine
 10
6878.6093495594
 20
4494.7200055536
 30
0.0
 11
6877.7748249279
 21
4495.1796765741
 31
0.0
  0
LINE
  5
2D8
330
1F
100
AcDbEntity
  8
0
  6
Continuous
 62
     7
100
AcDbLine
 10
6877.7748249279
 20
4495.1796765741
 30
0.0
 11
6876.6873977886
 21
4495.5324168619
 31
0.0
  0
LINE
  5
2D9
330
1F
100
AcDbEntity
  8
0
  6
Continuous
 62
     7
100
AcDbLine
 10
6876.6873977886
 20
4495.5324168619
 30
0.0
 11
6875.4210971104
 21
4495.754384559
 31
0.0
  0
LINE
  5
2DA
330
1F
100
AcDbEntity
  8
0
  6
Continuous
 62
     7
100
AcDbLine
 10
6875.4210971104
 20
4495.754384559
 30
0.0
 11
6874.0622304188
 21
4495.8302016672
 31
0.0
  0
LINE
  5
2DB
330
1F
100
AcDbEntity
  8
0
  6
Continuous
 62
     7
100
AcDbLine
 10
6874.0622304188
 20
4495.8302016672
 30
0.0
 11
6872.7034829365
 21
4495.7547421869
 31
0.0
  0
LINE
  5
2DC
330
1F
100
AcDbEntity
  8
0
  6
Continuous
 62
     7
100
AcDbLine
 10
6872.7034829365
 20
4495.7547421869
 30
0.0
 11
6871.4373610722
 21
4495.5333705362
 31
0.0
  0
LINE
  5
2DD
330
1F
100
AcDbEntity
  8
0
  6
Continuous
 62
     7
100
AcDbLine
 10
6871.4373610722
 20
4495.5333705362
 30
0.0
 11
6870.3501723515
 21
4495.180868667
 31
0.0
  0
LINE
  5
2DE
330
1F
100
AcDbEntity
  8
0
  6
Continuous
 62
     7
100
AcDbLine
 10
6870.3501723515
 20
4495.180868667
 30
0.0
 11
6869.5160649525
 21
4494.7215552743
 31
0.0
  0
LINE
  5
2DF
330
1F
100
AcDbEntity
  8
0
  6
Continuous
 62
     7
100
AcDbLine
 10
6869.5160649525
 20
4494.7215552743
 30
0.0
 11
6868.991782497
 21
4494.1865439828
 31
0.0
  0
LINE
  5
2E0
330
1F
100
AcDbEntity
  8
0
  6
Continuous
 62
     7
100
AcDbLine
 10
6868.991782497
 20
4494.1865439828
 30
0.0
 11
6868.8131473766
 21
4493.6123128351
 31
0.0
  0
LINE
  5
2E1
330
1F
100
AcDbEntity
  8
0
  6
Continuous
 62
     7
100
AcDbLine
 10
6274.7687553361
 20
4334.9203909116
 30
0.0
 11
6274.7687553361
 21
4345.312695757
 31
0.0
  0
LINE
  5
2E2
330
1F
100
AcDbEntity
  8
0
  6
Continuous
 62
     7
100
AcDbLine
 10
6273.2687553361
 20
4345.312695757
 30
0.0
 11
6273.2687553361
 21
4334.9203909116
 31
0.0
  0
LINE
  5
2E3
330
1F
100
AcDbEntity
  8
0
  6
Continuous
 62
     7
100
AcDbLine
 10
5678.2638035522
 20
4491.6452403482
 30
0.0
 11
5678.9204381214
 21
4492.1341176446
 31
0.0
  0
LINE
  5
2E4
330
1F
100
AcDbEntity
  8
0
  6
Continuous
 62
     7
100
AcDbLine
 10
5678.9204381214
 20
4492.1341176446
 30
0.0
 11
5679.2689166771
 21
4492.6890368875
 31
0.0
  0
LINE
  5
2E5
330
1F
100
AcDbEntity
  8
0
  6
Continuous
 62
     7
100
AcDbLine
 10
5679.2689166771
 20
4492.6890368875
 30
0.0
 11
5679.2686782585
 21
4493.2632680353
 31
0.0
  0
LINE
  5
2E6
330
1F
100
AcDbEntity
  8
0
  6
Continuous
 62
     7
100
AcDbLine
 10
5679.2686782585
 20
4493.2632680353
 30
0.0
 11
5678.9197824703
 21
4493.8183064874
 31
0.0
  0
LINE
  5
2E7
330
1F
100
AcDbEntity
  8
0
  6
Continuous
 62
     7
100
AcDbLine
 10
5678.9197824703
 20
4493.8183064874
 30
0.0
 11
5678.2455347286
 21
4494.3169589456
 31
0.0
  0
LINE
  5
2E8
330
1F
100
AcDbEntity
  8
0
  6
Continuous
 62
     7
100
AcDbLine
 10
5678.2455347286
 20
4494.3169589456
 30
0.0
 11
5677.2911451565
 21
4494.725966018
 31
0.0
  0
LINE
  5
2E9
330
1F
100
AcDbEntity
  8
0
  6
Continuous
 62
     7
100
AcDbLine
 10
5677.2911451565
 20
4494.725966018
 30
0.0
 11
5676.1205099331
 21
4495.0177903589
 31
0.0
  0
LINE
  5
2EA
330
1F
100
AcDbEntity
  8
0
  6
Continuous
 62
     7
100
AcDbLine
 10
5676.1205099331
 20
4495.0177903589
 30
0.0
 11
5674.812068771
 21
4495.1728816446
 31
0.0
  0
LINE
  5
2EB
330
1F
100
AcDbEntity
  8
0
  6
Continuous
 62
     7
100
AcDbLine
 10
5674.8132906662
 20
4490.5762906488
 30
0.0
 11
5674.8130522476
 21
4490.6262393411
 31
0.0
  0
LINE
  5
2EC
330
1F
100
AcDbEntity
  8
0
  6
Continuous
 62
     7
100
AcDbLine
 10
5674.8130522476
 20
4490.6262393411
 30
0.0
 11
5674.8127542244
 21
4490.8902879175
 31
0.0
  0
LINE
  5
2ED
330
1F
100
AcDbEntity
  8
0
  6
Continuous
 62
     7
100
AcDbLine
 10
5674.8127542244
 20
4490.8902879175
 30
0.0
 11
5674.8124860035
 21
4491.3745160516
 31
0.0
  0
LINE
  5
2EE
330
1F
100
AcDbEntity
  8
0
  6
Continuous
 62
     7
100
AcDbLine
 10
5674.8124860035
 20
4491.3745160516
 30
0.0
 11
5674.8122773872
 21
4492.065929931
 31
0.0
  0
LINE
  5
2EF
330
1F
100
AcDbEntity
  8
0
  6
Continuous
 62
     7
100
AcDbLine
 10
5674.8122773872
 20
4492.065929931
 30
0.0
 11
5674.8121283756
 21
4492.9459329065
 31
0.0
  0
LINE
  5
2F0
330
1F
100
AcDbEntity
  8
0
  6
Continuous
 62
     7
100
AcDbLine
 10
5674.8121283756
 20
4492.9459329065
 30
0.0
 11
5674.812068771
 21
4493.9909215387
 31
0.0
  0
LINE
  5
2F1
330
1F
100
AcDbEntity
  8
0
  6
Continuous
 62
     7
100
AcDbLine
 10
5674.812068771
 20
4493.9909215387
 30
0.0
 11
5674.812068771
 21
4495.1728816446
 31
0.0
  0
LINE
  5
2F2
330
1F
100
AcDbEntity
  8
0
  6
Continuous
 62
     7
100
AcDbLine
 10
5673.3120880829
 20
4495.1731200631
 30
0.0
 11
5673.3138166176
 21
4490.7810922082
 31
0.0
  0
LINE
  5
2F3
330
1F
100
AcDbEntity
  8
0
  6
Continuous
 62
     7
100
AcDbLine
 10
5673.3120880829
 20
4495.1731200631
 30
0.0
 11
5673.3120880829
 21
4493.9911599573
 31
0.0
  0
LINE
  5
2F4
330
1F
100
AcDbEntity
  8
0
  6
Continuous
 62
     7
100
AcDbLine
 10
5673.3120880829
 20
4493.9911599573
 30
0.0
 11
5673.3121476875
 21
4492.9461713251
 31
0.0
  0
LINE
  5
2F5
330
1F
100
AcDbEntity
  8
0
  6
Continuous
 62
     7
100
AcDbLine
 10
5673.3121476875
 20
4492.9461713251
 30
0.0
 11
5673.3122668968
 21
4492.0661683496
 31
0.0
  0
LINE
  5
2F6
330
1F
100
AcDbEntity
  8
0
  6
Continuous
 62
     7
100
AcDbLine
 10
5673.3122668968
 20
4492.0661683496
 30
0.0
 11
5673.3124755131
 21
4491.3747544702
 31
0.0
  0
LINE
  5
2F7
330
1F
100
AcDbEntity
  8
0
  6
Continuous
 62
     7
100
AcDbLine
 10
5673.3124755131
 20
4491.3747544702
 30
0.0
 11
5673.312743734
 21
4490.890526336
 31
0.0
  0
LINE
  5
2F8
330
1F
100
AcDbEntity
  8
0
  6
Continuous
 62
     7
100
AcDbLine
 10
5673.312743734
 20
4490.890526336
 30
0.0
 11
5673.3130715595
 21
4490.6264777597
 31
0.0
  0
LINE
  5
2F9
330
1F
100
AcDbEntity
  8
0
  6
Continuous
 62
     7
100
AcDbLine
 10
5673.3130715595
 20
4490.6264777597
 30
0.0
 11
5673.3134291874
 21
4490.5896420892
 31
0.0
  0
LINE
  5
2FA
330
1F
100
AcDbEntity
  8
0
  6
Continuous
 62
     7
100
AcDbLine
 10
5673.3134291874
 20
4490.5896420892
 30
0.0
 11
5673.3138166176
 21
4490.7810922082
 31
0.0
  0
LINE
  5
2FB
330
1F
100
AcDbEntity
  8
0
  6
Continuous
 62
     7
100
AcDbLine
 10
5673.3120880829
 20
4495.1731200631
 30
0.0
 11
5672.0037661301
 21
4495.0183864053
 31
0.0
  0
LINE
  5
2FC
330
1F
100
AcDbEntity
  8
0
  6
Continuous
 62
     7
100
AcDbLine
 10
5672.0037661301
 20
4495.0183864053
 30
0.0
 11
5670.8333693253
 21
4494.7270389017
 31
0.0
  0
LINE
  5
2FD
330
1F
100
AcDbEntity
  8
0
  6
Continuous
 62
     7
100
AcDbLine
 10
5670.8333693253
 20
4494.7270389017
 30
0.0
 11
5669.8793075787
 21
4494.3183894571
 31
0.0
  0
LINE
  5
2FE
330
1F
100
AcDbEntity
  8
0
  6
Continuous
 62
     7
100
AcDbLine
 10
5669.8793075787
 20
4494.3183894571
 30
0.0
 11
5669.2054472671
 21
4493.8199754175
 31
0.0
  0
LINE
  5
2FF
330
1F
100
AcDbEntity
  8
0
  6
Continuous
 62
     7
100
AcDbLine
 10
5669.2054472671
 20
4493.8199754175
 30
0.0
 11
5668.8569687115
 21
4493.2649369653
 31
0.0
  0
LINE
  5
300
330
1F
100
AcDbEntity
  8
0
  6
Continuous
 62
     7
100
AcDbLine
 10
5668.8569687115
 20
4493.2649369653
 30
0.0
 11
5668.85720713
 21
4492.6907058175
 31
0.0
  0
LINE
  5
301
330
1F
100
AcDbEntity
  8
0
  6
Continuous
 62
     7
100
AcDbLine
 10
5668.85720713
 20
4492.6907058175
 30
0.0
 11
5669.2061029182
 21
4492.1356673654
 31
0.0
  0
LINE
  5
302
330
1F
100
AcDbEntity
  8
0
  6
Continuous
 62
     7
100
AcDbLine
 10
5669.2061029182
 20
4492.1356673654
 30
0.0
 11
5669.8613367783
 21
4491.647624534
 31
0.0
  0
LINE
  5
303
330
1F
100
AcDbEntity
  8
0
  6
Continuous
 62
     7
100
AcDbLine
 10
5679.3131135212
 20
4493.6099286493
 30
0.0
 11
5679.3131135212
 21
4493.6105246957
 31
0.0
  0
LINE
  5
304
330
1F
100
AcDbEntity
  8
0
  6
Continuous
 62
     7
100
AcDbLine
 10
5679.3131135212
 20
4493.6105246957
 30
0.0
 11
5679.1340015636
 21
4494.1848750528
 31
0.0
  0
LINE
  5
305
330
1F
100
AcDbEntity
  8
0
  6
Continuous
 62
     7
100
AcDbLine
 10
5679.1340015636
 20
4494.1848750528
 30
0.0
 11
5678.609331678
 21
4494.7200055536
 31
0.0
  0
LINE
  5
306
330
1F
100
AcDbEntity
  8
0
  6
Continuous
 62
     7
100
AcDbLine
 10
5678.609331678
 20
4494.7200055536
 30
0.0
 11
5677.7748070465
 21
4495.1796765741
 31
0.0
  0
LINE
  5
307
330
1F
100
AcDbEntity
  8
0
  6
Continuous
 62
     7
100
AcDbLine
 10
5677.7748070465
 20
4495.1796765741
 30
0.0
 11
5676.6873799072
 21
4495.5324168619
 31
0.0
  0
LINE
  5
308
330
1F
100
AcDbEntity
  8
0
  6
Continuous
 62
     7
100
AcDbLine
 10
5676.6873799072
 20
4495.5324168619
 30
0.0
 11
5675.421079229
 21
4495.754384559
 31
0.0
  0
LINE
  5
309
330
1F
100
AcDbEntity
  8
0
  6
Continuous
 62
     7
100
AcDbLine
 10
5675.421079229
 20
4495.754384559
 30
0.0
 11
5674.0622423397
 21
4495.8302016672
 31
0.0
  0
LINE
  5
30A
330
1F
100
AcDbEntity
  8
0
  6
Continuous
 62
     7
100
AcDbLine
 10
5674.0622423397
 20
4495.8302016672
 30
0.0
 11
5672.7034948574
 21
4495.7547421869
 31
0.0
  0
LINE
  5
30B
330
1F
100
AcDbEntity
  8
0
  6
Continuous
 62
     7
100
AcDbLine
 10
5672.7034948574
 20
4495.7547421869
 30
0.0
 11
5671.4373729931
 21
4495.5333705362
 31
0.0
  0
LINE
  5
30C
330
1F
100
AcDbEntity
  8
0
  6
Continuous
 62
     7
100
AcDbLine
 10
5671.4373729931
 20
4495.5333705362
 30
0.0
 11
5670.3501842724
 21
4495.180868667
 31
0.0
  0
LINE
  5
30D
330
1F
100
AcDbEntity
  8
0
  6
Continuous
 62
     7
100
AcDbLine
 10
5670.3501842724
 20
4495.180868667
 30
0.0
 11
5669.5160470711
 21
4494.7215552743
 31
0.0
  0
LINE
  5
30E
330
1F
100
AcDbEntity
  8
0
  6
Continuous
 62
     7
100
AcDbLine
 10
5669.5160470711
 20
4494.7215552743
 30
0.0
 11
5668.9917944179
 21
4494.1865439828
 31
0.0
  0
LINE
  5
30F
330
1F
100
AcDbEntity
  8
0
  6
Continuous
 62
     7
100
AcDbLine
 10
5668.9917944179
 20
4494.1865439828
 30
0.0
 11
5668.8131294952
 21
4493.6123128351
 31
0.0
  0
LINE
  5
310
330
1F
100
AcDbEntity
  8
0
  6
Continuous
 62
     7
100
AcDbLine
 10
5673.2687553361
 20
4345.312695757
 30
0.0
 11
5673.2687553361
 21
4334.9203909116
 31
0.0
  0
LINE
  5
311
330
1F
100
AcDbEntity
  8
0
  6
Continuous
 62
     7
100
AcDbLine
 10
5674.7687553361
 20
4334.9203909116
 30
0.0
 11
5674.7687553361
 21
4345.312695757
 31
0.0
  0
LINE
  5
312
330
1F
100
AcDbEntity
  8
0
  6
Continuous
 62
     7
100
AcDbLine
 10
6874.7687553361
 20
4334.9203909116
 30
0.0
 11
6874.7687553361
 21
4345.312695757
 31
0.0
  0
LINE
  5
313
330
1F
100
AcDbEntity
  8
0
  6
Continuous
 62
     7
100
AcDbLine
 10
6873.2687553361
 20
4345.312695757
 30
0.0
 11
6873.2687553361
 21
4334.9203909116
 31
0.0
  0
LINE
  5
314
330
1F
100
AcDbEntity
  8
0
  6
Continuous
 62
     7
100
AcDbLine
 10
6278.2637826906
 20
4491.6452403482
 30
0.0
 11
6278.9204321609
 21
4492.1341176446
 31
0.0
  0
LINE
  5
315
330
1F
100
AcDbEntity
  8
0
  6
Continuous
 62
     7
100
AcDbLine
 10
6278.9204321609
 20
4492.1341176446
 30
0.0
 11
6279.2689107166
 21
4492.6890368875
 31
0.0
  0
LINE
  5
316
330
1F
100
AcDbEntity
  8
0
  6
Continuous
 62
     7
100
AcDbLine
 10
6279.2689107166
 20
4492.6890368875
 30
0.0
 11
6279.2686871992
 21
4493.2632680353
 31
0.0
  0
LINE
  5
317
330
1F
100
AcDbEntity
  8
0
  6
Continuous
 62
     7
100
AcDbLine
 10
6279.2686871992
 20
4493.2632680353
 30
0.0
 11
6278.9197765099
 21
4493.8183064874
 31
0.0
  0
LINE
  5
318
330
1F
100
AcDbEntity
  8
0
  6
Continuous
 62
     7
100
AcDbLine
 10
6278.9197765099
 20
4493.8183064874
 30
0.0
 11
6278.2455436693
 21
4494.3169589456
 31
0.0
  0
LINE
  5
319
330
1F
100
AcDbEntity
  8
0
  6
Continuous
 62
     7
100
AcDbLine
 10
6278.2455436693
 20
4494.3169589456
 30
0.0
 11
6277.291139196
 21
4494.725966018
 31
0.0
  0
LINE
  5
31A
330
1F
100
AcDbEntity
  8
0
  6
Continuous
 62
     7
100
AcDbLine
 10
6277.291139196
 20
4494.725966018
 30
0.0
 11
6276.1205188738
 21
4495.0177903589
 31
0.0
  0
LINE
  5
31B
330
1F
100
AcDbEntity
  8
0
  6
Continuous
 62
     7
100
AcDbLine
 10
6276.1205188738
 20
4495.0177903589
 30
0.0
 11
6274.8120777117
 21
4495.1728816446
 31
0.0
  0
LINE
  5
31C
330
1F
100
AcDbEntity
  8
0
  6
Continuous
 62
     7
100
AcDbLine
 10
6274.8132847057
 20
4490.5762906488
 30
0.0
 11
6274.8130611883
 21
4490.6262393411
 31
0.0
  0
LINE
  5
31D
330
1F
100
AcDbEntity
  8
0
  6
Continuous
 62
     7
100
AcDbLine
 10
6274.8130611883
 20
4490.6262393411
 30
0.0
 11
6274.8127482639
 21
4490.8902879175
 31
0.0
  0
LINE
  5
31E
330
1F
100
AcDbEntity
  8
0
  6
Continuous
 62
     7
100
AcDbLine
 10
6274.8127482639
 20
4490.8902879175
 30
0.0
 11
6274.812480043
 21
4491.3745160516
 31
0.0
  0
LINE
  5
31F
330
1F
100
AcDbEntity
  8
0
  6
Continuous
 62
     7
100
AcDbLine
 10
6274.812480043
 20
4491.3745160516
 30
0.0
 11
6274.8122863279
 21
4492.065929931
 31
0.0
  0
LINE
  5
320
330
1F
100
AcDbEntity
  8
0
  6
Continuous
 62
     7
100
AcDbLine
 10
6274.8122863279
 20
4492.065929931
 30
0.0
 11
6274.8121373163
 21
4492.9459329065
 31
0.0
  0
LINE
  5
321
330
1F
100
AcDbEntity
  8
0
  6
Continuous
 62
     7
100
AcDbLine
 10
6274.8121373163
 20
4492.9459329065
 30
0.0
 11
6274.8120777117
 21
4493.9909215387
 31
0.0
  0
LINE
  5
322
330
1F
100
AcDbEntity
  8
0
  6
Continuous
 62
     7
100
AcDbLine
 10
6274.8120777117
 20
4493.9909215387
 30
0.0
 11
6274.8120777117
 21
4495.1728816446
 31
0.0
  0
LINE
  5
323
330
1F
100
AcDbEntity
  8
0
  6
Continuous
 62
     7
100
AcDbLine
 10
6273.3120821224
 20
4495.1731200631
 30
0.0
 11
6273.3138106571
 21
4490.7810922082
 31
0.0
  0
LINE
  5
324
330
1F
100
AcDbEntity
  8
0
  6
Continuous
 62
     7
100
AcDbLine
 10
6273.3120821224
 20
4495.1731200631
 30
0.0
 11
6273.3120821224
 21
4493.9911599573
 31
0.0
  0
LINE
  5
325
330
1F
100
AcDbEntity
  8
0
  6
Continuous
 62
     7
100
AcDbLine
 10
6273.3120821224
 20
4493.9911599573
 30
0.0
 11
6273.3121417271
 21
4492.9461713251
 31
0.0
  0
LINE
  5
326
330
1F
100
AcDbEntity
  8
0
  6
Continuous
 62
     7
100
AcDbLine
 10
6273.3121417271
 20
4492.9461713251
 30
0.0
 11
6273.3122758375
 21
4492.0661683496
 31
0.0
  0
LINE
  5
327
330
1F
100
AcDbEntity
  8
0
  6
Continuous
 62
     7
100
AcDbLine
 10
6273.3122758375
 20
4492.0661683496
 30
0.0
 11
6273.3124844538
 21
4491.3747544702
 31
0.0
  0
LINE
  5
328
330
1F
100
AcDbEntity
  8
0
  6
Continuous
 62
     7
100
AcDbLine
 10
6273.3124844538
 20
4491.3747544702
 30
0.0
 11
6273.3127377735
 21
4490.890526336
 31
0.0
  0
LINE
  5
329
330
1F
100
AcDbEntity
  8
0
  6
Continuous
 62
     7
100
AcDbLine
 10
6273.3127377735
 20
4490.890526336
 30
0.0
 11
6273.3130655991
 21
4490.6264777597
 31
0.0
  0
LINE
  5
32A
330
1F
100
AcDbEntity
  8
0
  6
Continuous
 62
     7
100
AcDbLine
 10
6273.3130655991
 20
4490.6264777597
 30
0.0
 11
6273.3134232269
 21
4490.5896420892
 31
0.0
  0
LINE
  5
32B
330
1F
100
AcDbEntity
  8
0
  6
Continuous
 62
     7
100
AcDbLine
 10
6273.3134232269
 20
4490.5896420892
 30
0.0
 11
6273.3138106571
 21
4490.7810922082
 31
0.0
  0
LINE
  5
32C
330
1F
100
AcDbEntity
  8
0
  6
Continuous
 62
     7
100
AcDbLine
 10
6273.3120821224
 20
4495.1731200631
 30
0.0
 11
6272.0037601696
 21
4495.0183864053
 31
0.0
  0
LINE
  5
32D
330
1F
100
AcDbEntity
  8
0
  6
Continuous
 62
     7
100
AcDbLine
 10
6272.0037601696
 20
4495.0183864053
 30
0.0
 11
6270.8333633648
 21
4494.7270389017
 31
0.0
  0
LINE
  5
32E
330
1F
100
AcDbEntity
  8
0
  6
Continuous
 62
     7
100
AcDbLine
 10
6270.8333633648
 20
4494.7270389017
 30
0.0
 11
6269.879286717
 21
4494.3183894571
 31
0.0
  0
LINE
  5
32F
330
1F
100
AcDbEntity
  8
0
  6
Continuous
 62
     7
100
AcDbLine
 10
6269.879286717
 20
4494.3183894571
 30
0.0
 11
6269.2054562078
 21
4493.8199754175
 31
0.0
  0
LINE
  5
330
330
1F
100
AcDbEntity
  8
0
  6
Continuous
 62
     7
100
AcDbLine
 10
6269.2054562078
 20
4493.8199754175
 30
0.0
 11
6268.8569776522
 21
4493.2649369653
 31
0.0
  0
LINE
  5
331
330
1F
100
AcDbEntity
  8
0
  6
Continuous
 62
     7
100
AcDbLine
 10
6268.8569776522
 20
4493.2649369653
 30
0.0
 11
6268.8572011696
 21
4492.6907058175
 31
0.0
  0
LINE
  5
332
330
1F
100
AcDbEntity
  8
0
  6
Continuous
 62
     7
100
AcDbLine
 10
6268.8572011696
 20
4492.6907058175
 30
0.0
 11
6269.2061118589
 21
4492.1356673654
 31
0.0
  0
LINE
  5
333
330
1F
100
AcDbEntity
  8
0
  6
Continuous
 62
     7
100
AcDbLine
 10
6269.2061118589
 20
4492.1356673654
 30
0.0
 11
6269.8613308178
 21
4491.647624534
 31
0.0
  0
LINE
  5
334
330
1F
100
AcDbEntity
  8
0
  6
Continuous
 62
     7
100
AcDbLine
 10
6279.3131224619
 20
4493.6099286493
 30
0.0
 11
6279.3131224619
 21
4493.6105246957
 31
0.0
  0
LINE
  5
335
330
1F
100
AcDbEntity
  8
0
  6
Continuous
 62
     7
100
AcDbLine
 10
6279.3131224619
 20
4493.6105246957
 30
0.0
 11
6279.1340105043
 21
4494.1848750528
 31
0.0
  0
LINE
  5
336
330
1F
100
AcDbEntity
  8
0
  6
Continuous
 62
     7
100
AcDbLine
 10
6279.1340105043
 20
4494.1848750528
 30
0.0
 11
6278.6093257175
 21
4494.7200055536
 31
0.0
  0
LINE
  5
337
330
1F
100
AcDbEntity
  8
0
  6
Continuous
 62
     7
100
AcDbLine
 10
6278.6093257175
 20
4494.7200055536
 30
0.0
 11
6277.7748159872
 21
4495.1796765741
 31
0.0
  0
LINE
  5
338
330
1F
100
AcDbEntity
  8
0
  6
Continuous
 62
     7
100
AcDbLine
 10
6277.7748159872
 20
4495.1796765741
 30
0.0
 11
6276.6873739468
 21
4495.5324168619
 31
0.0
  0
LINE
  5
339
330
1F
100
AcDbEntity
  8
0
  6
Continuous
 62
     7
100
AcDbLine
 10
6276.6873739468
 20
4495.5324168619
 30
0.0
 11
6275.4210881697
 21
4495.754384559
 31
0.0
  0
LINE
  5
33A
330
1F
100
AcDbEntity
  8
0
  6
Continuous
 62
     7
100
AcDbLine
 10
6275.4210881697
 20
4495.754384559
 30
0.0
 11
6274.0622512804
 21
4495.8302016672
 31
0.0
  0
LINE
  5
33B
330
1F
100
AcDbEntity
  8
0
  6
Continuous
 62
     7
100
AcDbLine
 10
6274.0622512804
 20
4495.8302016672
 30
0.0
 11
6272.7034888969
 21
4495.7547421869
 31
0.0
  0
LINE
  5
33C
330
1F
100
AcDbEntity
  8
0
  6
Continuous
 62
     7
100
AcDbLine
 10
6272.7034888969
 20
4495.7547421869
 30
0.0
 11
6271.4373670326
 21
4495.5333705362
 31
0.0
  0
LINE
  5
33D
330
1F
100
AcDbEntity
  8
0
  6
Continuous
 62
     7
100
AcDbLine
 10
6271.4373670326
 20
4495.5333705362
 30
0.0
 11
6270.3501932131
 21
4495.180868667
 31
0.0
  0
LINE
  5
33E
330
1F
100
AcDbEntity
  8
0
  6
Continuous
 62
     7
100
AcDbLine
 10
6270.3501932131
 20
4495.180868667
 30
0.0
 11
6269.5160560118
 21
4494.7215552743
 31
0.0
  0
LINE
  5
33F
330
1F
100
AcDbEntity
  8
0
  6
Continuous
 62
     7
100
AcDbLine
 10
6269.5160560118
 20
4494.7215552743
 30
0.0
 11
6268.9917884575
 21
4494.1865439828
 31
0.0
  0
LINE
  5
340
330
1F
100
AcDbEntity
  8
0
  6
Continuous
 62
     7
100
AcDbLine
 10
6268.9917884575
 20
4494.1865439828
 30
0.0
 11
6268.8131235348
 21
4493.6123128351
 31
0.0
  0
LINE
  5
341
330
1F
100
AcDbEntity
  8
0
  6
Continuous
 62
     7
100
AcDbLine
 10
6910.9678767429
 20
4620.3657622751
 30
0.0
 11
6834.0187571751
 21
4620.3657622751
 31
0.0
  0
LINE
  5
342
330
1F
100
AcDbEntity
  8
0
  6
Continuous
 62
     7
100
AcDbLine
 10
6914.0187404858
 20
4620.3657622751
 30
0.0
 11
6910.9678767429
 21
4620.3657622751
 31
0.0
  0
LINE
  5
343
330
1F
100
AcDbEntity
  8
0
  6
Continuous
 62
     7
100
AcDbLine
 10
6892.4932978855
 20
4630.3657527383
 30
0.0
 11
6854.0187381016
 21
4630.3657527383
 31
0.0
  0
LINE
  5
344
330
1F
100
AcDbEntity
  8
0
  6
Continuous
 62
     7
100
AcDbLine
 10
6894.0187595592
 20
4630.3657527383
 30
0.0
 11
6892.4932978855
 21
4630.3657527383
 31
0.0
  0
LINE
  5
345
330
1F
100
AcDbEntity
  8
0
  6
Continuous
 62
     7
100
AcDbLine
 10
6310.9678827034
 20
4620.3657622751
 30
0.0
 11
6234.0187482344
 21
4620.3657622751
 31
0.0
  0
LINE
  5
346
330
1F
100
AcDbEntity
  8
0
  6
Continuous
 62
     7
100
AcDbLine
 10
6314.0187464462
 20
4620.3657622751
 30
0.0
 11
6310.9678827034
 21
4620.3657622751
 31
0.0
  0
LINE
  5
347
330
1F
100
AcDbEntity
  8
0
  6
Continuous
 62
     7
100
AcDbLine
 10
6292.493303846
 20
4630.3657527383
 30
0.0
 11
6254.0187589632
 21
4630.3657527383
 31
0.0
  0
LINE
  5
348
330
1F
100
AcDbEntity
  8
0
  6
Continuous
 62
     7
100
AcDbLine
 10
6294.0187655197
 20
4630.3657527383
 30
0.0
 11
6292.493303846
 21
4630.3657527383
 31
0.0
  0
LINE
  5
349
330
1F
100
AcDbEntity
  8
0
  6
Continuous
 62
     7
100
AcDbLine
 10
5710.9678886639
 20
4620.3657622751
 30
0.0
 11
5634.018769096
 21
4620.3657622751
 31
0.0
  0
LINE
  5
34A
330
1F
100
AcDbEntity
  8
0
  6
Continuous
 62
     7
100
AcDbLine
 10
5714.0187524067
 20
4620.3657622751
 30
0.0
 11
5710.9678886639
 21
4620.3657622751
 31
0.0
  0
LINE
  5
34B
330
1F
100
AcDbEntity
  8
0
  6
Continuous
 62
     7
100
AcDbLine
 10
5692.4933098064
 20
4630.3657527383
 30
0.0
 11
5654.0187500225
 21
4630.3657527383
 31
0.0
  0
LINE
  5
34C
330
1F
100
AcDbEntity
  8
0
  6
Continuous
 62
     7
100
AcDbLine
 10
5694.0187416779
 20
4630.3657527383
 30
0.0
 11
5692.4933098064
 21
4630.3657527383
 31
0.0
  0
LINE
  5
34D
330
1F
100
AcDbEntity
  8
0
  6
Continuous
 62
     7
100
AcDbLine
 10
7174.0187905537
 20
4620.1165552553
 30
0.0
 11
5374.0187786327
 21
4620.1165552553
 31
0.0
  0
LINE
  5
34E
330
1F
100
AcDbEntity
  8
0
  6
Continuous
 62
     7
100
AcDbLine
 10
7174.0187905537
 20
4618.916534942
 30
0.0
 11
7174.0187905537
 21
4620.1165552553
 31
0.0
  0
LINE
  5
34F
330
1F
100
AcDbEntity
  8
0
  6
Continuous
 62
     7
100
AcDbLine
 10
5374.0187786327
 20
4618.916534942
 30
0.0
 11
7174.0187905537
 21
4618.916534942
 31
0.0
  0
LINE
  5
350
330
1F
100
AcDbEntity
  8
0
  6
Continuous
 62
     7
100
AcDbLine
 10
5374.0187786327
 20
4620.1165552553
 30
0.0
 11
5374.0187786327
 21
4618.916534942
 31
0.0
  0
LINE
  5
351
330
1F
100
AcDbEntity
  8
0
  6
Continuous
 62
     7
100
AcDbLine
 10
7174.0187905537
 20
4616.9165606912
 30
0.0
 11
7171.0187695728
 21
4616.9165606912
 31
0.0
  0
LINE
  5
352
330
1F
100
AcDbEntity
  8
0
  6
Continuous
 62
     7
100
AcDbLine
 10
7171.0187695728
 20
4616.9165606912
 30
0.0
 11
7171.0187695728
 21
4618.916534942
 31
0.0
  0
LINE
  5
353
330
1F
100
AcDbEntity
  8
0
  6
Continuous
 62
     7
100
AcDbLine
 10
5377.0187400089
 20
4616.9165606912
 30
0.0
 11
5377.0187400089
 21
4618.916534942
 31
0.0
  0
LINE
  5
354
330
1F
100
AcDbEntity
  8
0
  6
Continuous
 62
     7
100
AcDbLine
 10
5377.0187400089
 20
4616.9165606912
 30
0.0
 11
5374.0187786327
 21
4616.9165606912
 31
0.0
  0
LINE
  5
355
330
1F
100
AcDbEntity
  8
0
  6
Continuous
 62
     7
100
AcDbLine
 10
7171.0187695728
 20
4616.9165606912
 30
0.0
 11
5377.0187400089
 21
4616.9165606912
 31
0.0
  0
LINE
  5
356
330
1F
100
AcDbEntity
  8
0
  6
Continuous
 62
     7
100
AcDbLine
 10
5377.0187400089
 20
4123.1165166314
 30
0.0
 11
5374.0187786327
 21
4123.1165166314
 31
0.0
  0
LINE
  5
357
330
1F
100
AcDbEntity
  8
0
  6
Continuous
 62
     7
100
AcDbLine
 10
5377.0187400089
 20
4616.9165606912
 30
0.0
 11
5377.0187400089
 21
4123.1165166314
 31
0.0
  0
LINE
  5
358
330
1F
100
AcDbEntity
  8
0
  6
Continuous
 62
     7
100
AcDbLine
 10
5374.0187786327
 20
4123.1165166314
 30
0.0
 11
5374.0187786327
 21
4616.9165606912
 31
0.0
  0
LINE
  5
359
330
1F
100
AcDbEntity
  8
0
  6
Continuous
 62
     7
100
AcDbLine
 10
7171.0187695728
 20
4123.1165166314
 30
0.0
 11
7174.0187905537
 21
4123.1165166314
 31
0.0
  0
LINE
  5
35A
330
1F
100
AcDbEntity
  8
0
  6
Continuous
 62
     7
100
AcDbLine
 10
7171.0187695728
 20
4123.1165166314
 30
0.0
 11
7171.0187695728
 21
4616.9165606912
 31
0.0
  0
LINE
  5
35B
330
1F
100
AcDbEntity
  8
0
  6
Continuous
 62
     7
100
AcDbLine
 10
7174.0187905537
 20
4616.9165606912
 30
0.0
 11
7174.0187905537
 21
4123.1165166314
 31
0.0
  0
LINE
  5
35C
330
1F
100
AcDbEntity
  8
0
  6
Continuous
 62
     7
100
AcDbLine
 10
5377.0187400089
 20
4123.1165166314
 30
0.0
 11
7171.0187695728
 21
4123.1165166314
 31
0.0
  0
LINE
  5
35D
330
1F
100
AcDbEntity
  8
0
  6
Continuous
 62
     7
100
AcDbLine
 10
7171.0187695728
 20
4123.1165166314
 30
0.0
 11
7171.0187695728
 21
4120.1164956506
 31
0.0
  0
LINE
  5
35E
330
1F
100
AcDbEntity
  8
0
  6
Continuous
 62
     7
100
AcDbLine
 10
7171.0187695728
 20
4120.1164956506
 30
0.0
 11
5377.0187400089
 21
4120.1164956506
 31
0.0
  0
LINE
  5
35F
330
1F
100
AcDbEntity
  8
0
  6
Continuous
 62
     7
100
AcDbLine
 10
5377.0187400089
 20
4123.1165166314
 30
0.0
 11
5377.0187400089
 21
4120.1164956506
 31
0.0
  0
LINE
  5
360
330
1F
100
AcDbEntity
  8
0
  6
Continuous
 62
     7
100
AcDbLine
 10
6862.8591798054
 20
4495.9882731851
 30
0.0
 11
6862.8588221775
 21
4494.9413772043
 31
0.0
  0
LINE
  5
361
330
1F
100
AcDbEntity
  8
0
  6
Continuous
 62
     7
100
AcDbLine
 10
6885.2667115437
 20
4495.9832663949
 30
0.0
 11
6885.2664135204
 21
4494.937562507
 31
0.0
  0
LINE
  5
362
330
1F
100
AcDbEntity
  8
0
  6
Continuous
 62
     7
100
AcDbLine
 10
6886.0261343227
 20
4492.231034797
 30
0.0
 11
6886.0261343227
 21
4492.1084876474
 31
0.0
  0
LINE
  5
363
330
1F
100
AcDbEntity
  8
0
  6
Continuous
 62
     7
100
AcDbLine
 10
6862.1014259563
 20
4492.2352071222
 30
0.0
 11
6862.1013663517
 21
4492.1125407632
 31
0.0
  0
LINE
  5
364
330
1F
100
AcDbEntity
  8
0
  6
Continuous
 62
     7
100
AcDbLine
 10
5662.859161924
 20
4495.9882731851
 30
0.0
 11
5662.8588639008
 21
4494.9413772043
 31
0.0
  0
LINE
  5
365
330
1F
100
AcDbEntity
  8
0
  6
Continuous
 62
     7
100
AcDbLine
 10
5685.2666936623
 20
4495.9832663949
 30
0.0
 11
5685.266395639
 21
4494.937562507
 31
0.0
  0
LINE
  5
366
330
1F
100
AcDbEntity
  8
0
  6
Continuous
 62
     7
100
AcDbLine
 10
5686.0261462437
 20
4492.231034797
 30
0.0
 11
5686.0261164413
 21
4492.1084876474
 31
0.0
  0
LINE
  5
367
330
1F
100
AcDbEntity
  8
0
  6
Continuous
 62
     7
100
AcDbLine
 10
5662.1014080749
 20
4492.2352071222
 30
0.0
 11
5662.1013782726
 21
4492.1125407632
 31
0.0
  0
LINE
  5
368
330
1F
100
AcDbEntity
  8
0
  6
Continuous
 62
     7
100
AcDbLine
 10
6262.8591559635
 20
4495.9882731851
 30
0.0
 11
6262.8588430391
 21
4494.9413772043
 31
0.0
  0
LINE
  5
369
330
1F
100
AcDbEntity
  8
0
  6
Continuous
 62
     7
100
AcDbLine
 10
6285.266702603
 20
4495.9832663949
 30
0.0
 11
6285.2664045797
 21
4494.937562507
 31
0.0
  0
LINE
  5
36A
330
1F
100
AcDbEntity
  8
0
  6
Continuous
 62
     7
100
AcDbLine
 10
6286.0261402832
 20
4492.231034797
 30
0.0
 11
6286.0261104809
 21
4492.1084876474
 31
0.0
  0
LINE
  5
36B
330
1F
100
AcDbEntity
  8
0
  6
Continuous
 62
     7
100
AcDbLine
 10
6262.1014170156
 20
4492.2352071222
 30
0.0
 11
6262.1013723122
 21
4492.1125407632
 31
0.0
  0
LWPOLYLINE
  5
36C
330
1F
100
AcDbEntity
  8
0
  6
Continuous
 62
     7
100
AcDbPolyline
 90
        3
 70
   128
 43
0.0
 10
7174.015045166
 20
5382.1994564039
 10
7174.0187908461
 20
5379.8028981382
 10
7174.0187905537
 20
5378.1994557483
  0
LWPOLYLINE
  5
36D
330
1F
100
AcDbEntity
  8
0
  6
Continuous
 62
     7
100
AcDbPolyline
 90
        3
 70
   128
 43
0.0
 10
5374.0158081055
 20
5378.1994557483
 10
5374.0187782534
 20
5380.2789963242
 10
5374.0187779031
 20
5382.1994564039
  0
LWPOLYLINE
  5
36E
330
1F
100
AcDbEntity
  8
0
  6
Continuous
 62
     7
100
AcDbPolyline
 90
        3
 70
   128
 43
0.0
 10
7562.1795654297
 20
5378.1994547755
 10
7560.6991514284
 20
5380.2789953513
 10
7560.1831435146
 20
5382.1994554311
  0
LWPOLYLINE
  5
36F
330
1F
100
AcDbEntity
  8
0
  6
Continuous
 62
     7
100
AcDbPolyline
 90
        4
 70
   128
 43
0.0
 10
6856.086730957
 20
4494.9118133005
 10
6857.7050547322
 20
4491.3315838193
 10
6861.7049231467
 20
4488.7386995668
 10
6874.066045116
 20
4486.5293736871
  0
LWPOLYLINE
  5
370
330
1F
100
AcDbEntity
  8
0
  6
Continuous
 62
     7
100
AcDbPolyline
 90
        4
 70
   128
 43
0.0
 10
6874.0653991699
 20
4486.5293736871
 10
6886.5573707205
 20
4488.7918414887
 10
6890.5414116328
 20
4491.4512076204
 10
6892.0214079128
 20
4495.1151843484
  0
LWPOLYLINE
  5
371
330
1F
100
AcDbEntity
  8
0
  6
Continuous
 62
     7
100
AcDbPolyline
 90
        4
 70
   128
 43
0.0
 10
5656.0859680176
 20
4494.9118133005
 10
5657.705049636
 20
4491.3315876881
 10
5661.7049167881
 20
4488.7387049021
 10
5674.0660272346
 20
4486.5293736871
  0
LWPOLYLINE
  5
372
330
1F
100
AcDbEntity
  8
0
  6
Continuous
 62
     7
100
AcDbPolyline
 90
        4
 70
   128
 43
0.0
 10
5674.0646362305
 20
4486.5293736871
 10
5686.5573639266
 20
4488.7918371353
 10
5690.5413959865
 20
4491.4512076081
 10
5692.0214198338
 20
4495.1151843484
  0
LWPOLYLINE
  5
373
330
1F
100
AcDbEntity
  8
0
  6
Continuous
 62
     7
100
AcDbPolyline
 90
        4
 70
   128
 43
0.0
 10
6256.0882568359
 20
4494.9118133005
 10
6257.7050614147
 20
4491.3315887563
 10
6261.7049122619
 20
4488.7387000753
 10
6274.0660361753
 20
4486.5293736871
  0
LWPOLYLINE
  5
374
330
1F
100
AcDbEntity
  8
0
  6
Continuous
 62
     7
100
AcDbPolyline
 90
        4
 70
   128
 43
0.0
 10
6274.0631103516
 20
4486.5293736871
 10
6286.5573686083
 20
4488.7918383036
 10
6290.5413895629
 20
4491.4512086815
 10
6292.0214138733
 20
4495.1151843484
  0
LWPOLYLINE
  5
375
330
1F
100
AcDbEntity
  8
0
  6
Continuous
 62
     7
100
AcDbPolyline
 90
        3
 70
   128
 43
0.0
 10
5661.7965698242
 20
4500.5526776727
 10
5662.725023077
 20
4500.923493774
 10
5663.565327953
 20
4501.197957557
  0
LWPOLYLINE
  5
376
330
1F
100
AcDbEntity
  8
0
  6
Continuous
 62
     7
100
AcDbPolyline
 90
        3
 70
   128
 43
0.0
 10
6861.7935180664
 20
4500.5526776727
 10
6862.7466832512
 20
4500.9315318471
 10
6863.6060260044
 20
4501.2120242532
  0
LWPOLYLINE
  5
377
330
1F
100
AcDbEntity
  8
0
  6
Continuous
 62
     7
100
AcDbPolyline
 90
        3
 70
   128
 43
0.0
 10
6261.7950439453
 20
4500.5526776727
 10
6262.7466742106
 20
4500.9315381709
 10
6263.606046866
 20
4501.2120242532
  0
LWPOLYLINE
  5
378
330
1F
100
AcDbEntity
  8
0
  6
Continuous
 62
     7
100
AcDbPolyline
 90
        3
 70
   128
 43
0.0
 10
7174.015045166
 20
4618.916534942
 10
7174.0187905537
 20
4618.1207117984
 10
7174.0187905537
 20
4616.9165606912
  0
LWPOLYLINE
  5
379
330
1F
100
AcDbEntity
  8
0
  6
Continuous
 62
     7
100
AcDbPolyline
 90
        3
 70
   128
 43
0.0
 10
5374.0158081055
 20
4616.9165606912
 10
5374.0187786327
 20
4618.4005270282
 10
5374.0187786327
 20
4618.916534942
  0
LWPOLYLINE
  5
37A
330
1F
100
AcDbEntity
  8
0
  6
Continuous
 62
     7
100
AcDbPolyline
 90
        8
 70
   128
 43
0.0
 10
6291.8701171875
 20
4493.8144917901
 10
6292.1508059615
 20
4495.4684500168
 10
6291.4757338106
 20
4497.1204696739
 10
6273.2190272053
 20
4502.6168193005
 10
6262.2072998549
 20
4500.7741046768
 10
6256.1794759407
 20
4496.4665721461
 10
6255.8755688486
 20
4494.802366689
 10
6256.483902763
 20
4493.1670661386
  0
LWPOLYLINE
  5
37B
330
1F
100
AcDbEntity
  8
0
  6
Continuous
 62
     7
100
AcDbPolyline
 90
        8
 70
   128
 43
0.0
 10
5691.8716430664
 20
4493.8144917901
 10
5692.1508088139
 20
4495.4684493543
 10
5691.4757086768
 20
4497.1204671341
 10
5673.2190215502
 20
4502.6168190336
 10
5662.2072964843
 20
4500.7741039841
 10
5656.1794814997
 20
4496.4665711144
 10
5655.875574838
 20
4494.8023661873
 10
5656.4839087234
 20
4493.1670661386
  0
LWPOLYLINE
  5
37C
330
1F
100
AcDbEntity
  8
0
  6
Continuous
 62
     7
100
AcDbPolyline
 90
        8
 70
   128
 43
0.0
 10
6891.8685913086
 20
4493.8144917901
 10
6892.1508199709
 20
4495.4684466147
 10
6891.4757139445
 20
4497.1204650703
 10
6873.219026397
 20
4502.616820031
 10
6862.2072979633
 20
4500.7741034365
 10
6856.1794793794
 20
4496.4665665723
 10
6855.8756273677
 20
4494.8023708699
 10
6856.4839266048
 20
4493.1670661386
  0
ENDSEC
  0
SECTION
  2
OBJECTS
  0
DICTIONARY
  5
C
330
0
100
AcDbDictionary
281
     1
  3
ACAD_GROUP
350
D
  3
ACAD_LAYOUT
350
1A
  3
ACAD_MLINESTYLE
350
17
  3
ACAD_PLOTSETTINGS
350
19
  3
ACAD_PLOTSTYLENAME
350
E
  3
ACAD_SCALELIST
350
47
  3
DWGPROPS
350
37D
  0
DICTIONARY
  5
D
102
{ACAD_REACTORS
330
C
102
}
330
C
100
AcDbDictionary
281
     1
  0
DICTIONARY
  5
1A
102
{ACAD_REACTORS
330
C
102
}
330
C
100
AcDbDictionary
281
     1
  3
Layout1
350
1E
  3
Layout2
350
26
  3
Model
350
22
  0
DICTIONARY
  5
17
102
{ACAD_REACTORS
330
C
102
}
330
C
100
AcDbDictionary
281
     1
  3
Standard
350
18
  0
DICTIONARY
  5
19
102
{ACAD_REACTORS
330
C
102
}
330
C
100
AcDbDictionary
281
     1
  0
ACDBDICTIONARYWDFLT
  5
E
102
{ACAD_REACTORS
330
C
102
}
330
C
100
AcDbDictionary
281
     1
  3
Normal
350
F
100
AcDbDictionaryWithDefault
340
F
  0
DICTIONARY
  5
47
102
{ACAD_REACTORS
330
C
102
}
330
C
100
AcDbDictionary
281
     1
  3
A0
350
48
  3
A1
350
49
  3
A2
350
4A
  3
A3
350
4B
  3
A4
350
4C
  3
A5
350
4D
  3
A6
350
4E
  3
A7
350
4F
  3
A8
350
50
  3
A9
350
51
  3
B0
350
52
  3
B1
350
53
  3
B2
350
54
  3
B3
350
55
  3
B4
350
56
  3
B5
350
57
  3
B6
350
58
  3
B7
350
59
  3
B8
350
5A
  3
B9
350
5B
  3
C0
350
5C
  3
C1
350
5D
  3
C2
350
5E
  3
C3
350
5F
  3
C4
350
60
  3
C5
350
61
  3
C6
350
62
  3
C7
350
63
  3
C8
350
64
  3
C9
350
65
  3
D0
350
66
  3
D1
350
67
  3
D2
350
68
  0
XRECORD
  5
37D
102
{ACAD_REACTORS
330
C
102
}
330
C
100
AcDbXrecord
280
     1
  1
DWGPROPS COOKIE
  2

  3

  4

  6

  7

  8
radek.stransky
  9

300
=
301
=
302
=
303
=
304
=
305
=
306
=
307
=
308
=
309
=
 40
0.0
 41
2459096.332278183
 42
2459096.332306597
  1

 90
        0
  0
LAYOUT
  5
1E
102
{ACAD_REACTORS
330
1A
102
}
330
1A
100
AcDbPlotSettings
  1

  2
none_device
  4

  6

 40
0.0
 41
0.0
 42
0.0
 43
0.0
 44
0.0
 45
0.0
 46
0.0
 47
0.0
 48
0.0
 49
0.0
140
0.0
141
0.0
142
1.0
143
1.0
 70
   688
 72
     1
 73
     0
 74
     5
  7

 75
    16
147
1.0
148
0.0
149
0.0
100
AcDbLayout
  1
Layout1
 70
     1
 71
     1
 10
0.0
 20
0.0
 11
420.0
 21
297.0
 12
0.0
 22
0.0
 32
0.0
 14
1.0000000000E+20
 24
1.0000000000E+20
 34
1.0000000000E+20
 15
-1.0000000000E+20
 25
-1.0000000000E+20
 35
-1.0000000000E+20
146
0.0
 13
0.0
 23
0.0
 33
0.0
 16
1.0
 26
0.0
 36
0.0
 17
0.0
 27
1.0
 37
0.0
 76
     0
330
1B
  0
LAYOUT
  5
26
102
{ACAD_REACTORS
330
1A
102
}
330
1A
100
AcDbPlotSettings
  1

  2
none_device
  4

  6

 40
0.0
 41
0.0
 42
0.0
 43
0.0
 44
0.0
 45
0.0
 46
0.0
 47
0.0
 48
0.0
 49
0.0
140
0.0
141
0.0
142
1.0
143
1.0
 70
   688
 72
     1
 73
     0
 74
     5
  7

 75
    16
147
1.0
148
0.0
149
0.0
100
AcDbLayout
  1
Layout2
 70
     1
 71
     2
 10
0.0
 20
0.0
 11
0.0
 21
0.0
 12
0.0
 22
0.0
 32
0.0
 14
0.0
 24
0.0
 34
0.0
 15
0.0
 25
0.0
 35
0.0
146
0.0
 13
0.0
 23
0.0
 33
0.0
 16
1.0
 26
0.0
 36
0.0
 17
0.0
 27
1.0
 37
0.0
 76
     0
330
23
  0
LAYOUT
  5
22
102
{ACAD_REACTORS
330
1A
102
}
330
1A
100
AcDbPlotSettings
  1

  2
none_device
  4
ANSI_A_(11.00_x_8.50_Inches)
  6

 40
6.35
 41
19.05
 42
6.35000508
 43
19.05000254
 44
279.4
 45
215.9
 46
-558.5854342125
 47
-402.5743607641
 48
0.0
 49
0.0
140
0.0
141
0.0
142
0.0040559152
143
1.0
 70
  1696
 72
     0
 73
     0
 74
     0
  7

 75
     0
147
0.0179189148
148
-1300.4909072572
149
0.0
100
AcDbLayout
  1
Model
 70
     1
 71
     0
 10
0.0
 20
0.0
 11
420.0
 21
297.0
 12
0.0
 22
0.0
 32
0.0
 14
5374.0158081055
 24
4120.1164956505
 34
0.0
 15
8058.983182806
 25
5421.1994609339
 35
0.0
146
0.0
 13
0.0
 23
0.0
 33
0.0
 16
1.0
 26
0.0
 36
0.0
 17
0.0
 27
1.0
 37
0.0
 76
     0
330
1F
331
29
  0
MLINESTYLE
  5
18
102
{ACAD_REACTORS
330
17
102
}
330
17
100
AcDbMlineStyle
  2
Standard
 70
     0
  3

 62
   256
 51
90.0
 52
90.0
 71
     2
 49
0.5
 62
   256
  6
BYLAYER
 49
-0.5
 62
   256
  6
BYLAYER
  0
ACDBPLACEHOLDER
  5
F
102
{ACAD_REACTORS
330
E
102
}
330
E
  0
SCALE
  5
48
102
{ACAD_REACTORS
330
47
102
}
330
47
100
AcDbScale
 70
     0
300
1:1
140
1.0
141
1.0
290
     1
  0
SCALE
  5
49
102
{ACAD_REACTORS
330
47
102
}
330
47
100
AcDbScale
 70
     0
300
1:2
140
1.0
141
2.0
290
     0
  0
SCALE
  5
4A
102
{ACAD_REACTORS
330
47
102
}
330
47
100
AcDbScale
 70
     0
300
1:4
140
1.0
141
4.0
290
     0
  0
SCALE
  5
4B
102
{ACAD_REACTORS
330
47
102
}
330
47
100
AcDbScale
 70
     0
300
1:5
140
1.0
141
5.0
290
     0
  0
SCALE
  5
4C
102
{ACAD_REACTORS
330
47
102
}
330
47
100
AcDbScale
 70
     0
300
1:8
140
1.0
141
8.0
290
     0
  0
SCALE
  5
4D
102
{ACAD_REACTORS
330
47
102
}
330
47
100
AcDbScale
 70
     0
300
1:10
140
1.0
141
10.0
290
     0
  0
SCALE
  5
4E
102
{ACAD_REACTORS
330
47
102
}
330
47
100
AcDbScale
 70
     0
300
1:16
140
1.0
141
16.0
290
     0
  0
SCALE
  5
4F
102
{ACAD_REACTORS
330
47
102
}
330
47
100
AcDbScale
 70
     0
300
1:20
140
1.0
141
20.0
290
     0
  0
SCALE
  5
50
102
{ACAD_REACTORS
330
47
102
}
330
47
100
AcDbScale
 70
     0
300
1:30
140
1.0
141
30.0
290
     0
  0
SCALE
  5
51
102
{ACAD_REACTORS
330
47
102
}
330
47
100
AcDbScale
 70
     0
300
1:40
140
1.0
141
40.0
290
     0
  0
SCALE
  5
52
102
{ACAD_REACTORS
330
47
102
}
330
47
100
AcDbScale
 70
     0
300
1:50
140
1.0
141
50.0
290
     0
  0
SCALE
  5
53
102
{ACAD_REACTORS
330
47
102
}
330
47
100
AcDbScale
 70
     0
300
1:100
140
1.0
141
100.0
290
     0
  0
SCALE
  5
54
102
{ACAD_REACTORS
330
47
102
}
330
47
100
AcDbScale
 70
     0
300
2:1
140
2.0
141
1.0
290
     0
  0
SCALE
  5
55
102
{ACAD_REACTORS
330
47
102
}
330
47
100
AcDbScale
 70
     0
300
4:1
140
4.0
141
1.0
290
     0
  0
SCALE
  5
56
102
{ACAD_REACTORS
330
47
102
}
330
47
100
AcDbScale
 70
     0
300
8:1
140
8.0
141
1.0
290
     0
  0
SCALE
  5
57
102
{ACAD_REACTORS
330
47
102
}
330
47
100
AcDbScale
 70
     0
300
10:1
140
10.0
141
1.0
290
     0
  0
SCALE
  5
58
102
{ACAD_REACTORS
330
47
102
}
330
47
100
AcDbScale
 70
     0
300
100:1
140
100.0
141
1.0
290
     0
  0
SCALE
  5
59
102
{ACAD_REACTORS
330
47
102
}
330
47
100
AcDbScale
 70
     0
300
1/128" = 1'-0"
140
0.0078125
141
12.0
290
     0
  0
SCALE
  5
5A
102
{ACAD_REACTORS
330
47
102
}
330
47
100
AcDbScale
 70
     0
300
1/64" = 1'-0"
140
0.015625
141
12.0
290
     0
  0
SCALE
  5
5B
102
{ACAD_REACTORS
330
47
102
}
330
47
100
AcDbScale
 70
     0
300
1/32" = 1'-0"
140
0.03125
141
12.0
290
     0
  0
SCALE
  5
5C
102
{ACAD_REACTORS
330
47
102
}
330
47
100
AcDbScale
 70
     0
300
1/16" = 1'-0"
140
0.0625
141
12.0
290
     0
  0
SCALE
  5
5D
102
{ACAD_REACTORS
330
47
102
}
330
47
100
AcDbScale
 70
     0
300
3/32" = 1'-0"
140
0.09375
141
12.0
290
     0
  0
SCALE
  5
5E
102
{ACAD_REACTORS
330
47
102
}
330
47
100
AcDbScale
 70
     0
300
1/8" = 1'-0"
140
0.125
141
12.0
290
     0
  0
SCALE
  5
5F
102
{ACAD_REACTORS
330
47
102
}
330
47
100
AcDbScale
 70
     0
300
3/16" = 1'-0"
140
0.1875
141
12.0
290
     0
  0
SCALE
  5
60
102
{ACAD_REACTORS
330
47
102
}
330
47
100
AcDbScale
 70
     0
300
1/4" = 1'-0"
140
0.25
141
12.0
290
     0
  0
SCALE
  5
61
102
{ACAD_REACTORS
330
47
102
}
330
47
100
AcDbScale
 70
     0
300
3/8" = 1'-0"
140
0.375
141
12.0
290
     0
  0
SCALE
  5
62
102
{ACAD_REACTORS
330
47
102
}
330
47
100
AcDbScale
 70
     0
300
1/2" = 1'-0"
140
0.5
141
12.0
290
     0
  0
SCALE
  5
63
102
{ACAD_REACTORS
330
47
102
}
330
47
100
AcDbScale
 70
     0
300
3/4" = 1'-0"
140
0.75
141
12.0
290
     0
  0
SCALE
  5
64
102
{ACAD_REACTORS
330
47
102
}
330
47
100
AcDbScale
 70
     0
300
1" = 1'-0"
140
1.0
141
12.0
290
     0
  0
SCALE
  5
65
102
{ACAD_REACTORS
330
47
102
}
330
47
100
AcDbScale
 70
     0
300
1-1/2" = 1'-0"
140
1.5
141
12.0
290
     0
  0
SCALE
  5
66
102
{ACAD_REACTORS
330
47
102
}
330
47
100
AcDbScale
 70
     0
300
3" = 1'-0"
140
3.0
141
12.0
290
     0
  0
SCALE
  5
67
102
{ACAD_REACTORS
330
47
102
}
330
47
100
AcDbScale
 70
     0
300
6" = 1'-0"
140
6.0
141
12.0
290
     0
  0
SCALE
  5
68
102
{ACAD_REACTORS
330
47
102
}
330
47
100
AcDbScale
 70
     0
300
1'-0" = 1'-0"
140
12.0
141
12.0
290
     0
  0
ENDSEC
  0
EOF
