  0
SECTION
  2
HEADER
  9
$ACADVER
  1
AC1015
  9
$ACADMAINTVER
 70
     6
  9
$DWGCODEPAGE
  3
ANSI_1250
  9
$INSBASE
 10
0.0
 20
0.0
 30
0.0
  9
$EXTMIN
 10
0.0
 20
0.0
 30
0.0
  9
$EXTMAX
 10
20000.0
 20
10000.0
 30
0.0
  9
$LIMMIN
 10
0.0
 20
0.0
  9
$LIMMAX
 10
20000.0
 20
10000.0
  9
$ORTHOMODE
 70
     0
  9
$REGENMODE
 70
     1
  9
$FILLMODE
 70
     1
  9
$QTEXTMODE
 70
     0
  9
$MIRRTEXT
 70
     1
  9
$LTSCALE
 40
1.0
  9
$ATTMODE
 70
     1
  9
$TEXTSIZE
 40
2.0
  9
$TRACEWID
 40
1.0
  9
$TEXTSTYLE
  7
Standard
  9
$CLAYER
  8
0
  9
$CELTYPE
  6
ByLayer
  9
$CECOLOR
 62
   256
  9
$CELTSCALE
 40
1.0
  9
$DISPSILH
 70
     0
  9
$DIMSCALE
 40
1.0
  9
$DIMASZ
 40
2.0
  9
$DIMEXO
 40
1.0
  9
$DIMDLI
 40
3.75
  9
$DIMRND
 40
0.0
  9
$DIMDLE
 40
0.0
  9
$DIMEXE
 40
1.0
  9
$DIMTP
 40
0.0
  9
$DIMTM
 40
0.0
  9
$DIMTXT
 40
2.0
  9
$DIMCEN
 40
2.5
  9
$DIMTSZ
 40
0.0
  9
$DIMTOL
 70
     0
  9
$DIMLIM
 70
     0
  9
$DIMTIH
 70
     1
  9
$DIMTOH
 70
     1
  9
$DIMSE1
 70
     0
  9
$DIMSE2
 70
     0
  9
$DIMTAD
 70
     1
  9
$DIMZIN
 70
     0
  9
$DIMBLK
  1

  9
$DIMASO
 70
     1
  9
$DIMSHO
 70
     1
  9
$DIMPOST
  1

  9
$DIMAPOST
  1

  9
$DIMALT
 70
     0
  9
$DIMALTD
 70
     3
  9
$DIMALTF
 40
0.0393700787
  9
$DIMLFAC
 40
1.0
  9
$DIMTOFL
 70
     1
  9
$DIMTVP
 40
0.0
  9
$DIMTIX
 70
     0
  9
$DIMSOXD
 70
     0
  9
$DIMSAH
 70
     0
  9
$DIMBLK1
  1

  9
$DIMBLK2
  1

  9
$DIMSTYLE
  2
ISO-25
  9
$DIMCLRD
 70
     0
  9
$DIMCLRE
 70
     0
  9
$DIMCLRT
 70
     0
  9
$DIMTFAC
 40
1.0
  9
$DIMGAP
 40
1.524
  9
$DIMJUST
 70
     0
  9
$DIMSD1
 70
     0
  9
$DIMSD2
 70
     0
  9
$DIMTOLJ
 70
     0
  9
$DIMTZIN
 70
     0
  9
$DIMALTZ
 70
     0
  9
$DIMALTTZ
 70
     0
  9
$DIMUPT
 70
     0
  9
$DIMDEC
 70
     2
  9
$DIMTDEC
 70
     0
  9
$DIMALTU
 70
     2
  9
$DIMALTTD
 70
     3
  9
$DIMTXSTY
  7
Standard
  9
$DIMAUNIT
 70
     0
  9
$DIMADEC
 70
     2
  9
$DIMALTRND
 40
0.0
  9
$DIMAZIN
 70
     0
  9
$DIMDSEP
 70
    44
  9
$DIMATFIT
 70
     3
  9
$DIMFRAC
 70
     0
  9
$DIMLDRBLK
  1

  9
$DIMLUNIT
 70
     2
  9
$DIMLWD
 70
    -2
  9
$DIMLWE
 70
    -2
  9
$DIMTMOVE
 70
     0
  9
$LUNITS
 70
     2
  9
$LUPREC
 70
     3
  9
$SKETCHINC
 40
1.0
  9
$FILLETRAD
 40
10.0
  9
$AUNITS
 70
     0
  9
$AUPREC
 70
     2
  9
$MENU
  1
.
  9
$ELEVATION
 40
0.0
  9
$PELEVATION
 40
0.0
  9
$THICKNESS
 40
0.0
  9
$LIMCHECK
 70
     0
  9
$CHAMFERA
 40
0.0
  9
$CHAMFERB
 40
0.0
  9
$CHAMFERC
 40
0.0
  9
$CHAMFERD
 40
0.0
  9
$SKPOLY
 70
     0
  9
$TDCREATE
 40
2458690.625703958
  9
$TDUCREATE
 40
2458690.542370625
  9
$TDUPDATE
 40
2458690.625704491
  9
$TDUUPDATE
 40
2458690.542371158
  9
$TDINDWG
 40
0.0000000116
  9
$TDUSRTIMER
 40
0.0000000116
  9
$USRTIMER
 70
     1
  9
$ANGBASE
 50
0.0
  9
$ANGDIR
 70
     0
  9
$PDMODE
 70
     0
  9
$PDSIZE
 40
-1.0
  9
$PLINEWID
 40
0.0
  9
$SPLFRAME
 70
     0
  9
$SPLINETYPE
 70
     6
  9
$SPLINESEGS
 70
     8
  9
$HANDSEED
  5
1EB
  9
$SURFTAB1
 70
     6
  9
$SURFTAB2
 70
     6
  9
$SURFTYPE
 70
     6
  9
$SURFU
 70
     6
  9
$SURFV
 70
     6
  9
$UCSBASE
  2

  9
$UCSNAME
  2

  9
$UCSORG
 10
0.0
 20
0.0
 30
0.0
  9
$UCSXDIR
 10
1.0
 20
0.0
 30
0.0
  9
$UCSYDIR
 10
0.0
 20
1.0
 30
0.0
  9
$UCSORTHOREF
  2

  9
$UCSORTHOVIEW
 70
     0
  9
$UCSORGTOP
 10
0.0
 20
0.0
 30
0.0
  9
$UCSORGBOTTOM
 10
0.0
 20
0.0
 30
0.0
  9
$UCSORGLEFT
 10
0.0
 20
0.0
 30
0.0
  9
$UCSORGRIGHT
 10
0.0
 20
0.0
 30
0.0
  9
$UCSORGFRONT
 10
0.0
 20
0.0
 30
0.0
  9
$UCSORGBACK
 10
0.0
 20
0.0
 30
0.0
  9
$PUCSBASE
  2

  9
$PUCSNAME
  2

  9
$PUCSORG
 10
0.0
 20
0.0
 30
0.0
  9
$PUCSXDIR
 10
1.0
 20
0.0
 30
0.0
  9
$PUCSYDIR
 10
0.0
 20
1.0
 30
0.0
  9
$PUCSORTHOREF
  2

  9
$PUCSORTHOVIEW
 70
     0
  9
$PUCSORGTOP
 10
0.0
 20
0.0
 30
0.0
  9
$PUCSORGBOTTOM
 10
0.0
 20
0.0
 30
0.0
  9
$PUCSORGLEFT
 10
0.0
 20
0.0
 30
0.0
  9
$PUCSORGRIGHT
 10
0.0
 20
0.0
 30
0.0
  9
$PUCSORGFRONT
 10
0.0
 20
0.0
 30
0.0
  9
$PUCSORGBACK
 10
0.0
 20
0.0
 30
0.0
  9
$USERI1
 70
     0
  9
$USERI2
 70
     0
  9
$USERI3
 70
     0
  9
$USERI4
 70
     0
  9
$USERI5
 70
     0
  9
$USERR1
 40
0.0
  9
$USERR2
 40
0.0
  9
$USERR3
 40
0.0
  9
$USERR4
 40
0.0
  9
$USERR5
 40
0.0
  9
$WORLDVIEW
 70
     1
  9
$SHADEDGE
 70
     3
  9
$SHADEDIF
 70
    70
  9
$TILEMODE
 70
     1
  9
$MAXACTVP
 70
    64
  9
$PINSBASE
 10
0.0
 20
0.0
 30
0.0
  9
$PLIMCHECK
 70
     0
  9
$PEXTMIN
 10
1.0000000000E+20
 20
1.0000000000E+20
 30
1.0000000000E+20
  9
$PEXTMAX
 10
-1.0000000000E+20
 20
-1.0000000000E+20
 30
-1.0000000000E+20
  9
$PLIMMIN
 10
0.0
 20
0.0
  9
$PLIMMAX
 10
420.0
 20
297.0
  9
$UNITMODE
 70
     0
  9
$VISRETAIN
 70
     1
  9
$PLINEGEN
 70
     0
  9
$PSLTSCALE
 70
     1
  9
$TREEDEPTH
 70
  3020
  9
$CMLSTYLE
  2
Standard
  9
$CMLJUST
 70
     0
  9
$CMLSCALE
 40
20.0
  9
$PROXYGRAPHICS
 70
     1
  9
$MEASUREMENT
 70
     1
  9
$CELWEIGHT
370
    -1
  9
$ENDCAPS
280
     0
  9
$JOINSTYLE
280
     0
  9
$LWDISPLAY
290
     1
  9
$INSUNITS
 70
     4
  9
$HYPERLINKBASE
  1

  9
$STYLESHEET
  1

  9
$XEDIT
290
     1
  9
$CEPSNTYPE
380
     0
  9
$PSTYLEMODE
290
     1
  9
$FINGERPRINTGUID
  2
{79835F1A-E522-445F-9A5C-7402989801F2}
  9
$VERSIONGUID
  2
{FAEB1C32-E019-11D5-929B-00C0DF256EC4}
  9
$EXTNAMES
290
     1
  9
$PSVPSCALE
 40
0.0
  9
$OLESTARTUP
290
     0
  0
ENDSEC
  0
SECTION
  2
CLASSES
  0
CLASS
  1
ACDBDICTIONARYWDFLT
  2
AcDbDictionaryWithDefault
  3
ObjectDBX Classes
 90
        0
280
     0
281
     0
  0
CLASS
  1
VISUALSTYLE
  2
AcDbVisualStyle
  3
ObjectDBX Classes
 90
     4095
280
     0
281
     0
  0
CLASS
  1
MATERIAL
  2
AcDbMaterial
  3
ObjectDBX Classes
 90
     1153
280
     0
281
     0
  0
CLASS
  1
SCALE
  2
AcDbScale
  3
ObjectDBX Classes
 90
     1153
280
     0
281
     0
  0
CLASS
  1
TABLESTYLE
  2
AcDbTableStyle
  3
ObjectDBX Classes
 90
     4095
280
     0
281
     0
  0
CLASS
  1
MLEADERSTYLE
  2
AcDbMLeaderStyle
  3
ACDB_MLEADERSTYLE_CLASS
 90
     4095
280
     0
281
     0
  0
CLASS
  1
SUN
  2
AcDbSun
  3
SCENEOE
 90
     1153
280
     0
281
     0
  0
CLASS
  1
ACDBPLACEHOLDER
  2
AcDbPlaceHolder
  3
ObjectDBX Classes
 90
        0
280
     0
281
     0
  0
CLASS
  1
LAYOUT
  2
AcDbLayout
  3
ObjectDBX Classes
 90
        0
280
     0
281
     0
  0
ENDSEC
  0
SECTION
  2
TABLES
  0
TABLE
  2
VPORT
  5
8
330
0
100
AcDbSymbolTable
 70
     1
  0
VPORT
  5
29
330
8
100
AcDbSymbolTableRecord
100
AcDbViewportTableRecord
  2
*Active
 70
     0
 10
0.0
 20
0.0
 11
1.0
 21
1.0
 12
10000.0
 22
5000.0
 13
0.0
 23
0.0
 14
10.0
 24
10.0
 15
10.0
 25
10.0
 16
0.0
 26
0.0
 36
1.0
 17
0.0
 27
0.0
 37
0.0
 40
10000.0
 41
2.0
 42
50.0
 43
0.0
 44
0.0
 50
0.0
 51
0.0
 71
     0
 72
  2000
 73
     1
 74
     3
 75
     0
 76
     0
 77
     0
 78
     0
281
     0
 65
     1
110
0.0
120
0.0
130
0.0
111
1.0
121
0.0
131
0.0
112
0.0
122
1.0
132
0.0
 79
     0
146
0.0
  0
ENDTAB
  0
TABLE
  2
LTYPE
  5
5
330
0
100
AcDbSymbolTable
 70
     6
  0
LTYPE
  5
14
330
5
100
AcDbSymbolTableRecord
100
AcDbLinetypeTableRecord
  2
ByBlock
 70
     0
  3

 72
    65
 73
     0
 40
0.0
  0
LTYPE
  5
15
330
5
100
AcDbSymbolTableRecord
100
AcDbLinetypeTableRecord
  2
ByLayer
 70
     0
  3

 72
    65
 73
     0
 40
0.0
  0
LTYPE
  5
16
330
5
100
AcDbSymbolTableRecord
100
AcDbLinetypeTableRecord
  2
Continuous
 70
     0
  3
Solid line
 72
    65
 73
     0
 40
0.0
  0
LTYPE
  5
6E
330
5
100
AcDbSymbolTableRecord
100
AcDbLinetypeTableRecord
  2
HIDDEN
 70
     0
  3
Hidden __ __ __ __ __ __ __ __ __ __ __ __ __ __
 72
    65
 73
     2
 40
1.905
 49
1.27
 74
     0
 49
-0.635
 74
     0
  0
LTYPE
  5
6F
330
5
100
AcDbSymbolTableRecord
100
AcDbLinetypeTableRecord
  2
PHANTOM
 70
     0
  3
Phantom ______  __  __  ______  __  __  ______
 72
    65
 73
     6
 40
12.7
 49
6.35
 74
     0
 49
-1.27
 74
     0
 49
1.27
 74
     0
 49
-1.27
 74
     0
 49
1.27
 74
     0
 49
-1.27
 74
     0
  0
LTYPE
  5
70
330
5
100
AcDbSymbolTableRecord
100
AcDbLinetypeTableRecord
  2
CENTER
 70
     0
  3
Center ____ _ ____ _ ____ _ ____ _ ____ _ ____
 72
    65
 73
     4
 40
10.16
 49
6.35
 74
     0
 49
-1.27
 74
     0
 49
1.27
 74
     0
 49
-1.27
 74
     0
  0
LTYPE
  5
71
330
5
100
AcDbSymbolTableRecord
100
AcDbLinetypeTableRecord
  2
CENTERX2
 70
     0
  3
Center (2x) ________  __  ________  __  _____
 72
    65
 73
     4
 40
20.32
 49
12.7
 74
     0
 49
-2.54
 74
     0
 49
2.54
 74
     0
 49
-2.54
 74
     0
  0
LTYPE
  5
72
330
5
100
AcDbSymbolTableRecord
100
AcDbLinetypeTableRecord
  2
DOT2
 70
     0
  3
Dot (.5x) ........................................
 72
    65
 73
     2
 40
0.635
 49
0.0
 74
     0
 49
-0.635
 74
     0
  0
ENDTAB
  0
TABLE
  2
LAYER
  5
2
330
0
100
AcDbSymbolTable
 70
    13
  0
LAYER
  5
10
330
2
100
AcDbSymbolTableRecord
100
AcDbLayerTableRecord
  2
0
 70
     0
 62
     7
  6
Continuous
370
    -3
390
F
  0
LAYER
  5
73
330
2
100
AcDbSymbolTableRecord
100
AcDbLayerTableRecord
  2
FORMAT
 70
     0
 62
     7
  6
Continuous
370
    -3
390
F
  0
LAYER
  5
74
330
2
100
AcDbSymbolTableRecord
100
AcDbLayerTableRecord
  2
OSA
 70
     0
 62
     7
  6
CENTER
370
    -3
390
F
  0
LAYER
  5
75
330
2
100
AcDbSymbolTableRecord
100
AcDbLayerTableRecord
  2
0_35
 70
     0
 62
     7
  6
Continuous
370
    35
390
F
  0
LAYER
  5
76
330
2
100
AcDbSymbolTableRecord
100
AcDbLayerTableRecord
  2
0_5
 70
     0
 62
     7
  6
Continuous
370
    50
390
F
  0
LAYER
  5
77
330
2
100
AcDbSymbolTableRecord
100
AcDbLayerTableRecord
  2
0_25
 70
     0
 62
     7
  6
Continuous
370
    25
390
F
  0
LAYER
  5
78
330
2
100
AcDbSymbolTableRecord
100
AcDbLayerTableRecord
  2
0_18
 70
     0
 62
     7
  6
Continuous
370
    -3
390
F
  0
LAYER
  5
79
330
2
100
AcDbSymbolTableRecord
100
AcDbLayerTableRecord
  2
SLD-0
 70
     0
 62
   179
  6
Continuous
370
    -3
390
F
  0
LAYER
  5
7A
330
2
100
AcDbSymbolTableRecord
100
AcDbLayerTableRecord
  2
KOTY
 70
     0
 62
     7
  6
Continuous
370
    -3
390
F
  0
LAYER
  5
7B
330
2
100
AcDbSymbolTableRecord
100
AcDbLayerTableRecord
  2
SILNA
 70
     0
 62
   179
  6
Continuous
370
    -3
390
F
  0
LAYER
  5
7C
330
2
100
AcDbSymbolTableRecord
100
AcDbLayerTableRecord
  2
0_18_1
 70
     0
 62
   179
  6
Continuous
370
    -3
390
F
  0
LAYER
  5
7D
330
2
100
AcDbSymbolTableRecord
100
AcDbLayerTableRecord
  2
0_35_1
 70
     0
 62
   179
  6
Continuous
370
    35
390
F
  0
LAYER
  5
7E
330
2
100
AcDbSymbolTableRecord
100
AcDbLayerTableRecord
  2
0_5_1
 70
     0
 62
   179
  6
Continuous
370
    50
390
F
  0
ENDTAB
  0
TABLE
  2
STYLE
  5
3
330
0
100
AcDbSymbolTable
 70
     1
  0
STYLE
  5
11
330
3
100
AcDbSymbolTableRecord
100
AcDbTextStyleTableRecord
  2
Standard
 70
     0
 40
0.0
 41
1.0
 50
0.0
 71
     0
 42
2.0
  3
txt
  4

  0
ENDTAB
  0
TABLE
  2
VIEW
  5
6
330
0
100
AcDbSymbolTable
 70
     0
  0
ENDTAB
  0
TABLE
  2
UCS
  5
7
330
0
100
AcDbSymbolTable
 70
     0
  0
ENDTAB
  0
TABLE
  2
APPID
  5
9
330
0
100
AcDbSymbolTable
 70
     1
  0
APPID
  5
12
330
9
100
AcDbSymbolTableRecord
100
AcDbRegAppTableRecord
  2
ACAD
 70
     0
  0
ENDTAB
  0
TABLE
  2
DIMSTYLE
  5
A
330
0
100
AcDbSymbolTable
 70
     1
100
AcDbDimStyleTable
  0
DIMSTYLE
105
27
330
A
100
AcDbSymbolTableRecord
100
AcDbDimStyleTableRecord
  2
ISO-25
 70
     0
 41
2.5
 42
0.625
 43
3.75
 44
1.25
 73
     0
 74
     0
 77
     1
 78
     8
140
2.5
141
2.5
143
0.0393700787
147
0.625
171
     3
172
     1
178
     0
271
     2
272
     2
274
     3
278
    44
283
     0
284
     8
340
11
  0
ENDTAB
  0
TABLE
  2
BLOCK_RECORD
  5
1
330
0
100
AcDbSymbolTable
 70
     1
  0
BLOCK_RECORD
  5
1F
330
1
100
AcDbSymbolTableRecord
100
AcDbBlockTableRecord
  2
*Model_Space
340
22
  0
BLOCK_RECORD
  5
1B
330
1
100
AcDbSymbolTableRecord
100
AcDbBlockTableRecord
  2
*Paper_Space
340
1E
  0
BLOCK_RECORD
  5
23
330
1
100
AcDbSymbolTableRecord
100
AcDbBlockTableRecord
  2
*Paper_Space0
340
26
  0
ENDTAB
  0
ENDSEC
  0
SECTION
  2
BLOCKS
  0
BLOCK
  5
20
330
1F
100
AcDbEntity
  8
0
100
AcDbBlockBegin
  2
*Model_Space
 70
     0
 10
0.0
 20
0.0
 30
0.0
  3
*Model_Space
  1

  0
ENDBLK
  5
21
330
1F
100
AcDbEntity
  8
0
100
AcDbBlockEnd
  0
BLOCK
  5
1C
330
1B
100
AcDbEntity
 67
     1
  8
0
100
AcDbBlockBegin
  2
*Paper_Space
 70
     0
 10
0.0
 20
0.0
 30
0.0
  3
*Paper_Space
  1

  0
ENDBLK
  5
1D
330
1B
100
AcDbEntity
 67
     1
  8
0
100
AcDbBlockEnd
  0
BLOCK
  5
24
330
23
100
AcDbEntity
  8
0
100
AcDbBlockBegin
  2
*Paper_Space0
 70
     0
 10
0.0
 20
0.0
 30
0.0
  3
*Paper_Space0
  1

  0
ENDBLK
  5
25
330
23
100
AcDbEntity
  8
0
100
AcDbBlockEnd
  0
ENDSEC
  0
SECTION
  2
ENTITIES
  0
LINE
  5
7F
330
1F
100
AcDbEntity
  8
0
  6
Continuous
 62
     7
370
    25
100
AcDbLine
 10
6414.418055867
 20
5132.8284581643
 30
0.0
 11
6417.3777927909
 21
5129.7887283505
 31
0.0
  0
LINE
  5
80
330
1F
100
AcDbEntity
  8
0
  6
Continuous
 62
     7
370
    25
100
AcDbLine
 10
6482.3720157834
 20
5128.9221387106
 30
0.0
 11
6485.4117455972
 21
5131.8818756346
 31
0.0
  0
LINE
  5
81
330
1F
100
AcDbEntity
  8
0
  6
Continuous
 62
     7
370
    25
100
AcDbLine
 10
6485.4117455972
 20
5131.8818756346
 30
0.0
 11
6485.4384098938
 21
5133.8816978805
 31
0.0
  0
LINE
  5
82
330
1F
100
AcDbEntity
  8
0
  6
Continuous
 62
     7
370
    25
100
AcDbLine
 10
6414.4447201636
 20
5134.8282804102
 30
0.0
 11
6414.418055867
 21
5132.8284581643
 31
0.0
  0
LINE
  5
83
330
1F
100
AcDbEntity
  8
0
  6
Continuous
 62
     7
370
    25
100
AcDbLine
 10
6482.2973557529
 20
5123.322636422
 30
0.0
 11
6482.3720157834
 21
5128.9221387106
 31
0.0
  0
LINE
  5
84
330
1F
100
AcDbEntity
  8
0
  6
Continuous
 62
     7
370
    25
100
AcDbLine
 10
6417.3777927909
 20
5129.7887283505
 30
0.0
 11
6417.3031327604
 21
5124.1892260619
 31
0.0
  0
LINE
  5
85
330
1F
100
AcDbEntity
  8
0
  6
Continuous
 62
     7
370
    25
100
AcDbLine
 10
6419.1309702932
 20
5073.7603750939
 30
0.0
 11
6418.8909916237
 21
5055.7619748806
 31
0.0
  0
LINE
  5
86
330
1F
100
AcDbEntity
  8
0
  6
Continuous
 62
     7
370
    25
100
AcDbLine
 10
6478.8856590013
 20
5054.9620459823
 30
0.0
 11
6479.1256376709
 21
5072.9604461956
 31
0.0
  0
LINE
  5
87
330
1F
100
AcDbEntity
  8
0
  6
Continuous
 62
     7
370
    25
100
AcDbLine
 10
6423.4159227588
 20
5095.1051445321
 30
0.0
 11
6427.2689136193
 21
5084.0527935863
 31
0.0
  0
LINE
  5
88
330
1F
100
AcDbEntity
  8
0
  6
Continuous
 62
     7
370
    25
100
AcDbLine
 10
6471.2650030295
 20
5083.4661790608
 30
0.0
 11
6475.4113011528
 21
5094.4118728202
 31
0.0
  0
LINE
  5
89
330
1F
100
AcDbEntity
  8
0
  6
Continuous
 62
     7
370
    25
100
AcDbLine
 10
6475.4113011528
 20
5094.4118728202
 30
0.0
 11
6475.7979334536
 21
5123.409295386
 31
0.0
  0
LINE
  5
8A
330
1F
100
AcDbEntity
  8
0
  6
Continuous
 62
     7
370
    25
100
AcDbLine
 10
6423.8025550597
 20
5124.1025670979
 30
0.0
 11
6423.4159227588
 21
5095.1051445321
 31
0.0
  0
LINE
  5
8B
330
1F
100
AcDbEntity
  8
0
  6
Continuous
 62
     7
370
    25
100
AcDbLine
 10
6472.5395564076
 20
4954.0376833047
 30
0.0
 11
6473.8861033865
 21
5055.0287067238
 31
0.0
  0
LINE
  5
8C
330
1F
100
AcDbEntity
  8
0
  6
Continuous
 62
     7
370
    25
100
AcDbLine
 10
6423.8905472385
 20
5055.6953141391
 30
0.0
 11
6422.5440002596
 21
4954.70429072
 31
0.0
  0
ARC
  5
8D
330
1F
100
AcDbEntity
  8
0
  6
Continuous
 62
     7
370
    25
100
AcDbCircle
 10
6447.5417783336
 20
4954.3709870124
 30
0.0
 40
25.00000000000079
100
AcDbArc
 50
285.0984961329
 51
359.2361015391
  0
ARC
  5
8E
330
1F
100
AcDbEntity
  8
0
  6
Continuous
 62
     7
370
    25
100
AcDbCircle
 10
6447.5417783336
 20
4954.3709870124
 30
0.0
 40
24.99999999999989
100
AcDbArc
 50
179.2361015391
 51
253.7305558955
  0
LINE
  5
8F
330
1F
100
AcDbEntity
  8
0
  6
Continuous
 62
     7
370
    25
100
AcDbLine
 10
6471.1263486872
 20
5073.067103382
 30
0.0
 11
6471.2650030295
 21
5083.4661790608
 31
0.0
  0
LINE
  5
90
330
1F
100
AcDbEntity
  8
0
  6
Continuous
 62
     7
370
    25
100
AcDbLine
 10
6427.2689136193
 20
5084.0527935863
 30
0.0
 11
6427.1302592769
 21
5073.6537179075
 31
0.0
  0
LINE
  5
91
330
1F
100
AcDbEntity
  8
0
  6
Continuous
 62
     7
370
    25
100
AcDbLine
 10
6479.4644741051
 20
4910.8565128393
 30
0.0
 11
6479.6644563297
 21
4925.8551796837
 31
0.0
  0
LINE
  5
92
330
1F
100
AcDbEntity
  8
0
  6
Continuous
 62
     7
370
    25
100
AcDbLine
 10
6414.6702333372
 20
4926.7217693236
 30
0.0
 11
6414.4702511126
 21
4911.7231024792
 31
0.0
  0
ARC
  5
93
330
1F
100
AcDbEntity
  8
0
  6
Continuous
 62
     7
370
    25
100
AcDbCircle
 10
6447.9419554167
 20
4984.3842682486
 30
0.0
 40
79.9999999999997
100
AcDbArc
 50
245.2666192213
 51
293.2055838568
  0
LINE
  5
94
330
1F
100
AcDbEntity
  8
0
  6
Continuous
 62
     7
370
    25
100
AcDbLine
 10
6475.1648562764
 20
4925.9151743511
 30
0.0
 11
6476.6858545308
 21
5039.9900434345
 31
0.0
  0
LINE
  5
95
330
1F
100
AcDbEntity
  8
0
  6
Continuous
 62
     7
370
    25
100
AcDbLine
 10
6420.690831645
 20
5040.7366437396
 30
0.0
 11
6419.1698333906
 21
4926.6617746562
 31
0.0
  0
ARC
  5
96
330
1F
100
AcDbEntity
  8
0
  6
Continuous
 62
     7
370
    25
100
AcDbCircle
 10
5900.0188053361
 20
5522.4808220386
 30
0.0
 40
1.000000000000909
100
AcDbArc
 50
90.0
 51
180.0
  0
ARC
  5
97
330
1F
100
AcDbEntity
  8
0
  6
Continuous
 62
     7
370
    25
100
AcDbCircle
 10
6648.0188053361
 20
5522.4808220386
 30
0.0
 40
1.000000000000909
100
AcDbArc
 50
0.0
 51
90.0
  0
LINE
  5
98
330
1F
100
AcDbEntity
  8
0
  6
Continuous
 62
     7
370
    25
100
AcDbLine
 10
6648.0188053361
 20
5523.4808220386
 30
0.0
 11
5900.0188053361
 21
5523.4808220386
 31
0.0
  0
LINE
  5
99
330
1F
100
AcDbEntity
  8
0
  6
Continuous
 62
     7
370
    25
100
AcDbLine
 10
6449.9149007321
 20
5132.3551668995
 30
0.0
 11
6414.418055867
 21
5132.8284581643
 31
0.0
  0
LINE
  5
9A
330
1F
100
AcDbEntity
  8
0
  6
Continuous
 62
     7
370
    25
100
AcDbLine
 10
6485.4117455972
 20
5131.8818756346
 30
0.0
 11
6449.9149007321
 21
5132.3551668995
 31
0.0
  0
LINE
  5
9B
330
1F
100
AcDbEntity
  8
0
  6
Continuous
 62
     7
370
    25
100
AcDbLine
 10
6449.8749042872
 20
5129.3554335306
 30
0.0
 11
6417.3777927909
 21
5129.7887283505
 31
0.0
  0
LINE
  5
9C
330
1F
100
AcDbEntity
  8
0
  6
Continuous
 62
     7
370
    25
100
AcDbLine
 10
6482.3720157834
 20
5128.9221387106
 30
0.0
 11
6449.8749042872
 21
5129.3554335306
 31
0.0
  0
LINE
  5
9D
330
1F
100
AcDbEntity
  8
0
  6
Continuous
 62
     7
370
    25
100
AcDbLine
 10
6449.8002442566
 20
5123.755931242
 30
0.0
 11
6417.3031327604
 21
5124.1892260619
 31
0.0
  0
LINE
  5
9E
330
1F
100
AcDbEntity
  8
0
  6
Continuous
 62
     7
370
    25
100
AcDbLine
 10
6482.2973557529
 20
5123.322636422
 30
0.0
 11
6449.8002442566
 21
5123.755931242
 31
0.0
  0
LINE
  5
9F
330
1F
100
AcDbEntity
  8
0
  6
Continuous
 62
     7
370
    25
100
AcDbLine
 10
6419.1309702932
 20
5073.7603750939
 30
0.0
 11
6479.1256376709
 21
5072.9604461956
 31
0.0
  0
LINE
  5
A0
330
1F
100
AcDbEntity
  8
0
  6
Continuous
 62
     7
370
    25
100
AcDbLine
 10
6418.8909916237
 20
5055.7619748806
 30
0.0
 11
6478.8856590013
 21
5054.9620459823
 31
0.0
  0
LINE
  5
A1
330
1F
100
AcDbEntity
  8
0
  6
Continuous
 62
     7
370
    25
100
AcDbLine
 10
6449.4136119558
 20
5094.7585086761
 30
0.0
 11
6423.4159227588
 21
5095.1051445321
 31
0.0
  0
LINE
  5
A2
330
1F
100
AcDbEntity
  8
0
  6
Continuous
 62
     7
370
    25
100
AcDbLine
 10
6475.4113011528
 20
5094.4118728202
 30
0.0
 11
6449.4136119558
 21
5094.7585086761
 31
0.0
  0
LINE
  5
A3
330
1F
100
AcDbEntity
  8
0
  6
Continuous
 62
     7
370
    25
100
AcDbLine
 10
6449.2669583244
 20
5083.7594863235
 30
0.0
 11
6427.2689136193
 21
5084.0527935863
 31
0.0
  0
LINE
  5
A4
330
1F
100
AcDbEntity
  8
0
  6
Continuous
 62
     7
370
    25
100
AcDbLine
 10
6471.2650030295
 20
5083.4661790608
 30
0.0
 11
6449.2669583244
 21
5083.7594863235
 31
0.0
  0
SPLINE
  5
A5
330
1F
100
AcDbEntity
  8
0
  6
Continuous
 62
     7
370
    25
100
AcDbSpline
210
0.0
220
0.0
230
1.0
 70
     8
 71
     3
 72
    12
 73
     8
 74
     0
 42
0.000000001
 43
0.00000001
 40
0.0
 40
0.0
 40
0.0
 40
0.0
 40
0.1734277552910815
 40
0.4413560017117085
 40
0.6736853287714211
 40
0.9129989400830919
 40
0.9999999999999999
 40
0.9999999999999999
 40
0.9999999999999999
 40
0.9999999999999999
 10
6440.554530711564
 20
4930.426067259118
 30
0.0
 10
6441.301407710804
 20
4930.208530118911
 30
0.0
 10
6443.202133725517
 20
4929.654920217979
 30
0.0
 10
6446.316648777713
 20
4929.344523606898
 30
0.0
 10
6449.719570505697
 20
4929.421879541126
 30
0.0
 10
6452.278421023176
 20
4929.744678753651
 30
0.0
 10
6453.667873916765
 20
4930.166336136242
 30
0.0
 10
6454.038325769242
 20
4930.278757190033
 30
0.0
  0
LINE
  5
A6
330
1F
100
AcDbEntity
  8
0
  6
Continuous
 62
     7
370
    25
100
AcDbLine
 10
6447.1673448335
 20
4926.2884745036
 30
0.0
 11
6414.6702333372
 21
4926.7217693236
 31
0.0
  0
LINE
  5
A7
330
1F
100
AcDbEntity
  8
0
  6
Continuous
 62
     7
370
    25
100
AcDbLine
 10
6479.6644563297
 20
4925.8551796837
 30
0.0
 11
6447.1673448335
 21
4926.2884745036
 31
0.0
  0
LINE
  5
A8
330
1F
100
AcDbEntity
  8
0
  6
Continuous
 62
     7
370
    25
100
AcDbLine
 10
6446.9673626089
 20
4911.2898076592
 30
0.0
 11
6414.4702511126
 21
4911.7231024792
 31
0.0
  0
LINE
  5
A9
330
1F
100
AcDbEntity
  8
0
  6
Continuous
 62
     7
370
    25
100
AcDbLine
 10
6479.4644741051
 20
4910.8565128393
 30
0.0
 11
6446.9673626089
 21
4911.2898076592
 31
0.0
  0
ELLIPSE
  5
AA
330
1F
100
AcDbEntity
  8
0
  6
Continuous
 62
     7
370
    25
100
AcDbEllipse
 10
6448.6883430879
 20
5040.363343587
 30
0.0
 11
27.9975114429135
 21
-0.3733001525733926
 31
0.0
210
0.0
220
0.0
230
1.0
 40
0.8928571429
 41
0.0
 42
0.0752180938701578
  0
ELLIPSE
  5
AB
330
1F
100
AcDbEntity
  8
0
  6
Continuous
 62
     7
370
    25
100
AcDbEllipse
 10
6448.6883430879
 20
5040.363343587
 30
0.0
 11
27.9975114429135
 21
-0.3733001525733926
 31
0.0
210
0.0
220
0.0
230
1.0
 40
0.8928571429
 41
3.066374559719727
 42
3.141592653589881
  0
ELLIPSE
  5
AC
330
1F
100
AcDbEntity
  8
0
  6
Continuous
 62
     7
370
    25
100
AcDbEllipse
 10
6448.7384367595
 20
5044.1203689569
 30
0.0
 11
27.9975114429144
 21
-0.3733001525715736
 31
0.0
210
0.0
220
0.0
230
1.0
 40
0.8928571429
 41
3.216810747459931
 42
3.544057385154773
  0
ELLIPSE
  5
AD
330
1F
100
AcDbEntity
  8
0
  6
Continuous
 62
     7
370
    25
100
AcDbEllipse
 10
6448.7384367595
 20
5044.1203689569
 30
0.0
 11
27.9975114429144
 21
-0.3733001525715736
 31
0.0
210
0.0
220
0.0
230
1.0
 40
0.8928571429
 41
5.88072057561462
 42
6.20796721330943
  0
ARC
  5
AE
330
1F
100
AcDbEntity
  8
0
  6
Continuous
 62
     7
370
    25
100
AcDbCircle
 10
6422.2955366539
 20
5042.7068251141
 30
0.0
 40
1.503356138230958
100
AcDbArc
 50
174.9360614019
 51
183.5361416763
  0
ARC
  5
AF
330
1F
100
AcDbEntity
  8
0
  6
Continuous
 62
     7
370
    25
100
AcDbCircle
 10
6475.1342488137
 20
5042.002308952
 30
0.0
 40
1.503356138299879
100
AcDbArc
 50
354.9360614021
 51
3.5361416761
  0
ARC
  5
B0
330
1F
100
AcDbEntity
  8
0
  6
Continuous
 62
     7
370
    25
100
AcDbCircle
 10
6448.6883430879
 20
5040.363343587
 30
0.0
 40
27.99999999999957
100
AcDbArc
 50
152.4706009623
 51
174.9264222173
  0
ARC
  5
B1
330
1F
100
AcDbEntity
  8
0
  6
Continuous
 62
     7
370
    25
100
AcDbCircle
 10
6448.6883430879
 20
5040.363343587
 30
0.0
 40
28.0000000000005
100
AcDbArc
 50
3.5457808608
 51
26.0016021158
  0
ARC
  5
B2
330
1F
100
AcDbEntity
  8
0
  6
Continuous
 62
     7
370
    25
100
AcDbCircle
 10
6448.6883430879
 20
5040.363343587
 30
0.0
 40
27.99999999999968
100
AcDbArc
 50
174.9264222173
 51
179.2361015391
  0
ARC
  5
B3
330
1F
100
AcDbEntity
  8
0
  6
Continuous
 62
     7
370
    25
100
AcDbCircle
 10
6448.6883430879
 20
5040.363343587
 30
0.0
 40
28.0000000000005
100
AcDbArc
 50
359.2361015391
 51
3.5457808608
  0
ARC
  5
B4
330
1F
100
AcDbEntity
  8
0
  6
Continuous
 62
     7
370
    25
100
AcDbCircle
 10
6448.6883430879
 20
5040.363343587
 30
0.0
 40
32.99999999999966
100
AcDbArc
 50
152.2004097497
 51
179.2361015391
  0
ARC
  5
B5
330
1F
100
AcDbEntity
  8
0
  6
Continuous
 62
     7
370
    25
100
AcDbCircle
 10
6448.6883430879
 20
5040.363343587
 30
0.0
 40
33.00000000000104
100
AcDbArc
 50
327.2833551388
 51
26.2717933285
  0
ARC
  5
B6
330
1F
100
AcDbEntity
  8
0
  6
Continuous
 62
     7
370
    25
100
AcDbCircle
 10
6448.6883430879
 20
5040.363343587
 30
0.0
 40
33.00000000000008
100
AcDbArc
 50
179.2361015391
 51
211.1888479393
  0
LINE
  5
B7
330
1F
100
AcDbEntity
  8
0
  6
Continuous
 62
     7
370
    25
100
AcDbLine
 10
6648.0188053361
 20
5386.7982103764
 30
0.0
 11
6648.0188053361
 21
5387.7982103764
 31
0.0
  0
LINE
  5
B8
330
1F
100
AcDbEntity
  8
0
  6
Continuous
 62
     7
370
    25
100
AcDbLine
 10
6649.0188053361
 20
5387.7982103764
 30
0.0
 11
6648.0188053361
 21
5387.7982103764
 31
0.0
  0
ARC
  5
B9
330
1F
100
AcDbEntity
  8
0
  6
Continuous
 62
     7
370
    25
100
AcDbCircle
 10
6648.0188053361
 20
5387.7982103764
 30
0.0
 40
1.0
100
AcDbArc
 50
270.0
 51
0.0
  0
LINE
  5
BA
330
1F
100
AcDbEntity
  8
0
  6
Continuous
 62
     7
370
    25
100
AcDbLine
 10
5899.0188053361
 20
5387.7982103764
 30
0.0
 11
5899.0188053361
 21
5412.7006259413
 31
0.0
  0
LINE
  5
BB
330
1F
100
AcDbEntity
  8
0
  6
Continuous
 62
     7
370
    25
100
AcDbLine
 10
5900.0188053361
 20
5412.7006259413
 30
0.0
 11
5899.0188053361
 21
5412.7006259413
 31
0.0
  0
LINE
  5
BC
330
1F
100
AcDbEntity
  8
0
  6
Continuous
 62
     7
370
    25
100
AcDbLine
 10
5900.0188053361
 20
5412.7006259413
 30
0.0
 11
5900.0188053361
 21
5387.7982103764
 31
0.0
  0
LINE
  5
BD
330
1F
100
AcDbEntity
  8
0
  6
Continuous
 62
     7
370
    25
100
AcDbLine
 10
5899.0188053361
 20
5387.7982103764
 30
0.0
 11
5900.0188053361
 21
5387.7982103764
 31
0.0
  0
LINE
  5
BE
330
1F
100
AcDbEntity
  8
0
  6
Continuous
 62
     7
370
    25
100
AcDbLine
 10
6648.0188053361
 20
5412.7006259413
 30
0.0
 11
5900.0188053361
 21
5412.7006259413
 31
0.0
  0
LINE
  5
BF
330
1F
100
AcDbEntity
  8
0
  6
Continuous
 62
     7
370
    25
100
AcDbLine
 10
5900.0188053361
 20
5412.7006259413
 30
0.0
 11
5900.0188053361
 21
5413.7006259413
 31
0.0
  0
LINE
  5
C0
330
1F
100
AcDbEntity
  8
0
  6
Continuous
 62
     7
370
    25
100
AcDbLine
 10
5900.0188053361
 20
5413.7006259413
 30
0.0
 11
6648.0188053361
 21
5413.7006259413
 31
0.0
  0
LINE
  5
C1
330
1F
100
AcDbEntity
  8
0
  6
Continuous
 62
     7
370
    25
100
AcDbLine
 10
6648.0188053361
 20
5412.7006259413
 30
0.0
 11
6648.0188053361
 21
5413.7006259413
 31
0.0
  0
ARC
  5
C2
330
1F
100
AcDbEntity
  8
0
  6
Continuous
 62
     7
370
    25
100
AcDbCircle
 10
6648.0188053361
 20
5412.7006259413
 30
0.0
 40
1.0
100
AcDbArc
 50
0.0
 51
90.0
  0
LINE
  5
C3
330
1F
100
AcDbEntity
  8
0
  6
Continuous
 62
     7
370
    25
100
AcDbLine
 10
6648.0188053361
 20
5412.7006259413
 30
0.0
 11
6649.0188053361
 21
5412.7006259413
 31
0.0
  0
LINE
  5
C4
330
1F
100
AcDbEntity
  8
0
  6
Continuous
 62
     7
370
    25
100
AcDbLine
 10
6648.0188053361
 20
5386.7982103764
 30
0.0
 11
5900.0188053361
 21
5386.7982103764
 31
0.0
  0
LINE
  5
C5
330
1F
100
AcDbEntity
  8
0
  6
Continuous
 62
     7
370
    25
100
AcDbLine
 10
5900.0188053361
 20
5386.7982103764
 30
0.0
 11
5900.0188053361
 21
5387.7982103764
 31
0.0
  0
LINE
  5
C6
330
1F
100
AcDbEntity
  8
0
  6
Continuous
 62
     7
370
    25
100
AcDbLine
 10
5900.0188053361
 20
5387.7982103764
 30
0.0
 11
6648.0188053361
 21
5387.7982103764
 31
0.0
  0
LINE
  5
C7
330
1F
100
AcDbEntity
  8
0
  6
Continuous
 62
     7
370
    25
100
AcDbLine
 10
6648.0188053361
 20
5387.7982103764
 30
0.0
 11
6648.0188053361
 21
5412.7006259413
 31
0.0
  0
LINE
  5
C8
330
1F
100
AcDbEntity
  8
0
  6
Continuous
 62
     7
370
    25
100
AcDbLine
 10
6649.0188053361
 20
5412.7006259413
 30
0.0
 11
6649.0188053361
 21
5387.7982103764
 31
0.0
  0
ARC
  5
C9
330
1F
100
AcDbEntity
  8
0
  6
Continuous
 62
     7
370
    25
100
AcDbCircle
 10
5900.0188053361
 20
5387.7982103764
 30
0.0
 40
1.0
100
AcDbArc
 50
180.0
 51
270.0
  0
ARC
  5
CA
330
1F
100
AcDbEntity
  8
0
  6
Continuous
 62
     7
370
    25
100
AcDbCircle
 10
5900.0188053361
 20
5412.7006259413
 30
0.0
 40
1.0
100
AcDbArc
 50
90.0
 51
180.0
  0
LINE
  5
CB
330
1F
100
AcDbEntity
  8
0
  6
Continuous
 62
     7
370
    25
100
AcDbLine
 10
5937.0188053361
 20
5141.1672926079
 30
0.0
 11
5939.0188053361
 21
5141.1672926079
 31
0.0
  0
LINE
  5
CC
330
1F
100
AcDbEntity
  8
0
  6
Continuous
 62
     7
370
    25
100
AcDbLine
 10
6611.0188053361
 20
5386.7982103764
 30
0.0
 11
6611.0188053361
 21
5132.2339592746
 31
0.0
  0
LINE
  5
CD
330
1F
100
AcDbEntity
  8
0
  6
Continuous
 62
     7
370
    25
100
AcDbLine
 10
6611.0188053361
 20
5132.2339592746
 30
0.0
 11
6609.0188053361
 21
5132.2339592746
 31
0.0
  0
LINE
  5
CE
330
1F
100
AcDbEntity
  8
0
  6
Continuous
 62
     7
370
    25
100
AcDbLine
 10
5939.0188053361
 20
5141.1672926079
 30
0.0
 11
6609.0188053361
 21
5132.2339592746
 31
0.0
  0
LINE
  5
CF
330
1F
100
AcDbEntity
  8
0
  6
Continuous
 62
     7
370
    25
100
AcDbLine
 10
5937.0188053361
 20
5141.1672926079
 30
0.0
 11
5937.0188053361
 21
5386.7982103764
 31
0.0
  0
LINE
  5
D0
330
1F
100
AcDbEntity
  8
0
  6
Continuous
 62
     7
370
    25
100
AcDbLine
 10
5900.0188053361
 20
5413.7006259413
 30
0.0
 11
5900.0188053361
 21
5414.7006259413
 31
0.0
  0
LINE
  5
D1
330
1F
100
AcDbEntity
  8
0
  6
Continuous
 62
     7
370
    25
100
AcDbLine
 10
5900.0188053361
 20
5414.7006259413
 30
0.0
 11
5899.0188053361
 21
5414.7006259413
 31
0.0
  0
LINE
  5
D2
330
1F
100
AcDbEntity
  8
0
  6
Continuous
 62
     7
370
    25
100
AcDbLine
 10
5899.0188053361
 20
5414.7006259413
 30
0.0
 11
5899.0188053361
 21
5412.7006259413
 31
0.0
  0
LINE
  5
D3
330
1F
100
AcDbEntity
  8
0
  6
Continuous
 62
     7
370
    25
100
AcDbLine
 10
5900.0188053361
 20
5414.7006259413
 30
0.0
 11
5938.0188053361
 21
5414.7006259413
 31
0.0
  0
LINE
  5
D4
330
1F
100
AcDbEntity
  8
0
  6
Continuous
 62
     7
370
    25
100
AcDbLine
 10
5938.0188053361
 20
5413.7006259413
 30
0.0
 11
5938.0188053361
 21
5414.7006259413
 31
0.0
  0
LINE
  5
D5
330
1F
100
AcDbEntity
  8
0
  6
Continuous
 62
     7
370
    25
100
AcDbLine
 10
6610.0188053361
 20
5414.7006259413
 30
0.0
 11
6648.0188053361
 21
5414.7006259413
 31
0.0
  0
LINE
  5
D6
330
1F
100
AcDbEntity
  8
0
  6
Continuous
 62
     7
370
    25
100
AcDbLine
 10
6648.0188053361
 20
5414.7006259413
 30
0.0
 11
6648.0188053361
 21
5413.7006259413
 31
0.0
  0
LINE
  5
D7
330
1F
100
AcDbEntity
  8
0
  6
Continuous
 62
     7
370
    25
100
AcDbLine
 10
6610.0188053361
 20
5414.7006259413
 30
0.0
 11
6610.0188053361
 21
5413.7006259413
 31
0.0
  0
LINE
  5
D8
330
1F
100
AcDbEntity
  8
0
  6
Continuous
 62
     7
370
    25
100
AcDbLine
 10
6649.0188053361
 20
5414.7006259413
 30
0.0
 11
6648.0188053361
 21
5414.7006259413
 31
0.0
  0
LINE
  5
D9
330
1F
100
AcDbEntity
  8
0
  6
Continuous
 62
     7
370
    25
100
AcDbLine
 10
6649.0188053361
 20
5412.7006259413
 30
0.0
 11
6649.0188053361
 21
5414.7006259413
 31
0.0
  0
LINE
  5
DA
330
1F
100
AcDbEntity
  8
0
  6
Continuous
 62
     7
370
    25
100
AcDbLine
 10
5900.0188053361
 20
5386.7982103764
 30
0.0
 11
5900.0188053361
 21
5141.6872926079
 31
0.0
  0
LINE
  5
DB
330
1F
100
AcDbEntity
  8
0
  6
Continuous
 62
     7
370
    25
100
AcDbLine
 10
5900.0188053361
 20
5141.6872926079
 30
0.0
 11
5937.0188053361
 21
5141.1939592746
 31
0.0
  0
LINE
  5
DC
330
1F
100
AcDbEntity
  8
0
  6
Continuous
 62
     7
370
    25
100
AcDbLine
 10
5900.0188053361
 20
5512.8808220386
 30
0.0
 11
5899.0188053361
 21
5512.8808220386
 31
0.0
  0
ARC
  5
DD
330
1F
100
AcDbEntity
  8
0
  6
Continuous
 62
     7
370
    25
100
AcDbCircle
 10
5900.0091899515
 20
5512.8710162318
 30
0.0
 40
0.990433157884709
100
AcDbArc
 50
89.4437488215
 51
179.4327325208
  0
LINE
  5
DE
330
1F
100
AcDbEntity
  8
0
  6
Continuous
 62
     7
370
    25
100
AcDbLine
 10
5900.0188053361
 20
5512.8808220386
 30
0.0
 11
5900.0188053361
 21
5513.8614027143
 31
0.0
  0
LINE
  5
DF
330
1F
100
AcDbEntity
  8
0
  6
Continuous
 62
     7
370
    25
100
AcDbLine
 10
5900.0188053361
 20
5512.8808220386
 30
0.0
 11
5900.0188053361
 21
5414.7006259413
 31
0.0
  0
LINE
  5
E0
330
1F
100
AcDbEntity
  8
0
  6
Continuous
 62
     7
370
    25
100
AcDbLine
 10
5899.0188053361
 20
5414.7006259413
 30
0.0
 11
5899.0188053361
 21
5512.8808220386
 31
0.0
  0
LINE
  5
E1
330
1F
100
AcDbEntity
  8
0
  6
Continuous
 62
     7
370
    25
100
AcDbLine
 10
6648.0188053361
 20
5512.8808220386
 30
0.0
 11
5900.0188053361
 21
5512.8808220386
 31
0.0
  0
LINE
  5
E2
330
1F
100
AcDbEntity
  8
0
  6
Continuous
 62
     7
370
    25
100
AcDbLine
 10
5900.0188053361
 20
5513.8614027143
 30
0.0
 11
6648.0188053361
 21
5513.8614027143
 31
0.0
  0
LINE
  5
E3
330
1F
100
AcDbEntity
  8
0
  6
Continuous
 62
     7
370
    25
100
AcDbLine
 10
6648.0188053361
 20
5512.8808220386
 30
0.0
 11
6648.0188053361
 21
5513.8614027143
 31
0.0
  0
LINE
  5
E4
330
1F
100
AcDbEntity
  8
0
  6
Continuous
 62
     7
370
    25
100
AcDbLine
 10
6648.0188053361
 20
5414.7006259413
 30
0.0
 11
6648.0188053361
 21
5512.8808220386
 31
0.0
  0
LINE
  5
E5
330
1F
100
AcDbEntity
  8
0
  6
Continuous
 62
     7
370
    25
100
AcDbLine
 10
5900.0188053361
 20
5141.6872926079
 30
0.0
 11
5899.0188053361
 21
5141.7006259413
 31
0.0
  0
LINE
  5
E6
330
1F
100
AcDbEntity
  8
0
  6
Continuous
 62
     7
370
    25
100
AcDbLine
 10
5899.0188053361
 20
5141.7006259413
 30
0.0
 11
5899.0188053361
 21
5387.7982103764
 31
0.0
  0
ARC
  5
E7
330
1F
100
AcDbEntity
  8
0
  6
Continuous
 62
     7
370
    25
100
AcDbCircle
 10
6648.0284207207
 20
5512.8710162318
 30
0.0
 40
0.9904331578835318
100
AcDbArc
 50
0.5672674791
 51
90.5562511785
  0
LINE
  5
E8
330
1F
100
AcDbEntity
  8
0
  6
Continuous
 62
     7
370
    25
100
AcDbLine
 10
6649.0188053361
 20
5512.8808220386
 30
0.0
 11
6648.0188053361
 21
5512.8808220386
 31
0.0
  0
LINE
  5
E9
330
1F
100
AcDbEntity
  8
0
  6
Continuous
 62
     7
370
    25
100
AcDbLine
 10
6649.0188053361
 20
5512.8808220386
 30
0.0
 11
6649.0188053361
 21
5414.7006259413
 31
0.0
  0
LINE
  5
EA
330
1F
100
AcDbEntity
  8
0
  6
Continuous
 62
     7
370
    25
100
AcDbLine
 10
6647.0188053361
 20
5131.7272926079
 30
0.0
 11
6647.0188053361
 21
5131.7006259413
 31
0.0
  0
LINE
  5
EB
330
1F
100
AcDbEntity
  8
0
  6
Continuous
 62
     7
370
    25
100
AcDbLine
 10
6648.0188053361
 20
5131.7006259413
 30
0.0
 11
6648.0188053361
 21
5386.7982103764
 31
0.0
  0
LINE
  5
EC
330
1F
100
AcDbEntity
  8
0
  6
Continuous
 62
     7
370
    25
100
AcDbLine
 10
6647.0188053361
 20
5131.7006259413
 30
0.0
 11
6648.0188053361
 21
5131.7006259413
 31
0.0
  0
LINE
  5
ED
330
1F
100
AcDbEntity
  8
0
  6
Continuous
 62
     7
370
    25
100
AcDbLine
 10
6647.0188053361
 20
5131.7272926079
 30
0.0
 11
6609.0188053361
 21
5132.2339592746
 31
0.0
  0
LINE
  5
EE
330
1F
100
AcDbEntity
  8
0
  6
Continuous
 62
     7
370
    25
100
AcDbLine
 10
6649.0188053361
 20
5131.7006259413
 30
0.0
 11
6648.0188053361
 21
5131.7006259413
 31
0.0
  0
LINE
  5
EF
330
1F
100
AcDbEntity
  8
0
  6
Continuous
 62
     7
370
    25
100
AcDbLine
 10
6649.0188053361
 20
5387.7982103764
 30
0.0
 11
6649.0188053361
 21
5131.7006259413
 31
0.0
  0
LINE
  5
F0
330
1F
100
AcDbEntity
  8
0
  6
Continuous
 62
     7
370
    25
100
AcDbLine
 10
5900.0188053361
 20
5523.4614027143
 30
0.0
 11
5900.0188053361
 21
5513.8614027143
 31
0.0
  0
ARC
  5
F1
330
1F
100
AcDbEntity
  8
0
  6
Continuous
 62
     7
370
    25
100
AcDbCircle
 10
5900.0091899515
 20
5522.4710162318
 30
0.0
 40
0.9904331578844413
100
AcDbArc
 50
89.4437488215
 51
179.4327325209
  0
LINE
  5
F2
330
1F
100
AcDbEntity
  8
0
  6
Continuous
 62
     7
370
    25
100
AcDbLine
 10
5899.0188053361
 20
5512.8808220386
 30
0.0
 11
5899.0188053361
 21
5522.4808220386
 31
0.0
  0
LINE
  5
F3
330
1F
100
AcDbEntity
  8
0
  6
Continuous
 62
     7
370
    25
100
AcDbLine
 10
6648.0188053361
 20
5523.4614027143
 30
0.0
 11
5900.0188053361
 21
5523.4614027143
 31
0.0
  0
LINE
  5
F4
330
1F
100
AcDbEntity
  8
0
  6
Continuous
 62
     7
370
    25
100
AcDbLine
 10
6648.0188053361
 20
5513.8614027143
 30
0.0
 11
6648.0188053361
 21
5523.4614027143
 31
0.0
  0
ARC
  5
F5
330
1F
100
AcDbEntity
  8
0
  6
Continuous
 62
     7
370
    25
100
AcDbCircle
 10
6648.0284207207
 20
5522.4710162318
 30
0.0
 40
0.9904331578837996
100
AcDbArc
 50
0.5672674791
 51
90.5562511785
  0
LINE
  5
F6
330
1F
100
AcDbEntity
  8
0
  6
Continuous
 62
     7
370
    25
100
AcDbLine
 10
6649.0188053361
 20
5522.4808220386
 30
0.0
 11
6649.0188053361
 21
5512.8808220386
 31
0.0
  0
LINE
  5
F7
330
1F
100
AcDbEntity
  8
0
  6
Continuous
 62
     8
370
    25
100
AcDbLine
 10
6472.5395564076
 20
4954.0376833047
 30
0.0
 11
6422.5440002596
 21
4954.70429072
 31
0.0
  0
SPLINE
  5
F8
330
1F
100
AcDbEntity
  8
0
  6
Continuous
 62
     8
370
    25
100
AcDbSpline
210
0.0
220
0.0
230
1.0
 70
     8
 71
     3
 72
    22
 73
    18
 74
     0
 42
0.000000001
 43
0.00000001
 40
0.0
 40
0.0
 40
0.0
 40
0.0
 40
0.0619544537431766
 40
0.1393723866744935
 40
0.205288589439155
 40
0.2727101561328635
 40
0.3330713917163639
 40
0.3950450612399837
 40
0.4554943126873582
 40
0.517949855365152
 40
0.5853136958254243
 40
0.6554546493553464
 40
0.7333333545706541
 40
0.8144635333230388
 40
0.8950288643287958
 40
0.9779569632364143
 40
1.0
 40
1.0
 40
1.0
 40
1.0
 10
6467.385013926025
 20
4939.31149589232
 30
0.0
 10
6466.948497007441
 20
4938.38463062413
 30
0.0
 10
6465.966511030791
 20
4936.299559789856
 30
0.0
 10
6463.973492545271
 20
4933.624411282842
 30
0.0
 10
6461.538041582319
 20
4931.21568879319
 30
0.0
 10
6458.917864154695
 20
4929.368992553173
 30
0.0
 10
6456.033081763602
 20
4927.945514241219
 30
0.0
 10
6453.002228270914
 20
4926.97077027611
 30
0.0
 10
6449.758796424997
 20
4926.42160456376
 30
0.0
 10
6446.336089580018
 20
4926.330494161595
 30
0.0
 10
6442.774047844833
 20
4926.766714474296
 30
0.0
 10
6439.130918073648
 20
4927.819499010538
 30
0.0
 10
6435.623137938046
 20
4929.55290025307
 30
0.0
 10
6432.468516769617
 20
4931.955946683914
 30
0.0
 10
6429.873148862718
 20
4934.957794179562
 30
0.0
 10
6428.23706034758
 20
4937.501551219308
 30
0.0
 10
6427.610767253324
 20
4939.135774435849
 30
0.0
 10
6427.479251083538
 20
4939.478947272951
 30
0.0
  0
LINE
  5
F9
330
1F
100
AcDbEntity
  8
0
  6
Continuous
 62
     8
370
    25
100
AcDbLine
 10
6423.5946123895
 20
5033.5002004679
 30
0.0
 11
6422.8474208418
 21
5034.672528993
 31
0.0
  0
LINE
  5
FA
330
1F
100
AcDbEntity
  8
0
  6
Continuous
 62
     8
370
    25
100
AcDbLine
 10
6474.3683510017
 20
5033.9855832575
 30
0.0
 11
6473.5917565761
 21
5032.9526959419
 31
0.0
  0
ARC
  5
FB
330
1F
100
AcDbEntity
  8
0
  6
Continuous
 62
     8
370
    25
100
AcDbCircle
 10
6425.5478257104
 20
5033.5670186564
 30
0.0
 40
2.917934125081191
100
AcDbArc
 50
131.2273791381
 51
157.7364508658
  0
ARC
  5
FC
330
1F
100
AcDbEntity
  8
0
  6
Continuous
 62
     8
370
    25
100
AcDbCircle
 10
6471.6394310709
 20
5032.9524639184
 30
0.0
 40
2.917934124979978
100
AcDbArc
 50
20.7357522119
 51
47.2448239405
  0
ARC
  5
FD
330
1F
100
AcDbEntity
  8
0
  6
Continuous
 62
     8
370
    25
100
AcDbCircle
 10
6423.5367272646
 20
5041.8560319788
 30
0.0
 40
2.844556619833011
100
AcDbArc
 50
85.8243816613
 51
164.5440110995
  0
ARC
  5
FE
330
1F
100
AcDbEntity
  8
0
  6
Continuous
 62
     8
370
    25
100
AcDbCircle
 10
6473.8708156526
 20
5041.1849108003
 30
0.0
 40
2.844556619835162
100
AcDbArc
 50
13.9281919787
 51
92.6478214168
  0
ARC
  5
FF
330
1F
100
AcDbEntity
  8
0
  6
Continuous
 62
     8
370
    25
100
AcDbCircle
 10
6423.3059863197
 20
5042.1286842786
 30
0.0
 40
2.60673042903695
100
AcDbArc
 50
80.3283509483
 51
164.1753979904
  0
ARC
  5
100
330
1F
100
AcDbEntity
  8
0
  6
Continuous
 62
     8
370
    25
100
AcDbCircle
 10
6474.1087440066
 20
5041.4513141761
 30
0.0
 40
2.60673042903879
100
AcDbArc
 50
14.2968050877
 51
98.1438521298
  0
ARC
  5
101
330
1F
100
AcDbEntity
  8
0
  6
Continuous
 62
     8
370
    25
100
AcDbCircle
 10
5938.0188053361
 20
5412.7006259413
 30
0.0
 40
2.0
100
AcDbArc
 50
30.0
 51
90.0
  0
ARC
  5
102
330
1F
100
AcDbEntity
  8
0
  6
Continuous
 62
     8
370
    25
100
AcDbCircle
 10
6610.0188053361
 20
5412.7006259413
 30
0.0
 40
2.0
100
AcDbArc
 50
90.0
 51
150.0
  0
LINE
  5
103
330
1F
100
AcDbEntity
  8
0
  6
Continuous
 62
     8
370
    25
100
AcDbLine
 10
5900.0188053361
 20
5523.4614027143
 30
0.0
 11
5900.0188053361
 21
5523.4808220386
 31
0.0
  0
LINE
  5
104
330
1F
100
AcDbEntity
  8
0
  6
Continuous
 62
     8
370
    25
100
AcDbLine
 10
6648.0188053361
 20
5523.4614027143
 30
0.0
 11
6648.0188053361
 21
5523.4808220386
 31
0.0
  0
LINE
  5
105
330
1F
100
AcDbEntity
  8
0
  6
Continuous
 62
     7
370
    25
100
AcDbLine
 10
7137.4951766326
 20
5132.3488563493
 30
0.0
 11
7140.4920209368
 21
5129.35254477
 31
0.0
  0
LINE
  5
106
330
1F
100
AcDbEntity
  8
0
  6
Continuous
 62
     7
370
    25
100
AcDbLine
 10
7205.4920209368
 20
5129.35254477
 30
0.0
 11
7208.4888652409
 21
5132.3488563493
 31
0.0
  0
ARC
  5
107
330
1F
100
AcDbEntity
  8
0
  6
Continuous
 62
     7
370
    25
100
AcDbCircle
 10
7142.9920209368
 20
4984.3842682486
 30
0.0
 40
80.00000000000054
100
AcDbArc
 50
246.0419751382
 51
293.9580248618
  0
LINE
  5
108
330
1F
100
AcDbEntity
  8
0
  6
Continuous
 62
     7
370
    25
100
AcDbLine
 10
7208.4920209368
 20
5132.3551668995
 30
0.0
 11
7208.4920209368
 21
5134.3549891454
 31
0.0
  0
LINE
  5
109
330
1F
100
AcDbEntity
  8
0
  6
Continuous
 62
     7
370
    25
100
AcDbLine
 10
7137.4920209368
 20
5134.3549891454
 30
0.0
 11
7137.4920209368
 21
5132.3551668995
 31
0.0
  0
LINE
  5
10A
330
1F
100
AcDbEntity
  8
0
  6
Continuous
 62
     7
370
    25
100
AcDbLine
 10
7175.4920209368
 20
4911.2898076592
 30
0.0
 11
7175.4920209368
 21
4926.2884745036
 31
0.0
  0
LINE
  5
10B
330
1F
100
AcDbEntity
  8
0
  6
Continuous
 62
     7
370
    25
100
AcDbLine
 10
7110.4920209368
 20
4926.2884745036
 30
0.0
 11
7110.4920209368
 21
4911.2898076592
 31
0.0
  0
LINE
  5
10C
330
1F
100
AcDbEntity
  8
0
  6
Continuous
 62
     7
370
    25
100
AcDbLine
 10
7092.9920209368
 20
5007.363343587
 30
0.0
 11
7112.9920209368
 21
5007.363343587
 31
0.0
  0
LINE
  5
10D
330
1F
100
AcDbEntity
  8
0
  6
Continuous
 62
     7
370
    25
100
AcDbLine
 10
7112.9920209368
 20
5073.363343587
 30
0.0
 11
7092.9920209368
 21
5073.363343587
 31
0.0
  0
LINE
  5
10E
330
1F
100
AcDbEntity
  8
0
  6
Continuous
 62
     7
370
    25
100
AcDbLine
 10
7205.4920209368
 20
5123.755931242
 30
0.0
 11
7205.4920209368
 21
5129.3554335306
 31
0.0
  0
LINE
  5
10F
330
1F
100
AcDbEntity
  8
0
  6
Continuous
 62
     7
370
    25
100
AcDbLine
 10
7140.4920209368
 20
5129.3554335306
 30
0.0
 11
7140.4920209368
 21
5123.755931242
 31
0.0
  0
LINE
  5
110
330
1F
100
AcDbEntity
  8
0
  6
Continuous
 62
     7
370
    25
100
AcDbLine
 10
7142.9920209368
 20
5073.3604106447
 30
0.0
 11
7142.9920209368
 21
5055.3620104314
 31
0.0
  0
LINE
  5
111
330
1F
100
AcDbEntity
  8
0
  6
Continuous
 62
     7
370
    25
100
AcDbLine
 10
7202.9920209368
 20
5055.3620104314
 30
0.0
 11
7202.9920209368
 21
5073.3604106447
 31
0.0
  0
LINE
  5
112
330
1F
100
AcDbEntity
  8
0
  6
Continuous
 62
     7
370
    25
100
AcDbLine
 10
7114.9920209368
 20
5009.3660987752
 30
0.0
 11
7114.9920209368
 21
4926.5084549507
 31
0.0
  0
SPLINE
  5
113
330
1F
100
AcDbEntity
  8
0
  6
Continuous
 62
     7
370
    25
100
AcDbSpline
210
0.0
220
0.0
230
1.0
 70
     8
 71
     3
 72
    13
 73
     9
 74
     0
 42
0.000000001
 43
0.00000001
 40
0.0
 40
0.0
 40
0.0
 40
0.0
 40
0.0422757514750281
 40
0.2945607076550192
 40
0.552095770661479
 40
0.7902363286751695
 40
0.9935645270828319
 40
1.0
 40
1.0
 40
1.0
 40
1.0
 10
7112.971938821192
 20
5012.181263836549
 30
0.0
 10
7113.021318032912
 20
5012.169841250374
 30
0.0
 10
7113.36537284069
 20
5012.090253189852
 30
0.0
 10
7113.9291265059
 20
5011.699033025407
 30
0.0
 10
7114.545352856511
 20
5011.034975147179
 30
0.0
 10
7114.879679203298
 20
5010.259028800279
 30
0.0
 10
7115.005387123875
 20
5009.722702282658
 30
0.0
 10
7114.988512382278
 20
5009.474275576733
 30
0.0
 10
7114.987994671363
 20
5009.466653936018
 30
0.0
  0
LINE
  5
114
330
1F
100
AcDbEntity
  8
0
  6
Continuous
 62
     7
370
    25
100
AcDbLine
 10
7121.7516021756
 20
5068.363343587
 30
0.0
 11
7112.9920209368
 21
5068.363343587
 31
0.0
  0
SPLINE
  5
115
330
1F
100
AcDbEntity
  8
0
  6
Continuous
 62
     7
370
    25
100
AcDbSpline
210
0.0
220
0.0
230
1.0
 70
     8
 71
     3
 72
    13
 73
     9
 74
     0
 42
0.000000001
 43
0.00000001
 40
0.0
 40
0.0
 40
0.0
 40
0.0
 40
0.043966864135963
 40
0.2995425508120262
 40
0.4426572865239011
 40
0.6116021503620489
 40
0.8390243799852345
 40
1.0
 40
1.0
 40
1.0
 40
1.0
 10
7123.731617511544
 20
5067.626237385497
 30
0.0
 10
7123.724552920125
 20
5067.632540902264
 30
0.0
 10
7123.676422452428
 20
5067.675486232314
 30
0.0
 10
7123.569413376117
 20
5067.759184203909
 30
0.0
 10
7123.289459038507
 20
5067.949241073436
 30
0.0
 10
7122.875669448186
 20
5068.159609456772
 30
0.0
 10
7122.378664716682
 20
5068.329651505826
 30
0.0
 10
7122.011586032034
 20
5068.333393076728
 30
0.0
 10
7121.859446366713
 20
5068.334943810587
 30
0.0
  0
ARC
  5
116
330
1F
100
AcDbEntity
  8
0
  6
Continuous
 62
     7
370
    25
100
AcDbCircle
 10
7172.9920209368
 20
4954.3709870124
 30
0.0
 40
25.00000000000004
100
AcDbArc
 50
271.9504425369
 51
0.0
  0
LINE
  5
117
330
1F
100
AcDbEntity
  8
0
  6
Continuous
 62
     7
370
    25
100
AcDbLine
 10
7197.9920209368
 20
4954.3709870124
 30
0.0
 11
7197.9920209368
 21
5055.3620104314
 31
0.0
  0
LINE
  5
118
330
1F
100
AcDbEntity
  8
0
  6
Continuous
 62
     7
370
    25
100
AcDbLine
 10
7147.9920209368
 20
5055.3620104314
 30
0.0
 11
7147.9920209368
 21
5050.6050739386
 31
0.0
  0
SPLINE
  5
119
330
1F
100
AcDbEntity
  8
0
  6
Continuous
 62
     7
370
    25
100
AcDbSpline
210
0.0
220
0.0
230
1.0
 70
     8
 71
     3
 72
    14
 73
    10
 74
     0
 42
0.000000001
 43
0.00000001
 40
0.0
 40
0.0
 40
0.0
 40
0.0
 40
0.0211630376806709
 40
0.1982889966572827
 40
0.3967810436205458
 40
0.6021424608000754
 40
0.8016584664637718
 40
0.9702723903930133
 40
1.0
 40
1.0
 40
1.0
 40
1.0
 10
7171.002668624084
 20
4926.435599237501
 30
0.0
 10
7170.99979562804
 20
4926.466949574023
 30
0.0
 10
7170.972876831622
 20
4926.760689389048
 30
0.0
 10
7171.122743724893
 20
4927.357199536177
 30
0.0
 10
7171.499674064805
 20
4928.147341946948
 30
0.0
 10
7172.144148157435
 20
4928.815232301075
 30
0.0
 10
7172.910931436918
 20
4929.218637856871
 30
0.0
 10
7173.50052054717
 20
4929.38419661365
 30
0.0
 10
7173.796614894127
 20
4929.374838676606
 30
0.0
 10
7173.840993784399
 20
4929.373436100483
 30
0.0
  0
LINE
  5
11A
330
1F
100
AcDbEntity
  8
0
  6
Continuous
 62
     7
370
    25
100
AcDbLine
 10
7146.99232654
 20
5094.7568280174
 30
0.0
 11
7150.9920209368
 21
5083.7587752715
 31
0.0
  0
LINE
  5
11B
330
1F
100
AcDbEntity
  8
0
  6
Continuous
 62
     7
370
    25
100
AcDbLine
 10
7194.9920209368
 20
5083.7587752715
 30
0.0
 11
7198.9917153335
 21
5094.7568280174
 31
0.0
  0
LINE
  5
11C
330
1F
100
AcDbEntity
  8
0
  6
Continuous
 62
     7
370
    25
100
AcDbLine
 10
7198.9920209368
 20
5094.7585086761
 30
0.0
 11
7198.9920209368
 21
5123.755931242
 31
0.0
  0
LINE
  5
11D
330
1F
100
AcDbEntity
  8
0
  6
Continuous
 62
     7
370
    25
100
AcDbLine
 10
7146.9920209368
 20
5123.755931242
 30
0.0
 11
7146.9920209368
 21
5094.7585086761
 31
0.0
  0
SPLINE
  5
11E
330
1F
100
AcDbEntity
  8
0
  6
Continuous
 62
     7
370
    25
100
AcDbSpline
210
0.0
220
0.0
230
1.0
 70
     8
 71
     3
 72
    16
 73
    12
 74
     0
 42
0.000000001
 43
0.00000001
 40
0.0
 40
0.0
 40
0.0
 40
0.0
 40
0.0163927484997546
 40
0.1539251553700999
 40
0.3072445262215855
 40
0.4652523417379961
 40
0.6165235698895523
 40
0.7446866632081743
 40
0.856575730319379
 40
0.9536677408365808
 40
1.0
 40
1.0
 40
1.0
 40
1.0
 10
7147.980203210258
 20
5050.525162770246
 30
0.0
 10
7147.982836773345
 20
5050.493514289838
 30
0.0
 10
7148.007565488447
 20
5050.196340373946
 30
0.0
 10
7147.846975584197
 20
5049.597657178502
 30
0.0
 10
7147.456297553459
 20
5048.808536531451
 30
0.0
 10
7146.80261854153
 20
5048.15726532199
 30
0.0
 10
7146.036585571671
 20
5047.754317559384
 30
0.0
 10
7145.280429918053
 20
5047.59306014182
 30
0.0
 10
7144.624624292364
 20
5047.611613279285
 30
0.0
 10
7144.13275436669
 20
5047.717909165698
 30
0.0
 10
7143.900603229934
 20
5047.820757185383
 30
0.0
 10
7143.825608344778
 20
5047.853981556077
 30
0.0
  0
LINE
  5
11F
330
1F
100
AcDbEntity
  8
0
  6
Continuous
 62
     7
370
    25
100
AcDbLine
 10
7194.9920209368
 20
5073.6323341822
 30
0.0
 11
7194.9920209368
 21
5083.7594863235
 31
0.0
  0
LINE
  5
120
330
1F
100
AcDbEntity
  8
0
  6
Continuous
 62
     7
370
    25
100
AcDbLine
 10
7150.9920209368
 20
5083.7594863235
 30
0.0
 11
7150.9920209368
 21
5073.6323341822
 31
0.0
  0
LWPOLYLINE
  5
121
330
1F
100
AcDbEntity
  8
0
  6
Continuous
 62
     7
370
    25
100
AcDbPolyline
 90
       34
 70
   128
 43
0.0
 10
7208.4888652409
 20
5132.3488563493
 10
7208.4920209368
 20
5132.3551668995
 10
7208.3156134622
 20
5132.4022914915
 10
7207.7881442554
 20
5132.4489477382
 10
7206.9148555422
 20
5132.4946719488
 10
7205.7044264582
 20
5132.5390096955
 10
7204.1688867914
 20
5132.5815203299
 10
7202.323497425
 20
5132.6217813623
 10
7200.1865986675
 20
5132.6593926603
 10
7197.7794279788
 20
5132.693980426
 10
7195.1259089027
 20
5132.7252009107
 10
7192.252413304
 20
5132.7527438311
 10
7189.1874992728
 20
5132.7763354534
 10
7185.9616273018
 20
5132.7957413134
 10
7182.6068575558
 20
5132.8107685469
 10
7179.1565312439
 20
5132.8212678065
 10
7175.6449392591
 20
5132.827134746
 10
7172.1069813801
 20
5132.8283110569
 10
7168.5778194218
 20
5132.8247850486
 10
7165.0925277813
 20
5132.8165917642
 10
7161.6857448528
 20
5132.8038126321
 10
7158.3913287756
 20
5132.7865746572
 10
7155.2420209368
 20
5132.7650491582
 10
7152.2691205724
 20
5132.7394500652
 10
7149.5021737021
 20
5132.7100317934
 10
7146.9686794868
 20
5132.6770867148
 10
7144.6938169303
 20
5132.6409422526
 10
7142.7001946388
 20
5132.6019576264
 10
7141.0076261262
 20
5132.5605202831
 10
7139.6329328989
 20
5132.5170420457
 10
7138.5897772756
 20
5132.4719550203
 10
7137.8885266058
 20
5132.4257073021
 10
7137.5361502335
 20
5132.3787585217
 10
7137.4951766326
 20
5132.3488563493
  0
LWPOLYLINE
  5
122
330
1F
100
AcDbEntity
  8
0
  6
Continuous
 62
     7
370
    25
100
AcDbPolyline
 90
       31
 70
   128
 43
0.0
 10
7205.4920209368
 20
5129.3554335306
 10
7205.3139825362
 20
5129.4007251722
 10
7204.7818179606
 20
5129.4455205892
 10
7203.9013577164
 20
5129.4893289935
 10
7202.6822483101
 20
5129.5316704111
 10
7201.1378465598
 20
5129.5720809405
 10
7199.2850732539
 20
5129.6101178356
 10
7197.1442277648
 20
5129.6453643562
 10
7194.7387656434
 20
5129.6774343339
 10
7192.0950416363
 20
5129.7059764035
 10
7189.2420209368
 20
5129.730677852
 10
7186.2109618367
 20
5129.7512680452
 10
7183.0350732539
 20
5129.7675213926
 10
7179.7491508883
 20
5129.7792598191
 10
7176.389195993
 20
5129.7863547162
 10
7172.9920209368
 20
5129.7887283505
 10
7169.5948458806
 20
5129.7863547162
 10
7166.2348909852
 20
5129.7792598191
 10
7162.9489686196
 20
5129.7675213926
 10
7159.7730800368
 20
5129.7512680452
 10
7156.7420209368
 20
5129.730677852
 10
7153.8890002373
 20
5129.7059764035
 10
7151.2452762301
 20
5129.6774343339
 10
7148.8398141087
 20
5129.6453643562
 10
7146.6989686196
 20
5129.6101178356
 10
7144.8461953138
 20
5129.5720809405
 10
7143.3017935634
 20
5129.5316704111
 10
7142.0826841572
 20
5129.4893289935
 10
7141.2022239129
 20
5129.4455205892
 10
7140.6700593373
 20
5129.4007251722
 10
7140.4920209368
 20
5129.3554335306
  0
LWPOLYLINE
  5
123
330
1F
100
AcDbEntity
  8
0
  6
Continuous
 62
     7
370
    25
100
AcDbPolyline
 90
       33
 70
   128
 43
0.0
 10
7175.4774022644
 20
4911.2768130884
 10
7175.4920209368
 20
4911.2898076592
 10
7175.3139825362
 20
4911.3350993009
 10
7174.7818179606
 20
4911.3798947179
 10
7173.9013577164
 20
4911.4237031222
 10
7172.6822483101
 20
4911.4660445397
 10
7171.1378465598
 20
4911.5064550692
 10
7169.2850732539
 20
4911.5444919643
 10
7167.1442277648
 20
4911.5797384848
 10
7164.7387656434
 20
4911.6118084626
 10
7162.0950416363
 20
4911.6403505321
 10
7159.2420209368
 20
4911.6650519806
 10
7156.2109618367
 20
4911.6856421738
 10
7153.0350732539
 20
4911.7018955212
 10
7149.7491508883
 20
4911.7136339478
 10
7146.389195993
 20
4911.7207288448
 10
7142.9920209368
 20
4911.7231024792
 10
7139.5948458806
 20
4911.7207288448
 10
7136.2348909852
 20
4911.7136339478
 10
7132.9489686196
 20
4911.7018955212
 10
7129.7730800368
 20
4911.6856421738
 10
7126.7420209368
 20
4911.6650519806
 10
7123.8890002373
 20
4911.6403505321
 10
7121.2452762301
 20
4911.6118084626
 10
7118.8398141087
 20
4911.5797384848
 10
7116.6989686196
 20
4911.5444919643
 10
7114.8461953138
 20
4911.5064550692
 10
7113.3017935634
 20
4911.4660445397
 10
7112.0826841572
 20
4911.4237031222
 10
7111.2022239129
 20
4911.3798947179
 10
7110.6700593373
 20
4911.3350993009
 10
7110.4920209368
 20
4911.2898076592
 10
7110.5066396092
 20
4911.2768130884
  0
LWPOLYLINE
  5
124
330
1F
100
AcDbEntity
  8
0
  6
Continuous
 62
     7
370
    25
100
AcDbPolyline
 90
       33
 70
   128
 43
0.0
 10
7208.4920209368
 20
5134.3549891454
 10
7208.3156134622
 20
5134.4021137374
 10
7207.7881442554
 20
5134.4487699841
 10
7206.9148555422
 20
5134.4944941947
 10
7205.7044264582
 20
5134.5388319414
 10
7204.1688867914
 20
5134.5813425758
 10
7202.323497425
 20
5134.6216036082
 10
7200.1865986675
 20
5134.6592149062
 10
7197.7794279788
 20
5134.6938026719
 10
7195.1259089027
 20
5134.7250231566
 10
7192.252413304
 20
5134.7525660771
 10
7189.1874992728
 20
5134.7761576993
 10
7185.9616273018
 20
5134.7955635593
 10
7182.6068575558
 20
5134.8105907928
 10
7179.1565312439
 20
5134.8210900525
 10
7175.6449392591
 20
5134.8269569919
 10
7172.1069813801
 20
5134.8281333028
 10
7168.5778194218
 20
5134.8246072945
 10
7165.0925277813
 20
5134.8164140101
 10
7161.6857448528
 20
5134.803634878
 10
7158.3913287756
 20
5134.7863969032
 10
7155.2420209368
 20
5134.7648714041
 10
7152.2691205724
 20
5134.7392723111
 10
7149.5021737021
 20
5134.7098540393
 10
7146.9686794868
 20
5134.6769089608
 10
7144.6938169303
 20
5134.6407644985
 10
7142.7001946388
 20
5134.6017798723
 10
7141.0076261262
 20
5134.5603425291
 10
7139.6329328989
 20
5134.5168642916
 10
7138.5897772756
 20
5134.4717772662
 10
7137.8885266058
 20
5134.4255295481
 10
7137.5361502335
 20
5134.3785807677
 10
7137.4920209368
 20
5134.3549891454
  0
LWPOLYLINE
  5
125
330
1F
100
AcDbEntity
  8
0
  6
Continuous
 62
     7
370
    25
100
AcDbPolyline
 90
       32
 70
   128
 43
0.0
 10
7175.4920209368
 20
4926.2884745036
 10
7175.3139825362
 20
4926.3337661453
 10
7174.7818179606
 20
4926.3785615623
 10
7173.9013577164
 20
4926.4223699666
 10
7172.6822483101
 20
4926.4647113842
 10
7171.1378465598
 20
4926.5051219136
 10
7169.2850732539
 20
4926.5431588087
 10
7167.1442277648
 20
4926.5784053292
 10
7164.7387656434
 20
4926.610475307
 10
7162.0950416363
 20
4926.6390173766
 10
7159.2420209368
 20
4926.663718825
 10
7156.2109618367
 20
4926.6843090182
 10
7153.0350732539
 20
4926.7005623656
 10
7149.7491508883
 20
4926.7123007922
 10
7146.389195993
 20
4926.7193956892
 10
7142.9920209368
 20
4926.7217693236
 10
7139.5948458806
 20
4926.7193956892
 10
7136.2348909852
 20
4926.7123007922
 10
7132.9489686196
 20
4926.7005623656
 10
7129.7730800368
 20
4926.6843090182
 10
7126.7420209368
 20
4926.663718825
 10
7123.8890002373
 20
4926.6390173766
 10
7121.2452762301
 20
4926.610475307
 10
7118.8398141087
 20
4926.5784053292
 10
7116.6989686196
 20
4926.5431588087
 10
7114.8461953138
 20
4926.5051219136
 10
7113.3017935634
 20
4926.4647113842
 10
7112.0826841572
 20
4926.4223699666
 10
7111.2022239129
 20
4926.3785615623
 10
7110.6700593373
 20
4926.3337661453
 10
7110.4920209368
 20
4926.2884745036
 10
7110.4920209368
 20
4926.2884745036
  0
LINE
  5
126
330
1F
100
AcDbEntity
  8
0
  6
Continuous
 62
     7
370
    25
100
AcDbLine
 10
7112.9920209368
 20
5040.8033044811
 30
0.0
 11
7112.9920209368
 21
5073.363343587
 31
0.0
  0
LINE
  5
127
330
1F
100
AcDbEntity
  8
0
  6
Continuous
 62
     7
370
    25
100
AcDbLine
 10
7112.9920209368
 20
5007.363343587
 30
0.0
 11
7112.9920209368
 21
5040.8033044811
 31
0.0
  0
LINE
  5
128
330
1F
100
AcDbEntity
  8
0
  6
Continuous
 62
     7
370
    25
100
AcDbLine
 10
7092.9920209368
 20
5040.8033044811
 30
0.0
 11
7092.9920209368
 21
5073.363343587
 31
0.0
  0
LINE
  5
129
330
1F
100
AcDbEntity
  8
0
  6
Continuous
 62
     7
370
    25
100
AcDbLine
 10
7092.9920209368
 20
5007.363343587
 30
0.0
 11
7092.9920209368
 21
5040.8033044811
 31
0.0
  0
LWPOLYLINE
  5
12A
330
1F
100
AcDbEntity
  8
0
  6
Continuous
 62
     7
370
    25
100
AcDbPolyline
 90
       38
 70
   128
 43
0.0
 10
7205.4920209368
 20
5123.755931242
 10
7205.3139825362
 20
5123.8012228837
 10
7204.7818179606
 20
5123.8460183006
 10
7203.9013577164
 20
5123.8898267049
 10
7202.6822483101
 20
5123.9321681225
 10
7201.1378465598
 20
5123.972578652
 10
7199.2850732539
 20
5124.0106155471
 10
7197.1442277648
 20
5124.0458620676
 10
7194.7387656434
 20
5124.0779320453
 10
7192.0950416363
 20
5124.1064741149
 10
7189.2420209368
 20
5124.1311755634
 10
7186.2109618367
 20
5124.1517657566
 10
7183.0350732539
 20
5124.168019104
 10
7179.7491508883
 20
5124.1797575305
 10
7176.389195993
 20
5124.1868524276
 10
7172.9920209368
 20
5124.1892260619
 10
7169.5948458806
 20
5124.1868524276
 10
7166.2348909852
 20
5124.1797575305
 10
7162.9489686196
 20
5124.168019104
 10
7159.7730800368
 20
5124.1517657566
 10
7156.7420209368
 20
5124.1311755634
 10
7153.8890002373
 20
5124.1064741149
 10
7151.2452762301
 20
5124.0779320453
 10
7148.8398141087
 20
5124.0458620676
 10
7146.6989686196
 20
5124.0106155471
 10
7144.8461953138
 20
5123.972578652
 10
7143.3017935634
 20
5123.9321681225
 10
7142.0826841572
 20
5123.8898267049
 10
7141.2022239129
 20
5123.8460183006
 10
7140.6700593373
 20
5123.8012228837
 10
7140.4920209368
 20
5123.755931242
 10
7140.6700593373
 20
5123.7106396003
 10
7141.2022239129
 20
5123.6658441834
 10
7142.0826841572
 20
5123.622035779
 10
7143.3017935634
 20
5123.5796943615
 10
7144.8461953138
 20
5123.539283832
 10
7146.6989686196
 20
5123.5012469369
 10
7146.9920209368
 20
5123.49595435
  0
ARC
  5
12B
330
1F
100
AcDbEntity
  8
0
  6
Continuous
 62
     7
370
    25
100
AcDbCircle
 10
7199.8343062066
 20
5183.8241612894
 30
0.0
 40
60.33408652662492
100
AcDbArc
 50
269.2001045913
 51
275.3807087624
  0
LWPOLYLINE
  5
12C
330
1F
100
AcDbEntity
  8
0
  6
Continuous
 62
     7
370
    25
100
AcDbPolyline
 90
       29
 70
   128
 43
0.0
 10
7198.9920209368
 20
5123.755931242
 10
7198.816218238
 20
5123.7961732086
 10
7198.2911875718
 20
5123.8358709717
 10
7197.4240290772
 20
5123.8744876871
 10
7196.2264695852
 20
5123.91150113
 10
7194.7147040335
 20
5123.946410757
 10
7192.9091764579
 20
5123.9787444753
 10
7190.8343035213
 20
5124.0080650268
 10
7188.518144321
 20
5124.0339759015
 10
7185.9920209368
 20
5124.0561266991
 10
7183.2900948538
 20
5124.0742178682
 10
7180.4489049872
 20
5124.0880047566
 10
7177.5068735561
 20
5124.0973009204
 10
7174.5037864884
 20
5124.1019806449
 10
7171.4802553851
 20
5124.1019806449
 10
7168.4771683174
 20
5124.0973009204
 10
7165.5351368863
 20
5124.0880047566
 10
7162.6939470197
 20
5124.0742178682
 10
7159.9920209368
 20
5124.0561266991
 10
7157.4658975525
 20
5124.0339759015
 10
7155.1497383522
 20
5124.0080650268
 10
7153.0748654157
 20
5123.9787444753
 10
7151.26933784
 20
5123.946410757
 10
7149.7575722883
 20
5123.91150113
 10
7148.5600127963
 20
5123.8744876871
 10
7147.6928543017
 20
5123.8358709717
 10
7147.1678236355
 20
5123.7961732086
 10
7146.9920209368
 20
5123.755931242
 10
7146.9920209368
 20
5123.755931242
  0
LWPOLYLINE
  5
12D
330
1F
100
AcDbEntity
  8
0
  6
Continuous
 62
     7
370
    25
100
AcDbPolyline
 90
       36
 70
   128
 43
0.0
 10
7142.9920209368
 20
5055.3620104314
 10
7143.1678822221
 20
5055.4052541951
 10
7143.6934042655
 20
5055.4479909652
 10
7144.5624258013
 20
5055.4897196921
 10
7145.7647583466
 20
5055.5299511447
 10
7147.2863056517
 20
5055.568213646
 10
7149.1092289656
 20
5055.6040586031
 10
7151.2121561791
 20
5055.6370657667
 10
7153.5704323933
 20
5055.666848158
 10
7156.1564089759
 20
5055.6930566057
 10
7158.9397677158
 20
5055.7153838396
 10
7161.8878762766
 20
5055.7335680935
 10
7164.9661707809
 20
5055.7473961735
 10
7168.1385610402
 20
5055.756705958
 10
7171.3678536792
 20
5055.7613882983
 10
7174.6161881943
 20
5055.7613882983
 10
7177.8454808333
 20
5055.756705958
 10
7181.0178710926
 20
5055.7473961735
 10
7184.096165597
 20
5055.7335680935
 10
7187.0442741578
 20
5055.7153838396
 10
7189.8276328976
 20
5055.6930566057
 10
7192.4136094802
 20
5055.666848158
 10
7194.7718856945
 20
5055.6370657667
 10
7196.8748129079
 20
5055.6040586031
 10
7198.6977362218
 20
5055.568213646
 10
7200.2192835269
 20
5055.5299511447
 10
7201.4216160722
 20
5055.4897196921
 10
7202.2906376081
 20
5055.4479909652
 10
7202.8161596514
 20
5055.4052541951
 10
7202.9920209368
 20
5055.3620104314
 10
7202.8161596514
 20
5055.3187666678
 10
7202.2906376081
 20
5055.2760298977
 10
7201.4216160722
 20
5055.2343011708
 10
7200.2192835269
 20
5055.1940697182
 10
7198.6977362218
 20
5055.1558072169
 10
7197.9920209368
 20
5055.1409217635
  0
ARC
  5
12E
330
1F
100
AcDbEntity
  8
0
  6
Continuous
 62
     7
370
    25
100
AcDbCircle
 10
7147.7224970221
 20
5105.6944875887
 30
0.0
 40
50.55428429693065
100
AcDbArc
 50
264.6308526265
 51
270.3054668098
  0
LWPOLYLINE
  5
12F
330
1F
100
AcDbEntity
  8
0
  6
Continuous
 62
     7
370
    25
100
AcDbPolyline
 90
       28
 70
   128
 43
0.0
 10
7147.9920209368
 20
5055.3620104314
 10
7148.1674935364
 20
5055.4014313178
 10
7148.6914480847
 20
5055.4402988214
 10
7149.5565294084
 20
5055.4780673275
 10
7150.7505936619
 20
5055.5142066493
 10
7152.2568788005
 20
5055.5482094698
 10
7154.0542398827
 20
5055.5795984639
 10
7156.1174458988
 20
5055.607932999
 10
7158.4175339589
 20
5055.6328153203
 10
7160.9222158685
 20
5055.6538961346
 10
7163.5963313839
 20
5055.6708795134
 10
7166.402341785
 20
5055.6835270474
 10
7169.3008568367
 20
5055.6916611929
 10
7172.2511877412
 20
5055.6951677643
 10
7175.2119183198
 20
5055.693997537
 10
7178.1414864053
 20
5055.6881669385
 10
7180.9987672833
 20
5055.6777578175
 10
7183.7436509937
 20
5055.6629162954
 10
7186.3376053859
 20
5055.6438507146
 10
7188.7442170263
 20
5055.620828714
 10
7190.9297023629
 20
5055.594173472
 10
7192.8633819721
 20
5055.5642591698
 10
7194.5181112309
 20
5055.5315057387
 10
7195.8706613678
 20
5055.4963729651
 10
7196.9020455437
 20
5055.4593540359
 10
7197.5977853854
 20
5055.420968616
 10
7197.9481142309
 20
5055.3817555524
 10
7197.9920209368
 20
5055.3620104314
  0
LWPOLYLINE
  5
130
330
1F
100
AcDbEntity
  8
0
  6
Continuous
 62
     7
370
    25
100
AcDbPolyline
 90
       30
 70
   128
 43
0.0
 10
7142.9920209368
 20
5073.3604106447
 10
7143.1678822221
 20
5073.4036544084
 10
7143.6934042655
 20
5073.4463911785
 10
7144.5624258013
 20
5073.4881199054
 10
7145.7647583466
 20
5073.528351358
 10
7147.2863056517
 20
5073.5666138593
 10
7149.1092289656
 20
5073.6024588164
 10
7151.2121561791
 20
5073.63546598
 10
7153.5704323933
 20
5073.6652483713
 10
7156.1564089759
 20
5073.691456819
 10
7158.9397677158
 20
5073.7137840529
 10
7161.8878762766
 20
5073.7319683068
 10
7164.9661707809
 20
5073.7457963868
 10
7168.1385610402
 20
5073.7551061713
 10
7171.3678536792
 20
5073.7597885116
 10
7174.6161881943
 20
5073.7597885116
 10
7177.8454808333
 20
5073.7551061713
 10
7181.0178710926
 20
5073.7457963868
 10
7184.096165597
 20
5073.7319683068
 10
7187.0442741578
 20
5073.7137840529
 10
7189.8276328976
 20
5073.691456819
 10
7192.4136094802
 20
5073.6652483713
 10
7194.7718856945
 20
5073.63546598
 10
7196.8748129079
 20
5073.6024588164
 10
7198.6977362218
 20
5073.5666138593
 10
7200.2192835269
 20
5073.528351358
 10
7201.4216160722
 20
5073.4881199054
 10
7202.2906376081
 20
5073.4463911785
 10
7202.8161596514
 20
5073.4036544084
 10
7202.9920209368
 20
5073.3604106447
  0
ELLIPSE
  5
131
330
1F
100
AcDbEntity
  8
0
  6
Continuous
 62
     7
370
    25
100
AcDbEllipse
 10
7142.9920209368
 20
5040.363343587
 30
0.0
 11
27.99938577540979
 21
24.99970231652151
 31
0.0
210
0.0
220
0.0
230
1.0
 40
0.0074185734
 41
1.488954537149445
 42
1.56417263101952
  0
ELLIPSE
  5
132
330
1F
100
AcDbEntity
  8
0
  6
Continuous
 62
     7
370
    25
100
AcDbEllipse
 10
7142.9920209368
 20
5044.1203689569
 30
0.0
 11
27.99938577540979
 21
-24.99970231652151
 31
0.0
210
0.0
220
0.0
230
1.0
 40
0.0074185734
 41
1.174955291004781
 42
1.502201928700169
  0
SPLINE
  5
133
330
1F
100
AcDbEntity
  8
0
  6
Continuous
 62
     7
370
    25
100
AcDbSpline
210
0.0
220
0.0
230
1.0
 70
     8
 71
     3
 72
    10
 73
     6
 74
     0
 42
0.000000001
 43
0.00000001
 40
0.0
 40
0.0
 40
0.0
 40
0.0
 40
0.2767262145199473
 40
0.6090796950219436
 40
0.9999999999999999
 40
0.9999999999999999
 40
0.9999999999999999
 40
0.9999999999999999
 10
7159.204924162565
 20
5032.564200235503
 30
0.0
 10
7158.702986155392
 20
5032.528731617428
 30
0.0
 10
7157.598210993925
 20
5032.450664510132
 30
0.0
 10
7155.755855416077
 20
5033.23493867426
 30
0.0
 10
7154.589607984993
 20
5034.168143580568
 30
0.0
 10
7153.959266044511
 20
5034.672528992986
 30
0.0
  0
LINE
  5
134
330
1F
100
AcDbEntity
  8
0
  6
Continuous
 62
     7
370
    25
100
AcDbLine
 10
7159.2049241626
 20
4954.6753403561
 30
0.0
 11
7159.2049241626
 21
5032.5642002355
 31
0.0
  0
ELLIPSE
  5
135
330
1F
100
AcDbEntity
  8
0
  6
Continuous
 62
     7
370
    25
100
AcDbEllipse
 10
7142.9920209368
 20
5040.363343587
 30
0.0
 11
30.99944385001254
 21
27.99924523334721
 31
0.0
210
0.0
220
0.0
230
1.0
 40
0.0066319849
 41
1.564806272500559
 42
2.880914545031271
  0
ELLIPSE
  5
136
330
1F
100
AcDbEntity
  8
0
  6
Continuous
 62
     7
370
    25
100
AcDbEllipse
 10
7142.9920209368
 20
5040.363343587
 30
0.0
 11
24.9993120619547
 21
27.99951035155937
 31
0.0
210
0.0
220
0.0
230
1.0
 40
0.0066237851
 41
1.488159655244721
 42
1.563377749115088
  0
ARC
  5
137
330
1F
100
AcDbEntity
  8
0
  6
Continuous
 62
     7
370
    25
100
AcDbCircle
 10
7134.6716117536
 20
5054.0142879983
 30
0.0
 40
15.44781861256661
100
AcDbArc
 50
312.4403418068
 51
322.8967862934
  0
ELLIPSE
  5
138
330
1F
100
AcDbEntity
  8
0
  6
Continuous
 62
     7
370
    25
100
AcDbEllipse
 10
7145.1133412803
 20
5046.2415007638
 30
0.0
 11
-24.99944451233569
 21
24.99944451233659
 31
0.0
210
0.0
220
0.0
230
1.0
 40
0.0066663704
 41
4.316590520467296
 42
4.643837158161927
  0
LWPOLYLINE
  5
139
330
1F
100
AcDbEntity
  8
0
  6
Continuous
 62
     7
370
    25
100
AcDbPolyline
 90
        9
 70
   128
 43
0.0
 10
7153.9592660445
 20
5034.672528993
 10
7154.244125378
 20
5035.0248094247
 10
7154.491097136
 20
5035.3669925045
 10
7154.6937719587
 20
5035.6901979678
 10
7154.8468900711
 20
5035.9860380534
 10
7154.9464777836
 20
5036.2468351808
 10
7154.9899506165
 20
5036.4658211968
 10
7154.9761803718
 20
5036.6373130218
 10
7154.9055244122
 20
5036.7568601355
  0
ARC
  5
13A
330
1F
100
AcDbEntity
  8
0
  6
Continuous
 62
     7
370
    25
100
AcDbCircle
 10
7111.1421248648
 20
5008.8825071724
 30
0.0
 40
47.8612129536508
100
AcDbArc
 50
44.8117194316
 51
45.193373074
  0
ARC
  5
13B
330
1F
100
AcDbEntity
  8
0
  6
Continuous
 62
     7
370
    25
100
AcDbCircle
 10
7153.0400999054
 20
5035.6417250809
 30
0.0
 40
10.88794616535169
100
AcDbArc
 50
123.7440521545
 51
138.6177510159
  0
ELLIPSE
  5
13C
330
1F
100
AcDbEntity
  8
0
  6
Continuous
 62
     7
370
    25
100
AcDbEllipse
 10
7148.8707005932
 20
5042.4844753939
 30
0.0
 11
-24.99944451233569
 21
24.99944451233569
 31
0.0
210
0.0
220
0.0
230
1.0
 40
0.0066663704
 41
4.794273345901731
 42
6.21158384269444
  0
SPLINE
  5
13D
330
1F
100
AcDbEntity
  8
0
  6
Continuous
 62
     7
370
    25
100
AcDbSpline
210
0.0
220
0.0
230
1.0
 70
     8
 71
     3
 72
    11
 73
     7
 74
     0
 42
0.000000001
 43
0.00000001
 40
0.0
 40
0.0
 40
0.0
 40
0.0
 40
0.4418022567785133
 40
0.7742903917582775
 40
0.921539872947156
 40
1.0
 40
1.0
 40
1.0
 40
1.0
 10
7154.905524412239
 20
5036.756860135476
 30
0.0
 10
7155.361372918576
 20
5036.326864696562
 30
0.0
 10
7156.160280378054
 20
5035.573266606593
 30
0.0
 10
7157.255738879033
 20
5034.863208176946
 30
0.0
 10
7157.981697164279
 20
5034.596663028037
 30
0.0
 10
7158.269754222507
 20
5034.592988135383
 30
0.0
 10
7158.369887280923
 20
5034.591710686244
 30
0.0
  0
ARC
  5
13E
330
1F
100
AcDbEntity
  8
0
  6
Continuous
 62
     7
370
    25
100
AcDbCircle
 10
7154.4647779569
 20
5031.7976669263
 30
0.0
 40
4.801724624030997
100
AcDbArc
 50
9.1858318184
 51
35.5831189595
  0
LINE
  5
13F
330
1F
100
AcDbEntity
  8
0
  6
Continuous
 62
     7
370
    25
100
AcDbLine
 10
7162.2330923653
 20
5034.957351019
 30
0.0
 11
7162.2330923653
 21
4954.671846504
 31
0.0
  0
ARC
  5
140
330
1F
100
AcDbEntity
  8
0
  6
Continuous
 62
     7
370
    25
100
AcDbCircle
 10
7160.9549398733
 20
5159.158661707
 30
0.0
 40
204.4908097339873
100
AcDbArc
 50
269.5096613956
 51
270.3581247505
  0
LWPOLYLINE
  5
141
330
1F
100
AcDbEntity
  8
0
  6
Continuous
 62
     7
370
    25
100
AcDbPolyline
 90
       29
 70
   128
 43
0.0
 10
7198.9920209368
 20
5094.7585086761
 10
7198.816218238
 20
5094.7987506428
 10
7198.2911875718
 20
5094.8384484059
 10
7197.4240290772
 20
5094.8770651213
 10
7196.2264695852
 20
5094.9140785641
 10
7194.7147040335
 20
5094.9489881911
 10
7192.9091764579
 20
5094.9813219094
 10
7190.8343035213
 20
5095.010642461
 10
7188.518144321
 20
5095.0365533356
 10
7185.9920209368
 20
5095.0587041332
 10
7183.2900948538
 20
5095.0767953023
 10
7180.4489049872
 20
5095.0905821907
 10
7177.5068735561
 20
5095.0998783545
 10
7174.5037864884
 20
5095.1045580791
 10
7171.4802553851
 20
5095.1045580791
 10
7168.4771683174
 20
5095.0998783545
 10
7165.5351368863
 20
5095.0905821907
 10
7162.6939470197
 20
5095.0767953023
 10
7159.9920209368
 20
5095.0587041332
 10
7157.4658975525
 20
5095.0365533356
 10
7155.1497383522
 20
5095.010642461
 10
7153.0748654157
 20
5094.9813219094
 10
7151.26933784
 20
5094.9489881911
 10
7149.7575722883
 20
5094.9140785641
 10
7148.5600127963
 20
5094.8770651213
 10
7147.6928543017
 20
5094.8384484059
 10
7147.1678236355
 20
5094.7987506428
 10
7146.9920209368
 20
5094.7585086761
 10
7146.99232654
 20
5094.7568280174
  0
LWPOLYLINE
  5
142
330
1F
100
AcDbEntity
  8
0
  6
Continuous
 62
     7
370
    25
100
AcDbPolyline
 90
       26
 70
   128
 43
0.0
 10
7194.9920209368
 20
5083.7594863235
 10
7194.8114012409
 20
5083.7969936238
 10
7194.2725079236
 20
5083.8338850552
 10
7193.3841895984
 20
5083.8695548615
 10
7192.1610324275
 20
5083.9034173455
 10
7190.6231206179
 20
5083.9349164861
 10
7188.7957066389
 20
5083.9635350682
 10
7186.7087965776
 20
5083.9888031756
 10
7184.3966574396
 20
5084.0103059066
 10
7181.8972544855
 20
5084.027690187
 10
7179.2516278426
 20
5084.0406705674
 10
7176.5032186275
 20
5084.0490339103
 10
7173.6971556433
 20
5084.0526428898
 10
7170.8795143668
 20
5084.0514382465
 10
7168.0965603897
 20
5084.0454397608
 10
7165.3939897395
 20
5084.0347459276
 10
7162.8161785515
 20
5084.0195323392
 10
7160.4054544141
 20
5084.0000488025
 10
7158.201401351
 20
5083.9766152365
 10
7156.2402098526
 20
5083.9496164198
 10
7154.5540826291
 20
5083.9194956721
 10
7153.1707058429
 20
5083.8867475754
 10
7152.1127945025
 20
5083.8519098524
 10
7151.397719483
 20
5083.8155545377
 10
7151.0372222963
 20
5083.7782785844
 10
7150.9922795241
 20
5083.7580642277
  0
SPLINE
  5
143
330
1F
100
AcDbEntity
  8
0
  6
Continuous
 62
     7
370
    25
100
AcDbSpline
210
0.0
220
0.0
230
1.0
 70
     8
 71
     3
 72
    12
 73
     8
 74
     0
 42
0.000000001
 43
0.00000001
 40
0.0
 40
0.0
 40
0.0
 40
0.0
 40
0.0040736008791513
 40
0.059426741989951
 40
0.4039567950184489
 40
0.7115404366576051
 40
1.0
 40
1.0
 40
1.0
 40
1.0
 10
7162.23309236533
 20
5034.957351018962
 30
0.0
 10
7162.229492291737
 20
5034.953651089359
 30
0.0
 10
7162.176973488129
 20
5034.899675560475
 30
0.0
 10
7161.815017009169
 20
5034.532698645885
 30
0.0
 10
7161.126770379497
 20
5033.895534003171
 30
0.0
 10
7160.128273650642
 20
5033.097908845644
 30
0.0
 10
7159.506052660611
 20
5032.738256618532
 30
0.0
 10
7159.204924162565
 20
5032.564200235503
 30
0.0
  0
SPLINE
  5
144
330
1F
100
AcDbEntity
  8
0
  6
Continuous
 62
     7
370
    25
100
AcDbSpline
210
0.0
220
0.0
230
1.0
 70
     8
 71
     3
 72
    12
 73
     8
 74
     0
 42
0.000000001
 43
0.00000001
 40
0.0
 40
0.0
 40
0.0
 40
0.0
 40
0.2860841375525729
 40
0.5938173985192559
 40
0.9402661687057793
 40
0.994678001158475
 40
1.0
 40
1.0
 40
1.0
 40
1.0
 10
7158.369887280923
 20
5034.591710686244
 30
0.0
 10
7158.729151395257
 20
5034.620739964431
 30
0.0
 10
7159.474866566954
 20
5034.680995281627
 30
0.0
 10
7160.75203011778
 20
5034.800138111431
 30
0.0
 10
7161.662505301736
 20
5034.893369450407
 30
0.0
 10
7162.155016852745
 20
5034.948485857796
 30
0.0
 10
7162.22670527002
 20
5034.956625789918
 30
0.0
 10
7162.23309236533
 20
5034.957351018962
 30
0.0
  0
LINE
  5
145
330
1F
100
AcDbEntity
  8
0
  6
Continuous
 62
     7
370
    25
100
AcDbLine
 10
7071.6259663326
 20
5414.7006259413
 30
0.0
 11
7071.6259663326
 21
5512.8808220386
 31
0.0
  0
ARC
  5
146
330
1F
100
AcDbEntity
  8
0
  6
Continuous
 62
     7
370
    25
100
AcDbCircle
 10
7073.6259663326
 20
5414.7006259413
 30
0.0
 40
2.0
100
AcDbArc
 50
180.0
 51
270.0
  0
LINE
  5
147
330
1F
100
AcDbEntity
  8
0
  6
Continuous
 62
     7
370
    25
100
AcDbLine
 10
7471.6259663326
 20
5412.7006259413
 30
0.0
 11
7073.6259663326
 21
5412.7006259413
 31
0.0
  0
LINE
  5
148
330
1F
100
AcDbEntity
  8
0
  6
Continuous
 62
     7
370
    25
100
AcDbLine
 10
7471.6259663326
 20
5387.7982103764
 30
0.0
 11
7471.6259663326
 21
5412.7006259413
 31
0.0
  0
LINE
  5
149
330
1F
100
AcDbEntity
  8
0
  6
Continuous
 62
     7
370
    25
100
AcDbLine
 10
7071.6259663326
 20
5387.7982103764
 30
0.0
 11
7471.6259663326
 21
5387.7982103764
 31
0.0
  0
LINE
  5
14A
330
1F
100
AcDbEntity
  8
0
  6
Continuous
 62
     7
370
    25
100
AcDbLine
 10
7071.6259663326
 20
5141.7006259413
 30
0.0
 11
7071.6259663326
 21
5387.7982103764
 31
0.0
  0
LINE
  5
14B
330
1F
100
AcDbEntity
  8
0
  6
Continuous
 62
     7
370
    25
100
AcDbLine
 10
7071.6259663326
 20
5141.7006259413
 30
0.0
 11
7070.6259663326
 21
5141.7006259413
 31
0.0
  0
LINE
  5
14C
330
1F
100
AcDbEntity
  8
0
  6
Continuous
 62
     7
370
    25
100
AcDbLine
 10
7023.6259663326
 20
5522.4808220386
 30
0.0
 11
7023.6259663326
 21
5141.7006259413
 31
0.0
  0
LINE
  5
14D
330
1F
100
AcDbEntity
  8
0
  6
Continuous
 62
     7
370
    25
100
AcDbLine
 10
7071.6259663326
 20
5512.8808220386
 30
0.0
 11
7023.6259663326
 21
5522.4808220386
 31
0.0
  0
LINE
  5
14E
330
1F
100
AcDbEntity
  8
0
  6
Continuous
 62
     7
370
    25
100
AcDbLine
 10
7070.6259663326
 20
5141.7006259413
 30
0.0
 11
7023.6259663326
 21
5141.7006259413
 31
0.0
  0
LINE
  5
14F
330
1F
100
AcDbEntity
  8
0
  6
Continuous
 62
     7
370
    25
100
AcDbLine
 10
7279.1961352131
 20
5141.1672926079
 30
0.0
 11
7274.0913733083
 21
5132.2339592746
 31
0.0
  0
LINE
  5
150
330
1F
100
AcDbEntity
  8
0
  6
Continuous
 62
     7
370
    25
100
AcDbLine
 10
7274.0913733083
 20
5132.2339592746
 30
0.0
 11
7208.3739477383
 21
5132.2339592746
 31
0.0
  0
LINE
  5
151
330
1F
100
AcDbEntity
  8
0
  6
Continuous
 62
     7
370
    25
100
AcDbLine
 10
7137.6100941352
 20
5132.2339592746
 30
0.0
 11
7072.6259663326
 21
5132.2339592746
 31
0.0
  0
LINE
  5
152
330
1F
100
AcDbEntity
  8
0
  6
Continuous
 62
     7
370
    25
100
AcDbLine
 10
7072.6259663326
 20
5131.7272926079
 30
0.0
 11
7072.6259663326
 21
5132.2339592746
 31
0.0
  0
LINE
  5
153
330
1F
100
AcDbEntity
  8
0
  6
Continuous
 62
     7
370
    25
100
AcDbLine
 10
7070.6259663326
 20
5131.7272926079
 30
0.0
 11
7072.6259663326
 21
5131.7272926079
 31
0.0
  0
LINE
  5
154
330
1F
100
AcDbEntity
  8
0
  6
Continuous
 62
     7
370
    25
100
AcDbLine
 10
7070.6259663326
 20
5141.7006259413
 30
0.0
 11
7070.6259663326
 21
5131.7272926079
 31
0.0
  0
ELLIPSE
  5
155
330
1F
100
AcDbEntity
  8
0
  6
Continuous
 62
     7
370
    25
100
AcDbEllipse
 10
7071.6259663326
 20
5141.6872926079
 30
0.0
 11
1.0
 21
0.0
 31
0.0
210
0.0
220
0.0
230
1.0
 40
0.0133333333
 41
0.0
 42
1.570796326794897
  0
LINE
  5
156
330
1F
100
AcDbEntity
  8
0
  6
Continuous
 62
     7
370
    25
100
AcDbLine
 10
7072.6259663326
 20
5141.6872926079
 30
0.0
 11
7072.6259663326
 21
5141.1939592746
 31
0.0
  0
LINE
  5
157
330
1F
100
AcDbEntity
  8
0
  6
Continuous
 62
     7
370
    25
100
AcDbLine
 10
7023.8220824677
 20
5523.4614027143
 30
0.0
 11
7071.8220824677
 21
5513.8614027143
 31
0.0
  0
LINE
  5
158
330
1F
100
AcDbEntity
  8
0
  6
Continuous
 62
     7
370
    25
100
AcDbLine
 10
7071.8220824677
 20
5513.8614027143
 30
0.0
 11
7071.6259663326
 21
5512.8808220386
 31
0.0
  0
LINE
  5
159
330
1F
100
AcDbEntity
  8
0
  6
Continuous
 62
     7
370
    25
100
AcDbLine
 10
7023.8220824677
 20
5523.4614027143
 30
0.0
 11
7023.6259663326
 21
5522.4808220386
 31
0.0
  0
LINE
  5
15A
330
1F
100
AcDbEntity
  8
0
  6
Continuous
 62
     7
370
    25
100
AcDbLine
 10
7022.6259663326
 20
5522.4808220386
 30
0.0
 11
7023.6259663326
 21
5522.4808220386
 31
0.0
  0
ARC
  5
15B
330
1F
100
AcDbEntity
  8
0
  6
Continuous
 62
     7
370
    25
100
AcDbCircle
 10
7023.6259663326
 20
5522.4808220386
 30
0.0
 40
1.000000000000909
100
AcDbArc
 50
78.690067526
 51
180.0
  0
LINE
  5
15C
330
1F
100
AcDbEntity
  8
0
  6
Continuous
 62
     7
370
    25
100
AcDbLine
 10
7022.6259663326
 20
5141.7006259413
 30
0.0
 11
7022.6259663326
 21
5522.4808220386
 31
0.0
  0
LINE
  5
15D
330
1F
100
AcDbEntity
  8
0
  6
Continuous
 62
     7
370
    25
100
AcDbLine
 10
7023.6259663326
 20
5141.7006259413
 30
0.0
 11
7022.6259663326
 21
5141.7006259413
 31
0.0
  0
LINE
  5
15E
330
1F
100
AcDbEntity
  8
0
  6
Continuous
 62
     7
370
    25
100
AcDbLine
 10
7072.6259663326
 20
5512.8808220386
 30
0.0
 11
7072.6259663326
 21
5414.7006259413
 31
0.0
  0
LINE
  5
15F
330
1F
100
AcDbEntity
  8
0
  6
Continuous
 62
     7
370
    25
100
AcDbLine
 10
7072.6259663326
 20
5414.7006259413
 30
0.0
 11
7071.6259663326
 21
5414.7006259413
 31
0.0
  0
LINE
  5
160
330
1F
100
AcDbEntity
  8
0
  6
Continuous
 62
     7
370
    25
100
AcDbLine
 10
7072.6259663326
 20
5512.8808220386
 30
0.0
 11
7071.6259663326
 21
5512.8808220386
 31
0.0
  0
ARC
  5
161
330
1F
100
AcDbEntity
  8
0
  6
Continuous
 62
     7
370
    25
100
AcDbCircle
 10
7073.6259663326
 20
5414.7006259413
 30
0.0
 40
1.0
100
AcDbArc
 50
180.0
 51
270.0
  0
LINE
  5
162
330
1F
100
AcDbEntity
  8
0
  6
Continuous
 62
     7
370
    25
100
AcDbLine
 10
7073.6259663326
 20
5413.7006259413
 30
0.0
 11
7073.6259663326
 21
5412.7006259413
 31
0.0
  0
ARC
  5
163
330
1F
100
AcDbEntity
  8
0
  6
Continuous
 62
     7
370
    25
100
AcDbCircle
 10
7071.6259663326
 20
5512.8808220386
 30
0.0
 40
1.0
100
AcDbArc
 50
0.0
 51
78.690067526
  0
LINE
  5
164
330
1F
100
AcDbEntity
  8
0
  6
Continuous
 62
     7
370
    25
100
AcDbLine
 10
7071.6259663326
 20
5387.7982103764
 30
0.0
 11
7072.6259663326
 21
5386.7982103764
 31
0.0
  0
LINE
  5
165
330
1F
100
AcDbEntity
  8
0
  6
Continuous
 62
     7
370
    25
100
AcDbLine
 10
7072.6259663326
 20
5386.7982103764
 30
0.0
 11
7072.6259663326
 21
5141.6872926079
 31
0.0
  0
LINE
  5
166
330
1F
100
AcDbEntity
  8
0
  6
Continuous
 62
     7
370
    25
100
AcDbLine
 10
7073.6259663326
 20
5413.7006259413
 30
0.0
 11
7471.6259663326
 21
5413.7006259413
 31
0.0
  0
LINE
  5
167
330
1F
100
AcDbEntity
  8
0
  6
Continuous
 62
     7
370
    25
100
AcDbLine
 10
7471.6259663326
 20
5413.7006259413
 30
0.0
 11
7471.6259663326
 21
5412.7006259413
 31
0.0
  0
LINE
  5
168
330
1F
100
AcDbEntity
  8
0
  6
Continuous
 62
     7
370
    25
100
AcDbLine
 10
7471.6259663326
 20
5387.7982103764
 30
0.0
 11
7471.6259663326
 21
5386.7982103764
 31
0.0
  0
LINE
  5
169
330
1F
100
AcDbEntity
  8
0
  6
Continuous
 62
     7
370
    25
100
AcDbLine
 10
7471.6259663326
 20
5386.7982103764
 30
0.0
 11
7072.6259663326
 21
5386.7982103764
 31
0.0
  0
LINE
  5
16A
330
1F
100
AcDbEntity
  8
0
  6
Continuous
 62
     7
370
    25
100
AcDbLine
 10
7472.6259663326
 20
5412.7006259413
 30
0.0
 11
7471.6259663326
 21
5412.7006259413
 31
0.0
  0
LINE
  5
16B
330
1F
100
AcDbEntity
  8
0
  6
Continuous
 62
     7
370
    25
100
AcDbLine
 10
7472.6259663326
 20
5412.7006259413
 30
0.0
 11
7472.6259663326
 21
5387.7982103764
 31
0.0
  0
LINE
  5
16C
330
1F
100
AcDbEntity
  8
0
  6
Continuous
 62
     7
370
    25
100
AcDbLine
 10
7471.6259663326
 20
5387.7982103764
 30
0.0
 11
7472.6259663326
 21
5387.7982103764
 31
0.0
  0
ARC
  5
16D
330
1F
100
AcDbEntity
  8
0
  6
Continuous
 62
     7
370
    25
100
AcDbCircle
 10
7471.6259663326
 20
5387.7982103764
 30
0.0
 40
1.0
100
AcDbArc
 50
270.0
 51
0.0
  0
ARC
  5
16E
330
1F
100
AcDbEntity
  8
0
  6
Continuous
 62
     7
370
    25
100
AcDbCircle
 10
7471.6259663326
 20
5412.7006259413
 30
0.0
 40
1.0
100
AcDbArc
 50
0.0
 51
90.0
  0
LINE
  5
16F
330
1F
100
AcDbEntity
  8
0
  6
Continuous
 62
     7
370
    25
100
AcDbLine
 10
7072.6259663326
 20
5141.1672926079
 30
0.0
 11
7279.1961352131
 21
5141.1672926079
 31
0.0
  0
LINE
  5
170
330
1F
100
AcDbEntity
  8
0
  6
Continuous
 62
     7
370
    25
100
AcDbLine
 10
7072.6259663326
 20
5141.1939592746
 30
0.0
 11
7072.6259663326
 21
5141.1672926079
 31
0.0
  0
LINE
  5
171
330
1F
100
AcDbEntity
  8
0
  6
Continuous
 62
     7
370
    25
100
AcDbLine
 10
7279.1961352131
 20
5141.1672926079
 30
0.0
 11
7419.5566596522
 21
5386.7982103764
 31
0.0
  0
LINE
  5
172
330
1F
100
AcDbEntity
  8
0
  6
Continuous
 62
     7
370
    25
100
AcDbLine
 10
7072.6259663326
 20
5131.7006259413
 30
0.0
 11
7022.6259663326
 21
5131.7006259413
 31
0.0
  0
LINE
  5
173
330
1F
100
AcDbEntity
  8
0
  6
Continuous
 62
     7
370
    25
100
AcDbLine
 10
7072.6259663326
 20
5131.7272926079
 30
0.0
 11
7072.6259663326
 21
5131.7006259413
 31
0.0
  0
LINE
  5
174
330
1F
100
AcDbEntity
  8
0
  6
Continuous
 62
     7
370
    25
100
AcDbLine
 10
7022.6259663326
 20
5131.7006259413
 30
0.0
 11
7022.6259663326
 21
5141.7006259413
 31
0.0
  0
ELLIPSE
  5
175
330
1F
100
AcDbEntity
  8
0
  6
Continuous
 62
     8
370
    25
100
AcDbEllipse
 10
7142.9920209368
 20
5040.363343587
 30
0.0
 11
27.99938425407436
 21
30.99903882249237
 31
0.0
210
0.0
220
0.0
230
1.0
 40
0.0059902394
 41
1.564164433021857
 42
3.134960759819253
  0
SPLINE
  5
176
330
1F
100
AcDbEntity
  8
0
  6
Continuous
 62
     8
370
    25
100
AcDbSpline
210
0.0
220
0.0
230
1.0
 70
     8
 71
     3
 72
    18
 73
    14
 74
     0
 42
0.000000001
 43
0.00000001
 40
0.0
 40
0.0
 40
0.0
 40
0.0
 40
0.0173164430520857
 40
0.1020731770893521
 40
0.1903240562381128
 40
0.2883105228647193
 40
0.3903879717739322
 40
0.4917547330218499
 40
0.5960943130592166
 40
0.6948132561445034
 40
0.7957827708096054
 40
0.8966057184902038
 40
1.0
 40
1.0
 40
1.0
 40
1.0
 10
7170.957538926437
 20
4926.432362884375
 30
0.0
 10
7170.968069732625
 20
4926.423117942296
 30
0.0
 10
7171.030144423236
 20
4926.368622881893
 30
0.0
 10
7170.700672739087
 20
4926.795239962155
 30
0.0
 10
7169.904179078578
 20
4927.811006421319
 30
0.0
 10
7168.572216286841
 20
4929.554405964592
 30
0.0
 10
7166.865422607465
 20
4931.959339332198
 30
0.0
 10
7164.973808425531
 20
4934.94269900266
 30
0.0
 10
7163.141215735142
 20
4938.332583380392
 30
0.0
 10
7161.51164204949
 20
4942.074493813447
 30
0.0
 10
7160.244282080707
 20
4946.051024789985
 30
0.0
 10
7159.374407087761
 20
4950.292609373517
 30
0.0
 10
7159.26189070858
 20
4953.202218235428
 30
0.0
 10
7159.204924162565
 20
4954.675340356144
 30
0.0
  0
ELLIPSE
  5
177
330
1F
100
AcDbEntity
  8
0
  6
Continuous
 62
     8
370
    25
100
AcDbEllipse
 10
7146.7493802496
 20
5040.363343587
 30
0.0
 11
-24.9993120619838
 21
27.99951035159301
 31
0.0
210
0.0
220
0.0
230
1.0
 40
0.0066237851
 41
4.795025651934578
 42
6.277271341571306
  0
SPLINE
  5
178
330
1F
100
AcDbEntity
  8
0
  6
Continuous
 62
     8
370
    25
100
AcDbSpline
210
0.0
220
0.0
230
1.0
 70
     8
 71
     3
 72
    18
 73
    14
 74
     0
 42
0.000000001
 43
0.00000001
 40
0.0
 40
0.0
 40
0.0
 40
0.0
 40
0.0950634657638127
 40
0.193128177028079
 40
0.2881351579898507
 40
0.3856089177367686
 40
0.4861607941105137
 40
0.5895963526139746
 40
0.6898266368144322
 40
0.7937675784742362
 40
0.8820955835376586
 40
0.9736108404168224
 40
1.0
 40
1.0
 40
1.0
 40
1.0
 10
7162.23309236533
 20
4954.671846503984
 30
0.0
 10
7162.28698109098
 20
4953.388374750984
 30
0.0
 10
7162.396459861438
 20
4950.780910801165
 30
0.0
 10
7163.250102304395
 20
4947.004424665179
 30
0.0
 10
7164.51348487986
 20
4943.417564181064
 30
0.0
 10
7166.114822073038
 20
4940.093919991725
 30
0.0
 10
7167.936403308691
 20
4937.04507599451
 30
0.0
 10
7169.787182303897
 20
4934.405119479702
 30
0.0
 10
7171.485875782874
 20
4932.236263189584
 30
0.0
 10
7172.789406181001
 20
4930.690533961798
 30
0.0
 10
7173.596270359445
 20
4929.756375714941
 30
0.0
 10
7173.926494728016
 20
4929.365921814845
 30
0.0
 10
7173.857097818143
 20
4929.419273399682
 30
0.0
 10
7173.84156552356
 20
4929.431214457774
 30
0.0
  0
LWPOLYLINE
  5
179
330
1F
100
AcDbEntity
  8
0
  6
Continuous
 62
     8
370
    25
100
AcDbPolyline
 90
       18
 70
   128
 43
0.0
 10
7197.9920209368
 20
4954.3709870124
 10
7197.8164920836
 20
4954.4104141948
 10
7197.2923703544
 20
4954.4492877286
 10
7196.4270156281
 20
4954.4870617396
 10
7195.2325794824
 20
4954.5232057935
 10
7193.725834558
 20
4954.5572123444
 10
7191.9279390314
 20
4954.5886038617
 10
7189.864139506
 20
4954.6169395362
 10
7187.5634164907
 20
4954.6418214695
 10
7185.0580774474
 20
4954.6629002619
 10
7182.3833031192
 20
4954.6798799184
 10
7179.5766535117
 20
4954.6925220055
 10
7176.6775404639
 20
4954.7006489992
 10
7173.7266742148
 20
4954.7041467776
 10
7170.7654917379
 20
4954.7029662239
 10
7167.8355748703
 20
4954.6971239158
 10
7164.9780664079
 20
4954.6867018927
 10
7162.2330923653
 20
4954.671846504
  0
ELLIPSE
  5
17A
330
1F
100
AcDbEntity
  8
0
  6
Continuous
 62
     8
370
    25
100
AcDbEllipse
 10
7172.9920209368
 20
5022.6075624957
 30
0.0
 11
-24.99945158518767
 21
27.99910495912991
 31
0.0
210
0.0
220
0.0
230
1.0
 40
0.0059141599
 41
5.163901072378079
 42
6.289809002951182
  0
LINE
  5
17B
330
1F
100
AcDbEntity
  8
0
  6
Continuous
 62
     7
370
    25
100
AcDbLine
 10
6449.8202398046
 20
4377.3059611017
 30
0.0
 11
6449.8109073008
 21
4377.3059611017
 31
0.0
  0
LINE
  5
17C
330
1F
100
AcDbEntity
  8
0
  6
Continuous
 62
     7
370
    25
100
AcDbLine
 10
6449.8109073008
 20
4366.8059611017
 30
0.0
 11
6449.8202398046
 21
4366.8059611017
 31
0.0
  0
ARC
  5
17D
330
1F
100
AcDbEntity
  8
0
  6
Continuous
 62
     7
370
    25
100
AcDbCircle
 10
6449.8206771399
 20
4372.0559689384
 30
0.0
 40
5.250052677714663
100
AcDbArc
 50
99.6936224506
 51
263.2591902094
  0
LWPOLYLINE
  5
17E
330
1F
100
AcDbEntity
  8
0
  6
Continuous
 62
     7
370
    25
100
AcDbPolyline
 90
        9
 70
   128
 43
0.0
 10
6448.9366750518
 20
4377.2310625054
 10
6448.9769714592
 20
4376.0595372246
 10
6449.0173636405
 20
4374.7800762403
 10
6449.0567678608
 20
4373.4270078877
 10
6449.0941268928
 20
4372.0366354102
 10
6449.128438382
 20
4370.6462629328
 10
6449.1587817405
 20
4369.2931945801
 10
6449.1843428466
 20
4368.0137335959
 10
6449.2044358879
 20
4366.842208315
  0
ARC
  5
17F
330
1F
100
AcDbEntity
  8
0
  6
Continuous
 62
     7
370
    25
100
AcDbCircle
 10
6449.8198024693
 20
4372.0559532649
 30
0.0
 40
5.250052677714663
100
AcDbArc
 50
279.6936224506
 51
83.2591902094
  0
LWPOLYLINE
  5
180
330
1F
100
AcDbEntity
  8
0
  6
Continuous
 62
     7
370
    25
100
AcDbPolyline
 90
        9
 70
   128
 43
0.0
 10
6450.7038045575
 20
4366.880859698
 10
6450.6837115161
 20
4368.0523849788
 10
6450.65815041
 20
4369.331845963
 10
6450.6278070515
 20
4370.6849143157
 10
6450.5934955623
 20
4372.0752867931
 10
6450.5561365304
 20
4373.4656592706
 10
6450.51673231
 20
4374.8187276232
 10
6450.4763401288
 20
4376.0981886075
 10
6450.4360437214
 20
4377.2697138883
  0
LINE
  5
181
330
1F
100
AcDbEntity
  8
0
  6
Continuous
 62
     7
370
    25
100
AcDbLine
 10
6450.4360437214
 20
4377.2697138883
 30
0.0
 11
6450.7038045575
 21
4366.880859698
 31
0.0
  0
ARC
  5
182
330
1F
100
AcDbEntity
  8
0
  6
Continuous
 62
     7
370
    25
100
AcDbCircle
 10
6449.811129074
 20
4372.0557100383
 30
0.0
 40
5.249748941342205
100
AcDbArc
 50
181.4738671155
 51
269.9975795663
  0
ARC
  5
183
330
1F
100
AcDbEntity
  8
0
  6
Continuous
 62
     7
370
    25
100
AcDbCircle
 10
6449.8111522971
 20
4372.0561769213
 30
0.0
 40
5.249784186117687
100
AcDbArc
 50
90.0026738724
 51
181.4789544385
  0
ARC
  5
184
330
1F
100
AcDbEntity
  8
0
  6
Continuous
 62
     7
370
    25
100
AcDbCircle
 10
6449.8202397178
 20
4372.0568877586
 30
0.0
 40
5.249073330584582
100
AcDbArc
 50
83.2627326616
 51
99.6906047106
  0
ARC
  5
185
330
1F
100
AcDbEntity
  8
0
  6
Continuous
 62
     7
370
    25
100
AcDbCircle
 10
6449.8202398914
 20
4372.0550344448
 30
0.0
 40
5.249073330594054
100
AcDbArc
 50
263.2627326616
 51
279.6906047105
  0
CIRCLE
  5
186
330
1F
100
AcDbEntity
  8
0
  6
Continuous
 62
     7
370
    25
100
AcDbCircle
 10
6450.0041016163
 20
4372.0537879534
 30
0.0
 40
34.99783200610629
  0
CIRCLE
  5
187
330
1F
100
AcDbEntity
  8
0
  6
Continuous
 62
     7
370
    25
100
AcDbCircle
 10
6449.995047305
 20
4372.0537774466
 30
0.0
 40
35.16704097406232
  0
CIRCLE
  5
188
330
1F
100
AcDbEntity
  8
0
  6
Continuous
 62
     7
370
    25
100
AcDbCircle
 10
6449.9707157845
 20
4372.0544464749
 30
0.0
 40
24.96361505775537
  0
CIRCLE
  5
189
330
1F
100
AcDbEntity
  8
0
  6
Continuous
 62
     7
370
    25
100
AcDbCircle
 10
6449.9287379817
 20
4372.0546243803
 30
0.0
 40
21.99866726786735
  0
CIRCLE
  5
18A
330
1F
100
AcDbEntity
  8
0
  6
Continuous
 62
     7
370
    25
100
AcDbCircle
 10
6449.8215857566
 20
4372.0547514374
 30
0.0
 40
20.49879417591387
  0
CIRCLE
  5
18B
330
1F
100
AcDbEntity
  8
0
  6
Continuous
 62
     7
370
    25
100
AcDbCircle
 10
6449.8106949577
 20
4372.0547336482
 30
0.0
 40
19.48578383781011
  0
CIRCLE
  5
18C
330
1F
100
AcDbEntity
  8
0
  6
Continuous
 62
     7
370
    25
100
AcDbCircle
 10
6449.8105918425
 20
4372.055610127
 30
0.0
 40
5.699650869081693
  0
CIRCLE
  5
18D
330
1F
100
AcDbEntity
  8
0
  6
Continuous
 62
     7
370
    25
100
AcDbCircle
 10
6450.0825714618
 20
4385.0528679096
 30
0.0
 40
3.999754624525426
  0
CIRCLE
  5
18E
330
1F
100
AcDbEntity
  8
0
  6
Continuous
 62
     7
370
    25
100
AcDbCircle
 10
6438.6917076651
 20
4378.7898690288
 30
0.0
 40
3.999754624525445
  0
CIRCLE
  5
18F
330
1F
100
AcDbEntity
  8
0
  6
Continuous
 62
     7
370
    25
100
AcDbCircle
 10
6438.4197098398
 20
4365.7927153392
 30
0.0
 40
3.999754624521846
  0
CIRCLE
  5
190
330
1F
100
AcDbEntity
  8
0
  6
Continuous
 62
     7
370
    25
100
AcDbCircle
 10
6449.5385758113
 20
4359.0585605305
 30
0.0
 40
3.999754624522679
  0
CIRCLE
  5
191
330
1F
100
AcDbEntity
  8
0
  6
Continuous
 62
     7
370
    25
100
AcDbCircle
 10
6460.929439608
 20
4365.3215594113
 30
0.0
 40
3.999754624521808
  0
CIRCLE
  5
192
330
1F
100
AcDbEntity
  8
0
  6
Continuous
 62
     7
370
    25
100
AcDbCircle
 10
6461.2014374333
 20
4378.3187131009
 30
0.0
 40
3.999754624524498
  0
ARC
  5
193
330
1F
100
AcDbEntity
  8
0
  6
Continuous
 62
     7
370
    25
100
AcDbCircle
 10
6438.4100346361
 20
4365.7929622208
 30
0.0
 40
4.000000008838674
100
AcDbArc
 50
270.0038087182
 51
89.9961912818
  0
ARC
  5
194
330
1F
100
AcDbEntity
  8
0
  6
Continuous
 62
     7
370
    25
100
AcDbCircle
 10
6438.6820324614
 20
4378.7901159104
 30
0.0
 40
4.000000008837764
100
AcDbArc
 50
270.0038087182
 51
89.9961912818
  0
ARC
  5
195
330
1F
100
AcDbEntity
  8
0
  6
Continuous
 62
     7
370
    25
100
AcDbCircle
 10
6449.5289006076
 20
4359.0588074121
 30
0.0
 40
4.000000008837764
100
AcDbArc
 50
270.0038087182
 51
89.9961912818
  0
ARC
  5
196
330
1F
100
AcDbEntity
  8
0
  6
Continuous
 62
     7
370
    25
100
AcDbCircle
 10
6450.0728962581
 20
4385.0531147913
 30
0.0
 40
4.000000008837764
100
AcDbArc
 50
270.0038087182
 51
89.9961912818
  0
ARC
  5
197
330
1F
100
AcDbEntity
  8
0
  6
Continuous
 62
     7
370
    25
100
AcDbCircle
 10
6460.9197644043
 20
4365.321806293
 30
0.0
 40
4.000000008837764
100
AcDbArc
 50
270.0038087182
 51
89.9961912818
  0
ARC
  5
198
330
1F
100
AcDbEntity
  8
0
  6
Continuous
 62
     7
370
    25
100
AcDbCircle
 10
6461.1917622296
 20
4378.3189599825
 30
0.0
 40
4.000000008838674
100
AcDbArc
 50
270.0038087182
 51
89.9961912818
  0
ARC
  5
199
330
1F
100
AcDbEntity
  8
0
  6
Continuous
 62
     7
370
    25
100
AcDbCircle
 10
6447.153412288
 20
4402.0528887772
 30
0.0
 40
26.99703977348046
100
AcDbArc
 50
292.3049589768
 51
308.9228114534
  0
SPLINE
  5
19A
330
1F
100
AcDbEntity
  8
0
  6
Continuous
 62
     7
370
    25
100
AcDbSpline
210
0.0
220
0.0
230
1.0
 70
     8
 71
     3
 72
    11
 73
     7
 74
     0
 42
0.000000001
 43
0.00000001
 40
0.0
 40
0.0
 40
0.0
 40
0.0
 40
0.1838284356709068
 40
0.5346828462070988
 40
0.8935757294772385
 40
1.0
 40
1.0
 40
1.0
 40
1.0
 10
6464.142260606988
 20
4381.008890468764
 30
0.0
 10
6463.837341379144
 20
4380.757889659152
 30
0.0
 10
6462.950454211706
 20
4380.027829444075
 30
0.0
 10
6461.003989230642
 20
4378.800977330779
 30
0.0
 10
6459.066703573398
 20
4377.721169706333
 30
0.0
 10
6457.765098561011
 20
4377.230568710653
 30
0.0
 10
6457.467404047016
 20
4377.118361686567
 30
0.0
  0
SPLINE
  5
19B
330
1F
100
AcDbEntity
  8
0
  6
Continuous
 62
     7
370
    25
100
AcDbSpline
210
0.0
220
0.0
230
1.0
 70
     8
 71
     3
 72
    11
 73
     7
 74
     0
 42
0.000000001
 43
0.00000001
 40
0.0
 40
0.0
 40
0.0
 40
0.0
 40
0.1401029023856639
 40
0.2331906035532693
 40
0.7161471706808298
 40
1.0
 40
1.0
 40
1.0
 40
1.0
 10
6441.271779681807
 20
4375.752649407951
 30
0.0
 10
6440.925995578474
 20
4375.816228273893
 30
0.0
 10
6440.35046429124
 20
4375.922050450808
 30
0.0
 10
6438.69341145377
 20
4376.408380868696
 30
0.0
 10
6436.751477784915
 20
4377.078565399974
 30
0.0
 10
6435.329615609287
 20
4377.850799848145
 30
0.0
 10
6434.803279334165
 20
4378.136660890051
 30
0.0
  0
LINE
  5
19C
330
1F
100
AcDbEntity
  8
0
  6
Continuous
 62
     7
370
    25
100
AcDbLine
 10
6648.0188053361
 20
4521.2258995707
 30
0.0
 11
5900.0188053361
 21
4521.2258995707
 31
0.0
  0
LINE
  5
19D
330
1F
100
AcDbEntity
  8
0
  6
Continuous
 62
     7
370
    25
100
AcDbLine
 10
5900.0188053361
 20
4521.2258995707
 30
0.0
 11
5900.0188053361
 21
4522.4220157058
 31
0.0
  0
LINE
  5
19E
330
1F
100
AcDbEntity
  8
0
  6
Continuous
 62
     7
370
    25
100
AcDbLine
 10
5900.0188053361
 20
4522.4220157058
 30
0.0
 11
6648.0188053361
 21
4522.4220157058
 31
0.0
  0
LINE
  5
19F
330
1F
100
AcDbEntity
  8
0
  6
Continuous
 62
     7
370
    25
100
AcDbLine
 10
6648.0188053361
 20
4521.2258995707
 30
0.0
 11
6648.0188053361
 21
4522.4220157058
 31
0.0
  0
ARC
  5
1A0
330
1F
100
AcDbEntity
  8
0
  6
Continuous
 62
     7
370
    25
100
AcDbCircle
 10
5899.7784207207
 20
4522.6477415504
 30
0.0
 40
1.442019201922329
100
AcDbArc
 50
238.2123876692
 51
279.5960057644
  0
ARC
  5
1A1
330
1F
100
AcDbEntity
  8
0
  6
Continuous
 62
     7
370
    25
100
AcDbCircle
 10
5900.0188053361
 20
4521.4220157058
 30
0.0
 40
1.0
100
AcDbArc
 50
90.0
 51
180.0
  0
ARC
  5
1A2
330
1F
100
AcDbEntity
  8
0
  6
Continuous
 62
     7
370
    25
100
AcDbCircle
 10
6648.0188053361
 20
4521.4220157058
 30
0.0
 40
0.9999999999990905
100
AcDbArc
 50
0.0
 51
90.0
  0
ARC
  5
1A3
330
1F
100
AcDbEntity
  8
0
  6
Continuous
 62
     7
370
    25
100
AcDbCircle
 10
6648.2591899515
 20
4522.6477415504
 30
0.0
 40
1.442019201917905
100
AcDbArc
 50
260.4039942355
 51
301.7876123308
  0
LINE
  5
1A4
330
1F
100
AcDbEntity
  8
0
  6
Continuous
 62
     7
370
    25
100
AcDbLine
 10
6648.0188053361
 20
4473.2258995707
 30
0.0
 11
6648.0188053361
 21
4521.2258995707
 31
0.0
  0
LINE
  5
1A5
330
1F
100
AcDbEntity
  8
0
  6
Continuous
 62
     7
370
    25
100
AcDbLine
 10
5900.0188053361
 20
4473.2258995707
 30
0.0
 11
6648.0188053361
 21
4473.2258995707
 31
0.0
  0
LINE
  5
1A6
330
1F
100
AcDbEntity
  8
0
  6
Continuous
 62
     7
370
    25
100
AcDbLine
 10
5900.0188053361
 20
4521.2258995707
 30
0.0
 11
5900.0188053361
 21
4473.2258995707
 31
0.0
  0
LINE
  5
1A7
330
1F
100
AcDbEntity
  8
0
  6
Continuous
 62
     7
370
    25
100
AcDbLine
 10
6649.0188053361
 20
4521.4220157058
 30
0.0
 11
6649.0188053361
 21
4473.4220157058
 31
0.0
  0
ARC
  5
1A8
330
1F
100
AcDbEntity
  8
0
  6
Continuous
 62
     7
370
    25
100
AcDbCircle
 10
6648.2591899515
 20
4474.6477415504
 30
0.0
 40
1.442019201917905
100
AcDbArc
 50
260.4039942355
 51
301.7876123308
  0
ARC
  5
1A9
330
1F
100
AcDbEntity
  8
0
  6
Continuous
 62
     7
370
    25
100
AcDbCircle
 10
5899.7784207207
 20
4474.6477415504
 30
0.0
 40
1.442019201922329
100
AcDbArc
 50
238.2123876692
 51
279.5960057644
  0
LINE
  5
1AA
330
1F
100
AcDbEntity
  8
0
  6
Continuous
 62
     7
370
    25
100
AcDbLine
 10
5899.0188053361
 20
4473.4220157058
 30
0.0
 11
5899.0188053361
 21
4521.4220157058
 31
0.0
  0
LINE
  5
1AB
330
1F
100
AcDbEntity
  8
0
  6
Continuous
 62
     7
370
    25
100
AcDbLine
 10
6648.0188053361
 20
4472.4220157058
 30
0.0
 11
5900.0188053361
 21
4472.4220157058
 31
0.0
  0
LINE
  5
1AC
330
1F
100
AcDbEntity
  8
0
  6
Continuous
 62
     7
370
    25
100
AcDbLine
 10
5900.0188053361
 20
4472.4220157058
 30
0.0
 11
5900.0188053361
 21
4473.2258995707
 31
0.0
  0
LINE
  5
1AD
330
1F
100
AcDbEntity
  8
0
  6
Continuous
 62
     7
370
    25
100
AcDbLine
 10
6648.0188053361
 20
4472.4220157058
 30
0.0
 11
6648.0188053361
 21
4473.2258995707
 31
0.0
  0
ARC
  5
1AE
330
1F
100
AcDbEntity
  8
0
  6
Continuous
 62
     7
370
    25
100
AcDbCircle
 10
6648.0188053361
 20
4473.4220157058
 30
0.0
 40
1.0
100
AcDbArc
 50
270.0
 51
0.0
  0
ARC
  5
1AF
330
1F
100
AcDbEntity
  8
0
  6
Continuous
 62
     7
370
    25
100
AcDbCircle
 10
5900.0188053361
 20
4473.4220157058
 30
0.0
 40
1.0
100
AcDbArc
 50
180.0
 51
270.0
  0
LINE
  5
1B0
330
1F
100
AcDbEntity
  8
0
  6
Continuous
 62
     7
370
    25
100
AcDbLine
 10
5938.0188053361
 20
4471.4220157058
 30
0.0
 11
5939.0188053361
 21
4471.4220157058
 31
0.0
  0
LINE
  5
1B1
330
1F
100
AcDbEntity
  8
0
  6
Continuous
 62
     7
370
    25
100
AcDbLine
 10
5938.0188053361
 20
4471.4220157058
 30
0.0
 11
5938.0188053361
 21
4472.4220157058
 31
0.0
  0
ARC
  5
1B2
330
1F
100
AcDbEntity
  8
0
  6
Continuous
 62
     7
370
    25
100
AcDbCircle
 10
5940.0188053361
 20
4471.4220157058
 30
0.0
 40
1.0
100
AcDbArc
 50
90.0
 51
180.0
  0
LINE
  5
1B3
330
1F
100
AcDbEntity
  8
0
  6
Continuous
 62
     7
370
    25
100
AcDbLine
 10
6648.0188053361
 20
4472.4220157058
 30
0.0
 11
6648.0188053361
 21
4471.4220157058
 31
0.0
  0
LINE
  5
1B4
330
1F
100
AcDbEntity
  8
0
  6
Continuous
 62
     7
370
    25
100
AcDbLine
 10
6648.0188053361
 20
4471.4220157058
 30
0.0
 11
6610.0188053361
 21
4471.4220157058
 31
0.0
  0
LINE
  5
1B5
330
1F
100
AcDbEntity
  8
0
  6
Continuous
 62
     7
370
    25
100
AcDbLine
 10
6610.0188053361
 20
4472.4220157058
 30
0.0
 11
6610.0188053361
 21
4471.4220157058
 31
0.0
  0
LINE
  5
1B6
330
1F
100
AcDbEntity
  8
0
  6
Continuous
 62
     7
370
    25
100
AcDbLine
 10
5938.0188053361
 20
4471.4220157058
 30
0.0
 11
5900.0188053361
 21
4471.4220157058
 31
0.0
  0
LINE
  5
1B7
330
1F
100
AcDbEntity
  8
0
  6
Continuous
 62
     7
370
    25
100
AcDbLine
 10
5900.0188053361
 20
4471.4220157058
 30
0.0
 11
5900.0188053361
 21
4472.4220157058
 31
0.0
  0
LINE
  5
1B8
330
1F
100
AcDbEntity
  8
0
  6
Continuous
 62
     7
370
    25
100
AcDbLine
 10
5900.0188053361
 20
4471.4220157058
 30
0.0
 11
5899.0188053361
 21
4471.4220157058
 31
0.0
  0
LINE
  5
1B9
330
1F
100
AcDbEntity
  8
0
  6
Continuous
 62
     7
370
    25
100
AcDbLine
 10
5899.0188053361
 20
4473.4220157058
 30
0.0
 11
5899.0188053361
 21
4471.4220157058
 31
0.0
  0
LINE
  5
1BA
330
1F
100
AcDbEntity
  8
0
  6
Continuous
 62
     7
370
    25
100
AcDbLine
 10
6649.0188053361
 20
4471.4220157058
 30
0.0
 11
6648.0188053361
 21
4471.4220157058
 31
0.0
  0
LINE
  5
1BB
330
1F
100
AcDbEntity
  8
0
  6
Continuous
 62
     7
370
    25
100
AcDbLine
 10
6649.0188053361
 20
4471.4220157058
 30
0.0
 11
6649.0188053361
 21
4473.4220157058
 31
0.0
  0
LINE
  5
1BC
330
1F
100
AcDbEntity
  8
0
  6
Continuous
 62
     7
370
    25
100
AcDbLine
 10
6609.0188053361
 20
4471.4220157058
 30
0.0
 11
6610.0188053361
 21
4471.4220157058
 31
0.0
  0
ARC
  5
1BD
330
1F
100
AcDbEntity
  8
0
  6
Continuous
 62
     7
370
    25
100
AcDbCircle
 10
6608.0188053361
 20
4471.4220157058
 30
0.0
 40
1.0
100
AcDbArc
 50
0.0
 51
90.0
  0
LINE
  5
1BE
330
1F
100
AcDbEntity
  8
0
  6
Continuous
 62
     7
370
    25
100
AcDbLine
 10
6649.0188053361
 20
4073.4220157058
 30
0.0
 11
6648.0188053361
 21
4073.4220157058
 31
0.0
  0
LINE
  5
1BF
330
1F
100
AcDbEntity
  8
0
  6
Continuous
 62
     7
370
    25
100
AcDbLine
 10
6648.0188053361
 20
4073.4220157058
 30
0.0
 11
6648.0188053361
 21
4471.4220157058
 31
0.0
  0
LINE
  5
1C0
330
1F
100
AcDbEntity
  8
0
  6
Continuous
 62
     7
370
    25
100
AcDbLine
 10
6649.0188053361
 20
4471.4220157058
 30
0.0
 11
6649.0188053361
 21
4073.4220157058
 31
0.0
  0
LINE
  5
1C1
330
1F
100
AcDbEntity
  8
0
  6
Continuous
 62
     7
370
    25
100
AcDbLine
 10
6608.0188053361
 20
4111.8416931704
 30
0.0
 11
5940.0188053361
 21
4111.8416931704
 31
0.0
  0
ELLIPSE
  5
1C2
330
1F
100
AcDbEntity
  8
0
  6
Continuous
 62
     7
370
    25
100
AcDbEllipse
 10
6608.0188053361
 20
4114.1451953842
 30
0.0
 11
0.0
 21
-2.30350221379922
 31
0.0
210
0.0
220
0.0
230
1.0
 40
0.8682431421
 41
0.0
 42
1.570796326794897
  0
LINE
  5
1C3
330
1F
100
AcDbEntity
  8
0
  6
Continuous
 62
     7
370
    25
100
AcDbLine
 10
6610.0188053361
 20
4471.4220157058
 30
0.0
 11
6610.0188053361
 21
4114.1451953842
 31
0.0
  0
LINE
  5
1C4
330
1F
100
AcDbEntity
  8
0
  6
Continuous
 62
     7
370
    25
100
AcDbLine
 10
5900.0188053361
 20
4073.4220157058
 30
0.0
 11
6648.0188053361
 21
4073.4220157058
 31
0.0
  0
LINE
  5
1C5
330
1F
100
AcDbEntity
  8
0
  6
Continuous
 62
     7
370
    25
100
AcDbLine
 10
5900.0188053361
 20
4471.4220157058
 30
0.0
 11
5900.0188053361
 21
4073.4220157058
 31
0.0
  0
LINE
  5
1C6
330
1F
100
AcDbEntity
  8
0
  6
Continuous
 62
     7
370
    25
100
AcDbLine
 10
5938.0188053361
 20
4114.1451953842
 30
0.0
 11
5938.0188053361
 21
4471.4220157058
 31
0.0
  0
ELLIPSE
  5
1C7
330
1F
100
AcDbEntity
  8
0
  6
Continuous
 62
     7
370
    25
100
AcDbEllipse
 10
5940.0188053361
 20
4114.1451953842
 30
0.0
 11
0.0
 21
-2.30350221379922
 31
0.0
210
0.0
220
0.0
230
1.0
 40
0.8682431421
 41
4.712388980384702
 42
6.283185307179586
  0
LINE
  5
1C8
330
1F
100
AcDbEntity
  8
0
  6
Continuous
 62
     7
370
    25
100
AcDbLine
 10
5939.0188053361
 20
4471.4220157058
 30
0.0
 11
5939.0188053361
 21
4114.1451953842
 31
0.0
  0
LINE
  5
1C9
330
1F
100
AcDbEntity
  8
0
  6
Continuous
 62
     7
370
    25
100
AcDbLine
 10
5938.0188053361
 20
4114.1451953842
 30
0.0
 11
5939.0188053361
 21
4114.1451953842
 31
0.0
  0
LINE
  5
1CA
330
1F
100
AcDbEntity
  8
0
  6
Continuous
 62
     7
370
    25
100
AcDbLine
 10
6609.0188053361
 20
4114.1451953842
 30
0.0
 11
6609.0188053361
 21
4471.4220157058
 31
0.0
  0
LINE
  5
1CB
330
1F
100
AcDbEntity
  8
0
  6
Continuous
 62
     7
370
    25
100
AcDbLine
 10
6609.0188053361
 20
4114.1451953842
 30
0.0
 11
6610.0188053361
 21
4114.1451953842
 31
0.0
  0
LINE
  5
1CC
330
1F
100
AcDbEntity
  8
0
  6
Continuous
 62
     7
370
    25
100
AcDbLine
 10
5900.0188053361
 20
4073.4220157058
 30
0.0
 11
5899.0188053361
 21
4073.4220157058
 31
0.0
  0
LINE
  5
1CD
330
1F
100
AcDbEntity
  8
0
  6
Continuous
 62
     7
370
    25
100
AcDbLine
 10
5899.0188053361
 20
4073.4220157058
 30
0.0
 11
5899.0188053361
 21
4471.4220157058
 31
0.0
  0
ELLIPSE
  5
1CE
330
1F
100
AcDbEntity
  8
0
  6
Continuous
 62
     7
370
    25
100
AcDbEllipse
 10
5940.0188053361
 20
4114.1451953842
 30
0.0
 11
0.0
 21
1.435259071675318
 31
0.0
210
0.0
220
0.0
230
1.0
 40
0.6967383239
 41
1.570796326794897
 42
3.141592653589793
  0
LINE
  5
1CF
330
1F
100
AcDbEntity
  8
0
  6
Continuous
 62
     7
370
    25
100
AcDbLine
 10
5940.0188053361
 20
4111.8416931704
 30
0.0
 11
5940.0188053361
 21
4112.7099363125
 31
0.0
  0
LINE
  5
1D0
330
1F
100
AcDbEntity
  8
0
  6
Continuous
 62
     7
370
    25
100
AcDbLine
 10
5940.0188053361
 20
4112.7099363125
 30
0.0
 11
6608.0188053361
 21
4112.7099363125
 31
0.0
  0
LINE
  5
1D1
330
1F
100
AcDbEntity
  8
0
  6
Continuous
 62
     7
370
    25
100
AcDbLine
 10
6608.0188053361
 20
4111.8416931704
 30
0.0
 11
6608.0188053361
 21
4112.7099363125
 31
0.0
  0
ELLIPSE
  5
1D2
330
1F
100
AcDbEntity
  8
0
  6
Continuous
 62
     7
370
    25
100
AcDbEllipse
 10
6608.0188053361
 20
4114.1451953842
 30
0.0
 11
0.0
 21
1.435259071675318
 31
0.0
210
0.0
220
0.0
230
1.0
 40
0.6967383239
 41
3.141592653589793
 42
4.712388980384699
  0
LINE
  5
1D3
330
1F
100
AcDbEntity
  8
0
  6
Continuous
 62
     7
370
    25
100
AcDbLine
 10
6648.0188053361
 20
4072.4220157058
 30
0.0
 11
6648.0188053361
 21
4073.4220157058
 31
0.0
  0
ARC
  5
1D4
330
1F
100
AcDbEntity
  8
0
  6
Continuous
 62
     7
370
    25
100
AcDbCircle
 10
6648.0188053361
 20
4073.4220157058
 30
0.0
 40
0.9999999999995453
100
AcDbArc
 50
270.0
 51
0.0
  0
ARC
  5
1D5
330
1F
100
AcDbEntity
  8
0
  6
Continuous
 62
     7
370
    25
100
AcDbCircle
 10
5900.0188053361
 20
4073.4220157058
 30
0.0
 40
1.0
100
AcDbArc
 50
180.0
 51
270.0
  0
LINE
  5
1D6
330
1F
100
AcDbEntity
  8
0
  6
Continuous
 62
     7
370
    25
100
AcDbLine
 10
5900.0188053361
 20
4072.4220157058
 30
0.0
 11
5900.0188053361
 21
4073.4220157058
 31
0.0
  0
LINE
  5
1D7
330
1F
100
AcDbEntity
  8
0
  6
Continuous
 62
     7
370
    25
100
AcDbLine
 10
6648.0188053361
 20
4072.4220157058
 30
0.0
 11
5900.0188053361
 21
4072.4220157058
 31
0.0
  0
LINE
  5
1D8
330
1F
100
AcDbEntity
  8
0
  6
Continuous
 62
     7
370
    25
100
AcDbLine
 10
5940.0188053361
 20
4266.7321395459
 30
0.0
 11
5940.0188053361
 21
4112.7099363125
 31
0.0
  0
LINE
  5
1D9
330
1F
100
AcDbEntity
  8
0
  6
Continuous
 62
     7
370
    25
100
AcDbLine
 10
6608.0188053361
 20
4271.8216633554
 30
0.0
 11
5940.0188053361
 21
4266.7321395459
 31
0.0
  0
LINE
  5
1DA
330
1F
100
AcDbEntity
  8
0
  6
Continuous
 62
     7
370
    25
100
AcDbLine
 10
6608.0188053361
 20
4112.7099363125
 30
0.0
 11
6608.0188053361
 21
4271.8216633554
 31
0.0
  0
ARC
  5
1DB
330
1F
100
AcDbEntity
  8
0
  6
Continuous
 62
     7
370
    25
100
AcDbCircle
 10
5939.9572668746
 20
4267.6712596792
 30
0.0
 40
0.9411342130929538
100
AcDbArc
 50
184.3190449705
 51
273.7491055296
  0
ARC
  5
1DC
330
1F
100
AcDbEntity
  8
0
  6
Continuous
 62
     7
370
    25
100
AcDbCircle
 10
6608.0803437976
 20
4272.7607834887
 30
0.0
 40
0.9411342130910791
100
AcDbArc
 50
266.2508944704
 51
355.6809550296
  0
LINE
  5
1DD
330
1F
100
AcDbEntity
  8
0
  6
Continuous
 62
     7
370
    25
100
AcDbLine
 10
6608.0054731878
 20
4471.4220157058
 30
0.0
 11
5940.0054731878
 21
4471.4220157058
 31
0.0
  0
ARC
  5
1DE
330
1F
100
AcDbEntity
  8
0
  6
Continuous
 62
     7
370
    25
100
AcDbCircle
 10
5958.7671388919
 20
4471.6719712693
 30
0.0
 40
18.76333066852599
100
AcDbArc
 50
177.7090509904
 51
180.7632878578
  0
ARC
  5
1DF
330
1F
100
AcDbEntity
  8
0
  6
Continuous
 62
     7
370
    25
100
AcDbCircle
 10
6626.7671388915
 20
4471.6719712693
 30
0.0
 40
18.76333066814201
100
AcDbArc
 50
177.7090509903
 51
180.7632878578
  0
LINE
  5
1E0
330
1F
100
AcDbEntity
  8
0
  6
Continuous
 62
     7
370
    25
100
AcDbLine
 10
5939.0188053361
 20
4471.4220157058
 30
0.0
 11
5940.0054731878
 21
4471.4220157058
 31
0.0
  0
LINE
  5
1E1
330
1F
100
AcDbEntity
  8
0
  6
Continuous
 62
     7
370
    25
100
AcDbLine
 10
5940.0054731878
 20
4471.4220157058
 30
0.0
 11
5940.0054731878
 21
4267.600382688
 31
0.0
  0
LINE
  5
1E2
330
1F
100
AcDbEntity
  8
0
  6
Continuous
 62
     7
370
    25
100
AcDbLine
 10
5939.0188053361
 20
4267.600382688
 30
0.0
 11
5940.0054731878
 21
4267.600382688
 31
0.0
  0
ARC
  5
1E3
330
1F
100
AcDbEntity
  8
0
  6
Continuous
 62
     7
370
    25
100
AcDbCircle
 10
5983.7971175176
 20
4267.838593319
 30
0.0
 40
43.79229221459719
100
AcDbArc
 50
180.3116651449
 51
181.4477862442
  0
LINE
  5
1E4
330
1F
100
AcDbEntity
  8
0
  6
Continuous
 62
     7
370
    25
100
AcDbLine
 10
5940.0054731878
 20
4267.600382688
 30
0.0
 11
6608.0054731878
 21
4272.6899064975
 31
0.0
  0
ARC
  5
1E5
330
1F
100
AcDbEntity
  8
0
  6
Continuous
 62
     7
370
    25
100
AcDbCircle
 10
6651.7971175118
 20
4272.9281171285
 30
0.0
 40
43.79229220882264
100
AcDbArc
 50
180.3116651449
 51
181.4477862443
  0
LINE
  5
1E6
330
1F
100
AcDbEntity
  8
0
  6
Continuous
 62
     7
370
    25
100
AcDbLine
 10
6608.0054731878
 20
4272.6899064975
 30
0.0
 11
6608.0054731878
 21
4471.4220157058
 31
0.0
  0
CIRCLE
  5
1E7
330
1F
100
AcDbEntity
  8
0
  6
Continuous
 62
     7
370
    25
100
AcDbCircle
 10
6449.9697455513
 20
4372.0561337714
 30
0.0
 40
24.99929667044276
  0
LINE
  5
1E8
330
1F
100
AcDbEntity
  8
0
  6
Continuous
 62
     7
370
    25
100
AcDbLine
 10
6608.0054731878
 20
4471.4220157058
 30
0.0
 11
6609.0188053361
 21
4471.4220157058
 31
0.0
  0
LINE
  5
1E9
330
1F
100
AcDbEntity
  8
0
  6
Continuous
 62
     7
370
    25
100
AcDbLine
 10
6608.0054731878
 20
4272.6899064975
 30
0.0
 11
6609.0188053361
 21
4272.6899064975
 31
0.0
  0
SPLINE
  5
1EA
330
1F
100
AcDbEntity
  8
0
  6
Continuous
 62
     8
370
    25
100
AcDbSpline
210
0.0
220
0.0
230
1.0
 70
     8
 71
     3
 72
    11
 73
     7
 74
     0
 42
0.000000001
 43
0.00000001
 40
0.0
 40
0.0
 40
0.0
 40
0.0
 40
0.1111062915991951
 40
0.5156396483488452
 40
0.9576405605153611
 40
1.0
 40
1.0
 40
1.0
 40
1.0
 10
6460.030952422104
 20
4374.496665157258
 30
0.0
 10
6460.269979563674
 20
4374.616689929269
 30
0.0
 10
6461.37929452192
 20
4375.173719871877
 30
0.0
 10
6463.065475449544
 20
4376.35601161728
 30
0.0
 10
6464.545987442528
 20
4377.480934390084
 30
0.0
 10
6465.129879835175
 20
4378.039088741572
 30
0.0
 10
6465.18094378867
 20
4378.087901790358
 30
0.0
  0
ENDSEC
  0
SECTION
  2
OBJECTS
  0
DICTIONARY
  5
C
330
0
100
AcDbDictionary
281
     1
  3
ACAD_GROUP
350
D
  3
ACAD_LAYOUT
350
1A
  3
ACAD_MLINESTYLE
350
17
  3
ACAD_PLOTSETTINGS
350
19
  3
ACAD_PLOTSTYLENAME
350
E
  3
ACAD_SCALELIST
350
47
  0
DICTIONARY
  5
D
102
{ACAD_REACTORS
330
C
102
}
330
C
100
AcDbDictionary
281
     1
  0
DICTIONARY
  5
1A
102
{ACAD_REACTORS
330
C
102
}
330
C
100
AcDbDictionary
281
     1
  3
Layout1
350
1E
  3
Layout2
350
26
  3
Model
350
22
  0
DICTIONARY
  5
17
102
{ACAD_REACTORS
330
C
102
}
330
C
100
AcDbDictionary
281
     1
  3
Standard
350
18
  0
DICTIONARY
  5
19
102
{ACAD_REACTORS
330
C
102
}
330
C
100
AcDbDictionary
281
     1
  0
ACDBDICTIONARYWDFLT
  5
E
102
{ACAD_REACTORS
330
C
102
}
330
C
100
AcDbDictionary
281
     1
  3
Normal
350
F
100
AcDbDictionaryWithDefault
340
F
  0
DICTIONARY
  5
47
102
{ACAD_REACTORS
330
C
102
}
330
C
100
AcDbDictionary
281
     1
  3
A0
350
48
  3
A1
350
49
  3
A2
350
4A
  3
A3
350
4B
  3
A4
350
4C
  3
A5
350
4D
  3
A6
350
4E
  3
A7
350
4F
  3
A8
350
50
  3
A9
350
51
  3
B0
350
52
  3
B1
350
53
  3
B2
350
54
  3
B3
350
55
  3
B4
350
56
  3
B5
350
57
  3
B6
350
58
  3
B7
350
59
  3
B8
350
5A
  3
B9
350
5B
  3
C0
350
5C
  3
C1
350
5D
  3
C2
350
5E
  3
C3
350
5F
  3
C4
350
60
  3
C5
350
61
  3
C6
350
62
  3
C7
350
63
  3
C8
350
64
  3
C9
350
65
  3
D0
350
66
  3
D1
350
67
  3
D2
350
68
  0
LAYOUT
  5
1E
102
{ACAD_REACTORS
330
1A
102
}
330
1A
100
AcDbPlotSettings
  1

  2
none_device
  4

  6

 40
0.0
 41
0.0
 42
0.0
 43
0.0
 44
0.0
 45
0.0
 46
0.0
 47
0.0
 48
0.0
 49
0.0
140
0.0
141
0.0
142
1.0
143
1.0
 70
   688
 72
     1
 73
     0
 74
     5
  7

 75
    16
147
1.0
148
0.0
149
0.0
100
AcDbLayout
  1
Layout1
 70
     1
 71
     1
 10
0.0
 20
0.0
 11
420.0
 21
297.0
 12
0.0
 22
0.0
 32
0.0
 14
1.0000000000E+20
 24
1.0000000000E+20
 34
1.0000000000E+20
 15
-1.0000000000E+20
 25
-1.0000000000E+20
 35
-1.0000000000E+20
146
0.0
 13
0.0
 23
0.0
 33
0.0
 16
1.0
 26
0.0
 36
0.0
 17
0.0
 27
1.0
 37
0.0
 76
     0
330
1B
  0
LAYOUT
  5
26
102
{ACAD_REACTORS
330
1A
102
}
330
1A
100
AcDbPlotSettings
  1

  2
none_device
  4

  6

 40
0.0
 41
0.0
 42
0.0
 43
0.0
 44
0.0
 45
0.0
 46
0.0
 47
0.0
 48
0.0
 49
0.0
140
0.0
141
0.0
142
1.0
143
1.0
 70
   688
 72
     1
 73
     0
 74
     5
  7

 75
    16
147
1.0
148
0.0
149
0.0
100
AcDbLayout
  1
Layout2
 70
     1
 71
     2
 10
0.0
 20
0.0
 11
0.0
 21
0.0
 12
0.0
 22
0.0
 32
0.0
 14
0.0
 24
0.0
 34
0.0
 15
0.0
 25
0.0
 35
0.0
146
0.0
 13
0.0
 23
0.0
 33
0.0
 16
1.0
 26
0.0
 36
0.0
 17
0.0
 27
1.0
 37
0.0
 76
     0
330
23
  0
LAYOUT
  5
22
102
{ACAD_REACTORS
330
1A
102
}
330
1A
100
AcDbPlotSettings
  1

  2
none_device
  4
Letter_(8.50_x_11.00_Inches)
  6

 40
6.35
 41
6.35
 42
6.35000508
 43
6.35000508
 44
215.9
 45
279.4
 46
0.0
 47
0.0
 48
0.0
 49
0.0
140
0.0
141
0.0
142
1.0
143
1.0
 70
  1712
 72
     1
 73
     0
 74
     0
  7

 75
     0
147
1.0
148
0.0
149
0.0
100
AcDbLayout
  1
Model
 70
     1
 71
     0
 10
0.0
 20
0.0
 11
20000.0
 21
10000.0
 12
0.0
 22
0.0
 32
0.0
 14
0.0
 24
0.0
 34
0.0
 15
20000.0
 25
10000.0
 35
0.0
146
0.0
 13
0.0
 23
0.0
 33
0.0
 16
1.0
 26
0.0
 36
0.0
 17
0.0
 27
1.0
 37
0.0
 76
     0
330
1F
331
29
  0
MLINESTYLE
  5
18
102
{ACAD_REACTORS
330
17
102
}
330
17
100
AcDbMlineStyle
  2
Standard
 70
     0
  3

 62
   256
 51
90.0
 52
90.0
 71
     2
 49
0.5
 62
   256
  6
BYLAYER
 49
-0.5
 62
   256
  6
BYLAYER
  0
ACDBPLACEHOLDER
  5
F
102
{ACAD_REACTORS
330
E
102
}
330
E
  0
SCALE
  5
48
102
{ACAD_REACTORS
330
47
102
}
330
47
100
AcDbScale
 70
     0
300
1:1
140
1.0
141
1.0
290
     1
  0
SCALE
  5
49
102
{ACAD_REACTORS
330
47
102
}
330
47
100
AcDbScale
 70
     0
300
1:2
140
1.0
141
2.0
290
     0
  0
SCALE
  5
4A
102
{ACAD_REACTORS
330
47
102
}
330
47
100
AcDbScale
 70
     0
300
1:4
140
1.0
141
4.0
290
     0
  0
SCALE
  5
4B
102
{ACAD_REACTORS
330
47
102
}
330
47
100
AcDbScale
 70
     0
300
1:5
140
1.0
141
5.0
290
     0
  0
SCALE
  5
4C
102
{ACAD_REACTORS
330
47
102
}
330
47
100
AcDbScale
 70
     0
300
1:8
140
1.0
141
8.0
290
     0
  0
SCALE
  5
4D
102
{ACAD_REACTORS
330
47
102
}
330
47
100
AcDbScale
 70
     0
300
1:10
140
1.0
141
10.0
290
     0
  0
SCALE
  5
4E
102
{ACAD_REACTORS
330
47
102
}
330
47
100
AcDbScale
 70
     0
300
1:16
140
1.0
141
16.0
290
     0
  0
SCALE
  5
4F
102
{ACAD_REACTORS
330
47
102
}
330
47
100
AcDbScale
 70
     0
300
1:20
140
1.0
141
20.0
290
     0
  0
SCALE
  5
50
102
{ACAD_REACTORS
330
47
102
}
330
47
100
AcDbScale
 70
     0
300
1:30
140
1.0
141
30.0
290
     0
  0
SCALE
  5
51
102
{ACAD_REACTORS
330
47
102
}
330
47
100
AcDbScale
 70
     0
300
1:40
140
1.0
141
40.0
290
     0
  0
SCALE
  5
52
102
{ACAD_REACTORS
330
47
102
}
330
47
100
AcDbScale
 70
     0
300
1:50
140
1.0
141
50.0
290
     0
  0
SCALE
  5
53
102
{ACAD_REACTORS
330
47
102
}
330
47
100
AcDbScale
 70
     0
300
1:100
140
1.0
141
100.0
290
     0
  0
SCALE
  5
54
102
{ACAD_REACTORS
330
47
102
}
330
47
100
AcDbScale
 70
     0
300
2:1
140
2.0
141
1.0
290
     0
  0
SCALE
  5
55
102
{ACAD_REACTORS
330
47
102
}
330
47
100
AcDbScale
 70
     0
300
4:1
140
4.0
141
1.0
290
     0
  0
SCALE
  5
56
102
{ACAD_REACTORS
330
47
102
}
330
47
100
AcDbScale
 70
     0
300
8:1
140
8.0
141
1.0
290
     0
  0
SCALE
  5
57
102
{ACAD_REACTORS
330
47
102
}
330
47
100
AcDbScale
 70
     0
300
10:1
140
10.0
141
1.0
290
     0
  0
SCALE
  5
58
102
{ACAD_REACTORS
330
47
102
}
330
47
100
AcDbScale
 70
     0
300
100:1
140
100.0
141
1.0
290
     0
  0
SCALE
  5
59
102
{ACAD_REACTORS
330
47
102
}
330
47
100
AcDbScale
 70
     0
300
1/128" = 1'-0"
140
0.0078125
141
12.0
290
     0
  0
SCALE
  5
5A
102
{ACAD_REACTORS
330
47
102
}
330
47
100
AcDbScale
 70
     0
300
1/64" = 1'-0"
140
0.015625
141
12.0
290
     0
  0
SCALE
  5
5B
102
{ACAD_REACTORS
330
47
102
}
330
47
100
AcDbScale
 70
     0
300
1/32" = 1'-0"
140
0.03125
141
12.0
290
     0
  0
SCALE
  5
5C
102
{ACAD_REACTORS
330
47
102
}
330
47
100
AcDbScale
 70
     0
300
1/16" = 1'-0"
140
0.0625
141
12.0
290
     0
  0
SCALE
  5
5D
102
{ACAD_REACTORS
330
47
102
}
330
47
100
AcDbScale
 70
     0
300
3/32" = 1'-0"
140
0.09375
141
12.0
290
     0
  0
SCALE
  5
5E
102
{ACAD_REACTORS
330
47
102
}
330
47
100
AcDbScale
 70
     0
300
1/8" = 1'-0"
140
0.125
141
12.0
290
     0
  0
SCALE
  5
5F
102
{ACAD_REACTORS
330
47
102
}
330
47
100
AcDbScale
 70
     0
300
3/16" = 1'-0"
140
0.1875
141
12.0
290
     0
  0
SCALE
  5
60
102
{ACAD_REACTORS
330
47
102
}
330
47
100
AcDbScale
 70
     0
300
1/4" = 1'-0"
140
0.25
141
12.0
290
     0
  0
SCALE
  5
61
102
{ACAD_REACTORS
330
47
102
}
330
47
100
AcDbScale
 70
     0
300
3/8" = 1'-0"
140
0.375
141
12.0
290
     0
  0
SCALE
  5
62
102
{ACAD_REACTORS
330
47
102
}
330
47
100
AcDbScale
 70
     0
300
1/2" = 1'-0"
140
0.5
141
12.0
290
     0
  0
SCALE
  5
63
102
{ACAD_REACTORS
330
47
102
}
330
47
100
AcDbScale
 70
     0
300
3/4" = 1'-0"
140
0.75
141
12.0
290
     0
  0
SCALE
  5
64
102
{ACAD_REACTORS
330
47
102
}
330
47
100
AcDbScale
 70
     0
300
1" = 1'-0"
140
1.0
141
12.0
290
     0
  0
SCALE
  5
65
102
{ACAD_REACTORS
330
47
102
}
330
47
100
AcDbScale
 70
     0
300
1-1/2" = 1'-0"
140
1.5
141
12.0
290
     0
  0
SCALE
  5
66
102
{ACAD_REACTORS
330
47
102
}
330
47
100
AcDbScale
 70
     0
300
3" = 1'-0"
140
3.0
141
12.0
290
     0
  0
SCALE
  5
67
102
{ACAD_REACTORS
330
47
102
}
330
47
100
AcDbScale
 70
     0
300
6" = 1'-0"
140
6.0
141
12.0
290
     0
  0
SCALE
  5
68
102
{ACAD_REACTORS
330
47
102
}
330
47
100
AcDbScale
 70
     0
300
1'-0" = 1'-0"
140
12.0
141
12.0
290
     0
  0
ENDSEC
  0
EOF
