  0
SECTION
  2
HEADER
  9
$ACADVER
  1
AC1015
  9
$ACADMAINTVER
 70
     6
  9
$DWGCODEPAGE
  3
ANSI_1250
  9
$INSBASE
 10
0.0
 20
0.0
 30
0.0
  9
$EXTMIN
 10
5374.0187553361
 20
4123.566850859
 30
0.0
  9
$EXTMAX
 10
8065.1377915349
 20
5412.7431966076
 30
0.0
  9
$LIMMIN
 10
0.0
 20
0.0
  9
$LIMMAX
 10
420.0
 20
297.0
  9
$ORTHOMODE
 70
     0
  9
$REGENMODE
 70
     1
  9
$FILLMODE
 70
     1
  9
$QTEXTMODE
 70
     0
  9
$MIRRTEXT
 70
     1
  9
$LTSCALE
 40
1.0
  9
$ATTMODE
 70
     1
  9
$TEXTSIZE
 40
3.5
  9
$TRACEWID
 40
1.0
  9
$TEXTSTYLE
  7
Standard
  9
$CLAYER
  8
0
  9
$CELTYPE
  6
ByLayer
  9
$CECOLOR
 62
   256
  9
$CELTSCALE
 40
1.0
  9
$DISPSILH
 70
     0
  9
$DIMSCALE
 40
1.0
  9
$DIMASZ
 40
3.302
  9
$DIMEXO
 40
0.0
  9
$DIMDLI
 40
3.75
  9
$DIMRND
 40
0.0
  9
$DIMDLE
 40
0.0
  9
$DIMEXE
 40
1.0
  9
$DIMTP
 40
0.0
  9
$DIMTM
 40
0.0
  9
$DIMTXT
 40
3.5
  9
$DIMCEN
 40
2.5
  9
$DIMTSZ
 40
0.0
  9
$DIMTOL
 70
     0
  9
$DIMLIM
 70
     0
  9
$DIMTIH
 70
     1
  9
$DIMTOH
 70
     1
  9
$DIMSE1
 70
     0
  9
$DIMSE2
 70
     0
  9
$DIMTAD
 70
     1
  9
$DIMZIN
 70
     0
  9
$DIMBLK
  1

  9
$DIMASO
 70
     1
  9
$DIMSHO
 70
     1
  9
$DIMPOST
  1

  9
$DIMAPOST
  1

  9
$DIMALT
 70
     0
  9
$DIMALTD
 70
     3
  9
$DIMALTF
 40
0.0393700787
  9
$DIMLFAC
 40
1.0
  9
$DIMTOFL
 70
     1
  9
$DIMTVP
 40
0.0
  9
$DIMTIX
 70
     0
  9
$DIMSOXD
 70
     0
  9
$DIMSAH
 70
     0
  9
$DIMBLK1
  1

  9
$DIMBLK2
  1

  9
$DIMSTYLE
  2
ISO-25
  9
$DIMCLRD
 70
     0
  9
$DIMCLRE
 70
     0
  9
$DIMCLRT
 70
     0
  9
$DIMTFAC
 40
1.0
  9
$DIMGAP
 40
1.524
  9
$DIMJUST
 70
     0
  9
$DIMSD1
 70
     0
  9
$DIMSD2
 70
     0
  9
$DIMTOLJ
 70
     0
  9
$DIMTZIN
 70
     0
  9
$DIMALTZ
 70
     0
  9
$DIMALTTZ
 70
     0
  9
$DIMUPT
 70
     0
  9
$DIMDEC
 70
     2
  9
$DIMTDEC
 70
     2
  9
$DIMALTU
 70
     2
  9
$DIMALTTD
 70
     3
  9
$DIMTXSTY
  7
Standard
  9
$DIMAUNIT
 70
     0
  9
$DIMADEC
 70
     2
  9
$DIMALTRND
 40
0.0
  9
$DIMAZIN
 70
     0
  9
$DIMDSEP
 70
    44
  9
$DIMATFIT
 70
     3
  9
$DIMFRAC
 70
     0
  9
$DIMLDRBLK
  1

  9
$DIMLUNIT
 70
     2
  9
$DIMLWD
 70
    -2
  9
$DIMLWE
 70
    -2
  9
$DIMTMOVE
 70
     0
  9
$LUNITS
 70
     2
  9
$LUPREC
 70
     2
  9
$SKETCHINC
 40
1.0
  9
$FILLETRAD
 40
10.0
  9
$AUNITS
 70
     0
  9
$AUPREC
 70
     2
  9
$MENU
  1
.
  9
$ELEVATION
 40
0.0
  9
$PELEVATION
 40
0.0
  9
$THICKNESS
 40
0.0
  9
$LIMCHECK
 70
     0
  9
$CHAMFERA
 40
0.0
  9
$CHAMFERB
 40
0.0
  9
$CHAMFERC
 40
0.0
  9
$CHAMFERD
 40
0.0
  9
$SKPOLY
 70
     0
  9
$TDCREATE
 40
2459096.413496933
  9
$TDUCREATE
 40
2459096.330163599
  9
$TDUPDATE
 40
2459096.413525405
  9
$TDUUPDATE
 40
2459096.330192072
  9
$TDINDWG
 40
0.0000000116
  9
$TDUSRTIMER
 40
0.0000000116
  9
$USRTIMER
 70
     1
  9
$ANGBASE
 50
0.0
  9
$ANGDIR
 70
     0
  9
$PDMODE
 70
     0
  9
$PDSIZE
 40
-1.0
  9
$PLINEWID
 40
0.0
  9
$SPLFRAME
 70
     0
  9
$SPLINETYPE
 70
     6
  9
$SPLINESEGS
 70
     8
  9
$HANDSEED
  5
476
  9
$SURFTAB1
 70
     6
  9
$SURFTAB2
 70
     6
  9
$SURFTYPE
 70
     6
  9
$SURFU
 70
     6
  9
$SURFV
 70
     6
  9
$UCSBASE
  2

  9
$UCSNAME
  2

  9
$UCSORG
 10
0.0
 20
0.0
 30
0.0
  9
$UCSXDIR
 10
1.0
 20
0.0
 30
0.0
  9
$UCSYDIR
 10
0.0
 20
1.0
 30
0.0
  9
$UCSORTHOREF
  2

  9
$UCSORTHOVIEW
 70
     0
  9
$UCSORGTOP
 10
0.0
 20
0.0
 30
0.0
  9
$UCSORGBOTTOM
 10
0.0
 20
0.0
 30
0.0
  9
$UCSORGLEFT
 10
0.0
 20
0.0
 30
0.0
  9
$UCSORGRIGHT
 10
0.0
 20
0.0
 30
0.0
  9
$UCSORGFRONT
 10
0.0
 20
0.0
 30
0.0
  9
$UCSORGBACK
 10
0.0
 20
0.0
 30
0.0
  9
$PUCSBASE
  2

  9
$PUCSNAME
  2

  9
$PUCSORG
 10
0.0
 20
0.0
 30
0.0
  9
$PUCSXDIR
 10
1.0
 20
0.0
 30
0.0
  9
$PUCSYDIR
 10
0.0
 20
1.0
 30
0.0
  9
$PUCSORTHOREF
  2

  9
$PUCSORTHOVIEW
 70
     0
  9
$PUCSORGTOP
 10
0.0
 20
0.0
 30
0.0
  9
$PUCSORGBOTTOM
 10
0.0
 20
0.0
 30
0.0
  9
$PUCSORGLEFT
 10
0.0
 20
0.0
 30
0.0
  9
$PUCSORGRIGHT
 10
0.0
 20
0.0
 30
0.0
  9
$PUCSORGFRONT
 10
0.0
 20
0.0
 30
0.0
  9
$PUCSORGBACK
 10
0.0
 20
0.0
 30
0.0
  9
$USERI1
 70
     0
  9
$USERI2
 70
     0
  9
$USERI3
 70
     0
  9
$USERI4
 70
     0
  9
$USERI5
 70
     0
  9
$USERR1
 40
0.0
  9
$USERR2
 40
0.0
  9
$USERR3
 40
0.0
  9
$USERR4
 40
0.0
  9
$USERR5
 40
0.0
  9
$WORLDVIEW
 70
     1
  9
$SHADEDGE
 70
     3
  9
$SHADEDIF
 70
    70
  9
$TILEMODE
 70
     1
  9
$MAXACTVP
 70
    64
  9
$PINSBASE
 10
0.0
 20
0.0
 30
0.0
  9
$PLIMCHECK
 70
     0
  9
$PEXTMIN
 10
1.0000000000E+20
 20
1.0000000000E+20
 30
1.0000000000E+20
  9
$PEXTMAX
 10
-1.0000000000E+20
 20
-1.0000000000E+20
 30
-1.0000000000E+20
  9
$PLIMMIN
 10
0.0
 20
0.0
  9
$PLIMMAX
 10
420.0
 20
297.0
  9
$UNITMODE
 70
     0
  9
$VISRETAIN
 70
     1
  9
$PLINEGEN
 70
     0
  9
$PSLTSCALE
 70
     1
  9
$TREEDEPTH
 70
  3020
  9
$CMLSTYLE
  2
Standard
  9
$CMLJUST
 70
     0
  9
$CMLSCALE
 40
20.0
  9
$PROXYGRAPHICS
 70
     1
  9
$MEASUREMENT
 70
     1
  9
$CELWEIGHT
370
    -1
  9
$ENDCAPS
280
     0
  9
$JOINSTYLE
280
     0
  9
$LWDISPLAY
290
     1
  9
$INSUNITS
 70
     4
  9
$HYPERLINKBASE
  1

  9
$STYLESHEET
  1

  9
$XEDIT
290
     1
  9
$CEPSNTYPE
380
     0
  9
$PSTYLEMODE
290
     1
  9
$FINGERPRINTGUID
  2
{7d8d8fe1-3eba-41bf-b9a1-615c7e1f1046}
  9
$VERSIONGUID
  2
{FAEB1C32-E019-11D5-929B-00C0DF256EC4}
  9
$EXTNAMES
290
     1
  9
$PSVPSCALE
 40
0.0
  9
$OLESTARTUP
290
     0
  0
ENDSEC
  0
SECTION
  2
CLASSES
  0
CLASS
  1
ACDBDICTIONARYWDFLT
  2
AcDbDictionaryWithDefault
  3
ObjectDBX Classes
 90
        0
280
     0
281
     0
  0
CLASS
  1
VISUALSTYLE
  2
AcDbVisualStyle
  3
ObjectDBX Classes
 90
     4095
280
     0
281
     0
  0
CLASS
  1
MATERIAL
  2
AcDbMaterial
  3
ObjectDBX Classes
 90
     1153
280
     0
281
     0
  0
CLASS
  1
SCALE
  2
AcDbScale
  3
ObjectDBX Classes
 90
     1153
280
     0
281
     0
  0
CLASS
  1
TABLESTYLE
  2
AcDbTableStyle
  3
ObjectDBX Classes
 90
     4095
280
     0
281
     0
  0
CLASS
  1
MLEADERSTYLE
  2
AcDbMLeaderStyle
  3
ACDB_MLEADERSTYLE_CLASS
 90
     4095
280
     0
281
     0
  0
CLASS
  1
SUN
  2
AcDbSun
  3
SCENEOE
 90
     1153
280
     0
281
     0
  0
CLASS
  1
ACDBPLACEHOLDER
  2
AcDbPlaceHolder
  3
ObjectDBX Classes
 90
        0
280
     0
281
     0
  0
CLASS
  1
LAYOUT
  2
AcDbLayout
  3
ObjectDBX Classes
 90
        0
280
     0
281
     0
  0
ENDSEC
  0
SECTION
  2
TABLES
  0
TABLE
  2
VPORT
  5
8
330
0
100
AcDbSymbolTable
 70
     1
  0
VPORT
  5
29
330
8
100
AcDbSymbolTableRecord
100
AcDbViewportTableRecord
  2
*Active
 70
     0
 10
0.0
 20
0.0
 11
1.0
 21
1.0
 12
6719.5782734355
 22
4768.1550237333
 13
0.0
 23
0.0
 14
10.0
 24
10.0
 15
10.0
 25
10.0
 16
0.0
 26
0.0
 36
1.0
 17
0.0
 27
0.0
 37
0.0
 40
1314.9598726636
 41
2.087471621
 42
50.0
 43
0.0
 44
0.0
 50
0.0
 51
0.0
 71
     0
 72
   100
 73
     1
 74
     3
 75
     0
 76
     0
 77
     0
 78
     0
281
     0
 65
     1
110
0.0
120
0.0
130
0.0
111
1.0
121
0.0
131
0.0
112
0.0
122
1.0
132
0.0
 79
     0
146
0.0
  0
ENDTAB
  0
TABLE
  2
LTYPE
  5
5
330
0
100
AcDbSymbolTable
 70
     6
  0
LTYPE
  5
14
330
5
100
AcDbSymbolTableRecord
100
AcDbLinetypeTableRecord
  2
ByBlock
 70
     0
  3

 72
    65
 73
     0
 40
0.0
  0
LTYPE
  5
15
330
5
100
AcDbSymbolTableRecord
100
AcDbLinetypeTableRecord
  2
ByLayer
 70
     0
  3

 72
    65
 73
     0
 40
0.0
  0
LTYPE
  5
16
330
5
100
AcDbSymbolTableRecord
100
AcDbLinetypeTableRecord
  2
Continuous
 70
     0
  3
Solid line
 72
    65
 73
     0
 40
0.0
  0
LTYPE
  5
6E
330
5
100
AcDbSymbolTableRecord
100
AcDbLinetypeTableRecord
  2
HIDDEN
 70
     0
  3
Hidden __ __ __ __ __ __ __ __ __ __ __ __ __ __
 72
    65
 73
     2
 40
1.905
 49
1.27
 74
     0
 49
-0.635
 74
     0
  0
LTYPE
  5
6F
330
5
100
AcDbSymbolTableRecord
100
AcDbLinetypeTableRecord
  2
PHANTOM
 70
     0
  3
Phantom ______  __  __  ______  __  __  ______
 72
    65
 73
     6
 40
12.7
 49
6.35
 74
     0
 49
-1.27
 74
     0
 49
1.27
 74
     0
 49
-1.27
 74
     0
 49
1.27
 74
     0
 49
-1.27
 74
     0
  0
LTYPE
  5
70
330
5
100
AcDbSymbolTableRecord
100
AcDbLinetypeTableRecord
  2
CENTER
 70
     0
  3
Center ____ _ ____ _ ____ _ ____ _ ____ _ ____
 72
    65
 73
     4
 40
10.16
 49
6.35
 74
     0
 49
-1.27
 74
     0
 49
1.27
 74
     0
 49
-1.27
 74
     0
  0
LTYPE
  5
71
330
5
100
AcDbSymbolTableRecord
100
AcDbLinetypeTableRecord
  2
CENTERX2
 70
     0
  3
Center (2x) ________  __  ________  __  _____
 72
    65
 73
     4
 40
20.32
 49
12.7
 74
     0
 49
-2.54
 74
     0
 49
2.54
 74
     0
 49
-2.54
 74
     0
  0
LTYPE
  5
72
330
5
100
AcDbSymbolTableRecord
100
AcDbLinetypeTableRecord
  2
DOT2
 70
     0
  3
Dot (.5x) ........................................
 72
    65
 73
     2
 40
0.635
 49
0.0
 74
     0
 49
-0.635
 74
     0
  0
ENDTAB
  0
TABLE
  2
LAYER
  5
2
330
0
100
AcDbSymbolTable
 70
     1
  0
LAYER
  5
10
330
2
100
AcDbSymbolTableRecord
100
AcDbLayerTableRecord
  2
0
 70
     0
 62
     7
  6
Continuous
370
    -3
390
F
  0
ENDTAB
  0
TABLE
  2
STYLE
  5
3
330
0
100
AcDbSymbolTable
 70
     1
  0
STYLE
  5
11
330
3
100
AcDbSymbolTableRecord
100
AcDbTextStyleTableRecord
  2
Standard
 70
     0
 40
0.0
 41
1.0
 50
0.0
 71
     0
 42
3.5
  3
txt
  4

  0
ENDTAB
  0
TABLE
  2
VIEW
  5
6
330
0
100
AcDbSymbolTable
 70
     0
  0
ENDTAB
  0
TABLE
  2
UCS
  5
7
330
0
100
AcDbSymbolTable
 70
     0
  0
ENDTAB
  0
TABLE
  2
APPID
  5
9
330
0
100
AcDbSymbolTable
 70
     1
  0
APPID
  5
12
330
9
100
AcDbSymbolTableRecord
100
AcDbRegAppTableRecord
  2
ACAD
 70
     0
  0
ENDTAB
  0
TABLE
  2
DIMSTYLE
  5
A
330
0
100
AcDbSymbolTable
 70
     1
100
AcDbDimStyleTable
  0
DIMSTYLE
105
27
330
A
100
AcDbSymbolTableRecord
100
AcDbDimStyleTableRecord
  2
ISO-25
 70
     0
 41
2.5
 42
0.625
 43
3.75
 44
1.25
 73
     0
 74
     0
 77
     1
 78
     8
140
2.5
141
2.5
143
0.0393700787
147
0.625
171
     3
172
     1
178
     0
271
     2
272
     2
274
     3
278
    44
283
     0
284
     8
340
11
  0
ENDTAB
  0
TABLE
  2
BLOCK_RECORD
  5
1
330
0
100
AcDbSymbolTable
 70
     1
  0
BLOCK_RECORD
  5
1F
330
1
100
AcDbSymbolTableRecord
100
AcDbBlockTableRecord
  2
*Model_Space
340
22
  0
BLOCK_RECORD
  5
1B
330
1
100
AcDbSymbolTableRecord
100
AcDbBlockTableRecord
  2
*Paper_Space
340
1E
  0
BLOCK_RECORD
  5
23
330
1
100
AcDbSymbolTableRecord
100
AcDbBlockTableRecord
  2
*Paper_Space0
340
26
  0
ENDTAB
  0
ENDSEC
  0
SECTION
  2
BLOCKS
  0
BLOCK
  5
20
330
1F
100
AcDbEntity
  8
0
100
AcDbBlockBegin
  2
*Model_Space
 70
     0
 10
0.0
 20
0.0
 30
0.0
  3
*Model_Space
  1

  0
ENDBLK
  5
21
330
1F
100
AcDbEntity
  8
0
100
AcDbBlockEnd
  0
BLOCK
  5
1C
330
1B
100
AcDbEntity
 67
     1
  8
0
100
AcDbBlockBegin
  2
*Paper_Space
 70
     0
 10
0.0
 20
0.0
 30
0.0
  3
*Paper_Space
  1

  0
ENDBLK
  5
1D
330
1B
100
AcDbEntity
 67
     1
  8
0
100
AcDbBlockEnd
  0
BLOCK
  5
24
330
23
100
AcDbEntity
  8
0
100
AcDbBlockBegin
  2
*Paper_Space0
 70
     0
 10
0.0
 20
0.0
 30
0.0
  3
*Paper_Space0
  1

  0
ENDBLK
  5
25
330
23
100
AcDbEntity
  8
0
100
AcDbBlockEnd
  0
ENDSEC
  0
SECTION
  2
ENTITIES
  0
ARC
  5
73
330
1F
100
AcDbEntity
  8
0
  6
Continuous
 62
     7
100
AcDbCircle
 10
6247.9719183146
 20
5428.3926043574
 30
0.0
 40
201.1999999999995
100
AcDbArc
 50
288.2898993817
 51
309.2240685987
  0
ARC
  5
74
330
1F
100
AcDbEntity
  8
0
  6
Continuous
 62
     7
100
AcDbCircle
 10
6300.0655923576
 20
5428.3926043574
 30
0.0
 40
201.1999999999995
100
AcDbArc
 50
230.7759314013
 51
251.7101006183
  0
ARC
  5
75
330
1F
100
AcDbEntity
  8
0
  6
Continuous
 62
     7
100
AcDbCircle
 10
6847.9719183146
 20
5428.3926043574
 30
0.0
 40
201.1999999999989
100
AcDbArc
 50
288.2898993817
 51
309.2240685987
  0
ARC
  5
76
330
1F
100
AcDbEntity
  8
0
  6
Continuous
 62
     7
100
AcDbCircle
 10
6900.0655923576
 20
5428.3926043574
 30
0.0
 40
201.1999999999999
100
AcDbArc
 50
230.7759314014
 51
251.7101006183
  0
ARC
  5
77
330
1F
100
AcDbEntity
  8
0
  6
Continuous
 62
     7
100
AcDbCircle
 10
5647.9719183146
 20
5428.3926043574
 30
0.0
 40
201.2000000000001
100
AcDbArc
 50
288.2898993817
 51
309.2240685987
  0
ARC
  5
78
330
1F
100
AcDbEntity
  8
0
  6
Continuous
 62
     7
100
AcDbCircle
 10
5700.0655923576
 20
5428.3926043574
 30
0.0
 40
201.1999999999996
100
AcDbArc
 50
230.7759314013
 51
251.7101006183
  0
ARC
  5
79
330
1F
100
AcDbEntity
  8
0
  6
Continuous
 62
     7
100
AcDbCircle
 10
6834.162307447
 20
5229.0016390706
 30
0.0
 40
8.800000000000498
100
AcDbArc
 50
60.9453200726
 51
71.7099732283
  0
ARC
  5
7A
330
1F
100
AcDbEntity
  8
0
  6
Continuous
 62
     7
100
AcDbCircle
 10
6913.875207788
 20
5229.0016405788
 30
0.0
 40
8.800000000000399
100
AcDbArc
 50
108.2900580605
 51
119.0547001465
  0
ARC
  5
7B
330
1F
100
AcDbEntity
  8
0
  6
Continuous
 62
     7
100
AcDbCircle
 10
5634.1623368771
 20
5229.0016293433
 30
0.0
 40
8.800000000000509
100
AcDbArc
 50
60.9454504842
 51
71.7101750395
  0
ARC
  5
7C
330
1F
100
AcDbEntity
  8
0
  6
Continuous
 62
     7
100
AcDbCircle
 10
5713.8751636428
 20
5229.0016259878
 30
0.0
 40
8.799999999999782
100
AcDbArc
 50
108.289755343
 51
119.0545045288
  0
ARC
  5
7D
330
1F
100
AcDbEntity
  8
0
  6
Continuous
 62
     7
100
AcDbCircle
 10
6234.162322162
 20
5229.001634207
 30
0.0
 40
8.800000000000441
100
AcDbArc
 50
60.9453852781
 51
71.7100741333
  0
ARC
  5
7E
330
1F
100
AcDbEntity
  8
0
  6
Continuous
 62
     7
100
AcDbCircle
 10
6313.8751857153
 20
5229.0016332832
 30
0.0
 40
8.800000000000251
100
AcDbArc
 50
108.2899067011
 51
119.054602337
  0
ARC
  5
7F
330
1F
100
AcDbEntity
  8
0
  6
Continuous
 62
     7
100
AcDbCircle
 10
6849.0187591212
 20
5185.3557026395
 30
0.0
 40
3.000000000000015
100
AcDbArc
 50
179.9999550329
 51
270.0004007057
  0
ARC
  5
80
330
1F
100
AcDbEntity
  8
0
  6
Continuous
 62
     7
100
AcDbCircle
 10
6899.0187533992
 20
5185.3557026395
 30
0.0
 40
3.000000000000924
100
AcDbArc
 50
269.9995992943
 51
0.0000449671
  0
ARC
  5
81
330
1F
100
AcDbEntity
  8
0
  6
Continuous
 62
     7
100
AcDbCircle
 10
6249.0187501805
 20
5185.3557026396
 30
0.0
 40
3.000000000000703
100
AcDbArc
 50
179.9999550342
 51
270.0001161137
  0
ARC
  5
82
330
1F
100
AcDbEntity
  8
0
  6
Continuous
 62
     7
100
AcDbCircle
 10
6299.0187593596
 20
5185.3557026396
 30
0.0
 40
3.000000000000924
100
AcDbArc
 50
269.9998838882
 51
0.0000449658
  0
ARC
  5
83
330
1F
100
AcDbEntity
  8
0
  6
Continuous
 62
     7
100
AcDbCircle
 10
5649.0187412398
 20
5185.3557026395
 30
0.0
 40
3.000000000000015
100
AcDbArc
 50
179.9999550329
 51
270.0004007057
  0
ARC
  5
84
330
1F
100
AcDbEntity
  8
0
  6
Continuous
 62
     7
100
AcDbCircle
 10
5699.0187653201
 20
5185.3557026395
 30
0.0
 40
3.000000000000015
100
AcDbArc
 50
269.9995992962
 51
0.0000449671
  0
ARC
  5
85
330
1F
100
AcDbEntity
  8
0
  6
Continuous
 62
     7
100
AcDbCircle
 10
5649.6891100051
 20
5141.6557033519
 30
0.0
 40
3.000000000000304
100
AcDbArc
 50
90.0000792016
 51
173.3455640148
  0
ARC
  5
86
330
1F
100
AcDbEntity
  8
0
  6
Continuous
 62
     7
100
AcDbCircle
 10
5698.3483965548
 20
5141.6557033519
 30
0.0
 40
3.000000000000304
100
AcDbArc
 50
6.6544359852
 51
89.9999207984
  0
ARC
  5
87
330
1F
100
AcDbEntity
  8
0
  6
Continuous
 62
     7
100
AcDbCircle
 10
5649.8969290554
 20
5017.6557025323
 30
0.0
 40
3.000000000000612
100
AcDbArc
 50
185.8481372342
 51
269.9997783928
  0
ARC
  5
88
330
1F
100
AcDbEntity
  8
0
  6
Continuous
 62
     7
100
AcDbCircle
 10
5698.1405775046
 20
5017.6557025323
 30
0.0
 40
3.000000000000612
100
AcDbArc
 50
270.0002216053
 51
354.1518627658
  0
ARC
  5
89
330
1F
100
AcDbEntity
  8
0
  6
Continuous
 62
     7
100
AcDbCircle
 10
5654.0187662738
 20
5158.1557032625
 30
0.0
 40
3.00000000000004
100
AcDbArc
 50
90.0001684782
 51
180.000009391
  0
ARC
  5
8A
330
1F
100
AcDbEntity
  8
0
  6
Continuous
 62
     7
100
AcDbCircle
 10
5694.0187700885
 20
5158.1557032626
 30
0.0
 40
3.00000000000095
100
AcDbArc
 50
359.9999906078
 51
90.0004007057
  0
ARC
  5
8B
330
1F
100
AcDbEntity
  8
0
  6
Continuous
 62
     7
100
AcDbCircle
 10
6849.6891278865
 20
5141.6557033521
 30
0.0
 40
3.000000000001072
100
AcDbArc
 50
90.0006483841
 51
173.3455640184
  0
ARC
  5
8C
330
1F
100
AcDbEntity
  8
0
  6
Continuous
 62
     7
100
AcDbCircle
 10
6898.3483846339
 20
5141.6557033521
 30
0.0
 40
2.99999999999928
100
AcDbArc
 50
6.6544359816
 51
89.9993516159
  0
ARC
  5
8D
330
1F
100
AcDbEntity
  8
0
  6
Continuous
 62
     7
100
AcDbCircle
 10
6849.8969171344
 20
5017.6557025322
 30
0.0
 40
3.000000000000692
100
AcDbArc
 50
185.8481372336
 51
270.0003475766
  0
ARC
  5
8E
330
1F
100
AcDbEntity
  8
0
  6
Continuous
 62
     7
100
AcDbCircle
 10
6898.140595386
 20
5017.6557025322
 30
0.0
 40
3.000000000000631
100
AcDbArc
 50
269.9996524234
 51
354.1518627664
  0
ARC
  5
8F
330
1F
100
AcDbEntity
  8
0
  6
Continuous
 62
     7
100
AcDbCircle
 10
6854.0187543528
 20
5158.1557032626
 30
0.0
 40
2.999999999999698
100
AcDbArc
 50
89.9995992943
 51
180.0000093922
  0
ARC
  5
90
330
1F
100
AcDbEntity
  8
0
  6
Continuous
 62
     7
100
AcDbCircle
 10
6894.0187581675
 20
5158.1557032626
 30
0.0
 40
3.00000000000004
100
AcDbArc
 50
359.9999906078
 51
90.0004007038
  0
ARC
  5
91
330
1F
100
AcDbEntity
  8
0
  6
Continuous
 62
     7
100
AcDbCircle
 10
6249.6891040446
 20
5141.6557033519
 30
0.0
 40
2.999999999999296
100
AcDbArc
 50
90.0000791997
 51
173.3455640148
  0
ARC
  5
92
330
1F
100
AcDbEntity
  8
0
  6
Continuous
 62
     7
100
AcDbCircle
 10
6298.3484054955
 20
5141.6557033519
 30
0.0
 40
2.999999999998287
100
AcDbArc
 50
6.6544359852
 51
89.9999207984
  0
ARC
  5
93
330
1F
100
AcDbEntity
  8
0
  6
Continuous
 62
     7
100
AcDbCircle
 10
6249.8969230949
 20
5017.6557025323
 30
0.0
 40
3.000000000000903
100
AcDbArc
 50
185.8481372346
 51
270.0000629848
  0
ARC
  5
94
330
1F
100
AcDbEntity
  8
0
  6
Continuous
 62
     7
100
AcDbCircle
 10
6298.1405864453
 20
5017.6557025323
 30
0.0
 40
2.999999999999994
100
AcDbArc
 50
269.9999370133
 51
354.1518627654
  0
ARC
  5
95
330
1F
100
AcDbEntity
  8
0
  6
Continuous
 62
     7
100
AcDbCircle
 10
6254.0187603133
 20
5158.1557032625
 30
0.0
 40
2.999999999999327
100
AcDbArc
 50
90.0001684782
 51
180.000009391
  0
ARC
  5
96
330
1F
100
AcDbEntity
  8
0
  6
Continuous
 62
     7
100
AcDbCircle
 10
6294.0187492268
 20
5158.1557032625
 30
0.0
 40
3.00000000000004
100
AcDbArc
 50
359.999990609
 51
89.9998315218
  0
CIRCLE
  5
97
330
1F
100
AcDbEntity
  8
0
  6
Continuous
 62
     7
100
AcDbCircle
 10
7156.0187553361
 20
5224.7432056916
 30
0.0
 40
3.999999999999091
  0
CIRCLE
  5
98
330
1F
100
AcDbEntity
  8
0
  6
Continuous
 62
     7
100
AcDbCircle
 10
5392.0187553361
 20
5224.7432056916
 30
0.0
 40
4.0
  0
ARC
  5
99
330
1F
100
AcDbEntity
  8
0
  6
Continuous
 62
     7
100
AcDbCircle
 10
6274.0187553366
 20
5122.6557034939
 30
0.0
 40
40.00000000000007
100
AcDbArc
 50
0.0
 51
54.9003678056
  0
ARC
  5
9A
330
1F
100
AcDbEntity
  8
0
  6
Continuous
 62
     7
100
AcDbCircle
 10
6274.0187553366
 20
5122.6557034939
 30
0.0
 40
40.00000000000144
100
AcDbArc
 50
125.0996321963
 51
216.1070114046
  0
ARC
  5
9B
330
1F
100
AcDbEntity
  8
0
  6
Continuous
 62
     7
100
AcDbCircle
 10
6274.0187553366
 20
5122.6557034939
 30
0.0
 40
40.0
100
AcDbArc
 50
323.8929885931
 51
0.0
  0
ARC
  5
9C
330
1F
100
AcDbEntity
  8
0
  6
Continuous
 62
     7
100
AcDbCircle
 10
6874.0187553366
 20
5122.6557034939
 30
0.0
 40
40.00000000000081
100
AcDbArc
 50
0.0
 51
54.9003678056
  0
ARC
  5
9D
330
1F
100
AcDbEntity
  8
0
  6
Continuous
 62
     7
100
AcDbCircle
 10
6874.0187553366
 20
5122.6557034939
 30
0.0
 40
40.00000000000144
100
AcDbArc
 50
125.0996321963
 51
216.1070114046
  0
ARC
  5
9E
330
1F
100
AcDbEntity
  8
0
  6
Continuous
 62
     7
100
AcDbCircle
 10
6874.0187553366
 20
5122.6557034939
 30
0.0
 40
40.0
100
AcDbArc
 50
323.8929885931
 51
0.0
  0
ARC
  5
9F
330
1F
100
AcDbEntity
  8
0
  6
Continuous
 62
     7
100
AcDbCircle
 10
5674.0187553366
 20
5122.6557034939
 30
0.0
 40
39.99999999999932
100
AcDbArc
 50
0.0
 51
54.9003678056
  0
ARC
  5
A0
330
1F
100
AcDbEntity
  8
0
  6
Continuous
 62
     7
100
AcDbCircle
 10
5674.0187553366
 20
5122.6557034939
 30
0.0
 40
40.00000000000004
100
AcDbArc
 50
125.0996321963
 51
216.1070114046
  0
ARC
  5
A1
330
1F
100
AcDbEntity
  8
0
  6
Continuous
 62
     7
100
AcDbCircle
 10
5674.0187553366
 20
5122.6557034939
 30
0.0
 40
39.99999999999919
100
AcDbArc
 50
323.8929885931
 51
0.0
  0
ARC
  5
A2
330
1F
100
AcDbEntity
  8
0
  6
Continuous
 62
     7
100
AcDbCircle
 10
7869.2595717174
 20
5017.6557034939
 30
0.0
 40
2.999999999999149
100
AcDbArc
 50
270.0
 51
354.1518719739
  0
ARC
  5
A3
330
1F
100
AcDbEntity
  8
0
  6
Continuous
 62
     7
100
AcDbCircle
 10
7869.4673962555
 20
5141.655702925
 30
0.0
 40
3.000000000000425
100
AcDbArc
 50
6.6544359849
 51
90.0000012676
  0
ARC
  5
A4
330
1F
100
AcDbEntity
  8
0
  6
Continuous
 62
     7
100
AcDbCircle
 10
7865.1377438512
 20
5158.1557032625
 30
0.0
 40
3.000000000000041
100
AcDbArc
 50
0.000009534
 51
90.0
  0
ARC
  5
A5
330
1F
100
AcDbEntity
  8
0
  6
Continuous
 62
     7
100
AcDbCircle
 10
7869.2595717174
 20
5017.6557034939
 30
0.0
 40
2.999999999999149
100
AcDbArc
 50
270.0
 51
354.1518719739
  0
ARC
  5
A6
330
1F
100
AcDbEntity
  8
0
  6
Continuous
 62
     7
100
AcDbCircle
 10
7869.4673962555
 20
5141.655702925
 30
0.0
 40
3.000000000000425
100
AcDbArc
 50
6.6544359849
 51
90.0000012676
  0
ARC
  5
A7
330
1F
100
AcDbEntity
  8
0
  6
Continuous
 62
     7
100
AcDbCircle
 10
7865.1377438512
 20
5158.1557032625
 30
0.0
 40
3.000000000000041
100
AcDbArc
 50
0.000009534
 51
90.0
  0
ARC
  5
A8
330
1F
100
AcDbEntity
  8
0
  6
Continuous
 62
     7
100
AcDbCircle
 10
7869.2595717174
 20
5017.6557034939
 30
0.0
 40
2.999999999999149
100
AcDbArc
 50
270.0
 51
354.1518719739
  0
ARC
  5
A9
330
1F
100
AcDbEntity
  8
0
  6
Continuous
 62
     7
100
AcDbCircle
 10
7869.4673962555
 20
5141.655702925
 30
0.0
 40
3.000000000000425
100
AcDbArc
 50
6.6544359849
 51
90.0000012676
  0
ARC
  5
AA
330
1F
100
AcDbEntity
  8
0
  6
Continuous
 62
     7
100
AcDbCircle
 10
7865.1377438512
 20
5158.1557032625
 30
0.0
 40
3.000000000000041
100
AcDbArc
 50
0.000009534
 51
90.0
  0
ARC
  5
AB
330
1F
100
AcDbEntity
  8
0
  6
Continuous
 62
     7
100
AcDbCircle
 10
7884.9943033772
 20
5229.0016899822
 30
0.0
 40
8.800000000000567
100
AcDbArc
 50
108.2910480579
 51
119.0553624769
  0
ARC
  5
AC
330
1F
100
AcDbEntity
  8
0
  6
Continuous
 62
     7
100
AcDbCircle
 10
7820.1377657857
 20
5185.3557026395
 30
0.0
 40
2.999999999999698
100
AcDbArc
 50
179.9999550329
 51
270.0004007057
  0
ARC
  5
AD
330
1F
100
AcDbEntity
  8
0
  6
Continuous
 62
     7
100
AcDbCircle
 10
7870.1377600637
 20
5185.3557026395
 30
0.0
 40
3.000000000000015
100
AcDbArc
 50
269.9995992943
 51
0.0000449671
  0
ARC
  5
AE
330
1F
100
AcDbEntity
  8
0
  6
Continuous
 62
     7
100
AcDbCircle
 10
7580.0431655851
 20
5142.655702577
 30
0.0
 40
20.00000000000096
100
AcDbArc
 50
0.0000039488
 51
89.9999453584
  0
ARC
  5
AF
330
1F
100
AcDbEntity
  8
0
  6
Continuous
 62
     7
100
AcDbCircle
 10
7580.0431655851
 20
5102.6557025025
 30
0.0
 40
20.00000000000187
100
AcDbArc
 50
270.0000546416
 51
0.0000040554
  0
ARC
  5
B0
330
1F
100
AcDbEntity
  8
0
  6
Continuous
 62
     7
100
AcDbCircle
 10
7869.4673962555
 20
5141.655702925
 30
0.0
 40
3.000000000000425
100
AcDbArc
 50
6.6544359849
 51
90.0000012676
  0
ARC
  5
B1
330
1F
100
AcDbEntity
  8
0
  6
Continuous
 62
     7
100
AcDbCircle
 10
7821.0158641943
 20
5017.6557025322
 30
0.0
 40
3.000000000000692
100
AcDbArc
 50
185.8481372336
 51
270.0003475766
  0
ARC
  5
B2
330
1F
100
AcDbEntity
  8
0
  6
Continuous
 62
     7
100
AcDbCircle
 10
7869.2595717174
 20
5017.6557034939
 30
0.0
 40
2.999999999999149
100
AcDbArc
 50
270.0
 51
354.1518719739
  0
ARC
  5
B3
330
1F
100
AcDbEntity
  8
0
  6
Continuous
 62
     7
100
AcDbCircle
 10
7788.1377009359
 20
5145.6557040077
 30
0.0
 40
3.00000000000004
100
AcDbArc
 50
89.9995992962
 51
180.0000093941
  0
ARC
  5
B4
330
1F
100
AcDbEntity
  8
0
  6
Continuous
 62
     7
100
AcDbCircle
 10
7788.1377009359
 20
5099.6557047972
 30
0.0
 40
3.000000000000313
100
AcDbArc
 50
180.0000261809
 51
270.0004007038
  0
ARC
  5
B5
330
1F
100
AcDbEntity
  8
0
  6
Continuous
 62
     7
100
AcDbCircle
 10
7825.1377610174
 20
5158.1557032626
 30
0.0
 40
3.00000000000095
100
AcDbArc
 50
89.9995992963
 51
180.0000093922
  0
ARC
  5
B6
330
1F
100
AcDbEntity
  8
0
  6
Continuous
 62
     7
100
AcDbCircle
 10
7865.1377438512
 20
5158.1557032625
 30
0.0
 40
3.000000000000041
100
AcDbArc
 50
0.000009534
 51
90.0
  0
ARC
  5
B7
330
1F
100
AcDbEntity
  8
0
  6
Continuous
 62
     7
100
AcDbCircle
 10
7751.1377467292
 20
5242.3557008515
 30
0.0
 40
42.50000000000023
100
AcDbArc
 50
227.444102089
 51
270.0000462616
  0
ARC
  5
B8
330
1F
100
AcDbEntity
  8
0
  6
Continuous
 62
     7
100
AcDbCircle
 10
7568.3377522435
 20
5374.7432049521
 30
0.0
 40
2.000000000001378
100
AcDbArc
 50
179.9998838825
 51
269.9992623398
  0
ARC
  5
B9
330
1F
100
AcDbEntity
  8
0
  6
Continuous
 62
     7
100
AcDbCircle
 10
7822.7690543863
 20
5141.7969139595
 30
0.0
 40
2.860574337887781
100
AcDbArc
 50
92.0244078243
 51
175.8616872388
  0
ARC
  5
BA
330
1F
100
AcDbEntity
  8
0
  6
Continuous
 62
     7
100
AcDbCircle
 10
5674.018839512
 20
4502.6598352425
 30
0.0
 40
8.552641741589323
100
AcDbArc
 50
275.030210219
 51
299.7665292669
  0
ARC
  5
BB
330
1F
100
AcDbEntity
  8
0
  6
Continuous
 62
     7
100
AcDbCircle
 10
5674.0186670479
 20
4502.6598352425
 30
0.0
 40
8.55264174159015
100
AcDbArc
 50
240.2334707331
 51
264.969789781
  0
ARC
  5
BC
330
1F
100
AcDbEntity
  8
0
  6
Continuous
 62
     7
100
AcDbCircle
 10
6874.01882217
 20
4502.659832142
 30
0.0
 40
8.552641741590637
100
AcDbArc
 50
275.0304470996
 51
299.7665711034
  0
ARC
  5
BD
330
1F
100
AcDbEntity
  8
0
  6
Continuous
 62
     7
100
AcDbCircle
 10
6874.0186903503
 20
4502.659832142
 30
0.0
 40
8.552641741590316
100
AcDbArc
 50
240.2334288968
 51
264.9695529012
  0
ARC
  5
BE
330
1F
100
AcDbEntity
  8
0
  6
Continuous
 62
     7
100
AcDbCircle
 10
6274.0188308411
 20
4502.6598336923
 30
0.0
 40
8.552641741589808
100
AcDbArc
 50
275.030328659
 51
299.7665501849
  0
ARC
  5
BF
330
1F
100
AcDbEntity
  8
0
  6
Continuous
 62
     7
100
AcDbCircle
 10
6274.018678699
 20
4502.6598336923
 30
0.0
 40
8.552641741589246
100
AcDbArc
 50
240.2334498153
 51
264.9696713418
  0
CIRCLE
  5
C0
330
1F
100
AcDbEntity
  8
0
  6
Continuous
 62
     7
100
AcDbCircle
 10
5674.0187553361
 20
4343.5668985427
 30
0.0
 40
169.776170925541
  0
CIRCLE
  5
C1
330
1F
100
AcDbEntity
  8
0
  6
Continuous
 62
     7
100
AcDbCircle
 10
6274.0187553361
 20
4343.5668985427
 30
0.0
 40
169.776170925541
  0
CIRCLE
  5
C2
330
1F
100
AcDbEntity
  8
0
  6
Continuous
 62
     7
100
AcDbCircle
 10
6874.0187553361
 20
4343.5668985427
 30
0.0
 40
169.776170925541
  0
CIRCLE
  5
C3
330
1F
100
AcDbEntity
  8
0
  6
Continuous
 62
     7
100
AcDbCircle
 10
6274.0187553361
 20
4343.5668985427
 30
0.0
 40
165.0
  0
CIRCLE
  5
C4
330
1F
100
AcDbEntity
  8
0
  6
Continuous
 62
     7
100
AcDbCircle
 10
6874.0187553361
 20
4343.5668985427
 30
0.0
 40
165.0
  0
CIRCLE
  5
C5
330
1F
100
AcDbEntity
  8
0
  6
Continuous
 62
     7
100
AcDbCircle
 10
5674.0187553361
 20
4343.5668985427
 30
0.0
 40
165.0
  0
CIRCLE
  5
C6
330
1F
100
AcDbEntity
  8
0
  6
Continuous
 62
     7
100
AcDbCircle
 10
6274.0187553361
 20
4343.5668985427
 30
0.0
 40
36.71817853400444
  0
CIRCLE
  5
C7
330
1F
100
AcDbEntity
  8
0
  6
Continuous
 62
     7
100
AcDbCircle
 10
5674.0187553361
 20
4343.5668985427
 30
0.0
 40
36.71817853400444
  0
CIRCLE
  5
C8
330
1F
100
AcDbEntity
  8
0
  6
Continuous
 62
     7
100
AcDbCircle
 10
6874.0187553361
 20
4343.5668985427
 30
0.0
 40
36.71817853400353
  0
ARC
  5
C9
330
1F
100
AcDbEntity
  8
0
  6
Continuous
 62
     7
100
AcDbCircle
 10
6874.0187553361
 20
4343.5668985427
 30
0.0
 40
15.00000000000091
100
AcDbArc
 50
270.0
 51
289.4629506358
  0
ARC
  5
CA
330
1F
100
AcDbEntity
  8
0
  6
Continuous
 62
     7
100
AcDbCircle
 10
6874.0187553361
 20
4343.5668985427
 30
0.0
 40
14.99999999999942
100
AcDbArc
 50
310.5370505584
 51
349.4629494625
  0
ARC
  5
CB
330
1F
100
AcDbEntity
  8
0
  6
Continuous
 62
     7
100
AcDbCircle
 10
6874.0187553361
 20
4343.5668985427
 30
0.0
 40
14.99999999999986
100
AcDbArc
 50
10.5370494062
 51
49.4629505988
  0
ARC
  5
CC
330
1F
100
AcDbEntity
  8
0
  6
Continuous
 62
     7
100
AcDbCircle
 10
6874.0187553361
 20
4343.5668985427
 30
0.0
 40
15.00000000000109
100
AcDbArc
 50
70.5370491218
 51
109.4629508799
  0
ARC
  5
CD
330
1F
100
AcDbEntity
  8
0
  6
Continuous
 62
     7
100
AcDbCircle
 10
6874.0187553361
 20
4343.5668985427
 30
0.0
 40
15.00000000000086
100
AcDbArc
 50
130.5370505975
 51
169.4629493805
  0
ARC
  5
CE
330
1F
100
AcDbEntity
  8
0
  6
Continuous
 62
     7
100
AcDbCircle
 10
6874.0187553361
 20
4343.5668985427
 30
0.0
 40
15.00000000000167
100
AcDbArc
 50
190.5370506477
 51
229.4629493298
  0
ARC
  5
CF
330
1F
100
AcDbEntity
  8
0
  6
Continuous
 62
     7
100
AcDbCircle
 10
6874.0187553361
 20
4343.5668985427
 30
0.0
 40
15.000000000001
100
AcDbArc
 50
250.5370493566
 51
270.0
  0
ARC
  5
D0
330
1F
100
AcDbEntity
  8
0
  6
Continuous
 62
     7
100
AcDbCircle
 10
6274.0187553361
 20
4343.5668985427
 30
0.0
 40
15.00000000000107
100
AcDbArc
 50
270.0
 51
289.4629509606
  0
ARC
  5
D1
330
1F
100
AcDbEntity
  8
0
  6
Continuous
 62
     7
100
AcDbCircle
 10
6274.0187553361
 20
4343.5668985427
 30
0.0
 40
15.00000000000145
100
AcDbArc
 50
310.5370510532
 51
349.4629489746
  0
ARC
  5
D2
330
1F
100
AcDbEntity
  8
0
  6
Continuous
 62
     7
100
AcDbCircle
 10
6274.0187553361
 20
4343.5668985427
 30
0.0
 40
15.00000000000076
100
AcDbArc
 50
10.5370495964
 51
49.4629504113
  0
ARC
  5
D3
330
1F
100
AcDbEntity
  8
0
  6
Continuous
 62
     7
100
AcDbCircle
 10
6274.0187553361
 20
4343.5668985427
 30
0.0
 40
15.00000000000074
100
AcDbArc
 50
70.5370490849
 51
109.4629509179
  0
ARC
  5
D4
330
1F
100
AcDbEntity
  8
0
  6
Continuous
 62
     7
100
AcDbCircle
 10
6274.0187553361
 20
4343.5668985427
 30
0.0
 40
14.99999999999952
100
AcDbArc
 50
130.5370509089
 51
169.4629490646
  0
ARC
  5
D5
330
1F
100
AcDbEntity
  8
0
  6
Continuous
 62
     7
100
AcDbCircle
 10
6274.0187553361
 20
4343.5668985427
 30
0.0
 40
15.00000000000022
100
AcDbArc
 50
190.5370486873
 51
229.4629513178
  0
ARC
  5
D6
330
1F
100
AcDbEntity
  8
0
  6
Continuous
 62
     7
100
AcDbCircle
 10
6274.0187553361
 20
4343.5668985427
 30
0.0
 40
15.00000000000098
100
AcDbArc
 50
250.5370490407
 51
270.0
  0
ARC
  5
D7
330
1F
100
AcDbEntity
  8
0
  6
Continuous
 62
     7
100
AcDbCircle
 10
5674.0187553361
 20
4343.5668985427
 30
0.0
 40
15.00000000000157
100
AcDbArc
 50
270.0
 51
289.4629509206
  0
ARC
  5
D8
330
1F
100
AcDbEntity
  8
0
  6
Continuous
 62
     7
100
AcDbCircle
 10
5674.0187553361
 20
4343.5668985427
 30
0.0
 40
15.00000000000083
100
AcDbArc
 50
310.5370510344
 51
349.4629489932
  0
ARC
  5
D9
330
1F
100
AcDbEntity
  8
0
  6
Continuous
 62
     7
100
AcDbCircle
 10
5674.0187553361
 20
4343.5668985427
 30
0.0
 40
14.99999999999991
100
AcDbArc
 50
10.5370493896
 51
49.4629506151
  0
ARC
  5
DA
330
1F
100
AcDbEntity
  8
0
  6
Continuous
 62
     7
100
AcDbCircle
 10
5674.0187553361
 20
4343.5668985427
 30
0.0
 40
15.00000000000032
100
AcDbArc
 50
70.5370491101
 51
109.4629508869
  0
ARC
  5
DB
330
1F
100
AcDbEntity
  8
0
  6
Continuous
 62
     7
100
AcDbCircle
 10
5674.0187553361
 20
4343.5668985427
 30
0.0
 40
15.00000000000015
100
AcDbArc
 50
130.537049571
 51
169.4629504216
  0
ARC
  5
DC
330
1F
100
AcDbEntity
  8
0
  6
Continuous
 62
     7
100
AcDbCircle
 10
5674.0187553361
 20
4343.5668985427
 30
0.0
 40
15.00000000000045
100
AcDbArc
 50
190.5370479087
 51
229.4629521074
  0
ARC
  5
DD
330
1F
100
AcDbEntity
  8
0
  6
Continuous
 62
     7
100
AcDbCircle
 10
5674.0187553361
 20
4343.5668985427
 30
0.0
 40
15.00000000000102
100
AcDbArc
 50
250.5370490808
 51
270.0
  0
ARC
  5
DE
330
1F
100
AcDbEntity
  8
0
  6
Continuous
 62
     7
100
AcDbCircle
 10
6874.0187562602
 20
4455.7554032143
 30
0.0
 40
44.11688505316577
100
AcDbArc
 50
75.2882434895
 51
104.7117565105
  0
ARC
  5
DF
330
1F
100
AcDbEntity
  8
0
  6
Continuous
 62
     7
100
AcDbCircle
 10
6874.5676364958
 20
4535.479584332
 30
0.0
 40
41.01304293127311
100
AcDbArc
 50
272.8976730604
 51
285.0577569566
  0
ARC
  5
E0
330
1F
100
AcDbEntity
  8
0
  6
Continuous
 62
     7
100
AcDbCircle
 10
6873.4698760246
 20
4535.479584332
 30
0.0
 40
41.01304293127281
100
AcDbArc
 50
254.9422430434
 51
267.1023269396
  0
ARC
  5
E1
330
1F
100
AcDbEntity
  8
0
  6
Continuous
 62
     7
100
AcDbCircle
 10
5674.01875328
 20
4455.7553142642
 30
0.0
 40
44.11697487139899
100
AcDbArc
 50
75.2882541089
 51
104.7117458911
  0
ARC
  5
E2
330
1F
100
AcDbEntity
  8
0
  6
Continuous
 62
     7
100
AcDbCircle
 10
5674.5677075648
 20
4535.4792099458
 30
0.0
 40
41.01266603366956
100
AcDbArc
 50
272.897616975
 51
285.0578130412
  0
ARC
  5
E3
330
1F
100
AcDbEntity
  8
0
  6
Continuous
 62
     7
100
AcDbCircle
 10
5673.4698581432
 20
4535.479584332
 30
0.0
 40
41.01304293127281
100
AcDbArc
 50
254.9422430434
 51
267.1023269396
  0
ARC
  5
E4
330
1F
100
AcDbEntity
  8
0
  6
Continuous
 62
     7
100
AcDbCircle
 10
6274.0187547701
 20
4455.7554135118
 30
0.0
 40
44.11687698538937
100
AcDbArc
 50
75.2882307341
 51
104.7117692659
  0
ARC
  5
E5
330
1F
100
AcDbEntity
  8
0
  6
Continuous
 62
     7
100
AcDbCircle
 10
6274.5677536886
 20
4535.4788802678
 30
0.0
 40
41.01233414426719
100
AcDbArc
 50
272.8975675869
 51
285.0578624296
  0
ARC
  5
E6
330
1F
100
AcDbEntity
  8
0
  6
Continuous
 62
     7
100
AcDbCircle
 10
6273.4697558516
 20
4535.4788802678
 30
0.0
 40
41.01233414426631
100
AcDbArc
 50
254.9421375704
 51
267.1024324131
  0
ARC
  5
E7
330
1F
100
AcDbEntity
  8
0
  6
Continuous
 62
     7
100
AcDbCircle
 10
5674.01875328
 20
4486.1553264605
 30
0.0
 40
12.5476840333847
100
AcDbArc
 50
86.5733191066
 51
93.4266808934
  0
ARC
  5
E8
330
1F
100
AcDbEntity
  8
0
  6
Continuous
 62
     7
100
AcDbCircle
 10
5674.01875328
 20
4506.8840129987
 30
0.0
 40
12.54768403338277
100
AcDbArc
 50
266.5733191066
 51
273.4266808934
  0
ARC
  5
E9
330
1F
100
AcDbEntity
  8
0
  6
Continuous
 62
     7
100
AcDbCircle
 10
6874.0187562602
 20
4486.1549391844
 30
0.0
 40
12.54807150770905
100
AcDbArc
 50
86.573356884
 51
93.426643116
  0
ARC
  5
EA
330
1F
100
AcDbEntity
  8
0
  6
Continuous
 62
     7
100
AcDbCircle
 10
6874.0187562602
 20
4506.8844002747
 30
0.0
 40
12.54807150770858
100
AcDbArc
 50
266.573356884
 51
273.426643116
  0
ARC
  5
EB
330
1F
100
AcDbEntity
  8
0
  6
Continuous
 62
     7
100
AcDbCircle
 10
6874.0187553361
 20
4343.5668985427
 30
0.0
 40
5.250000000001713
100
AcDbArc
 50
278.2132107017
 51
81.7867892983
  0
ARC
  5
EC
330
1F
100
AcDbEntity
  8
0
  6
Continuous
 62
     7
100
AcDbCircle
 10
6874.0187553361
 20
4343.5668985427
 30
0.0
 40
5.250000000001974
100
AcDbArc
 50
98.2132107017
 51
261.7867892983
  0
ARC
  5
ED
330
1F
100
AcDbEntity
  8
0
  6
Continuous
 62
     7
100
AcDbCircle
 10
6874.0187553361
 20
4343.5668985427
 30
0.0
 40
5.250000000001974
100
AcDbArc
 50
81.7867892983
 51
98.2132107017
  0
ARC
  5
EE
330
1F
100
AcDbEntity
  8
0
  6
Continuous
 62
     7
100
AcDbCircle
 10
6874.0187553361
 20
4343.5668985427
 30
0.0
 40
5.250000000000173
100
AcDbArc
 50
261.7867892983
 51
278.2132107017
  0
ARC
  5
EF
330
1F
100
AcDbEntity
  8
0
  6
Continuous
 62
     7
100
AcDbCircle
 10
5674.0187553361
 20
4343.5668985427
 30
0.0
 40
5.250000000000173
100
AcDbArc
 50
278.2132107017
 51
81.7867892983
  0
ARC
  5
F0
330
1F
100
AcDbEntity
  8
0
  6
Continuous
 62
     7
100
AcDbCircle
 10
5674.0187553361
 20
4343.5668985427
 30
0.0
 40
5.250000000000043
100
AcDbArc
 50
98.2132107017
 51
261.7867892983
  0
ARC
  5
F1
330
1F
100
AcDbEntity
  8
0
  6
Continuous
 62
     7
100
AcDbCircle
 10
5674.0187553361
 20
4343.5668985427
 30
0.0
 40
5.250000000000173
100
AcDbArc
 50
81.7867892983
 51
98.2132107017
  0
ARC
  5
F2
330
1F
100
AcDbEntity
  8
0
  6
Continuous
 62
     7
100
AcDbCircle
 10
5674.0187553361
 20
4343.5668985427
 30
0.0
 40
5.250000000000173
100
AcDbArc
 50
261.7867892983
 51
278.2132107017
  0
ARC
  5
F3
330
1F
100
AcDbEntity
  8
0
  6
Continuous
 62
     7
100
AcDbCircle
 10
6274.0187547701
 20
4486.1549106173
 30
0.0
 40
12.54809957847676
100
AcDbArc
 50
86.5733986398
 51
93.4266013602
  0
ARC
  5
F4
330
1F
100
AcDbEntity
  8
0
  6
Continuous
 62
     7
100
AcDbCircle
 10
6274.0187547701
 20
4506.8844288419
 30
0.0
 40
12.54809957847657
100
AcDbArc
 50
266.5733986397
 51
273.4266013603
  0
ARC
  5
F5
330
1F
100
AcDbEntity
  8
0
  6
Continuous
 62
     7
100
AcDbCircle
 10
6274.0187553361
 20
4343.5668985427
 30
0.0
 40
5.250000000000043
100
AcDbArc
 50
278.2132107017
 51
81.7867892983
  0
ARC
  5
F6
330
1F
100
AcDbEntity
  8
0
  6
Continuous
 62
     7
100
AcDbCircle
 10
6274.0187553361
 20
4343.5668985427
 30
0.0
 40
5.250000000000043
100
AcDbArc
 50
98.2132107017
 51
261.7867892983
  0
ARC
  5
F7
330
1F
100
AcDbEntity
  8
0
  6
Continuous
 62
     7
100
AcDbCircle
 10
6274.0187553361
 20
4343.5668985427
 30
0.0
 40
5.250000000000043
100
AcDbArc
 50
81.7867892983
 51
98.2132107017
  0
ARC
  5
F8
330
1F
100
AcDbEntity
  8
0
  6
Continuous
 62
     7
100
AcDbCircle
 10
6274.0187553361
 20
4343.5668985427
 30
0.0
 40
5.250000000000043
100
AcDbArc
 50
261.7867892983
 51
278.2132107017
  0
CIRCLE
  5
F9
330
1F
100
AcDbEntity
  8
0
  6
Continuous
 62
     7
100
AcDbCircle
 10
5674.0187553361
 20
4343.5668985427
 30
0.0
 40
24.96512544439429
  0
CIRCLE
  5
FA
330
1F
100
AcDbEntity
  8
0
  6
Continuous
 62
     7
100
AcDbCircle
 10
5674.0187553361
 20
4343.5668985427
 30
0.0
 40
35.00000000000091
  0
CIRCLE
  5
FB
330
1F
100
AcDbEntity
  8
0
  6
Continuous
 62
     7
100
AcDbCircle
 10
5674.0187553361
 20
4343.5668985427
 30
0.0
 40
35.16921944985916
  0
CIRCLE
  5
FC
330
1F
100
AcDbEntity
  8
0
  6
Continuous
 62
     7
100
AcDbCircle
 10
5674.0187553361
 20
4343.5668985427
 30
0.0
 40
22.00000000000182
  0
CIRCLE
  5
FD
330
1F
100
AcDbEntity
  8
0
  6
Continuous
 62
     7
100
AcDbCircle
 10
5674.0187553361
 20
4343.5668985427
 30
0.0
 40
20.50000000000091
  0
CIRCLE
  5
FE
330
1F
100
AcDbEntity
  8
0
  6
Continuous
 62
     7
100
AcDbCircle
 10
5674.0187553361
 20
4343.5668985427
 30
0.0
 40
19.48700763430497
  0
CIRCLE
  5
FF
330
1F
100
AcDbEntity
  8
0
  6
Continuous
 62
     7
100
AcDbCircle
 10
5674.0187553361
 20
4343.5668985427
 30
0.0
 40
5.700000000000728
  0
CIRCLE
  5
100
330
1F
100
AcDbEntity
  8
0
  6
Continuous
 62
     7
100
AcDbCircle
 10
5674.0187553361
 20
4357.5668985427
 30
0.0
 40
5.000000000000909
  0
CIRCLE
  5
101
330
1F
100
AcDbEntity
  8
0
  6
Continuous
 62
     7
100
AcDbCircle
 10
5686.1431109891
 20
4350.5668985427
 30
0.0
 40
4.999999999999091
  0
CIRCLE
  5
102
330
1F
100
AcDbEntity
  8
0
  6
Continuous
 62
     7
100
AcDbCircle
 10
5686.1431109891
 20
4336.5668985427
 30
0.0
 40
4.999999999999091
  0
CIRCLE
  5
103
330
1F
100
AcDbEntity
  8
0
  6
Continuous
 62
     7
100
AcDbCircle
 10
5674.0187553361
 20
4329.5668985427
 30
0.0
 40
5.0
  0
CIRCLE
  5
104
330
1F
100
AcDbEntity
  8
0
  6
Continuous
 62
     7
100
AcDbCircle
 10
5661.8943996831
 20
4336.5668985427
 30
0.0
 40
5.0
  0
CIRCLE
  5
105
330
1F
100
AcDbEntity
  8
0
  6
Continuous
 62
     7
100
AcDbCircle
 10
5661.8943996831
 20
4350.5668985427
 30
0.0
 40
5.0
  0
CIRCLE
  5
106
330
1F
100
AcDbEntity
  8
0
  6
Continuous
 62
     7
100
AcDbCircle
 10
6874.0187553361
 20
4343.5668985427
 30
0.0
 40
24.96512544439429
  0
CIRCLE
  5
107
330
1F
100
AcDbEntity
  8
0
  6
Continuous
 62
     7
100
AcDbCircle
 10
6874.0187553361
 20
4343.5668985427
 30
0.0
 40
34.99999999999909
  0
CIRCLE
  5
108
330
1F
100
AcDbEntity
  8
0
  6
Continuous
 62
     7
100
AcDbCircle
 10
6874.0187553361
 20
4343.5668985427
 30
0.0
 40
35.16921944985734
  0
CIRCLE
  5
109
330
1F
100
AcDbEntity
  8
0
  6
Continuous
 62
     7
100
AcDbCircle
 10
6874.0187553361
 20
4343.5668985427
 30
0.0
 40
22.0
  0
CIRCLE
  5
10A
330
1F
100
AcDbEntity
  8
0
  6
Continuous
 62
     7
100
AcDbCircle
 10
6874.0187553361
 20
4343.5668985427
 30
0.0
 40
20.49999999999909
  0
CIRCLE
  5
10B
330
1F
100
AcDbEntity
  8
0
  6
Continuous
 62
     7
100
AcDbCircle
 10
6874.0187553361
 20
4343.5668985427
 30
0.0
 40
19.48700763430315
  0
CIRCLE
  5
10C
330
1F
100
AcDbEntity
  8
0
  6
Continuous
 62
     7
100
AcDbCircle
 10
6874.0187553361
 20
4343.5668985427
 30
0.0
 40
5.699999999999818
  0
CIRCLE
  5
10D
330
1F
100
AcDbEntity
  8
0
  6
Continuous
 62
     7
100
AcDbCircle
 10
6874.0187553361
 20
4357.5668985427
 30
0.0
 40
4.999999999999091
  0
CIRCLE
  5
10E
330
1F
100
AcDbEntity
  8
0
  6
Continuous
 62
     7
100
AcDbCircle
 10
6886.1431109891
 20
4350.5668985427
 30
0.0
 40
5.0
  0
CIRCLE
  5
10F
330
1F
100
AcDbEntity
  8
0
  6
Continuous
 62
     7
100
AcDbCircle
 10
6886.1431109891
 20
4336.5668985427
 30
0.0
 40
5.0
  0
CIRCLE
  5
110
330
1F
100
AcDbEntity
  8
0
  6
Continuous
 62
     7
100
AcDbCircle
 10
6874.0187553361
 20
4329.5668985427
 30
0.0
 40
4.999999999999091
  0
CIRCLE
  5
111
330
1F
100
AcDbEntity
  8
0
  6
Continuous
 62
     7
100
AcDbCircle
 10
6861.8943996831
 20
4336.5668985427
 30
0.0
 40
5.000000000000909
  0
CIRCLE
  5
112
330
1F
100
AcDbEntity
  8
0
  6
Continuous
 62
     7
100
AcDbCircle
 10
6861.8943996831
 20
4350.5668985427
 30
0.0
 40
5.0
  0
CIRCLE
  5
113
330
1F
100
AcDbEntity
  8
0
  6
Continuous
 62
     7
100
AcDbCircle
 10
6274.0187553361
 20
4343.5668985427
 30
0.0
 40
35.0
  0
CIRCLE
  5
114
330
1F
100
AcDbEntity
  8
0
  6
Continuous
 62
     7
100
AcDbCircle
 10
6274.0187553361
 20
4343.5668985427
 30
0.0
 40
35.16921944985916
  0
CIRCLE
  5
115
330
1F
100
AcDbEntity
  8
0
  6
Continuous
 62
     7
100
AcDbCircle
 10
6274.0187553361
 20
4343.5668985427
 30
0.0
 40
24.96512544439429
  0
CIRCLE
  5
116
330
1F
100
AcDbEntity
  8
0
  6
Continuous
 62
     7
100
AcDbCircle
 10
6274.0187553361
 20
4343.5668985427
 30
0.0
 40
22.00000000000091
  0
CIRCLE
  5
117
330
1F
100
AcDbEntity
  8
0
  6
Continuous
 62
     7
100
AcDbCircle
 10
6274.0187553361
 20
4343.5668985427
 30
0.0
 40
20.5
  0
CIRCLE
  5
118
330
1F
100
AcDbEntity
  8
0
  6
Continuous
 62
     7
100
AcDbCircle
 10
6274.0187553361
 20
4343.5668985427
 30
0.0
 40
19.48700763430497
  0
CIRCLE
  5
119
330
1F
100
AcDbEntity
  8
0
  6
Continuous
 62
     7
100
AcDbCircle
 10
6274.0187553361
 20
4343.5668985427
 30
0.0
 40
5.699999999999818
  0
CIRCLE
  5
11A
330
1F
100
AcDbEntity
  8
0
  6
Continuous
 62
     7
100
AcDbCircle
 10
6274.0187553361
 20
4357.5668985427
 30
0.0
 40
5.000000000000909
  0
CIRCLE
  5
11B
330
1F
100
AcDbEntity
  8
0
  6
Continuous
 62
     7
100
AcDbCircle
 10
6286.1431109891
 20
4350.5668985427
 30
0.0
 40
4.999999999999091
  0
CIRCLE
  5
11C
330
1F
100
AcDbEntity
  8
0
  6
Continuous
 62
     7
100
AcDbCircle
 10
6286.1431109891
 20
4336.5668985427
 30
0.0
 40
4.999999999999091
  0
CIRCLE
  5
11D
330
1F
100
AcDbEntity
  8
0
  6
Continuous
 62
     7
100
AcDbCircle
 10
6274.0187553361
 20
4329.5668985427
 30
0.0
 40
5.0
  0
CIRCLE
  5
11E
330
1F
100
AcDbEntity
  8
0
  6
Continuous
 62
     7
100
AcDbCircle
 10
6261.8943996831
 20
4336.5668985427
 30
0.0
 40
5.0
  0
CIRCLE
  5
11F
330
1F
100
AcDbEntity
  8
0
  6
Continuous
 62
     7
100
AcDbCircle
 10
6261.8943996831
 20
4350.5668985427
 30
0.0
 40
5.0
  0
LINE
  5
120
330
1F
100
AcDbEntity
  8
0
  6
Continuous
 62
     7
100
AcDbLine
 10
6838.4359754222
 20
5236.6942174445
 30
0.0
 11
6839.0453137057
 21
5236.355700315
 31
0.0
  0
LINE
  5
121
330
1F
100
AcDbEntity
  8
0
  6
Continuous
 62
     7
100
AcDbLine
 10
6908.9921988147
 20
5236.355700315
 30
0.0
 11
6909.6015370982
 21
5236.6942174445
 31
0.0
  0
LINE
  5
122
330
1F
100
AcDbEntity
  8
0
  6
Continuous
 62
     7
100
AcDbLine
 10
5638.4359873431
 20
5236.6942174445
 30
0.0
 11
5639.0452958243
 21
5236.355700315
 31
0.0
  0
LINE
  5
123
330
1F
100
AcDbEntity
  8
0
  6
Continuous
 62
     7
100
AcDbLine
 10
5708.9922107356
 20
5236.355700315
 30
0.0
 11
5709.6015192168
 21
5236.6942174445
 31
0.0
  0
LINE
  5
124
330
1F
100
AcDbEntity
  8
0
  6
Continuous
 62
     7
100
AcDbLine
 10
6238.4359813826
 20
5236.6942174445
 30
0.0
 11
6239.045304765
 21
5236.355700315
 31
0.0
  0
LINE
  5
125
330
1F
100
AcDbEntity
  8
0
  6
Continuous
 62
     7
100
AcDbLine
 10
6308.9922047751
 20
5236.355700315
 30
0.0
 11
6309.6015281575
 21
5236.6942174445
 31
0.0
  0
LINE
  5
126
330
1F
100
AcDbEntity
  8
0
  6
Continuous
 62
     7
100
AcDbLine
 10
6844.0187848704
 20
5196.3557012091
 30
0.0
 11
6846.0187591212
 21
5192.3557042788
 31
0.0
  0
LINE
  5
127
330
1F
100
AcDbEntity
  8
0
  6
Continuous
 62
     7
100
AcDbLine
 10
6902.0187533992
 20
5192.3557042788
 30
0.0
 11
6904.01872765
 21
5196.3557012091
 31
0.0
  0
LINE
  5
128
330
1F
100
AcDbEntity
  8
0
  6
Continuous
 62
     7
100
AcDbLine
 10
6846.0187591212
 20
5192.3557042788
 30
0.0
 11
6846.0187591212
 21
5185.355704994
 31
0.0
  0
LINE
  5
129
330
1F
100
AcDbEntity
  8
0
  6
Continuous
 62
     7
100
AcDbLine
 10
6902.0187533992
 20
5185.355704994
 30
0.0
 11
6902.0187533992
 21
5192.3557042788
 31
0.0
  0
LINE
  5
12A
330
1F
100
AcDbEntity
  8
0
  6
Continuous
 62
     7
100
AcDbLine
 10
6858.0187834399
 20
5182.3557026396
 30
0.0
 11
6858.0187834399
 21
5161.1557032625
 31
0.0
  0
LINE
  5
12B
330
1F
100
AcDbEntity
  8
0
  6
Continuous
 62
     7
100
AcDbLine
 10
6858.0187834399
 20
5147.1557037617
 30
0.0
 11
6858.0187834399
 21
5144.6557033519
 31
0.0
  0
LINE
  5
12C
330
1F
100
AcDbEntity
  8
0
  6
Continuous
 62
     7
100
AcDbLine
 10
6890.0187290805
 20
5144.6557033519
 30
0.0
 11
6890.0187290805
 21
5147.1557037617
 31
0.0
  0
LINE
  5
12D
330
1F
100
AcDbEntity
  8
0
  6
Continuous
 62
     7
100
AcDbLine
 10
6890.0187290805
 20
5161.1557032625
 30
0.0
 11
6890.0187290805
 21
5182.3557026396
 31
0.0
  0
LINE
  5
12E
330
1F
100
AcDbEntity
  8
0
  6
Continuous
 62
     7
100
AcDbLine
 10
6244.0187610286
 20
5196.3557012091
 30
0.0
 11
6246.0187501805
 21
5192.3557042788
 31
0.0
  0
LINE
  5
12F
330
1F
100
AcDbEntity
  8
0
  6
Continuous
 62
     7
100
AcDbLine
 10
6302.0187593596
 20
5192.3557042788
 30
0.0
 11
6304.0187485116
 21
5196.3557012091
 31
0.0
  0
LINE
  5
130
330
1F
100
AcDbEntity
  8
0
  6
Continuous
 62
     7
100
AcDbLine
 10
6246.0187501805
 20
5192.3557042788
 30
0.0
 11
6246.0187501805
 21
5185.355704994
 31
0.0
  0
LINE
  5
131
330
1F
100
AcDbEntity
  8
0
  6
Continuous
 62
     7
100
AcDbLine
 10
6302.0187593596
 20
5185.355704994
 30
0.0
 11
6302.0187593596
 21
5192.3557042788
 31
0.0
  0
LINE
  5
132
330
1F
100
AcDbEntity
  8
0
  6
Continuous
 62
     7
100
AcDbLine
 10
6258.0187595981
 20
5182.3557026396
 30
0.0
 11
6258.0187595981
 21
5161.1557032625
 31
0.0
  0
LINE
  5
133
330
1F
100
AcDbEntity
  8
0
  6
Continuous
 62
     7
100
AcDbLine
 10
6258.0187595981
 20
5147.1557037617
 30
0.0
 11
6258.0187595981
 21
5144.6557033519
 31
0.0
  0
LINE
  5
134
330
1F
100
AcDbEntity
  8
0
  6
Continuous
 62
     7
100
AcDbLine
 10
6290.0187499421
 20
5144.6557033519
 30
0.0
 11
6290.0187499421
 21
5147.1557037617
 31
0.0
  0
LINE
  5
135
330
1F
100
AcDbEntity
  8
0
  6
Continuous
 62
     7
100
AcDbLine
 10
6290.0187499421
 20
5161.1557032625
 30
0.0
 11
6290.0187499421
 21
5182.3557026396
 31
0.0
  0
LINE
  5
136
330
1F
100
AcDbEntity
  8
0
  6
Continuous
 62
     7
100
AcDbLine
 10
5644.018766989
 20
5196.3557012091
 30
0.0
 11
5646.0187412398
 21
5192.3557042788
 31
0.0
  0
LINE
  5
137
330
1F
100
AcDbEntity
  8
0
  6
Continuous
 62
     7
100
AcDbLine
 10
5702.0187653201
 20
5192.3557042788
 30
0.0
 11
5704.0187693732
 21
5196.3557012091
 31
0.0
  0
LINE
  5
138
330
1F
100
AcDbEntity
  8
0
  6
Continuous
 62
     7
100
AcDbLine
 10
5646.0187412398
 20
5192.3557042788
 30
0.0
 11
5646.0187412398
 21
5185.355704994
 31
0.0
  0
LINE
  5
139
330
1F
100
AcDbEntity
  8
0
  6
Continuous
 62
     7
100
AcDbLine
 10
5702.0187653201
 20
5185.355704994
 30
0.0
 11
5702.0187653201
 21
5192.3557042788
 31
0.0
  0
LINE
  5
13A
330
1F
100
AcDbEntity
  8
0
  6
Continuous
 62
     7
100
AcDbLine
 10
5658.0187655585
 20
5182.3557026396
 30
0.0
 11
5658.0187655585
 21
5161.1557032625
 31
0.0
  0
LINE
  5
13B
330
1F
100
AcDbEntity
  8
0
  6
Continuous
 62
     7
100
AcDbLine
 10
5658.0187655585
 20
5147.1557037617
 30
0.0
 11
5658.0187655585
 21
5144.6557033519
 31
0.0
  0
LINE
  5
13C
330
1F
100
AcDbEntity
  8
0
  6
Continuous
 62
     7
100
AcDbLine
 10
5690.0187410014
 20
5144.6557033519
 30
0.0
 11
5690.0187410014
 21
5147.1557037617
 31
0.0
  0
LINE
  5
13D
330
1F
100
AcDbEntity
  8
0
  6
Continuous
 62
     7
100
AcDbLine
 10
5690.0187410014
 20
5161.1557032625
 30
0.0
 11
5690.0187410014
 21
5182.3557026396
 31
0.0
  0
LINE
  5
13E
330
1F
100
AcDbEntity
  8
0
  6
Continuous
 62
     7
100
AcDbLine
 10
5640.0187588828
 20
5084.6557028304
 30
0.0
 11
5646.9125426906
 21
5017.3500261913
 31
0.0
  0
LINE
  5
13F
330
1F
100
AcDbEntity
  8
0
  6
Continuous
 62
     7
100
AcDbLine
 10
5701.1249638694
 20
5017.3500261913
 30
0.0
 11
5708.0187476771
 21
5084.6557028304
 31
0.0
  0
LINE
  5
140
330
1F
100
AcDbEntity
  8
0
  6
Continuous
 62
     7
100
AcDbLine
 10
5708.0187476771
 20
5084.6557028304
 30
0.0
 11
5701.3281859057
 21
5142.0033460195
 31
0.0
  0
LINE
  5
141
330
1F
100
AcDbEntity
  8
0
  6
Continuous
 62
     7
100
AcDbLine
 10
5646.7093206542
 20
5142.0033460195
 30
0.0
 11
5640.0187588828
 21
5084.6557028304
 31
0.0
  0
LINE
  5
142
330
1F
100
AcDbEntity
  8
0
  6
Continuous
 62
     7
100
AcDbLine
 10
5699.0187443393
 20
5147.1557037617
 30
0.0
 11
5697.0187700885
 21
5151.155703486
 31
0.0
  0
LINE
  5
143
330
1F
100
AcDbEntity
  8
0
  6
Continuous
 62
     7
100
AcDbLine
 10
5651.0187662738
 20
5151.155703486
 30
0.0
 11
5649.0187622207
 21
5147.1557037617
 31
0.0
  0
LINE
  5
144
330
1F
100
AcDbEntity
  8
0
  6
Continuous
 62
     7
100
AcDbLine
 10
5651.0187662738
 20
5158.1557027708
 30
0.0
 11
5651.0187662738
 21
5151.155703486
 31
0.0
  0
LINE
  5
145
330
1F
100
AcDbEntity
  8
0
  6
Continuous
 62
     7
100
AcDbLine
 10
5697.0187700885
 20
5151.155703486
 30
0.0
 11
5697.0187700885
 21
5158.1557027708
 31
0.0
  0
LINE
  5
146
330
1F
100
AcDbEntity
  8
0
  6
Continuous
 62
     7
100
AcDbLine
 10
5658.0187655585
 20
5147.1557037617
 30
0.0
 11
5658.0187655585
 21
5144.6557033519
 31
0.0
  0
LINE
  5
147
330
1F
100
AcDbEntity
  8
0
  6
Continuous
 62
     7
100
AcDbLine
 10
5690.0187410014
 20
5144.6557033519
 30
0.0
 11
5690.0187410014
 21
5147.1557037617
 31
0.0
  0
LINE
  5
148
330
1F
100
AcDbEntity
  8
0
  6
Continuous
 62
     7
100
AcDbLine
 10
6908.0187357562
 20
5084.6557028304
 30
0.0
 11
6901.3281739848
 21
5142.0033460195
 31
0.0
  0
LINE
  5
149
330
1F
100
AcDbEntity
  8
0
  6
Continuous
 62
     7
100
AcDbLine
 10
6846.7093385356
 20
5142.0033460195
 30
0.0
 11
6840.0187767642
 21
5084.6557028304
 31
0.0
  0
LINE
  5
14A
330
1F
100
AcDbEntity
  8
0
  6
Continuous
 62
     7
100
AcDbLine
 10
6840.0187767642
 20
5084.6557028304
 30
0.0
 11
6846.9125307696
 21
5017.3500261913
 31
0.0
  0
LINE
  5
14B
330
1F
100
AcDbEntity
  8
0
  6
Continuous
 62
     7
100
AcDbLine
 10
6901.1249817508
 20
5017.3500261913
 30
0.0
 11
6908.0187357562
 21
5084.6557028304
 31
0.0
  0
LINE
  5
14C
330
1F
100
AcDbEntity
  8
0
  6
Continuous
 62
     7
100
AcDbLine
 10
6899.0187324183
 20
5147.1557037617
 30
0.0
 11
6897.0187581675
 21
5151.155703486
 31
0.0
  0
LINE
  5
14D
330
1F
100
AcDbEntity
  8
0
  6
Continuous
 62
     7
100
AcDbLine
 10
6851.0187543528
 20
5151.155703486
 30
0.0
 11
6849.0187801021
 21
5147.1557037617
 31
0.0
  0
LINE
  5
14E
330
1F
100
AcDbEntity
  8
0
  6
Continuous
 62
     7
100
AcDbLine
 10
6851.0187543528
 20
5158.1557027708
 30
0.0
 11
6851.0187543528
 21
5151.155703486
 31
0.0
  0
LINE
  5
14F
330
1F
100
AcDbEntity
  8
0
  6
Continuous
 62
     7
100
AcDbLine
 10
6897.0187581675
 20
5151.155703486
 30
0.0
 11
6897.0187581675
 21
5158.1557027708
 31
0.0
  0
LINE
  5
150
330
1F
100
AcDbEntity
  8
0
  6
Continuous
 62
     7
100
AcDbLine
 10
6858.0187834399
 20
5147.1557037617
 30
0.0
 11
6858.0187834399
 21
5144.6557033519
 31
0.0
  0
LINE
  5
151
330
1F
100
AcDbEntity
  8
0
  6
Continuous
 62
     7
100
AcDbLine
 10
6890.0187290805
 20
5144.6557033519
 30
0.0
 11
6890.0187290805
 21
5147.1557037617
 31
0.0
  0
LINE
  5
152
330
1F
100
AcDbEntity
  8
0
  6
Continuous
 62
     7
100
AcDbLine
 10
6308.0187566178
 20
5084.6557028304
 30
0.0
 11
6301.3281948464
 21
5142.0033460195
 31
0.0
  0
LINE
  5
153
330
1F
100
AcDbEntity
  8
0
  6
Continuous
 62
     7
100
AcDbLine
 10
6246.7093146937
 20
5142.0033460195
 30
0.0
 11
6240.0187529223
 21
5084.6557028304
 31
0.0
  0
LINE
  5
154
330
1F
100
AcDbEntity
  8
0
  6
Continuous
 62
     7
100
AcDbLine
 10
6240.0187529223
 20
5084.6557028304
 30
0.0
 11
6246.9125367301
 21
5017.3500261913
 31
0.0
  0
LINE
  5
155
330
1F
100
AcDbEntity
  8
0
  6
Continuous
 62
     7
100
AcDbLine
 10
6301.1249728101
 20
5017.3500261913
 30
0.0
 11
6308.0187566178
 21
5084.6557028304
 31
0.0
  0
LINE
  5
156
330
1F
100
AcDbEntity
  8
0
  6
Continuous
 62
     7
100
AcDbLine
 10
6299.01875328
 20
5147.1557037617
 30
0.0
 11
6297.0187492268
 21
5151.155703486
 31
0.0
  0
LINE
  5
157
330
1F
100
AcDbEntity
  8
0
  6
Continuous
 62
     7
100
AcDbLine
 10
6251.0187603133
 20
5151.155703486
 30
0.0
 11
6249.0187562602
 21
5147.1557037617
 31
0.0
  0
LINE
  5
158
330
1F
100
AcDbEntity
  8
0
  6
Continuous
 62
     7
100
AcDbLine
 10
6251.0187603133
 20
5158.1557027708
 30
0.0
 11
6251.0187603133
 21
5151.155703486
 31
0.0
  0
LINE
  5
159
330
1F
100
AcDbEntity
  8
0
  6
Continuous
 62
     7
100
AcDbLine
 10
6297.0187492268
 20
5151.155703486
 30
0.0
 11
6297.0187492268
 21
5158.1557027708
 31
0.0
  0
LINE
  5
15A
330
1F
100
AcDbEntity
  8
0
  6
Continuous
 62
     7
100
AcDbLine
 10
6258.0187595981
 20
5147.1557037617
 30
0.0
 11
6258.0187595981
 21
5144.6557033519
 31
0.0
  0
LINE
  5
15B
330
1F
100
AcDbEntity
  8
0
  6
Continuous
 62
     7
100
AcDbLine
 10
6290.0187499421
 20
5144.6557033519
 30
0.0
 11
6290.0187499421
 21
5147.1557037617
 31
0.0
  0
LINE
  5
15C
330
1F
100
AcDbEntity
  8
0
  6
Continuous
 62
     7
100
AcDbLine
 10
5639.0187419551
 20
5236.355700315
 30
0.0
 11
5642.0187629359
 21
5229.3557010303
 31
0.0
  0
LINE
  5
15D
330
1F
100
AcDbEntity
  8
0
  6
Continuous
 62
     7
100
AcDbLine
 10
5706.018743624
 20
5229.3557010303
 30
0.0
 11
5709.0187646048
 21
5236.355700315
 31
0.0
  0
LINE
  5
15E
330
1F
100
AcDbEntity
  8
0
  6
Continuous
 62
     7
100
AcDbLine
 10
5642.0187629359
 20
5229.3557010303
 30
0.0
 11
5647.5187517302
 21
5223.8557047854
 31
0.0
  0
LINE
  5
15F
330
1F
100
AcDbEntity
  8
0
  6
Continuous
 62
     7
100
AcDbLine
 10
5700.5187548297
 20
5223.8557047854
 30
0.0
 11
5706.018743624
 21
5229.3557010303
 31
0.0
  0
LINE
  5
160
330
1F
100
AcDbEntity
  8
0
  6
Continuous
 62
     7
100
AcDbLine
 10
5644.5187605517
 20
5199.3556998382
 30
0.0
 11
5644.5187605517
 21
5196.3557012091
 31
0.0
  0
LINE
  5
161
330
1F
100
AcDbEntity
  8
0
  6
Continuous
 62
     7
100
AcDbLine
 10
5703.5187460082
 20
5196.3557012091
 30
0.0
 11
5703.5187460082
 21
5199.3556998382
 31
0.0
  0
LINE
  5
162
330
1F
100
AcDbEntity
  8
0
  6
Continuous
 62
     7
100
AcDbLine
 10
5647.5187517302
 20
5223.8557047854
 30
0.0
 11
5647.5187517302
 21
5199.3556998382
 31
0.0
  0
LINE
  5
163
330
1F
100
AcDbEntity
  8
0
  6
Continuous
 62
     7
100
AcDbLine
 10
5700.5187548297
 20
5199.3556998382
 30
0.0
 11
5700.5187548297
 21
5223.8557047854
 31
0.0
  0
LINE
  5
164
330
1F
100
AcDbEntity
  8
0
  6
Continuous
 62
     7
100
AcDbLine
 10
6239.0187508958
 20
5236.355700315
 30
0.0
 11
6242.0187569755
 21
5229.3557010303
 31
0.0
  0
LINE
  5
165
330
1F
100
AcDbEntity
  8
0
  6
Continuous
 62
     7
100
AcDbLine
 10
6306.0187525647
 20
5229.3557010303
 30
0.0
 11
6309.0187586444
 21
5236.355700315
 31
0.0
  0
LINE
  5
166
330
1F
100
AcDbEntity
  8
0
  6
Continuous
 62
     7
100
AcDbLine
 10
6242.0187569755
 20
5229.3557010303
 30
0.0
 11
6247.5187606709
 21
5223.8557047854
 31
0.0
  0
LINE
  5
167
330
1F
100
AcDbEntity
  8
0
  6
Continuous
 62
     7
100
AcDbLine
 10
6300.5187488692
 20
5223.8557047854
 30
0.0
 11
6306.0187525647
 21
5229.3557010303
 31
0.0
  0
LINE
  5
168
330
1F
100
AcDbEntity
  8
0
  6
Continuous
 62
     7
100
AcDbLine
 10
6244.5187545913
 20
5199.3556998382
 30
0.0
 11
6244.5187545913
 21
5196.3557012091
 31
0.0
  0
LINE
  5
169
330
1F
100
AcDbEntity
  8
0
  6
Continuous
 62
     7
100
AcDbLine
 10
6303.5187549489
 20
5196.3557012091
 30
0.0
 11
6303.5187549489
 21
5199.3556998382
 31
0.0
  0
LINE
  5
16A
330
1F
100
AcDbEntity
  8
0
  6
Continuous
 62
     7
100
AcDbLine
 10
6247.5187606709
 20
5223.8557047854
 30
0.0
 11
6247.5187606709
 21
5199.3556998382
 31
0.0
  0
LINE
  5
16B
330
1F
100
AcDbEntity
  8
0
  6
Continuous
 62
     7
100
AcDbLine
 10
6300.5187488692
 20
5199.3556998382
 30
0.0
 11
6300.5187488692
 21
5223.8557047854
 31
0.0
  0
LINE
  5
16C
330
1F
100
AcDbEntity
  8
0
  6
Continuous
 62
     7
100
AcDbLine
 10
6839.0187300342
 20
5236.355700315
 30
0.0
 11
6842.018751015
 21
5229.3557010303
 31
0.0
  0
LINE
  5
16D
330
1F
100
AcDbEntity
  8
0
  6
Continuous
 62
     7
100
AcDbLine
 10
6906.0187615054
 20
5229.3557010303
 30
0.0
 11
6909.0187824862
 21
5236.355700315
 31
0.0
  0
LINE
  5
16E
330
1F
100
AcDbEntity
  8
0
  6
Continuous
 62
     7
100
AcDbLine
 10
6842.018751015
 20
5229.3557010303
 30
0.0
 11
6847.5187696116
 21
5223.8557047854
 31
0.0
  0
LINE
  5
16F
330
1F
100
AcDbEntity
  8
0
  6
Continuous
 62
     7
100
AcDbLine
 10
6900.5187429088
 20
5223.8557047854
 30
0.0
 11
6906.0187615054
 21
5229.3557010303
 31
0.0
  0
LINE
  5
170
330
1F
100
AcDbEntity
  8
0
  6
Continuous
 62
     7
100
AcDbLine
 10
6844.5187486308
 20
5199.3556998382
 30
0.0
 11
6844.5187486308
 21
5196.3557012091
 31
0.0
  0
LINE
  5
171
330
1F
100
AcDbEntity
  8
0
  6
Continuous
 62
     7
100
AcDbLine
 10
6903.5187638896
 20
5196.3557012091
 30
0.0
 11
6903.5187638896
 21
5199.3556998382
 31
0.0
  0
LINE
  5
172
330
1F
100
AcDbEntity
  8
0
  6
Continuous
 62
     7
100
AcDbLine
 10
6847.5187696116
 20
5223.8557047854
 30
0.0
 11
6847.5187696116
 21
5199.3556998382
 31
0.0
  0
LINE
  5
173
330
1F
100
AcDbEntity
  8
0
  6
Continuous
 62
     7
100
AcDbLine
 10
6900.5187429088
 20
5199.3556998382
 30
0.0
 11
6900.5187429088
 21
5223.8557047854
 31
0.0
  0
LINE
  5
174
330
1F
100
AcDbEntity
  8
0
  6
Continuous
 62
     7
100
AcDbLine
 10
5374.0187562602
 20
5372.7432049523
 30
0.0
 11
7174.0187681811
 21
5372.7432049523
 31
0.0
  0
LINE
  5
175
330
1F
100
AcDbEntity
  8
0
  6
Continuous
 62
     7
100
AcDbLine
 10
7174.0187681811
 20
5272.7432109128
 30
0.0
 11
7174.0187681811
 21
5372.7432049523
 31
0.0
  0
LINE
  5
176
330
1F
100
AcDbEntity
  8
0
  6
Continuous
 62
     7
100
AcDbLine
 10
5374.0187562602
 20
5272.7432109128
 30
0.0
 11
7174.0187681811
 21
5272.7432109128
 31
0.0
  0
LINE
  5
177
330
1F
100
AcDbEntity
  8
0
  6
Continuous
 62
     7
100
AcDbLine
 10
5374.0187562602
 20
5272.7432109128
 30
0.0
 11
5374.0187562602
 21
5372.7432049523
 31
0.0
  0
LINE
  5
178
330
1F
100
AcDbEntity
  8
0
  6
Continuous
 62
     7
100
AcDbLine
 10
7174.0187681811
 20
5182.7432073365
 30
0.0
 11
7174.0187681811
 21
5272.7432109128
 31
0.0
  0
LINE
  5
179
330
1F
100
AcDbEntity
  8
0
  6
Continuous
 62
     7
100
AcDbLine
 10
7174.0187681811
 20
5182.7432073365
 30
0.0
 11
7172.8188074725
 21
5182.7432073365
 31
0.0
  0
LINE
  5
17A
330
1F
100
AcDbEntity
  8
0
  6
Continuous
 62
     7
100
AcDbLine
 10
7172.8188074725
 20
5182.9592071186
 30
0.0
 11
7172.8188074725
 21
5272.5272036801
 31
0.0
  0
LINE
  5
17B
330
1F
100
AcDbEntity
  8
0
  6
Continuous
 62
     7
100
AcDbLine
 10
5375.2187765735
 20
5272.5272036801
 30
0.0
 11
7172.8188074725
 21
5272.5272036801
 31
0.0
  0
LINE
  5
17C
330
1F
100
AcDbEntity
  8
0
  6
Continuous
 62
     7
100
AcDbLine
 10
5375.2187765735
 20
5182.9592071186
 30
0.0
 11
5375.2187765735
 21
5272.5272036801
 31
0.0
  0
LINE
  5
17D
330
1F
100
AcDbEntity
  8
0
  6
Continuous
 62
     7
100
AcDbLine
 10
5375.2187765735
 20
5182.7432073365
 30
0.0
 11
5374.0187562602
 21
5182.7432073365
 31
0.0
  0
LINE
  5
17E
330
1F
100
AcDbEntity
  8
0
  6
Continuous
 62
     7
100
AcDbLine
 10
5374.0187562602
 20
5272.7432109128
 30
0.0
 11
5374.0187562602
 21
5182.7432073365
 31
0.0
  0
LINE
  5
17F
330
1F
100
AcDbEntity
  8
0
  6
Continuous
 62
     7
100
AcDbLine
 10
5374.0187562602
 20
5374.7432090054
 30
0.0
 11
7174.0187681811
 21
5374.7432090054
 31
0.0
  0
LINE
  5
180
330
1F
100
AcDbEntity
  8
0
  6
Continuous
 62
     7
100
AcDbLine
 10
7174.0187681811
 20
5374.7432090054
 30
0.0
 11
7174.0187681811
 21
5372.7432049523
 31
0.0
  0
LINE
  5
181
330
1F
100
AcDbEntity
  8
0
  6
Continuous
 62
     7
100
AcDbLine
 10
5374.0187562602
 20
5372.7432049523
 30
0.0
 11
5374.0187562602
 21
5374.7432090054
 31
0.0
  0
LINE
  5
182
330
1F
100
AcDbEntity
  8
0
  6
Continuous
 62
     7
100
AcDbLine
 10
5414.0187777179
 20
5272.5272036801
 30
0.0
 11
5414.0187777179
 21
5182.7432073365
 31
0.0
  0
LINE
  5
183
330
1F
100
AcDbEntity
  8
0
  6
Continuous
 62
     7
100
AcDbLine
 10
5414.0187777179
 20
5182.7432073365
 30
0.0
 11
5375.2187765735
 21
5182.7432073365
 31
0.0
  0
LINE
  5
184
330
1F
100
AcDbEntity
  8
0
  6
Continuous
 62
     7
100
AcDbLine
 10
5375.2187765735
 20
5182.7432073365
 30
0.0
 11
5375.2187765735
 21
5182.9592071186
 31
0.0
  0
LINE
  5
185
330
1F
100
AcDbEntity
  8
0
  6
Continuous
 62
     7
100
AcDbLine
 10
7172.8188074725
 20
5182.7432073365
 30
0.0
 11
7172.8188074725
 21
5182.9592071186
 31
0.0
  0
LINE
  5
186
330
1F
100
AcDbEntity
  8
0
  6
Continuous
 62
     7
100
AcDbLine
 10
7134.0188063281
 20
5182.7432073365
 30
0.0
 11
7134.0188063281
 21
5272.5272036801
 31
0.0
  0
LINE
  5
187
330
1F
100
AcDbEntity
  8
0
  6
Continuous
 62
     7
100
AcDbLine
 10
7172.8188074725
 20
5182.7432073365
 30
0.0
 11
7134.0188063281
 21
5182.7432073365
 31
0.0
  0
LINE
  5
188
330
1F
100
AcDbEntity
  8
0
  6
Continuous
 62
     7
100
AcDbLine
 10
5374.0187562602
 20
5412.7431966076
 30
0.0
 11
7174.0187681811
 21
5412.7431966076
 31
0.0
  0
LINE
  5
189
330
1F
100
AcDbEntity
  8
0
  6
Continuous
 62
     7
100
AcDbLine
 10
7174.0187681811
 20
5412.7431966076
 30
0.0
 11
7174.0187681811
 21
5374.7432090054
 31
0.0
  0
LINE
  5
18A
330
1F
100
AcDbEntity
  8
0
  6
Continuous
 62
     7
100
AcDbLine
 10
5374.0187562602
 20
5412.7431966076
 30
0.0
 11
5374.0187562602
 21
5374.7432090054
 31
0.0
  0
LINE
  5
18B
330
1F
100
AcDbEntity
  8
0
  6
Continuous
 62
     7
100
AcDbLine
 10
6874.0187562602
 20
5192.3557042788
 30
0.0
 11
6902.0187533992
 21
5192.3557042788
 31
0.0
  0
LINE
  5
18C
330
1F
100
AcDbEntity
  8
0
  6
Continuous
 62
     7
100
AcDbLine
 10
6846.0187591212
 20
5192.3557042788
 30
0.0
 11
6874.0187562602
 21
5192.3557042788
 31
0.0
  0
LINE
  5
18D
330
1F
100
AcDbEntity
  8
0
  6
Continuous
 62
     7
100
AcDbLine
 10
6874.0187562602
 20
5196.3557012091
 30
0.0
 11
6904.01872765
 21
5196.3557012091
 31
0.0
  0
LINE
  5
18E
330
1F
100
AcDbEntity
  8
0
  6
Continuous
 62
     7
100
AcDbLine
 10
6844.0187848704
 20
5196.3557012091
 30
0.0
 11
6874.0187562602
 21
5196.3557012091
 31
0.0
  0
LINE
  5
18F
330
1F
100
AcDbEntity
  8
0
  6
Continuous
 62
     7
100
AcDbLine
 10
6874.0187562602
 20
5182.3557026396
 30
0.0
 11
6899.0187324183
 21
5182.3557026396
 31
0.0
  0
LINE
  5
190
330
1F
100
AcDbEntity
  8
0
  6
Continuous
 62
     7
100
AcDbLine
 10
6849.0187801021
 20
5182.3557026396
 30
0.0
 11
6874.0187562602
 21
5182.3557026396
 31
0.0
  0
LINE
  5
191
330
1F
100
AcDbEntity
  8
0
  6
Continuous
 62
     7
100
AcDbLine
 10
6274.0187622207
 20
5196.3557012091
 30
0.0
 11
6304.0187485116
 21
5196.3557012091
 31
0.0
  0
LINE
  5
192
330
1F
100
AcDbEntity
  8
0
  6
Continuous
 62
     7
100
AcDbLine
 10
6244.0187610286
 20
5196.3557012091
 30
0.0
 11
6274.0187622207
 21
5196.3557012091
 31
0.0
  0
LINE
  5
193
330
1F
100
AcDbEntity
  8
0
  6
Continuous
 62
     7
100
AcDbLine
 10
6274.0187622207
 20
5192.3557042788
 30
0.0
 11
6302.0187593596
 21
5192.3557042788
 31
0.0
  0
LINE
  5
194
330
1F
100
AcDbEntity
  8
0
  6
Continuous
 62
     7
100
AcDbLine
 10
6246.0187501805
 20
5192.3557042788
 30
0.0
 11
6274.0187622207
 21
5192.3557042788
 31
0.0
  0
LINE
  5
195
330
1F
100
AcDbEntity
  8
0
  6
Continuous
 62
     7
100
AcDbLine
 10
6274.0187622207
 20
5182.3557026396
 30
0.0
 11
6299.01875328
 21
5182.3557026396
 31
0.0
  0
LINE
  5
196
330
1F
100
AcDbEntity
  8
0
  6
Continuous
 62
     7
100
AcDbLine
 10
6249.0187562602
 20
5182.3557026396
 30
0.0
 11
6274.0187622207
 21
5182.3557026396
 31
0.0
  0
LINE
  5
197
330
1F
100
AcDbEntity
  8
0
  6
Continuous
 62
     7
100
AcDbLine
 10
5674.0187681811
 20
5192.3557042788
 30
0.0
 11
5702.0187653201
 21
5192.3557042788
 31
0.0
  0
LINE
  5
198
330
1F
100
AcDbEntity
  8
0
  6
Continuous
 62
     7
100
AcDbLine
 10
5646.0187412398
 20
5192.3557042788
 30
0.0
 11
5674.0187681811
 21
5192.3557042788
 31
0.0
  0
LINE
  5
199
330
1F
100
AcDbEntity
  8
0
  6
Continuous
 62
     7
100
AcDbLine
 10
5674.0187681811
 20
5196.3557012091
 30
0.0
 11
5704.0187693732
 21
5196.3557012091
 31
0.0
  0
LINE
  5
19A
330
1F
100
AcDbEntity
  8
0
  6
Continuous
 62
     7
100
AcDbLine
 10
5644.018766989
 20
5196.3557012091
 30
0.0
 11
5674.0187681811
 21
5196.3557012091
 31
0.0
  0
LINE
  5
19B
330
1F
100
AcDbEntity
  8
0
  6
Continuous
 62
     7
100
AcDbLine
 10
5674.0187681811
 20
5182.3557026396
 30
0.0
 11
5699.0187443393
 21
5182.3557026396
 31
0.0
  0
LINE
  5
19C
330
1F
100
AcDbEntity
  8
0
  6
Continuous
 62
     7
100
AcDbLine
 10
5649.0187622207
 20
5182.3557026396
 30
0.0
 11
5674.0187681811
 21
5182.3557026396
 31
0.0
  0
LINE
  5
19D
330
1F
100
AcDbEntity
  8
0
  6
Continuous
 62
     7
100
AcDbLine
 10
5640.0187588828
 20
5084.6557028304
 30
0.0
 11
5708.0187476771
 21
5084.6557028304
 31
0.0
  0
LINE
  5
19E
330
1F
100
AcDbEntity
  8
0
  6
Continuous
 62
     7
100
AcDbLine
 10
5649.6891058581
 20
5144.6557033519
 30
0.0
 11
5698.3484007018
 21
5144.6557033519
 31
0.0
  0
LINE
  5
19F
330
1F
100
AcDbEntity
  8
0
  6
Continuous
 62
     7
100
AcDbLine
 10
5649.8969174521
 20
5014.6557025323
 30
0.0
 11
5698.1405891078
 21
5014.6557025323
 31
0.0
  0
LINE
  5
1A0
330
1F
100
AcDbEntity
  8
0
  6
Continuous
 62
     7
100
AcDbLine
 10
5651.0187662738
 20
5151.155703486
 30
0.0
 11
5697.0187700885
 21
5151.155703486
 31
0.0
  0
LINE
  5
1A1
330
1F
100
AcDbEntity
  8
0
  6
Continuous
 62
     7
100
AcDbLine
 10
5649.0187622207
 20
5147.1557037617
 30
0.0
 11
5699.0187443393
 21
5147.1557037617
 31
0.0
  0
LINE
  5
1A2
330
1F
100
AcDbEntity
  8
0
  6
Continuous
 62
     7
100
AcDbLine
 10
5654.0187574523
 20
5161.1557032625
 30
0.0
 11
5694.0187491076
 21
5161.1557032625
 31
0.0
  0
LINE
  5
1A3
330
1F
100
AcDbEntity
  8
0
  6
Continuous
 62
     7
100
AcDbLine
 10
5690.5187643664
 20
5144.6557033519
 30
0.0
 11
5690.0187410014
 21
5145.0219729627
 31
0.0
  0
LINE
  5
1A4
330
1F
100
AcDbEntity
  8
0
  6
Continuous
 62
     7
100
AcDbLine
 10
5658.0187655585
 20
5145.0219729627
 30
0.0
 11
5657.5187421935
 21
5144.6557033519
 31
0.0
  0
LINE
  5
1A5
330
1F
100
AcDbEntity
  8
0
  6
Continuous
 62
     7
100
AcDbLine
 10
6840.0187767642
 20
5084.6557028304
 30
0.0
 11
6908.0187357562
 21
5084.6557028304
 31
0.0
  0
LINE
  5
1A6
330
1F
100
AcDbEntity
  8
0
  6
Continuous
 62
     7
100
AcDbLine
 10
6849.6890939372
 20
5144.6557033519
 30
0.0
 11
6898.3484185832
 21
5144.6557033519
 31
0.0
  0
LINE
  5
1A7
330
1F
100
AcDbEntity
  8
0
  6
Continuous
 62
     7
100
AcDbLine
 10
6849.8969353335
 20
5014.6557025323
 30
0.0
 11
6898.1405771869
 21
5014.6557025323
 31
0.0
  0
LINE
  5
1A8
330
1F
100
AcDbEntity
  8
0
  6
Continuous
 62
     7
100
AcDbLine
 10
6851.0187543528
 20
5151.155703486
 30
0.0
 11
6897.0187581675
 21
5151.155703486
 31
0.0
  0
LINE
  5
1A9
330
1F
100
AcDbEntity
  8
0
  6
Continuous
 62
     7
100
AcDbLine
 10
6849.0187801021
 20
5147.1557037617
 30
0.0
 11
6899.0187324183
 21
5147.1557037617
 31
0.0
  0
LINE
  5
1AA
330
1F
100
AcDbEntity
  8
0
  6
Continuous
 62
     7
100
AcDbLine
 10
6854.0187753337
 20
5161.1557032625
 30
0.0
 11
6894.0187371867
 21
5161.1557032625
 31
0.0
  0
LINE
  5
1AB
330
1F
100
AcDbEntity
  8
0
  6
Continuous
 62
     7
100
AcDbLine
 10
6890.5187524455
 20
5144.6557033519
 30
0.0
 11
6890.0187290805
 21
5145.0219729627
 31
0.0
  0
LINE
  5
1AC
330
1F
100
AcDbEntity
  8
0
  6
Continuous
 62
     7
100
AcDbLine
 10
6858.0187834399
 20
5145.0219729627
 30
0.0
 11
6857.5187600749
 21
5144.6557033519
 31
0.0
  0
LINE
  5
1AD
330
1F
100
AcDbEntity
  8
0
  6
Continuous
 62
     7
100
AcDbLine
 10
6240.0187529223
 20
5084.6557028304
 30
0.0
 11
6308.0187566178
 21
5084.6557028304
 31
0.0
  0
LINE
  5
1AE
330
1F
100
AcDbEntity
  8
0
  6
Continuous
 62
     7
100
AcDbLine
 10
6249.6890998977
 20
5144.6557033519
 30
0.0
 11
6298.3484096425
 21
5144.6557033519
 31
0.0
  0
LINE
  5
1AF
330
1F
100
AcDbEntity
  8
0
  6
Continuous
 62
     7
100
AcDbLine
 10
6249.8969263928
 20
5014.6557025323
 30
0.0
 11
6298.1405831473
 21
5014.6557025323
 31
0.0
  0
LINE
  5
1B0
330
1F
100
AcDbEntity
  8
0
  6
Continuous
 62
     7
100
AcDbLine
 10
6251.0187603133
 20
5151.155703486
 30
0.0
 11
6297.0187492268
 21
5151.155703486
 31
0.0
  0
LINE
  5
1B1
330
1F
100
AcDbEntity
  8
0
  6
Continuous
 62
     7
100
AcDbLine
 10
6249.0187562602
 20
5147.1557037617
 30
0.0
 11
6299.01875328
 21
5147.1557037617
 31
0.0
  0
LINE
  5
1B2
330
1F
100
AcDbEntity
  8
0
  6
Continuous
 62
     7
100
AcDbLine
 10
6254.0187514918
 20
5161.1557032625
 30
0.0
 11
6294.0187580483
 21
5161.1557032625
 31
0.0
  0
LINE
  5
1B3
330
1F
100
AcDbEntity
  8
0
  6
Continuous
 62
     7
100
AcDbLine
 10
6290.518758406
 20
5144.6557033519
 30
0.0
 11
6290.0187499421
 21
5145.0219729627
 31
0.0
  0
LINE
  5
1B4
330
1F
100
AcDbEntity
  8
0
  6
Continuous
 62
     7
100
AcDbLine
 10
6258.0187595981
 20
5145.0219729627
 30
0.0
 11
6257.5187511342
 21
5144.6557033519
 31
0.0
  0
LINE
  5
1B5
330
1F
100
AcDbEntity
  8
0
  6
Continuous
 62
     7
100
AcDbLine
 10
5639.0187419551
 20
5236.355700315
 30
0.0
 11
5709.0187646048
 21
5236.355700315
 31
0.0
  0
LINE
  5
1B6
330
1F
100
AcDbEntity
  8
0
  6
Continuous
 62
     7
100
AcDbLine
 10
5642.0187629359
 20
5229.3557010303
 30
0.0
 11
5706.018743624
 21
5229.3557010303
 31
0.0
  0
LINE
  5
1B7
330
1F
100
AcDbEntity
  8
0
  6
Continuous
 62
     7
100
AcDbLine
 10
5647.5187517302
 20
5223.8557047854
 30
0.0
 11
5700.5187548297
 21
5223.8557047854
 31
0.0
  0
LINE
  5
1B8
330
1F
100
AcDbEntity
  8
0
  6
Continuous
 62
     7
100
AcDbLine
 10
5644.5187605517
 20
5199.3556998382
 30
0.0
 11
5703.5187460082
 21
5199.3556998382
 31
0.0
  0
LINE
  5
1B9
330
1F
100
AcDbEntity
  8
0
  6
Continuous
 62
     7
100
AcDbLine
 10
6239.0187508958
 20
5236.355700315
 30
0.0
 11
6309.0187586444
 21
5236.355700315
 31
0.0
  0
LINE
  5
1BA
330
1F
100
AcDbEntity
  8
0
  6
Continuous
 62
     7
100
AcDbLine
 10
6242.0187569755
 20
5229.3557010303
 30
0.0
 11
6306.0187525647
 21
5229.3557010303
 31
0.0
  0
LINE
  5
1BB
330
1F
100
AcDbEntity
  8
0
  6
Continuous
 62
     7
100
AcDbLine
 10
6247.5187606709
 20
5223.8557047854
 30
0.0
 11
6300.5187488692
 21
5223.8557047854
 31
0.0
  0
LINE
  5
1BC
330
1F
100
AcDbEntity
  8
0
  6
Continuous
 62
     7
100
AcDbLine
 10
6244.5187545913
 20
5199.3556998382
 30
0.0
 11
6303.5187549489
 21
5199.3556998382
 31
0.0
  0
LINE
  5
1BD
330
1F
100
AcDbEntity
  8
0
  6
Continuous
 62
     7
100
AcDbLine
 10
6839.0187300342
 20
5236.355700315
 30
0.0
 11
6909.0187824862
 21
5236.355700315
 31
0.0
  0
LINE
  5
1BE
330
1F
100
AcDbEntity
  8
0
  6
Continuous
 62
     7
100
AcDbLine
 10
6842.018751015
 20
5229.3557010303
 30
0.0
 11
6906.0187615054
 21
5229.3557010303
 31
0.0
  0
LINE
  5
1BF
330
1F
100
AcDbEntity
  8
0
  6
Continuous
 62
     7
100
AcDbLine
 10
6847.5187696116
 20
5223.8557047854
 30
0.0
 11
6900.5187429088
 21
5223.8557047854
 31
0.0
  0
LINE
  5
1C0
330
1F
100
AcDbEntity
  8
0
  6
Continuous
 62
     7
100
AcDbLine
 10
6844.5187486308
 20
5199.3556998382
 30
0.0
 11
6903.5187638896
 21
5199.3556998382
 31
0.0
  0
LINE
  5
1C1
330
1F
100
AcDbEntity
  8
0
  6
Continuous
 62
     7
100
AcDbLine
 10
6274.0187622207
 20
5237.3570657979
 30
0.0
 11
6311.1135239635
 21
5237.357064114
 31
0.0
  0
LINE
  5
1C2
330
1F
100
AcDbEntity
  8
0
  6
Continuous
 62
     7
100
AcDbLine
 10
6236.9239867087
 20
5237.357064114
 30
0.0
 11
6274.0187622207
 21
5237.3570657979
 31
0.0
  0
LINE
  5
1C3
330
1F
100
AcDbEntity
  8
0
  6
Continuous
 62
     7
100
AcDbLine
 10
6874.0187562602
 20
5237.3570657979
 30
0.0
 11
6911.1135239635
 21
5237.357064114
 31
0.0
  0
LINE
  5
1C4
330
1F
100
AcDbEntity
  8
0
  6
Continuous
 62
     7
100
AcDbLine
 10
6836.9239867087
 20
5237.357064114
 30
0.0
 11
6874.0187562602
 21
5237.3570657979
 31
0.0
  0
LINE
  5
1C5
330
1F
100
AcDbEntity
  8
0
  6
Continuous
 62
     7
100
AcDbLine
 10
5674.0187681811
 20
5237.3570657979
 30
0.0
 11
5711.1135239635
 21
5237.357064114
 31
0.0
  0
LINE
  5
1C6
330
1F
100
AcDbEntity
  8
0
  6
Continuous
 62
     7
100
AcDbLine
 10
5636.9239867087
 20
5237.357064114
 30
0.0
 11
5674.0187681811
 21
5237.3570657979
 31
0.0
  0
LINE
  5
1C7
330
1F
100
AcDbEntity
  8
0
  6
Continuous
 62
     7
100
AcDbLine
 10
6874.0187562602
 20
5236.6942174445
 30
0.0
 11
6909.6015370982
 21
5236.6942174445
 31
0.0
  0
LINE
  5
1C8
330
1F
100
AcDbEntity
  8
0
  6
Continuous
 62
     7
100
AcDbLine
 10
6838.4359754222
 20
5236.6942174445
 30
0.0
 11
6874.0187562602
 21
5236.6942174445
 31
0.0
  0
LINE
  5
1C9
330
1F
100
AcDbEntity
  8
0
  6
Continuous
 62
     7
100
AcDbLine
 10
5674.0187681811
 20
5236.6942174445
 30
0.0
 11
5709.6015192168
 21
5236.6942174445
 31
0.0
  0
LINE
  5
1CA
330
1F
100
AcDbEntity
  8
0
  6
Continuous
 62
     7
100
AcDbLine
 10
5638.4359873431
 20
5236.6942174445
 30
0.0
 11
5674.0187681811
 21
5236.6942174445
 31
0.0
  0
LINE
  5
1CB
330
1F
100
AcDbEntity
  8
0
  6
Continuous
 62
     7
100
AcDbLine
 10
6274.0187622207
 20
5236.6942174445
 30
0.0
 11
6309.6015281575
 21
5236.6942174445
 31
0.0
  0
LINE
  5
1CC
330
1F
100
AcDbEntity
  8
0
  6
Continuous
 62
     7
100
AcDbLine
 10
6238.4359813826
 20
5236.6942174445
 30
0.0
 11
6274.0187622207
 21
5236.6942174445
 31
0.0
  0
LINE
  5
1CD
330
1F
100
AcDbEntity
  8
0
  6
Continuous
 62
     7
100
AcDbLine
 10
6874.0187562602
 20
5185.355704994
 30
0.0
 11
6902.0187533992
 21
5185.355704994
 31
0.0
  0
LINE
  5
1CE
330
1F
100
AcDbEntity
  8
0
  6
Continuous
 62
     7
100
AcDbLine
 10
6846.0187591212
 20
5185.355704994
 30
0.0
 11
6874.0187562602
 21
5185.355704994
 31
0.0
  0
LINE
  5
1CF
330
1F
100
AcDbEntity
  8
0
  6
Continuous
 62
     7
100
AcDbLine
 10
6274.0187622207
 20
5185.355704994
 30
0.0
 11
6302.0187593596
 21
5185.355704994
 31
0.0
  0
LINE
  5
1D0
330
1F
100
AcDbEntity
  8
0
  6
Continuous
 62
     7
100
AcDbLine
 10
6246.0187501805
 20
5185.355704994
 30
0.0
 11
6274.0187622207
 21
5185.355704994
 31
0.0
  0
LINE
  5
1D1
330
1F
100
AcDbEntity
  8
0
  6
Continuous
 62
     7
100
AcDbLine
 10
5674.0187681811
 20
5185.355704994
 30
0.0
 11
5702.0187653201
 21
5185.355704994
 31
0.0
  0
LINE
  5
1D2
330
1F
100
AcDbEntity
  8
0
  6
Continuous
 62
     7
100
AcDbLine
 10
5646.0187412398
 20
5185.355704994
 30
0.0
 11
5674.0187681811
 21
5185.355704994
 31
0.0
  0
LINE
  5
1D3
330
1F
100
AcDbEntity
  8
0
  6
Continuous
 62
     7
100
AcDbLine
 10
5646.9125426906
 20
5017.3500261913
 30
0.0
 11
5701.1249638694
 21
5017.3500261913
 31
0.0
  0
LINE
  5
1D4
330
1F
100
AcDbEntity
  8
0
  6
Continuous
 62
     7
100
AcDbLine
 10
5701.3281859057
 20
5142.0033460195
 30
0.0
 11
5646.7093206542
 21
5142.0033460195
 31
0.0
  0
LINE
  5
1D5
330
1F
100
AcDbEntity
  8
0
  6
Continuous
 62
     7
100
AcDbLine
 10
5651.0187662738
 20
5158.1557027708
 30
0.0
 11
5697.0187700885
 21
5158.1557027708
 31
0.0
  0
LINE
  5
1D6
330
1F
100
AcDbEntity
  8
0
  6
Continuous
 62
     7
100
AcDbLine
 10
6901.3281739848
 20
5142.0033460195
 30
0.0
 11
6846.7093385356
 21
5142.0033460195
 31
0.0
  0
LINE
  5
1D7
330
1F
100
AcDbEntity
  8
0
  6
Continuous
 62
     7
100
AcDbLine
 10
6846.9125307696
 20
5017.3500261913
 30
0.0
 11
6901.1249817508
 21
5017.3500261913
 31
0.0
  0
LINE
  5
1D8
330
1F
100
AcDbEntity
  8
0
  6
Continuous
 62
     7
100
AcDbLine
 10
6851.0187543528
 20
5158.1557027708
 30
0.0
 11
6897.0187581675
 21
5158.1557027708
 31
0.0
  0
LINE
  5
1D9
330
1F
100
AcDbEntity
  8
0
  6
Continuous
 62
     7
100
AcDbLine
 10
6301.3281948464
 20
5142.0033460195
 30
0.0
 11
6246.7093146937
 21
5142.0033460195
 31
0.0
  0
LINE
  5
1DA
330
1F
100
AcDbEntity
  8
0
  6
Continuous
 62
     7
100
AcDbLine
 10
6246.9125367301
 20
5017.3500261913
 30
0.0
 11
6301.1249728101
 21
5017.3500261913
 31
0.0
  0
LINE
  5
1DB
330
1F
100
AcDbEntity
  8
0
  6
Continuous
 62
     7
100
AcDbLine
 10
6251.0187603133
 20
5158.1557027708
 30
0.0
 11
6297.0187492268
 21
5158.1557027708
 31
0.0
  0
LINE
  5
1DC
330
1F
100
AcDbEntity
  8
0
  6
Continuous
 62
     7
100
AcDbLine
 10
7845.1377438512
 20
5161.1557032625
 30
0.0
 11
7845.1377438512
 21
5014.6557034939
 31
0.0
  0
LINE
  5
1DD
330
1F
100
AcDbEntity
  8
0
  6
Continuous
 62
     7
100
AcDbLine
 10
7845.1377438512
 20
5014.6557034939
 30
0.0
 11
7869.2595717174
 21
5014.6557034939
 31
0.0
  0
LINE
  5
1DE
330
1F
100
AcDbEntity
  8
0
  6
Continuous
 62
     7
100
AcDbLine
 10
7872.2439581314
 20
5017.3500276325
 30
0.0
 11
7879.1377438512
 21
5084.6557034939
 31
0.0
  0
LINE
  5
1DF
330
1F
100
AcDbEntity
  8
0
  6
Continuous
 62
     7
100
AcDbLine
 10
7879.1377438512
 20
5084.6557034939
 30
0.0
 11
7872.4471856064
 21
5142.0033455926
 31
0.0
  0
LINE
  5
1E0
330
1F
100
AcDbEntity
  8
0
  6
Continuous
 62
     7
100
AcDbLine
 10
7869.4673961891
 20
5144.655702925
 30
0.0
 11
7861.1377438512
 21
5144.655702925
 31
0.0
  0
LINE
  5
1E1
330
1F
100
AcDbEntity
  8
0
  6
Continuous
 62
     7
100
AcDbLine
 10
7861.1377438512
 20
5144.655702925
 30
0.0
 11
7861.1377438512
 21
5147.1557037617
 31
0.0
  0
LINE
  5
1E2
330
1F
100
AcDbEntity
  8
0
  6
Continuous
 62
     7
100
AcDbLine
 10
7861.1377438512
 20
5147.1557037617
 30
0.0
 11
7870.1377438512
 21
5147.1557037617
 31
0.0
  0
LINE
  5
1E3
330
1F
100
AcDbEntity
  8
0
  6
Continuous
 62
     7
100
AcDbLine
 10
7870.1377438512
 20
5147.1557037617
 30
0.0
 11
7868.1377438512
 21
5151.1557037617
 31
0.0
  0
LINE
  5
1E4
330
1F
100
AcDbEntity
  8
0
  6
Continuous
 62
     7
100
AcDbLine
 10
7868.1377438512
 20
5151.1557037617
 30
0.0
 11
7868.1377438512
 21
5158.1557037617
 31
0.0
  0
LINE
  5
1E5
330
1F
100
AcDbEntity
  8
0
  6
Continuous
 62
     7
100
AcDbLine
 10
7865.1377438512
 20
5161.1557032625
 30
0.0
 11
7845.1377438512
 21
5161.1557032625
 31
0.0
  0
LINE
  5
1E6
330
1F
100
AcDbEntity
  8
0
  6
Continuous
 62
     7
100
AcDbLine
 10
7845.1377438512
 20
5161.1557032625
 30
0.0
 11
7845.1377438512
 21
5014.6557034939
 31
0.0
  0
LINE
  5
1E7
330
1F
100
AcDbEntity
  8
0
  6
Continuous
 62
     7
100
AcDbLine
 10
7845.1377438512
 20
5014.6557034939
 30
0.0
 11
7869.2595717174
 21
5014.6557034939
 31
0.0
  0
LINE
  5
1E8
330
1F
100
AcDbEntity
  8
0
  6
Continuous
 62
     7
100
AcDbLine
 10
7872.2439581314
 20
5017.3500276325
 30
0.0
 11
7879.1377438512
 21
5084.6557034939
 31
0.0
  0
LINE
  5
1E9
330
1F
100
AcDbEntity
  8
0
  6
Continuous
 62
     7
100
AcDbLine
 10
7879.1377438512
 20
5084.6557034939
 30
0.0
 11
7872.4471856064
 21
5142.0033455926
 31
0.0
  0
LINE
  5
1EA
330
1F
100
AcDbEntity
  8
0
  6
Continuous
 62
     7
100
AcDbLine
 10
7869.4673961891
 20
5144.655702925
 30
0.0
 11
7861.1377438512
 21
5144.655702925
 31
0.0
  0
LINE
  5
1EB
330
1F
100
AcDbEntity
  8
0
  6
Continuous
 62
     7
100
AcDbLine
 10
7861.1377438512
 20
5144.655702925
 30
0.0
 11
7861.1377438512
 21
5147.1557037617
 31
0.0
  0
LINE
  5
1EC
330
1F
100
AcDbEntity
  8
0
  6
Continuous
 62
     7
100
AcDbLine
 10
7861.1377438512
 20
5147.1557037617
 30
0.0
 11
7870.1377438512
 21
5147.1557037617
 31
0.0
  0
LINE
  5
1ED
330
1F
100
AcDbEntity
  8
0
  6
Continuous
 62
     7
100
AcDbLine
 10
7870.1377438512
 20
5147.1557037617
 30
0.0
 11
7868.1377438512
 21
5151.1557037617
 31
0.0
  0
LINE
  5
1EE
330
1F
100
AcDbEntity
  8
0
  6
Continuous
 62
     7
100
AcDbLine
 10
7868.1377438512
 20
5151.1557037617
 30
0.0
 11
7868.1377438512
 21
5158.1557037617
 31
0.0
  0
LINE
  5
1EF
330
1F
100
AcDbEntity
  8
0
  6
Continuous
 62
     7
100
AcDbLine
 10
7865.1377438512
 20
5161.1557032625
 30
0.0
 11
7845.1377438512
 21
5161.1557032625
 31
0.0
  0
LINE
  5
1F0
330
1F
100
AcDbEntity
  8
0
  6
Continuous
 62
     7
100
AcDbLine
 10
7845.1377438512
 20
5161.1557032625
 30
0.0
 11
7845.1377438512
 21
5014.6557034939
 31
0.0
  0
LINE
  5
1F1
330
1F
100
AcDbEntity
  8
0
  6
Continuous
 62
     7
100
AcDbLine
 10
7845.1377438512
 20
5014.6557034939
 30
0.0
 11
7869.2595717174
 21
5014.6557034939
 31
0.0
  0
LINE
  5
1F2
330
1F
100
AcDbEntity
  8
0
  6
Continuous
 62
     7
100
AcDbLine
 10
7872.2439581314
 20
5017.3500276325
 30
0.0
 11
7879.1377438512
 21
5084.6557034939
 31
0.0
  0
LINE
  5
1F3
330
1F
100
AcDbEntity
  8
0
  6
Continuous
 62
     7
100
AcDbLine
 10
7879.1377438512
 20
5084.6557034939
 30
0.0
 11
7872.4471856064
 21
5142.0033455926
 31
0.0
  0
LINE
  5
1F4
330
1F
100
AcDbEntity
  8
0
  6
Continuous
 62
     7
100
AcDbLine
 10
7869.4673961891
 20
5144.655702925
 30
0.0
 11
7861.1377438512
 21
5144.655702925
 31
0.0
  0
LINE
  5
1F5
330
1F
100
AcDbEntity
  8
0
  6
Continuous
 62
     7
100
AcDbLine
 10
7861.1377438512
 20
5144.655702925
 30
0.0
 11
7861.1377438512
 21
5147.1557037617
 31
0.0
  0
LINE
  5
1F6
330
1F
100
AcDbEntity
  8
0
  6
Continuous
 62
     7
100
AcDbLine
 10
7861.1377438512
 20
5147.1557037617
 30
0.0
 11
7870.1377438512
 21
5147.1557037617
 31
0.0
  0
LINE
  5
1F7
330
1F
100
AcDbEntity
  8
0
  6
Continuous
 62
     7
100
AcDbLine
 10
7870.1377438512
 20
5147.1557037617
 30
0.0
 11
7868.1377438512
 21
5151.1557037617
 31
0.0
  0
LINE
  5
1F8
330
1F
100
AcDbEntity
  8
0
  6
Continuous
 62
     7
100
AcDbLine
 10
7868.1377438512
 20
5151.1557037617
 30
0.0
 11
7868.1377438512
 21
5158.1557037617
 31
0.0
  0
LINE
  5
1F9
330
1F
100
AcDbEntity
  8
0
  6
Continuous
 62
     7
100
AcDbLine
 10
7865.1377438512
 20
5161.1557032625
 30
0.0
 11
7845.1377438512
 21
5161.1557032625
 31
0.0
  0
LINE
  5
1FA
330
1F
100
AcDbEntity
  8
0
  6
Continuous
 62
     7
100
AcDbLine
 10
7882.2324751821
 20
5237.3570657979
 30
0.0
 11
7890.4308556524
 21
5240.2648634921
 31
0.0
  0
LINE
  5
1FB
330
1F
100
AcDbEntity
  8
0
  6
Continuous
 62
     7
100
AcDbLine
 10
7890.4308556524
 20
5240.2648634921
 30
0.0
 11
7895.2490567174
 21
5242.1632416258
 31
0.0
  0
LINE
  5
1FC
330
1F
100
AcDbEntity
  8
0
  6
Continuous
 62
     7
100
AcDbLine
 10
7880.1111458745
 20
5236.355700315
 30
0.0
 11
7880.7205437627
 21
5236.6942174445
 31
0.0
  0
LINE
  5
1FD
330
1F
100
AcDbEntity
  8
0
  6
Continuous
 62
     7
100
AcDbLine
 10
7815.1377915349
 20
5196.3557012091
 30
0.0
 11
7817.1377657857
 21
5192.3557042788
 31
0.0
  0
LINE
  5
1FE
330
1F
100
AcDbEntity
  8
0
  6
Continuous
 62
     7
100
AcDbLine
 10
7873.1377600637
 20
5192.3557042788
 30
0.0
 11
7875.1377343145
 21
5196.3557012091
 31
0.0
  0
LINE
  5
1FF
330
1F
100
AcDbEntity
  8
0
  6
Continuous
 62
     7
100
AcDbLine
 10
7817.1377657857
 20
5192.3557042788
 30
0.0
 11
7817.1377657857
 21
5185.355704994
 31
0.0
  0
LINE
  5
200
330
1F
100
AcDbEntity
  8
0
  6
Continuous
 62
     7
100
AcDbLine
 10
7873.1377600637
 20
5185.355704994
 30
0.0
 11
7873.1377600637
 21
5192.3557042788
 31
0.0
  0
LINE
  5
201
330
1F
100
AcDbEntity
  8
0
  6
Continuous
 62
     7
100
AcDbLine
 10
7829.1377304998
 20
5182.3557026396
 30
0.0
 11
7829.1377304998
 21
5161.1557032625
 31
0.0
  0
LINE
  5
202
330
1F
100
AcDbEntity
  8
0
  6
Continuous
 62
     7
100
AcDbLine
 10
7829.1377304998
 20
5147.1557037617
 30
0.0
 11
7829.1377304998
 21
5144.6557033519
 31
0.0
  0
LINE
  5
203
330
1F
100
AcDbEntity
  8
0
  6
Continuous
 62
     7
100
AcDbLine
 10
7861.1377953496
 20
5144.6557033519
 30
0.0
 11
7861.1377953496
 21
5147.1557037617
 31
0.0
  0
LINE
  5
204
330
1F
100
AcDbEntity
  8
0
  6
Continuous
 62
     7
100
AcDbLine
 10
7861.1377953496
 20
5161.1557032625
 30
0.0
 11
7861.1377953496
 21
5182.3557026396
 31
0.0
  0
LINE
  5
205
330
1F
100
AcDbEntity
  8
0
  6
Continuous
 62
     7
100
AcDbLine
 10
7580.0431846586
 20
5162.655702577
 30
0.0
 11
7565.0431989637
 21
5162.655702577
 31
0.0
  0
LINE
  5
206
330
1F
100
AcDbEntity
  8
0
  6
Continuous
 62
     7
100
AcDbLine
 10
7565.0431989637
 20
5082.6557025025
 30
0.0
 11
7580.0431846586
 21
5082.6557025025
 31
0.0
  0
LINE
  5
207
330
1F
100
AcDbEntity
  8
0
  6
Continuous
 62
     7
100
AcDbLine
 10
7565.0431989637
 20
5142.6557039554
 30
0.0
 11
7555.0431488958
 21
5142.6557039554
 31
0.0
  0
LINE
  5
208
330
1F
100
AcDbEntity
  8
0
  6
Continuous
 62
     7
100
AcDbLine
 10
7555.0431488958
 20
5102.6557039181
 30
0.0
 11
7565.0431989637
 21
5102.6557039181
 31
0.0
  0
LINE
  5
209
330
1F
100
AcDbEntity
  8
0
  6
Continuous
 62
     7
100
AcDbLine
 10
7785.1377009359
 20
5142.6557039554
 30
0.0
 11
7600.0431655851
 21
5142.6557039554
 31
0.0
  0
LINE
  5
20A
330
1F
100
AcDbEntity
  8
0
  6
Continuous
 62
     7
100
AcDbLine
 10
7600.0431655851
 20
5102.6557039181
 30
0.0
 11
7785.1377009359
 21
5102.6557039181
 31
0.0
  0
LINE
  5
20B
330
1F
100
AcDbEntity
  8
0
  6
Continuous
 62
     7
100
AcDbLine
 10
7879.1378020253
 20
5084.6557028304
 30
0.0
 11
7872.4471856064
 21
5142.0033455926
 31
0.0
  0
LINE
  5
20C
330
1F
100
AcDbEntity
  8
0
  6
Continuous
 62
     7
100
AcDbLine
 10
7813.0088328328
 20
5100.6937183152
 30
0.0
 11
7811.1377238241
 21
5084.6557028304
 31
0.0
  0
LINE
  5
20D
330
1F
100
AcDbEntity
  8
0
  6
Continuous
 62
     7
100
AcDbLine
 10
7811.1377238241
 20
5084.6557028304
 30
0.0
 11
7818.0314778295
 21
5017.3500261913
 31
0.0
  0
LINE
  5
20E
330
1F
100
AcDbEntity
  8
0
  6
Continuous
 62
     7
100
AcDbLine
 10
7872.2439288106
 20
5017.3500261913
 30
0.0
 11
7879.1378020253
 21
5084.6557028304
 31
0.0
  0
LINE
  5
20F
330
1F
100
AcDbEntity
  8
0
  6
Continuous
 62
     7
100
AcDbLine
 10
7801.1377333608
 20
5150.1557033221
 30
0.0
 11
7797.1377848592
 21
5148.6557040076
 31
0.0
  0
LINE
  5
210
330
1F
100
AcDbEntity
  8
0
  6
Continuous
 62
     7
100
AcDbLine
 10
7797.1377848592
 20
5096.6557047973
 30
0.0
 11
7801.1377333608
 21
5095.1557017575
 31
0.0
  0
LINE
  5
211
330
1F
100
AcDbEntity
  8
0
  6
Continuous
 62
     7
100
AcDbLine
 10
7797.1377848592
 20
5148.6557040076
 30
0.0
 11
7788.1377219167
 21
5148.6557040076
 31
0.0
  0
LINE
  5
212
330
1F
100
AcDbEntity
  8
0
  6
Continuous
 62
     7
100
AcDbLine
 10
7788.1377219167
 20
5096.6557047973
 30
0.0
 11
7797.1377848592
 21
5096.6557047973
 31
0.0
  0
LINE
  5
213
330
1F
100
AcDbEntity
  8
0
  6
Continuous
 62
     7
100
AcDbLine
 10
7870.1377438512
 20
5147.1557037617
 30
0.0
 11
7868.137764832
 21
5151.155703486
 31
0.0
  0
LINE
  5
214
330
1F
100
AcDbEntity
  8
0
  6
Continuous
 62
     7
100
AcDbLine
 10
7822.1377610174
 20
5151.155703486
 30
0.0
 11
7820.1377867666
 21
5147.1557037617
 31
0.0
  0
LINE
  5
215
330
1F
100
AcDbEntity
  8
0
  6
Continuous
 62
     7
100
AcDbLine
 10
7822.1377610174
 20
5158.1557027708
 30
0.0
 11
7822.1377610174
 21
5151.155703486
 31
0.0
  0
LINE
  5
216
330
1F
100
AcDbEntity
  8
0
  6
Continuous
 62
     7
100
AcDbLine
 10
7868.137764832
 20
5151.155703486
 30
0.0
 11
7868.137764832
 21
5158.1557027708
 31
0.0
  0
LINE
  5
217
330
1F
100
AcDbEntity
  8
0
  6
Continuous
 62
     7
100
AcDbLine
 10
7801.1377333608
 20
5100.6557017277
 30
0.0
 11
7813.0325554815
 21
5100.6557017277
 31
0.0
  0
LINE
  5
218
330
1F
100
AcDbEntity
  8
0
  6
Continuous
 62
     7
100
AcDbLine
 10
7818.1376933065
 20
5144.655702925
 30
0.0
 11
7801.1377333608
 21
5144.655702925
 31
0.0
  0
LINE
  5
219
330
1F
100
AcDbEntity
  8
0
  6
Continuous
 62
     7
100
AcDbLine
 10
7829.1377304998
 20
5147.1557037617
 30
0.0
 11
7829.1377304998
 21
5144.6557033519
 31
0.0
  0
LINE
  5
21A
330
1F
100
AcDbEntity
  8
0
  6
Continuous
 62
     7
100
AcDbLine
 10
7861.1377953496
 20
5144.6557033519
 30
0.0
 11
7861.1377953496
 21
5147.1557037617
 31
0.0
  0
LINE
  5
21B
330
1F
100
AcDbEntity
  8
0
  6
Continuous
 62
     7
100
AcDbLine
 10
7877.1377085653
 20
5229.3557010303
 30
0.0
 11
7880.1377295461
 21
5236.355700315
 31
0.0
  0
LINE
  5
21C
330
1F
100
AcDbEntity
  8
0
  6
Continuous
 62
     7
100
AcDbLine
 10
7814.8093699422
 20
5227.6840962182
 30
0.0
 11
7817.6486968007
 21
5224.8447395573
 31
0.0
  0
LINE
  5
21D
330
1F
100
AcDbEntity
  8
0
  6
Continuous
 62
     7
100
AcDbLine
 10
7871.6377495733
 20
5223.8557047854
 30
0.0
 11
7877.1377085653
 21
5229.3557010303
 31
0.0
  0
LINE
  5
21E
330
1F
100
AcDbEntity
  8
0
  6
Continuous
 62
     7
100
AcDbLine
 10
7815.6377552953
 20
5199.3556998382
 30
0.0
 11
7815.6377552953
 21
5196.3557012091
 31
0.0
  0
LINE
  5
21F
330
1F
100
AcDbEntity
  8
0
  6
Continuous
 62
     7
100
AcDbLine
 10
7874.6377705541
 20
5196.3557012091
 30
0.0
 11
7874.6377705541
 21
5199.3556998382
 31
0.0
  0
LINE
  5
220
330
1F
100
AcDbEntity
  8
0
  6
Continuous
 62
     7
100
AcDbLine
 10
7818.6377762761
 20
5199.8936690102
 30
0.0
 11
7818.6377762761
 21
5199.3556998382
 31
0.0
  0
LINE
  5
221
330
1F
100
AcDbEntity
  8
0
  6
Continuous
 62
     7
100
AcDbLine
 10
7871.6377495733
 20
5199.3556998382
 30
0.0
 11
7871.6377495733
 21
5223.8557047854
 31
0.0
  0
LINE
  5
222
330
1F
100
AcDbEntity
  8
0
  6
Continuous
 62
     7
100
AcDbLine
 10
7817.6506041494
 20
5224.855706812
 30
0.0
 11
7799.0960358587
 21
5224.855706812
 31
0.0
  0
LINE
  5
223
330
1F
100
AcDbEntity
  8
0
  6
Continuous
 62
     7
100
AcDbLine
 10
7751.1377810445
 20
5199.8557008515
 30
0.0
 11
7818.6556576696
 21
5199.8557008515
 31
0.0
  0
LINE
  5
224
330
1F
100
AcDbEntity
  8
0
  6
Continuous
 62
     7
100
AcDbLine
 10
7565.1377319303
 20
5412.7431966076
 30
0.0
 11
7566.3377522435
 21
5412.7431966076
 31
0.0
  0
LINE
  5
225
330
1F
100
AcDbEntity
  8
0
  6
Continuous
 62
     7
100
AcDbLine
 10
7566.3377522435
 20
5412.7431966076
 30
0.0
 11
7566.3377522435
 21
5374.7432090054
 31
0.0
  0
LINE
  5
226
330
1F
100
AcDbEntity
  8
0
  6
Continuous
 62
     7
100
AcDbLine
 10
7568.3377264943
 20
5372.7432049523
 30
0.0
 11
8065.1377915349
 21
5372.7432049523
 31
0.0
  0
LINE
  5
227
330
1F
100
AcDbEntity
  8
0
  6
Continuous
 62
     7
100
AcDbLine
 10
8065.1377915349
 20
5272.7432109128
 30
0.0
 11
8065.1377915349
 21
5372.7432049523
 31
0.0
  0
LINE
  5
228
330
1F
100
AcDbEntity
  8
0
  6
Continuous
 62
     7
100
AcDbLine
 10
8065.1377915349
 20
5272.7432109128
 30
0.0
 11
7565.1377319303
 21
5182.7432073365
 31
0.0
  0
LINE
  5
229
330
1F
100
AcDbEntity
  8
0
  6
Continuous
 62
     7
100
AcDbLine
 10
7565.1377319303
 20
5182.7432073365
 30
0.0
 11
7565.1377319303
 21
5412.7431966076
 31
0.0
  0
LINE
  5
22A
330
1F
100
AcDbEntity
  8
0
  6
Continuous
 62
     7
100
AcDbLine
 10
7566.3377522435
 20
5182.7432073365
 30
0.0
 11
7566.3377522435
 21
5182.9592071186
 31
0.0
  0
LINE
  5
22B
330
1F
100
AcDbEntity
  8
0
  6
Continuous
 62
     7
100
AcDbLine
 10
7566.3377522435
 20
5182.7432073365
 30
0.0
 11
7565.1377319303
 21
5182.7432073365
 31
0.0
  0
LINE
  5
22C
330
1F
100
AcDbEntity
  8
0
  6
Continuous
 62
     7
100
AcDbLine
 10
7817.1377657857
 20
5192.3557042788
 30
0.0
 11
7873.1377600637
 21
5192.3557042788
 31
0.0
  0
LINE
  5
22D
330
1F
100
AcDbEntity
  8
0
  6
Continuous
 62
     7
100
AcDbLine
 10
7815.1377915349
 20
5196.3557012091
 30
0.0
 11
7875.1377343145
 21
5196.3557012091
 31
0.0
  0
LINE
  5
22E
330
1F
100
AcDbEntity
  8
0
  6
Continuous
 62
     7
100
AcDbLine
 10
7820.1377867666
 20
5182.3557026396
 30
0.0
 11
7870.1377390828
 21
5182.3557026396
 31
0.0
  0
LINE
  5
22F
330
1F
100
AcDbEntity
  8
0
  6
Continuous
 62
     7
100
AcDbLine
 10
7565.0431989637
 20
5162.655702577
 30
0.0
 11
7565.0431989637
 21
5082.6557025025
 31
0.0
  0
LINE
  5
230
330
1F
100
AcDbEntity
  8
0
  6
Continuous
 62
     7
100
AcDbLine
 10
7600.0431655851
 20
5142.6557039554
 30
0.0
 11
7600.0431655851
 21
5102.6557039181
 31
0.0
  0
LINE
  5
231
330
1F
100
AcDbEntity
  8
0
  6
Continuous
 62
     7
100
AcDbLine
 10
7555.0431488958
 20
5142.6557039554
 30
0.0
 11
7555.0431488958
 21
5102.6557039181
 31
0.0
  0
LINE
  5
232
330
1F
100
AcDbEntity
  8
0
  6
Continuous
 62
     7
100
AcDbLine
 10
7811.1377238241
 20
5084.6557028304
 30
0.0
 11
7879.1378020253
 21
5084.6557028304
 31
0.0
  0
LINE
  5
233
330
1F
100
AcDbEntity
  8
0
  6
Continuous
 62
     7
100
AcDbLine
 10
7801.1377333608
 20
5150.1557033221
 30
0.0
 11
7801.1377333608
 21
5095.1557017575
 31
0.0
  0
LINE
  5
234
330
1F
100
AcDbEntity
  8
0
  6
Continuous
 62
     7
100
AcDbLine
 10
7797.1377848592
 20
5148.6557040076
 30
0.0
 11
7797.1377848592
 21
5096.6557047973
 31
0.0
  0
LINE
  5
235
330
1F
100
AcDbEntity
  8
0
  6
Continuous
 62
     7
100
AcDbLine
 10
7822.6680039373
 20
5144.655702925
 30
0.0
 11
7869.4673961891
 21
5144.655702925
 31
0.0
  0
LINE
  5
236
330
1F
100
AcDbEntity
  8
0
  6
Continuous
 62
     7
100
AcDbLine
 10
7821.0158823934
 20
5014.6557025323
 30
0.0
 11
7869.2595717174
 21
5014.6557034939
 31
0.0
  0
LINE
  5
237
330
1F
100
AcDbEntity
  8
0
  6
Continuous
 62
     7
100
AcDbLine
 10
7785.1377009359
 20
5145.6557035158
 30
0.0
 11
7785.1377009359
 21
5099.6557034264
 31
0.0
  0
LINE
  5
238
330
1F
100
AcDbEntity
  8
0
  6
Continuous
 62
     7
100
AcDbLine
 10
7822.1377610174
 20
5151.155703486
 30
0.0
 11
7868.137764832
 21
5151.155703486
 31
0.0
  0
LINE
  5
239
330
1F
100
AcDbEntity
  8
0
  6
Continuous
 62
     7
100
AcDbLine
 10
7820.1377867666
 20
5147.1557037617
 30
0.0
 11
7870.1377438512
 21
5147.1557037617
 31
0.0
  0
LINE
  5
23A
330
1F
100
AcDbEntity
  8
0
  6
Continuous
 62
     7
100
AcDbLine
 10
7825.1377819982
 20
5161.1557032625
 30
0.0
 11
7865.1377438512
 21
5161.1557032625
 31
0.0
  0
LINE
  5
23B
330
1F
100
AcDbEntity
  8
0
  6
Continuous
 62
     7
100
AcDbLine
 10
7862.9849432912
 20
5236.355700315
 30
0.0
 11
7880.1377295461
 21
5236.355700315
 31
0.0
  0
LINE
  5
23C
330
1F
100
AcDbEntity
  8
0
  6
Continuous
 62
     7
100
AcDbLine
 10
7845.1377629247
 20
5229.3557010303
 30
0.0
 11
7877.1377085653
 21
5229.3557010303
 31
0.0
  0
LINE
  5
23D
330
1F
100
AcDbEntity
  8
0
  6
Continuous
 62
     7
100
AcDbLine
 10
7824.0960120168
 20
5229.3557010303
 30
0.0
 11
7845.1377629247
 21
5229.3557010303
 31
0.0
  0
LINE
  5
23E
330
1F
100
AcDbEntity
  8
0
  6
Continuous
 62
     7
100
AcDbLine
 10
7819.0944670644
 20
5223.8557047854
 30
0.0
 11
7871.6377495733
 21
5223.8557047854
 31
0.0
  0
LINE
  5
23F
330
1F
100
AcDbEntity
  8
0
  6
Continuous
 62
     7
100
AcDbLine
 10
7845.1377629247
 20
5199.3556998382
 30
0.0
 11
7874.6377705541
 21
5199.3556998382
 31
0.0
  0
LINE
  5
240
330
1F
100
AcDbEntity
  8
0
  6
Continuous
 62
     7
100
AcDbLine
 10
7815.6377552953
 20
5199.3556998382
 30
0.0
 11
7845.1377629247
 21
5199.3556998382
 31
0.0
  0
LINE
  5
241
330
1F
100
AcDbEntity
  8
0
  6
Continuous
 62
     7
100
AcDbLine
 10
7821.1377142873
 20
5206.8784765611
 30
0.0
 11
7821.1377142873
 21
5217.8329311023
 31
0.0
  0
LINE
  5
242
330
1F
100
AcDbEntity
  8
0
  6
Continuous
 62
     7
100
AcDbLine
 10
7868.5480832067
 20
5237.3570657979
 30
0.0
 11
7882.2324751821
 21
5237.3570657979
 31
0.0
  0
LINE
  5
243
330
1F
100
AcDbEntity
  8
0
  6
Continuous
 62
     7
100
AcDbLine
 10
7864.8655890432
 20
5236.6942174445
 30
0.0
 11
7880.7205437627
 21
5236.6942174445
 31
0.0
  0
LINE
  5
244
330
1F
100
AcDbEntity
  8
0
  6
Continuous
 62
     7
100
AcDbLine
 10
7817.1377657857
 20
5185.355704994
 30
0.0
 11
7873.1377600637
 21
5185.355704994
 31
0.0
  0
LINE
  5
245
330
1F
100
AcDbEntity
  8
0
  6
Continuous
 62
     7
100
AcDbLine
 10
7580.0431846586
 20
5162.655702577
 30
0.0
 11
7580.0431846586
 21
5082.6557025025
 31
0.0
  0
LINE
  5
246
330
1F
100
AcDbEntity
  8
0
  6
Continuous
 62
     7
100
AcDbLine
 10
7872.4471856064
 20
5142.0033455926
 30
0.0
 11
7819.9159382787
 21
5142.0033455926
 31
0.0
  0
LINE
  5
247
330
1F
100
AcDbEntity
  8
0
  6
Continuous
 62
     7
100
AcDbLine
 10
7818.0314778295
 20
5017.3500261913
 30
0.0
 11
7872.2439288106
 21
5017.3500261913
 31
0.0
  0
LINE
  5
248
330
1F
100
AcDbEntity
  8
0
  6
Continuous
 62
     7
100
AcDbLine
 10
7788.1377219167
 20
5148.6557040076
 30
0.0
 11
7788.1377219167
 21
5096.6557047973
 31
0.0
  0
LINE
  5
249
330
1F
100
AcDbEntity
  8
0
  6
Continuous
 62
     7
100
AcDbLine
 10
7822.1377610174
 20
5158.1557027708
 30
0.0
 11
7868.137764832
 21
5158.1557027708
 31
0.0
  0
LINE
  5
24A
330
1F
100
AcDbEntity
  8
0
  6
Continuous
 62
     7
100
AcDbLine
 10
7751.1377810445
 20
5199.8557008515
 30
0.0
 11
7751.1377810445
 21
5216.223203362
 31
0.0
  0
LINE
  5
24B
330
1F
100
AcDbEntity
  8
0
  6
Continuous
 62
     7
100
AcDbLine
 10
5374.0187553361
 20
4623.5668985427
 30
0.0
 11
7174.0187553361
 21
4623.5668985427
 31
0.0
  0
LINE
  5
24C
330
1F
100
AcDbEntity
  8
0
  6
Continuous
 62
     7
100
AcDbLine
 10
5374.0187553361
 20
4623.5668985427
 30
0.0
 11
5374.0187553361
 21
4123.5668985427
 31
0.0
  0
LINE
  5
24D
330
1F
100
AcDbEntity
  8
0
  6
Continuous
 62
     7
100
AcDbLine
 10
5374.0187553361
 20
4123.5668985427
 30
0.0
 11
7174.0187553361
 21
4123.5668985427
 31
0.0
  0
LINE
  5
24E
330
1F
100
AcDbEntity
  8
0
  6
Continuous
 62
     7
100
AcDbLine
 10
7174.0187553361
 20
4623.5668985427
 30
0.0
 11
7174.0187553361
 21
4123.5668985427
 31
0.0
  0
LINE
  5
24F
330
1F
100
AcDbEntity
  8
0
  6
Continuous
 62
     7
100
AcDbLine
 10
5668.2468033927
 20
4505.6593267501
 30
0.0
 11
5668.7750793593
 21
4505.7335941375
 31
0.0
  0
LINE
  5
250
330
1F
100
AcDbEntity
  8
0
  6
Continuous
 62
     7
100
AcDbLine
 10
5677.9732383387
 20
4505.8777181686
 30
0.0
 11
5678.2761491435
 21
4505.8446971954
 31
0.0
  0
LINE
  5
251
330
1F
100
AcDbEntity
  8
0
  6
Continuous
 62
     7
100
AcDbLine
 10
6268.2467974322
 20
4505.6593267501
 30
0.0
 11
6268.7750733989
 21
4505.7335941375
 31
0.0
  0
LINE
  5
252
330
1F
100
AcDbEntity
  8
0
  6
Continuous
 62
     7
100
AcDbLine
 10
6277.9732472794
 20
4505.8777181686
 30
0.0
 11
6278.276143183
 21
4505.8446971954
 31
0.0
  0
LINE
  5
253
330
1F
100
AcDbEntity
  8
0
  6
Continuous
 62
     7
100
AcDbLine
 10
6868.2468212741
 20
4505.6593267501
 30
0.0
 11
6868.7750376361
 21
4505.7335941375
 31
0.0
  0
LINE
  5
254
330
1F
100
AcDbEntity
  8
0
  6
Continuous
 62
     7
100
AcDbLine
 10
6877.9732264178
 20
4505.8777181686
 30
0.0
 11
6878.2761372226
 21
4505.8446971954
 31
0.0
  0
LINE
  5
255
330
1F
100
AcDbEntity
  8
0
  6
Continuous
 62
     7
100
AcDbLine
 10
5679.2687452929
 20
4496.5196697296
 30
0.0
 11
5679.2687452929
 21
4497.1504060806
 31
0.0
  0
LINE
  5
256
330
1F
100
AcDbEntity
  8
0
  6
Continuous
 62
     7
100
AcDbLine
 10
5668.768761267
 20
4497.1504060806
 30
0.0
 11
5668.768761267
 21
4496.5196697296
 31
0.0
  0
LINE
  5
257
330
1F
100
AcDbEntity
  8
0
  6
Continuous
 62
     7
100
AcDbLine
 10
6879.268733372
 20
4496.5196697296
 30
0.0
 11
6879.268733372
 21
4497.1504060806
 31
0.0
  0
LINE
  5
258
330
1F
100
AcDbEntity
  8
0
  6
Continuous
 62
     7
100
AcDbLine
 10
6868.7687791484
 20
4497.1504060806
 30
0.0
 11
6868.7687791484
 21
4496.5196697296
 31
0.0
  0
LINE
  5
259
330
1F
100
AcDbEntity
  8
0
  6
Continuous
 62
     7
100
AcDbLine
 10
6279.2687542336
 20
4496.5196697296
 30
0.0
 11
6279.2687542336
 21
4497.1504060806
 31
0.0
  0
LINE
  5
25A
330
1F
100
AcDbEntity
  8
0
  6
Continuous
 62
     7
100
AcDbLine
 10
6268.7687553065
 20
4497.1504060806
 30
0.0
 11
6268.7687553065
 21
4496.5196697296
 31
0.0
  0
LINE
  5
25B
330
1F
100
AcDbEntity
  8
0
  6
Continuous
 62
     7
100
AcDbLine
 10
6314.018753876
 20
4623.5669104637
 30
0.0
 11
6314.018753876
 21
4623.6614434303
 31
0.0
  0
LINE
  5
25C
330
1F
100
AcDbEntity
  8
0
  6
Continuous
 62
     7
100
AcDbLine
 10
6234.0187556641
 20
4623.6614434303
 30
0.0
 11
6234.0187556641
 21
4623.5669104637
 31
0.0
  0
LINE
  5
25D
330
1F
100
AcDbEntity
  8
0
  6
Continuous
 62
     7
100
AcDbLine
 10
6294.0187580483
 20
4623.6614434303
 30
0.0
 11
6294.0187580483
 21
4633.6614934982
 31
0.0
  0
LINE
  5
25E
330
1F
100
AcDbEntity
  8
0
  6
Continuous
 62
     7
100
AcDbLine
 10
6254.0187514918
 20
4633.6614934982
 30
0.0
 11
6254.0187514918
 21
4623.6614434303
 31
0.0
  0
LINE
  5
25F
330
1F
100
AcDbEntity
  8
0
  6
Continuous
 62
     7
100
AcDbLine
 10
6914.0187777179
 20
4623.5669104637
 30
0.0
 11
6914.0187777179
 21
4623.6614434303
 31
0.0
  0
LINE
  5
260
330
1F
100
AcDbEntity
  8
0
  6
Continuous
 62
     7
100
AcDbLine
 10
6834.0187348025
 20
4623.6614434303
 30
0.0
 11
6834.0187348025
 21
4623.5669104637
 31
0.0
  0
LINE
  5
261
330
1F
100
AcDbEntity
  8
0
  6
Continuous
 62
     7
100
AcDbLine
 10
6894.0187371867
 20
4623.6614434303
 30
0.0
 11
6894.0187371867
 21
4633.6614934982
 31
0.0
  0
LINE
  5
262
330
1F
100
AcDbEntity
  8
0
  6
Continuous
 62
     7
100
AcDbLine
 10
6854.0187753337
 20
4633.6614934982
 30
0.0
 11
6854.0187753337
 21
4623.6614434303
 31
0.0
  0
LINE
  5
263
330
1F
100
AcDbEntity
  8
0
  6
Continuous
 62
     7
100
AcDbLine
 10
5714.0187598365
 20
4623.5669104637
 30
0.0
 11
5714.0187598365
 21
4623.6614434303
 31
0.0
  0
LINE
  5
264
330
1F
100
AcDbEntity
  8
0
  6
Continuous
 62
     7
100
AcDbLine
 10
5634.0187467235
 20
4623.6614434303
 30
0.0
 11
5634.0187467235
 21
4623.5669104637
 31
0.0
  0
LINE
  5
265
330
1F
100
AcDbEntity
  8
0
  6
Continuous
 62
     7
100
AcDbLine
 10
5694.0187491076
 20
4623.6614434303
 30
0.0
 11
5694.0187491076
 21
4633.6614934982
 31
0.0
  0
LINE
  5
266
330
1F
100
AcDbEntity
  8
0
  6
Continuous
 62
     7
100
AcDbLine
 10
5654.0187574523
 20
4633.6614934982
 30
0.0
 11
5654.0187574523
 21
4623.6614434303
 31
0.0
  0
LINE
  5
267
330
1F
100
AcDbEntity
  8
0
  6
Continuous
 62
     7
100
AcDbLine
 10
7174.0187681811
 20
4623.5669104637
 30
0.0
 11
5374.0187562602
 21
4623.5669104637
 31
0.0
  0
LINE
  5
268
330
1F
100
AcDbEntity
  8
0
  6
Continuous
 62
     7
100
AcDbLine
 10
7174.0187681811
 20
4622.3668901504
 30
0.0
 11
7174.0187681811
 21
4623.5669104637
 31
0.0
  0
LINE
  5
269
330
1F
100
AcDbEntity
  8
0
  6
Continuous
 62
     7
100
AcDbLine
 10
5374.0187562602
 20
4622.3668901504
 30
0.0
 11
7174.0187681811
 21
4622.3668901504
 31
0.0
  0
LINE
  5
26A
330
1F
100
AcDbEntity
  8
0
  6
Continuous
 62
     7
100
AcDbLine
 10
5374.0187562602
 20
4623.5669104637
 30
0.0
 11
5374.0187562602
 21
4622.3668901504
 31
0.0
  0
LINE
  5
26B
330
1F
100
AcDbEntity
  8
0
  6
Continuous
 62
     7
100
AcDbLine
 10
7174.0187681811
 20
4620.3669158996
 30
0.0
 11
5374.0187562602
 21
4620.3669158996
 31
0.0
  0
LINE
  5
26C
330
1F
100
AcDbEntity
  8
0
  6
Continuous
 62
     7
100
AcDbLine
 10
7174.0187681811
 20
4622.3668901504
 30
0.0
 11
7174.0187681811
 21
4620.3669158996
 31
0.0
  0
LINE
  5
26D
330
1F
100
AcDbEntity
  8
0
  6
Continuous
 62
     7
100
AcDbLine
 10
5374.0187562602
 20
4620.3669158996
 30
0.0
 11
5374.0187562602
 21
4622.3668901504
 31
0.0
  0
LINE
  5
26E
330
1F
100
AcDbEntity
  8
0
  6
Continuous
 62
     7
100
AcDbLine
 10
5374.0187562602
 20
4123.566850859
 30
0.0
 11
7174.0187681811
 21
4123.566850859
 31
0.0
  0
LINE
  5
26F
330
1F
100
AcDbEntity
  8
0
  6
Continuous
 62
     7
100
AcDbLine
 10
7174.0187681811
 20
4123.566850859
 30
0.0
 11
7174.0187681811
 21
4620.3669158996
 31
0.0
  0
LINE
  5
270
330
1F
100
AcDbEntity
  8
0
  6
Continuous
 62
     7
100
AcDbLine
 10
5374.0187562602
 20
4620.3669158996
 30
0.0
 11
5374.0187562602
 21
4123.566850859
 31
0.0
  0
LINE
  5
271
330
1F
100
AcDbEntity
  8
0
  6
Continuous
 62
     7
100
AcDbLine
 10
6874.0187562602
 20
4490.2884809555
 30
0.0
 11
6876.4211810725
 21
4490.3616754592
 31
0.0
  0
LINE
  5
272
330
1F
100
AcDbEntity
  8
0
  6
Continuous
 62
     7
100
AcDbLine
 10
6876.4211810725
 20
4490.3616754592
 30
0.0
 11
6878.772405495
 21
4490.5794708313
 31
0.0
  0
LINE
  5
273
330
1F
100
AcDbEntity
  8
0
  6
Continuous
 62
     7
100
AcDbLine
 10
6878.772405495
 20
4490.5794708313
 30
0.0
 11
6881.0223020213
 21
4490.9373371185
 31
0.0
  0
LINE
  5
274
330
1F
100
AcDbEntity
  8
0
  6
Continuous
 62
     7
100
AcDbLine
 10
6881.0223020213
 20
4490.9373371185
 30
0.0
 11
6883.1229485171
 21
4491.4276449264
 31
0.0
  0
LINE
  5
275
330
1F
100
AcDbEntity
  8
0
  6
Continuous
 62
     7
100
AcDbLine
 10
6883.1229485171
 20
4491.4276449264
 30
0.0
 11
6885.0295222896
 21
4492.0399038375
 31
0.0
  0
LINE
  5
276
330
1F
100
AcDbEntity
  8
0
  6
Continuous
 62
     7
100
AcDbLine
 10
6885.0295222896
 20
4492.0399038375
 30
0.0
 11
6886.7014325755
 21
4492.76100083
 31
0.0
  0
LINE
  5
277
330
1F
100
AcDbEntity
  8
0
  6
Continuous
 62
     7
100
AcDbLine
 10
6886.7014325755
 20
4492.76100083
 30
0.0
 11
6888.1030357974
 21
4493.5757963241
 31
0.0
  0
LINE
  5
278
330
1F
100
AcDbEntity
  8
0
  6
Continuous
 62
     7
100
AcDbLine
 10
6888.1030357974
 20
4493.5757963241
 30
0.0
 11
6889.2044700282
 21
4494.4666473449
 31
0.0
  0
LINE
  5
279
330
1F
100
AcDbEntity
  8
0
  6
Continuous
 62
     7
100
AcDbLine
 10
6889.2044700282
 20
4494.4666473449
 30
0.0
 11
6889.9822510379
 21
4495.414838034
 31
0.0
  0
LINE
  5
27A
330
1F
100
AcDbEntity
  8
0
  6
Continuous
 62
     7
100
AcDbLine
 10
6889.9822510379
 20
4495.414838034
 30
0.0
 11
6890.4197491305
 21
4496.3998643936
 31
0.0
  0
LINE
  5
27B
330
1F
100
AcDbEntity
  8
0
  6
Continuous
 62
     7
100
AcDbLine
 10
6890.4197491305
 20
4496.3998643936
 30
0.0
 11
6890.5077255862
 21
4497.4009840072
 31
0.0
  0
LINE
  5
27C
330
1F
100
AcDbEntity
  8
0
  6
Continuous
 62
     7
100
AcDbLine
 10
6890.5077255862
 20
4497.4009840072
 30
0.0
 11
6890.2442730563
 21
4498.3967392028
 31
0.0
  0
LINE
  5
27D
330
1F
100
AcDbEntity
  8
0
  6
Continuous
 62
     7
100
AcDbLine
 10
6890.2442730563
 20
4498.3967392028
 30
0.0
 11
6889.6349943774
 21
4499.3659107269
 31
0.0
  0
LINE
  5
27E
330
1F
100
AcDbEntity
  8
0
  6
Continuous
 62
     7
100
AcDbLine
 10
6889.6349943774
 20
4499.3659107269
 30
0.0
 11
6888.6928833621
 21
4500.2878753723
 31
0.0
  0
LINE
  5
27F
330
1F
100
AcDbEntity
  8
0
  6
Continuous
 62
     7
100
AcDbLine
 10
6888.6928833621
 20
4500.2878753723
 30
0.0
 11
6887.4380267756
 21
4501.1429636062
 31
0.0
  0
LINE
  5
280
330
1F
100
AcDbEntity
  8
0
  6
Continuous
 62
     7
100
AcDbLine
 10
6887.4380267756
 20
4501.1429636062
 30
0.0
 11
6885.8971871035
 21
4501.9130556167
 31
0.0
  0
LINE
  5
281
330
1F
100
AcDbEntity
  8
0
  6
Continuous
 62
     7
100
AcDbLine
 10
6885.8971871035
 20
4501.9130556167
 30
0.0
 11
6884.1031469005
 21
4502.5814621032
 31
0.0
  0
LINE
  5
282
330
1F
100
AcDbEntity
  8
0
  6
Continuous
 62
     7
100
AcDbLine
 10
6884.1031469005
 20
4502.5814621032
 30
0.0
 11
6882.0941723483
 21
4503.1342355789
 31
0.0
  0
LINE
  5
283
330
1F
100
AcDbEntity
  8
0
  6
Continuous
 62
     7
100
AcDbLine
 10
6882.0941723483
 20
4503.1342355789
 30
0.0
 11
6879.913059582
 21
4503.5594551147
 31
0.0
  0
LINE
  5
284
330
1F
100
AcDbEntity
  8
0
  6
Continuous
 62
     7
100
AcDbLine
 10
6879.913059582
 20
4503.5594551147
 30
0.0
 11
6877.6063598292
 21
4503.8480608047
 31
0.0
  0
LINE
  5
285
330
1F
100
AcDbEntity
  8
0
  6
Continuous
 62
     7
100
AcDbLine
 10
6877.6063598292
 20
4503.8480608047
 30
0.0
 11
6875.2231873172
 21
4503.9938537658
 31
0.0
  0
LINE
  5
286
330
1F
100
AcDbEntity
  8
0
  6
Continuous
 62
     7
100
AcDbLine
 10
6875.2231873172
 20
4503.9938537658
 30
0.0
 11
6872.8143252032
 21
4503.9938537658
 31
0.0
  0
LINE
  5
287
330
1F
100
AcDbEntity
  8
0
  6
Continuous
 62
     7
100
AcDbLine
 10
6872.8143252032
 20
4503.9938537658
 30
0.0
 11
6870.4311526912
 21
4503.8480608047
 31
0.0
  0
LINE
  5
288
330
1F
100
AcDbEntity
  8
0
  6
Continuous
 62
     7
100
AcDbLine
 10
6870.4311526912
 20
4503.8480608047
 30
0.0
 11
6868.1244529384
 21
4503.5594551147
 31
0.0
  0
LINE
  5
289
330
1F
100
AcDbEntity
  8
0
  6
Continuous
 62
     7
100
AcDbLine
 10
6868.1244529384
 20
4503.5594551147
 30
0.0
 11
6865.9433401721
 21
4503.1342355789
 31
0.0
  0
LINE
  5
28A
330
1F
100
AcDbEntity
  8
0
  6
Continuous
 62
     7
100
AcDbLine
 10
6865.9433401721
 20
4503.1342355789
 30
0.0
 11
6863.9343656199
 21
4502.5814621032
 31
0.0
  0
LINE
  5
28B
330
1F
100
AcDbEntity
  8
0
  6
Continuous
 62
     7
100
AcDbLine
 10
6863.9343656199
 20
4502.5814621032
 30
0.0
 11
6862.1403254168
 21
4501.9130556167
 31
0.0
  0
LINE
  5
28C
330
1F
100
AcDbEntity
  8
0
  6
Continuous
 62
     7
100
AcDbLine
 10
6862.1403254168
 20
4501.9130556167
 30
0.0
 11
6860.5994857448
 21
4501.1429636062
 31
0.0
  0
LINE
  5
28D
330
1F
100
AcDbEntity
  8
0
  6
Continuous
 62
     7
100
AcDbLine
 10
6860.5994857448
 20
4501.1429636062
 30
0.0
 11
6859.3446291583
 21
4500.2878753723
 31
0.0
  0
LINE
  5
28E
330
1F
100
AcDbEntity
  8
0
  6
Continuous
 62
     7
100
AcDbLine
 10
6859.3446291583
 20
4500.2878753723
 30
0.0
 11
6858.402518143
 21
4499.3659107269
 31
0.0
  0
LINE
  5
28F
330
1F
100
AcDbEntity
  8
0
  6
Continuous
 62
     7
100
AcDbLine
 10
6858.402518143
 20
4499.3659107269
 30
0.0
 11
6857.7932394641
 21
4498.3967392028
 31
0.0
  0
LINE
  5
290
330
1F
100
AcDbEntity
  8
0
  6
Continuous
 62
     7
100
AcDbLine
 10
6857.7932394641
 20
4498.3967392028
 30
0.0
 11
6857.5297869342
 21
4497.4009840072
 31
0.0
  0
LINE
  5
291
330
1F
100
AcDbEntity
  8
0
  6
Continuous
 62
     7
100
AcDbLine
 10
6857.5297869342
 20
4497.4009840072
 30
0.0
 11
6857.6177633899
 21
4496.3998643936
 31
0.0
  0
LINE
  5
292
330
1F
100
AcDbEntity
  8
0
  6
Continuous
 62
     7
100
AcDbLine
 10
6857.6177633899
 20
4496.3998643936
 30
0.0
 11
6858.0552614825
 21
4495.414838034
 31
0.0
  0
LINE
  5
293
330
1F
100
AcDbEntity
  8
0
  6
Continuous
 62
     7
100
AcDbLine
 10
6858.0552614825
 20
4495.414838034
 30
0.0
 11
6858.8330424922
 21
4494.4666473449
 31
0.0
  0
LINE
  5
294
330
1F
100
AcDbEntity
  8
0
  6
Continuous
 62
     7
100
AcDbLine
 10
6858.8330424922
 20
4494.4666473449
 30
0.0
 11
6859.934476723
 21
4493.5757963241
 31
0.0
  0
LINE
  5
295
330
1F
100
AcDbEntity
  8
0
  6
Continuous
 62
     7
100
AcDbLine
 10
6859.934476723
 20
4493.5757963241
 30
0.0
 11
6861.3360799449
 21
4492.76100083
 31
0.0
  0
LINE
  5
296
330
1F
100
AcDbEntity
  8
0
  6
Continuous
 62
     7
100
AcDbLine
 10
6861.3360799449
 20
4492.76100083
 30
0.0
 11
6863.0079902308
 21
4492.0399038375
 31
0.0
  0
LINE
  5
297
330
1F
100
AcDbEntity
  8
0
  6
Continuous
 62
     7
100
AcDbLine
 10
6863.0079902308
 20
4492.0399038375
 30
0.0
 11
6864.9145640033
 21
4491.4276449264
 31
0.0
  0
LINE
  5
298
330
1F
100
AcDbEntity
  8
0
  6
Continuous
 62
     7
100
AcDbLine
 10
6864.9145640033
 20
4491.4276449264
 30
0.0
 11
6867.0152104991
 21
4490.9373371185
 31
0.0
  0
LINE
  5
299
330
1F
100
AcDbEntity
  8
0
  6
Continuous
 62
     7
100
AcDbLine
 10
6867.0152104991
 20
4490.9373371185
 30
0.0
 11
6869.2651070254
 21
4490.5794708313
 31
0.0
  0
LINE
  5
29A
330
1F
100
AcDbEntity
  8
0
  6
Continuous
 62
     7
100
AcDbLine
 10
6869.2651070254
 20
4490.5794708313
 30
0.0
 11
6871.6163314479
 21
4490.3616754592
 31
0.0
  0
LINE
  5
29B
330
1F
100
AcDbEntity
  8
0
  6
Continuous
 62
     7
100
AcDbLine
 10
6871.6163314479
 20
4490.3616754592
 30
0.0
 11
6874.0187562602
 21
4490.2884809555
 31
0.0
  0
LINE
  5
29C
330
1F
100
AcDbEntity
  8
0
  6
Continuous
 62
     7
100
AcDbLine
 10
6892.0176900523
 20
4498.5954610885
 30
0.0
 11
6891.9201768535
 21
4499.2970077575
 31
0.0
  0
LINE
  5
29D
330
1F
100
AcDbEntity
  8
0
  6
Continuous
 62
     7
100
AcDbLine
 10
6891.9201768535
 20
4499.2970077575
 30
0.0
 11
6891.4840496676
 21
4500.3254262985
 31
0.0
  0
LINE
  5
29E
330
1F
100
AcDbEntity
  8
0
  6
Continuous
 62
     7
100
AcDbLine
 10
6891.4840496676
 20
4500.3254262985
 30
0.0
 11
6890.7080567973
 21
4501.318678099
 31
0.0
  0
LINE
  5
29F
330
1F
100
AcDbEntity
  8
0
  6
Continuous
 62
     7
100
AcDbLine
 10
6890.7080567973
 20
4501.318678099
 30
0.0
 11
6889.6072186129
 21
4502.2573320449
 31
0.0
  0
LINE
  5
2A0
330
1F
100
AcDbEntity
  8
0
  6
Continuous
 62
     7
100
AcDbLine
 10
6889.6072186129
 20
4502.2573320449
 30
0.0
 11
6888.202933182
 21
4503.1231491149
 31
0.0
  0
LINE
  5
2A1
330
1F
100
AcDbEntity
  8
0
  6
Continuous
 62
     7
100
AcDbLine
 10
6888.202933182
 20
4503.1231491149
 30
0.0
 11
6886.5226186412
 21
4503.8992015899
 31
0.0
  0
LINE
  5
2A2
330
1F
100
AcDbEntity
  8
0
  6
Continuous
 62
     7
100
AcDbLine
 10
6886.5226186412
 20
4503.8992015899
 30
0.0
 11
6884.5988787311
 21
4504.5704690994
 31
0.0
  0
LINE
  5
2A3
330
1F
100
AcDbEntity
  8
0
  6
Continuous
 62
     7
100
AcDbLine
 10
6884.5988787311
 20
4504.5704690994
 30
0.0
 11
6882.4692643779
 21
4505.1239578308
 31
0.0
  0
LINE
  5
2A4
330
1F
100
AcDbEntity
  8
0
  6
Continuous
 62
     7
100
AcDbLine
 10
6882.4692643779
 20
4505.1239578308
 30
0.0
 11
6880.1751412051
 21
4505.5487005294
 31
0.0
  0
LINE
  5
2A5
330
1F
100
AcDbEntity
  8
0
  6
Continuous
 62
     7
100
AcDbLine
 10
6880.1751412051
 20
4505.5487005294
 30
0.0
 11
6877.7611530917
 21
4505.8365909637
 31
0.0
  0
LINE
  5
2A6
330
1F
100
AcDbEntity
  8
0
  6
Continuous
 62
     7
100
AcDbLine
 10
6877.7611530917
 20
4505.8365909637
 30
0.0
 11
6875.274387707
 21
4505.9819070877
 31
0.0
  0
LINE
  5
2A7
330
1F
100
AcDbEntity
  8
0
  6
Continuous
 62
     7
100
AcDbLine
 10
6875.274387707
 20
4505.9819070877
 30
0.0
 11
6872.7631248134
 21
4505.9819070877
 31
0.0
  0
LINE
  5
2A8
330
1F
100
AcDbEntity
  8
0
  6
Continuous
 62
     7
100
AcDbLine
 10
6872.7631248134
 20
4505.9819070877
 30
0.0
 11
6870.2763594287
 21
4505.8365909637
 31
0.0
  0
LINE
  5
2A9
330
1F
100
AcDbEntity
  8
0
  6
Continuous
 62
     7
100
AcDbLine
 10
6870.2763594287
 20
4505.8365909637
 30
0.0
 11
6867.8623713153
 21
4505.5487005294
 31
0.0
  0
LINE
  5
2AA
330
1F
100
AcDbEntity
  8
0
  6
Continuous
 62
     7
100
AcDbLine
 10
6867.8623713153
 20
4505.5487005294
 30
0.0
 11
6865.5682481425
 21
4505.1239578308
 31
0.0
  0
LINE
  5
2AB
330
1F
100
AcDbEntity
  8
0
  6
Continuous
 62
     7
100
AcDbLine
 10
6865.5682481425
 20
4505.1239578308
 30
0.0
 11
6863.4386337893
 21
4504.5704690994
 31
0.0
  0
LINE
  5
2AC
330
1F
100
AcDbEntity
  8
0
  6
Continuous
 62
     7
100
AcDbLine
 10
6863.4386337893
 20
4504.5704690994
 30
0.0
 11
6861.5148938792
 21
4503.8992015899
 31
0.0
  0
LINE
  5
2AD
330
1F
100
AcDbEntity
  8
0
  6
Continuous
 62
     7
100
AcDbLine
 10
6861.5148938792
 20
4503.8992015899
 30
0.0
 11
6859.8345793384
 21
4503.1231491149
 31
0.0
  0
LINE
  5
2AE
330
1F
100
AcDbEntity
  8
0
  6
Continuous
 62
     7
100
AcDbLine
 10
6859.8345793384
 20
4503.1231491149
 30
0.0
 11
6858.4302939074
 21
4502.2573320449
 31
0.0
  0
LINE
  5
2AF
330
1F
100
AcDbEntity
  8
0
  6
Continuous
 62
     7
100
AcDbLine
 10
6858.4302939074
 20
4502.2573320449
 30
0.0
 11
6857.3294557231
 21
4501.318678099
 31
0.0
  0
LINE
  5
2B0
330
1F
100
AcDbEntity
  8
0
  6
Continuous
 62
     7
100
AcDbLine
 10
6857.3294557231
 20
4501.318678099
 30
0.0
 11
6856.5534032481
 21
4500.3254262985
 31
0.0
  0
LINE
  5
2B1
330
1F
100
AcDbEntity
  8
0
  6
Continuous
 62
     7
100
AcDbLine
 10
6856.5534032481
 20
4500.3254262985
 30
0.0
 11
6856.1173356669
 21
4499.2970077575
 31
0.0
  0
LINE
  5
2B2
330
1F
100
AcDbEntity
  8
0
  6
Continuous
 62
     7
100
AcDbLine
 10
6856.1173356669
 20
4499.2970077575
 30
0.0
 11
6856.019166817
 21
4498.463496405
 31
0.0
  0
LINE
  5
2B3
330
1F
100
AcDbEntity
  8
0
  6
Continuous
 62
     7
100
AcDbLine
 10
6885.9811104434
 20
4498.6585228027
 30
0.0
 11
6885.1940311091
 21
4499.4792787612
 31
0.0
  0
LINE
  5
2B4
330
1F
100
AcDbEntity
  8
0
  6
Continuous
 62
     7
100
AcDbLine
 10
6885.1940311091
 20
4499.4792787612
 30
0.0
 11
6884.0840734141
 21
4500.2328006805
 31
0.0
  0
LINE
  5
2B5
330
1F
100
AcDbEntity
  8
0
  6
Continuous
 62
     7
100
AcDbLine
 10
6884.0840734141
 20
4500.2328006805
 30
0.0
 11
6882.6832450526
 21
4500.8972732604
 31
0.0
  0
LINE
  5
2B6
330
1F
100
AcDbEntity
  8
0
  6
Continuous
 62
     7
100
AcDbLine
 10
6882.6832450526
 20
4500.8972732604
 30
0.0
 11
6881.032077183
 21
4501.4533845962
 31
0.0
  0
LINE
  5
2B7
330
1F
100
AcDbEntity
  8
0
  6
Continuous
 62
     7
100
AcDbLine
 10
6881.032077183
 20
4501.4533845962
 30
0.0
 11
6879.1782535212
 21
4501.8852798522
 31
0.0
  0
LINE
  5
2B8
330
1F
100
AcDbEntity
  8
0
  6
Continuous
 62
     7
100
AcDbLine
 10
6879.1782535212
 20
4501.8852798522
 30
0.0
 11
6877.1752990382
 21
4502.1802036346
 31
0.0
  0
LINE
  5
2B9
330
1F
100
AcDbEntity
  8
0
  6
Continuous
 62
     7
100
AcDbLine
 10
6877.1752990382
 20
4502.1802036346
 30
0.0
 11
6875.0811494487
 21
4502.3299305023
 31
0.0
  0
LINE
  5
2BA
330
1F
100
AcDbEntity
  8
0
  6
Continuous
 62
     7
100
AcDbLine
 10
6875.0811494487
 20
4502.3299305023
 30
0.0
 11
6872.9563630717
 21
4502.3299305023
 31
0.0
  0
LINE
  5
2BB
330
1F
100
AcDbEntity
  8
0
  6
Continuous
 62
     7
100
AcDbLine
 10
6872.9563630717
 20
4502.3299305023
 30
0.0
 11
6870.8622134822
 21
4502.1802036346
 31
0.0
  0
LINE
  5
2BC
330
1F
100
AcDbEntity
  8
0
  6
Continuous
 62
     7
100
AcDbLine
 10
6870.8622134822
 20
4502.1802036346
 30
0.0
 11
6868.8592589991
 21
4501.8852798522
 31
0.0
  0
LINE
  5
2BD
330
1F
100
AcDbEntity
  8
0
  6
Continuous
 62
     7
100
AcDbLine
 10
6868.8592589991
 20
4501.8852798522
 30
0.0
 11
6867.0054353373
 21
4501.4533845962
 31
0.0
  0
LINE
  5
2BE
330
1F
100
AcDbEntity
  8
0
  6
Continuous
 62
     7
100
AcDbLine
 10
6867.0054353373
 20
4501.4533845962
 30
0.0
 11
6865.3542674678
 21
4500.8972732604
 31
0.0
  0
LINE
  5
2BF
330
1F
100
AcDbEntity
  8
0
  6
Continuous
 62
     7
100
AcDbLine
 10
6865.3542674678
 20
4500.8972732604
 30
0.0
 11
6863.9534391063
 21
4500.2328006805
 31
0.0
  0
LINE
  5
2C0
330
1F
100
AcDbEntity
  8
0
  6
Continuous
 62
     7
100
AcDbLine
 10
6863.9534391063
 20
4500.2328006805
 30
0.0
 11
6862.8434814113
 21
4499.4792787612
 31
0.0
  0
LINE
  5
2C1
330
1F
100
AcDbEntity
  8
0
  6
Continuous
 62
     7
100
AcDbLine
 10
6862.8434814113
 20
4499.4792787612
 30
0.0
 11
6862.056402077
 21
4498.6585228027
 31
0.0
  0
LINE
  5
2C2
330
1F
100
AcDbEntity
  8
0
  6
Continuous
 62
     7
100
AcDbLine
 10
6862.056402077
 20
4498.6585228027
 30
0.0
 11
6862.0349444049
 21
4498.5954610885
 31
0.0
  0
LINE
  5
2C3
330
1F
100
AcDbEntity
  8
0
  6
Continuous
 62
     7
100
AcDbLine
 10
6862.0349444049
 20
4498.5954610885
 30
0.0
 11
6862.0603359836
 21
4498.5326377929
 31
0.0
  0
LINE
  5
2C4
330
1F
100
AcDbEntity
  8
0
  6
Continuous
 62
     7
100
AcDbLine
 10
6862.0603359836
 20
4498.5326377929
 30
0.0
 11
6862.1303118365
 21
4498.4760133804
 31
0.0
  0
LINE
  5
2C5
330
1F
100
AcDbEntity
  8
0
  6
Continuous
 62
     7
100
AcDbLine
 10
6862.1303118365
 20
4498.4760133804
 30
0.0
 11
6862.2381962436
 21
4498.4308330596
 31
0.0
  0
LINE
  5
2C6
330
1F
100
AcDbEntity
  8
0
  6
Continuous
 62
     7
100
AcDbLine
 10
6862.2381962436
 20
4498.4308330596
 30
0.0
 11
6862.3739160197
 21
4498.4013883651
 31
0.0
  0
LINE
  5
2C7
330
1F
100
AcDbEntity
  8
0
  6
Continuous
 62
     7
100
AcDbLine
 10
6862.3739160197
 20
4498.4013883651
 30
0.0
 11
6862.524715771
 21
4498.3903019012
 31
0.0
  0
LINE
  5
2C8
330
1F
100
AcDbEntity
  8
0
  6
Continuous
 62
     7
100
AcDbLine
 10
6862.524715771
 20
4498.3903019012
 30
0.0
 11
6862.6764691966
 21
4498.3987657608
 31
0.0
  0
LINE
  5
2C9
330
1F
100
AcDbEntity
  8
0
  6
Continuous
 62
     7
100
AcDbLine
 10
6862.6764691966
 20
4498.3987657608
 30
0.0
 11
6862.8149903911
 21
4498.4259454788
 31
0.0
  0
LINE
  5
2CA
330
1F
100
AcDbEntity
  8
0
  6
Continuous
 62
     7
100
AcDbLine
 10
6885.2225221293
 20
4498.4259454788
 30
0.0
 11
6885.3610433238
 21
4498.3987657608
 31
0.0
  0
LINE
  5
2CB
330
1F
100
AcDbEntity
  8
0
  6
Continuous
 62
     7
100
AcDbLine
 10
6885.3610433238
 20
4498.3987657608
 30
0.0
 11
6885.5127967494
 21
4498.3903019012
 31
0.0
  0
LINE
  5
2CC
330
1F
100
AcDbEntity
  8
0
  6
Continuous
 62
     7
100
AcDbLine
 10
6885.5127967494
 20
4498.3903019012
 30
0.0
 11
6885.6635965007
 21
4498.4013883651
 31
0.0
  0
LINE
  5
2CD
330
1F
100
AcDbEntity
  8
0
  6
Continuous
 62
     7
100
AcDbLine
 10
6885.6635965007
 20
4498.4013883651
 30
0.0
 11
6885.7993162768
 21
4498.4308330596
 31
0.0
  0
LINE
  5
2CE
330
1F
100
AcDbEntity
  8
0
  6
Continuous
 62
     7
100
AcDbLine
 10
6885.7993162768
 20
4498.4308330596
 30
0.0
 11
6885.9072006839
 21
4498.4760133804
 31
0.0
  0
LINE
  5
2CF
330
1F
100
AcDbEntity
  8
0
  6
Continuous
 62
     7
100
AcDbLine
 10
6885.9072006839
 20
4498.4760133804
 30
0.0
 11
6885.9771765368
 21
4498.5326377929
 31
0.0
  0
LINE
  5
2D0
330
1F
100
AcDbEntity
  8
0
  6
Continuous
 62
     7
100
AcDbLine
 10
6885.9771765368
 20
4498.5326377929
 30
0.0
 11
6886.0025681155
 21
4498.5954610885
 31
0.0
  0
LINE
  5
2D1
330
1F
100
AcDbEntity
  8
0
  6
Continuous
 62
     7
100
AcDbLine
 10
6886.0025681155
 20
4498.5954610885
 30
0.0
 11
6885.9811104434
 21
4498.6585228027
 31
0.0
  0
LINE
  5
2D2
330
1F
100
AcDbEntity
  8
0
  6
Continuous
 62
     7
100
AcDbLine
 10
6862.8149903911
 20
4495.8747474731
 30
0.0
 11
6862.6764691966
 21
4495.9019271911
 31
0.0
  0
LINE
  5
2D3
330
1F
100
AcDbEntity
  8
0
  6
Continuous
 62
     7
100
AcDbLine
 10
6862.6764691966
 20
4495.9019271911
 30
0.0
 11
6862.524715771
 21
4495.9103910507
 31
0.0
  0
LINE
  5
2D4
330
1F
100
AcDbEntity
  8
0
  6
Continuous
 62
     7
100
AcDbLine
 10
6862.524715771
 20
4495.9103910507
 30
0.0
 11
6862.3739160197
 21
4495.899423796
 31
0.0
  0
LINE
  5
2D5
330
1F
100
AcDbEntity
  8
0
  6
Continuous
 62
     7
100
AcDbLine
 10
6862.3739160197
 20
4495.899423796
 30
0.0
 11
6862.2381962436
 21
4495.8698598922
 31
0.0
  0
LINE
  5
2D6
330
1F
100
AcDbEntity
  8
0
  6
Continuous
 62
     7
100
AcDbLine
 10
6862.2381962436
 20
4495.8698598922
 30
0.0
 11
6862.1303118365
 21
4495.8246795715
 31
0.0
  0
LINE
  5
2D7
330
1F
100
AcDbEntity
  8
0
  6
Continuous
 62
     7
100
AcDbLine
 10
6862.1303118365
 20
4495.8246795715
 30
0.0
 11
6862.0603359836
 21
4495.7680551589
 31
0.0
  0
LINE
  5
2D8
330
1F
100
AcDbEntity
  8
0
  6
Continuous
 62
     7
100
AcDbLine
 10
6862.0603359836
 20
4495.7680551589
 30
0.0
 11
6862.0349444049
 21
4495.7052318634
 31
0.0
  0
LINE
  5
2D9
330
1F
100
AcDbEntity
  8
0
  6
Continuous
 62
     7
100
AcDbLine
 10
6862.0349444049
 20
4495.7052318634
 30
0.0
 11
6862.056402077
 21
4495.6421701492
 31
0.0
  0
LINE
  5
2DA
330
1F
100
AcDbEntity
  8
0
  6
Continuous
 62
     7
100
AcDbLine
 10
6862.056402077
 20
4495.6421701492
 30
0.0
 11
6862.8434814113
 21
4494.8214141906
 31
0.0
  0
LINE
  5
2DB
330
1F
100
AcDbEntity
  8
0
  6
Continuous
 62
     7
100
AcDbLine
 10
6862.8434814113
 20
4494.8214141906
 30
0.0
 11
6863.9534391063
 21
4494.0678922714
 31
0.0
  0
LINE
  5
2DC
330
1F
100
AcDbEntity
  8
0
  6
Continuous
 62
     7
100
AcDbLine
 10
6863.9534391063
 20
4494.0678922714
 30
0.0
 11
6865.3542674678
 21
4493.4034196914
 31
0.0
  0
LINE
  5
2DD
330
1F
100
AcDbEntity
  8
0
  6
Continuous
 62
     7
100
AcDbLine
 10
6865.3542674678
 20
4493.4034196914
 30
0.0
 11
6867.0054353373
 21
4492.8473083557
 31
0.0
  0
LINE
  5
2DE
330
1F
100
AcDbEntity
  8
0
  6
Continuous
 62
     7
100
AcDbLine
 10
6867.0054353373
 20
4492.8473083557
 30
0.0
 11
6868.8592589991
 21
4492.4155323089
 31
0.0
  0
LINE
  5
2DF
330
1F
100
AcDbEntity
  8
0
  6
Continuous
 62
     7
100
AcDbLine
 10
6868.8592589991
 20
4492.4155323089
 30
0.0
 11
6870.8622134822
 21
4492.1204893173
 31
0.0
  0
LINE
  5
2E0
330
1F
100
AcDbEntity
  8
0
  6
Continuous
 62
     7
100
AcDbLine
 10
6870.8622134822
 20
4492.1204893173
 30
0.0
 11
6872.9563630717
 21
4491.9707624496
 31
0.0
  0
LINE
  5
2E1
330
1F
100
AcDbEntity
  8
0
  6
Continuous
 62
     7
100
AcDbLine
 10
6872.9563630717
 20
4491.9707624496
 30
0.0
 11
6875.0811494487
 21
4491.9707624496
 31
0.0
  0
LINE
  5
2E2
330
1F
100
AcDbEntity
  8
0
  6
Continuous
 62
     7
100
AcDbLine
 10
6875.0811494487
 20
4491.9707624496
 30
0.0
 11
6877.1752990382
 21
4492.1204893173
 31
0.0
  0
LINE
  5
2E3
330
1F
100
AcDbEntity
  8
0
  6
Continuous
 62
     7
100
AcDbLine
 10
6877.1752990382
 20
4492.1204893173
 30
0.0
 11
6879.1782535212
 21
4492.4155323089
 31
0.0
  0
LINE
  5
2E4
330
1F
100
AcDbEntity
  8
0
  6
Continuous
 62
     7
100
AcDbLine
 10
6879.1782535212
 20
4492.4155323089
 30
0.0
 11
6881.032077183
 21
4492.8473083557
 31
0.0
  0
LINE
  5
2E5
330
1F
100
AcDbEntity
  8
0
  6
Continuous
 62
     7
100
AcDbLine
 10
6881.032077183
 20
4492.8473083557
 30
0.0
 11
6882.6832450526
 21
4493.4034196914
 31
0.0
  0
LINE
  5
2E6
330
1F
100
AcDbEntity
  8
0
  6
Continuous
 62
     7
100
AcDbLine
 10
6882.6832450526
 20
4493.4034196914
 30
0.0
 11
6884.0840734141
 21
4494.0678922714
 31
0.0
  0
LINE
  5
2E7
330
1F
100
AcDbEntity
  8
0
  6
Continuous
 62
     7
100
AcDbLine
 10
6884.0840734141
 20
4494.0678922714
 30
0.0
 11
6885.1940311091
 21
4494.8214141906
 31
0.0
  0
LINE
  5
2E8
330
1F
100
AcDbEntity
  8
0
  6
Continuous
 62
     7
100
AcDbLine
 10
6885.1940311091
 20
4494.8214141906
 30
0.0
 11
6885.9811104434
 21
4495.6421701492
 31
0.0
  0
LINE
  5
2E9
330
1F
100
AcDbEntity
  8
0
  6
Continuous
 62
     7
100
AcDbLine
 10
6885.9811104434
 20
4495.6421701492
 30
0.0
 11
6886.0025681155
 21
4495.7052318634
 31
0.0
  0
LINE
  5
2EA
330
1F
100
AcDbEntity
  8
0
  6
Continuous
 62
     7
100
AcDbLine
 10
6886.0025681155
 20
4495.7052318634
 30
0.0
 11
6885.9771765368
 21
4495.7680551589
 31
0.0
  0
LINE
  5
2EB
330
1F
100
AcDbEntity
  8
0
  6
Continuous
 62
     7
100
AcDbLine
 10
6885.9771765368
 20
4495.7680551589
 30
0.0
 11
6885.9072006839
 21
4495.8246795715
 31
0.0
  0
LINE
  5
2EC
330
1F
100
AcDbEntity
  8
0
  6
Continuous
 62
     7
100
AcDbLine
 10
6885.9072006839
 20
4495.8246795715
 30
0.0
 11
6885.7993162768
 21
4495.8698598922
 31
0.0
  0
LINE
  5
2ED
330
1F
100
AcDbEntity
  8
0
  6
Continuous
 62
     7
100
AcDbLine
 10
6885.7993162768
 20
4495.8698598922
 30
0.0
 11
6885.6635965007
 21
4495.899423796
 31
0.0
  0
LINE
  5
2EE
330
1F
100
AcDbEntity
  8
0
  6
Continuous
 62
     7
100
AcDbLine
 10
6885.6635965007
 20
4495.899423796
 30
0.0
 11
6885.5127967494
 21
4495.9103910507
 31
0.0
  0
LINE
  5
2EF
330
1F
100
AcDbEntity
  8
0
  6
Continuous
 62
     7
100
AcDbLine
 10
6885.5127967494
 20
4495.9103910507
 30
0.0
 11
6885.3610433238
 21
4495.9019271911
 31
0.0
  0
LINE
  5
2F0
330
1F
100
AcDbEntity
  8
0
  6
Continuous
 62
     7
100
AcDbLine
 10
6885.3610433238
 20
4495.9019271911
 30
0.0
 11
6885.2225221293
 21
4495.8747474731
 31
0.0
  0
LINE
  5
2F1
330
1F
100
AcDbEntity
  8
0
  6
Continuous
 62
     7
100
AcDbLine
 10
5674.0187681811
 20
4490.2884809555
 30
0.0
 11
5676.4211631911
 21
4490.3616754592
 31
0.0
  0
LINE
  5
2F2
330
1F
100
AcDbEntity
  8
0
  6
Continuous
 62
     7
100
AcDbLine
 10
5676.4211631911
 20
4490.3616754592
 30
0.0
 11
5678.7723876136
 21
4490.5794708313
 31
0.0
  0
LINE
  5
2F3
330
1F
100
AcDbEntity
  8
0
  6
Continuous
 62
     7
100
AcDbLine
 10
5678.7723876136
 20
4490.5794708313
 30
0.0
 11
5681.0222841399
 21
4490.9373371185
 31
0.0
  0
LINE
  5
2F4
330
1F
100
AcDbEntity
  8
0
  6
Continuous
 62
     7
100
AcDbLine
 10
5681.0222841399
 20
4490.9373371185
 30
0.0
 11
5683.1229306357
 21
4491.4276449264
 31
0.0
  0
LINE
  5
2F5
330
1F
100
AcDbEntity
  8
0
  6
Continuous
 62
     7
100
AcDbLine
 10
5683.1229306357
 20
4491.4276449264
 30
0.0
 11
5685.0295044082
 21
4492.0399038375
 31
0.0
  0
LINE
  5
2F6
330
1F
100
AcDbEntity
  8
0
  6
Continuous
 62
     7
100
AcDbLine
 10
5685.0295044082
 20
4492.0399038375
 30
0.0
 11
5686.7014444964
 21
4492.76100083
 31
0.0
  0
LINE
  5
2F7
330
1F
100
AcDbEntity
  8
0
  6
Continuous
 62
     7
100
AcDbLine
 10
5686.7014444964
 20
4492.76100083
 30
0.0
 11
5688.1030477183
 21
4493.5757963241
 31
0.0
  0
LINE
  5
2F8
330
1F
100
AcDbEntity
  8
0
  6
Continuous
 62
     7
100
AcDbLine
 10
5688.1030477183
 20
4493.5757963241
 30
0.0
 11
5689.2044819491
 21
4494.4666473449
 31
0.0
  0
LINE
  5
2F9
330
1F
100
AcDbEntity
  8
0
  6
Continuous
 62
     7
100
AcDbLine
 10
5689.2044819491
 20
4494.4666473449
 30
0.0
 11
5689.9822331565
 21
4495.414838034
 31
0.0
  0
LINE
  5
2FA
330
1F
100
AcDbEntity
  8
0
  6
Continuous
 62
     7
100
AcDbLine
 10
5689.9822331565
 20
4495.414838034
 30
0.0
 11
5690.4197610515
 21
4496.3998643936
 31
0.0
  0
LINE
  5
2FB
330
1F
100
AcDbEntity
  8
0
  6
Continuous
 62
     7
100
AcDbLine
 10
5690.4197610515
 20
4496.3998643936
 30
0.0
 11
5690.5077375071
 21
4497.4009840072
 31
0.0
  0
LINE
  5
2FC
330
1F
100
AcDbEntity
  8
0
  6
Continuous
 62
     7
100
AcDbLine
 10
5690.5077375071
 20
4497.4009840072
 30
0.0
 11
5690.2442849772
 21
4498.3967392028
 31
0.0
  0
LINE
  5
2FD
330
1F
100
AcDbEntity
  8
0
  6
Continuous
 62
     7
100
AcDbLine
 10
5690.2442849772
 20
4498.3967392028
 30
0.0
 11
5689.6350062983
 21
4499.3659107269
 31
0.0
  0
LINE
  5
2FE
330
1F
100
AcDbEntity
  8
0
  6
Continuous
 62
     7
100
AcDbLine
 10
5689.6350062983
 20
4499.3659107269
 30
0.0
 11
5688.692895283
 21
4500.2878753723
 31
0.0
  0
LINE
  5
2FF
330
1F
100
AcDbEntity
  8
0
  6
Continuous
 62
     7
100
AcDbLine
 10
5688.692895283
 20
4500.2878753723
 30
0.0
 11
5687.4380386966
 21
4501.1429636062
 31
0.0
  0
LINE
  5
300
330
1F
100
AcDbEntity
  8
0
  6
Continuous
 62
     7
100
AcDbLine
 10
5687.4380386966
 20
4501.1429636062
 30
0.0
 11
5685.8971692222
 21
4501.9130556167
 31
0.0
  0
LINE
  5
301
330
1F
100
AcDbEntity
  8
0
  6
Continuous
 62
     7
100
AcDbLine
 10
5685.8971692222
 20
4501.9130556167
 30
0.0
 11
5684.1031290191
 21
4502.5814621032
 31
0.0
  0
LINE
  5
302
330
1F
100
AcDbEntity
  8
0
  6
Continuous
 62
     7
100
AcDbLine
 10
5684.1031290191
 20
4502.5814621032
 30
0.0
 11
5682.0941544669
 21
4503.1342355789
 31
0.0
  0
LINE
  5
303
330
1F
100
AcDbEntity
  8
0
  6
Continuous
 62
     7
100
AcDbLine
 10
5682.0941544669
 20
4503.1342355789
 30
0.0
 11
5679.913071503
 21
4503.5594551147
 31
0.0
  0
LINE
  5
304
330
1F
100
AcDbEntity
  8
0
  6
Continuous
 62
     7
100
AcDbLine
 10
5679.913071503
 20
4503.5594551147
 30
0.0
 11
5677.6063419478
 21
4503.8480608047
 31
0.0
  0
LINE
  5
305
330
1F
100
AcDbEntity
  8
0
  6
Continuous
 62
     7
100
AcDbLine
 10
5677.6063419478
 20
4503.8480608047
 30
0.0
 11
5675.2231694358
 21
4503.9938537658
 31
0.0
  0
LINE
  5
306
330
1F
100
AcDbEntity
  8
0
  6
Continuous
 62
     7
100
AcDbLine
 10
5675.2231694358
 20
4503.9938537658
 30
0.0
 11
5672.8143371241
 21
4503.9938537658
 31
0.0
  0
LINE
  5
307
330
1F
100
AcDbEntity
  8
0
  6
Continuous
 62
     7
100
AcDbLine
 10
5672.8143371241
 20
4503.9938537658
 30
0.0
 11
5670.4311646121
 21
4503.8480608047
 31
0.0
  0
LINE
  5
308
330
1F
100
AcDbEntity
  8
0
  6
Continuous
 62
     7
100
AcDbLine
 10
5670.4311646121
 20
4503.8480608047
 30
0.0
 11
5668.124435057
 21
4503.5594551147
 31
0.0
  0
LINE
  5
309
330
1F
100
AcDbEntity
  8
0
  6
Continuous
 62
     7
100
AcDbLine
 10
5668.124435057
 20
4503.5594551147
 30
0.0
 11
5665.943352093
 21
4503.1342355789
 31
0.0
  0
LINE
  5
30A
330
1F
100
AcDbEntity
  8
0
  6
Continuous
 62
     7
100
AcDbLine
 10
5665.943352093
 20
4503.1342355789
 30
0.0
 11
5663.9343775409
 21
4502.5814621032
 31
0.0
  0
LINE
  5
30B
330
1F
100
AcDbEntity
  8
0
  6
Continuous
 62
     7
100
AcDbLine
 10
5663.9343775409
 20
4502.5814621032
 30
0.0
 11
5662.1403373378
 21
4501.9130556167
 31
0.0
  0
LINE
  5
30C
330
1F
100
AcDbEntity
  8
0
  6
Continuous
 62
     7
100
AcDbLine
 10
5662.1403373378
 20
4501.9130556167
 30
0.0
 11
5660.5994678634
 21
4501.1429636062
 31
0.0
  0
LINE
  5
30D
330
1F
100
AcDbEntity
  8
0
  6
Continuous
 62
     7
100
AcDbLine
 10
5660.5994678634
 20
4501.1429636062
 30
0.0
 11
5659.3446112769
 21
4500.2878753723
 31
0.0
  0
LINE
  5
30E
330
1F
100
AcDbEntity
  8
0
  6
Continuous
 62
     7
100
AcDbLine
 10
5659.3446112769
 20
4500.2878753723
 30
0.0
 11
5658.4025002616
 21
4499.3659107269
 31
0.0
  0
LINE
  5
30F
330
1F
100
AcDbEntity
  8
0
  6
Continuous
 62
     7
100
AcDbLine
 10
5658.4025002616
 20
4499.3659107269
 30
0.0
 11
5657.7932215827
 21
4498.3967392028
 31
0.0
  0
LINE
  5
310
330
1F
100
AcDbEntity
  8
0
  6
Continuous
 62
     7
100
AcDbLine
 10
5657.7932215827
 20
4498.3967392028
 30
0.0
 11
5657.5297690528
 21
4497.4009840072
 31
0.0
  0
LINE
  5
311
330
1F
100
AcDbEntity
  8
0
  6
Continuous
 62
     7
100
AcDbLine
 10
5657.5297690528
 20
4497.4009840072
 30
0.0
 11
5657.6177455085
 21
4496.3998643936
 31
0.0
  0
LINE
  5
312
330
1F
100
AcDbEntity
  8
0
  6
Continuous
 62
     7
100
AcDbLine
 10
5657.6177455085
 20
4496.3998643936
 30
0.0
 11
5658.0552734034
 21
4495.414838034
 31
0.0
  0
LINE
  5
313
330
1F
100
AcDbEntity
  8
0
  6
Continuous
 62
     7
100
AcDbLine
 10
5658.0552734034
 20
4495.414838034
 30
0.0
 11
5658.8330544131
 21
4494.4666473449
 31
0.0
  0
LINE
  5
314
330
1F
100
AcDbEntity
  8
0
  6
Continuous
 62
     7
100
AcDbLine
 10
5658.8330544131
 20
4494.4666473449
 30
0.0
 11
5659.9344588416
 21
4493.5757963241
 31
0.0
  0
LINE
  5
315
330
1F
100
AcDbEntity
  8
0
  6
Continuous
 62
     7
100
AcDbLine
 10
5659.9344588416
 20
4493.5757963241
 30
0.0
 11
5661.3360918658
 21
4492.76100083
 31
0.0
  0
LINE
  5
316
330
1F
100
AcDbEntity
  8
0
  6
Continuous
 62
     7
100
AcDbLine
 10
5661.3360918658
 20
4492.76100083
 30
0.0
 11
5663.0080021518
 21
4492.0399038375
 31
0.0
  0
LINE
  5
317
330
1F
100
AcDbEntity
  8
0
  6
Continuous
 62
     7
100
AcDbLine
 10
5663.0080021518
 20
4492.0399038375
 30
0.0
 11
5664.9145759242
 21
4491.4276449264
 31
0.0
  0
LINE
  5
318
330
1F
100
AcDbEntity
  8
0
  6
Continuous
 62
     7
100
AcDbLine
 10
5664.9145759242
 20
4491.4276449264
 30
0.0
 11
5667.01522242
 21
4490.9373371185
 31
0.0
  0
LINE
  5
319
330
1F
100
AcDbEntity
  8
0
  6
Continuous
 62
     7
100
AcDbLine
 10
5667.01522242
 20
4490.9373371185
 30
0.0
 11
5669.2651189464
 21
4490.5794708313
 31
0.0
  0
LINE
  5
31A
330
1F
100
AcDbEntity
  8
0
  6
Continuous
 62
     7
100
AcDbLine
 10
5669.2651189464
 20
4490.5794708313
 30
0.0
 11
5671.6163433688
 21
4490.3616754592
 31
0.0
  0
LINE
  5
31B
330
1F
100
AcDbEntity
  8
0
  6
Continuous
 62
     7
100
AcDbLine
 10
5671.6163433688
 20
4490.3616754592
 30
0.0
 11
5674.0187681811
 21
4490.2884809555
 31
0.0
  0
LINE
  5
31C
330
1F
100
AcDbEntity
  8
0
  6
Continuous
 62
     7
100
AcDbLine
 10
5692.0177019732
 20
4498.5954610885
 30
0.0
 11
5691.9201589721
 21
4499.2970077575
 31
0.0
  0
LINE
  5
31D
330
1F
100
AcDbEntity
  8
0
  6
Continuous
 62
     7
100
AcDbLine
 10
5691.9201589721
 20
4499.2970077575
 30
0.0
 11
5691.4840913909
 21
4500.3254262985
 31
0.0
  0
LINE
  5
31E
330
1F
100
AcDbEntity
  8
0
  6
Continuous
 62
     7
100
AcDbLine
 10
5691.4840913909
 20
4500.3254262985
 30
0.0
 11
5690.7080687182
 21
4501.318678099
 31
0.0
  0
LINE
  5
31F
330
1F
100
AcDbEntity
  8
0
  6
Continuous
 62
     7
100
AcDbLine
 10
5690.7080687182
 20
4501.318678099
 30
0.0
 11
5689.6072007316
 21
4502.2573320449
 31
0.0
  0
LINE
  5
320
330
1F
100
AcDbEntity
  8
0
  6
Continuous
 62
     7
100
AcDbLine
 10
5689.6072007316
 20
4502.2573320449
 30
0.0
 11
5688.202945103
 21
4503.1231491149
 31
0.0
  0
LINE
  5
321
330
1F
100
AcDbEntity
  8
0
  6
Continuous
 62
     7
100
AcDbLine
 10
5688.202945103
 20
4503.1231491149
 30
0.0
 11
5686.5226007598
 21
4503.8992015899
 31
0.0
  0
LINE
  5
322
330
1F
100
AcDbEntity
  8
0
  6
Continuous
 62
     7
100
AcDbLine
 10
5686.5226007598
 20
4503.8992015899
 30
0.0
 11
5684.598890652
 21
4504.5704690994
 31
0.0
  0
LINE
  5
323
330
1F
100
AcDbEntity
  8
0
  6
Continuous
 62
     7
100
AcDbLine
 10
5684.598890652
 20
4504.5704690994
 30
0.0
 11
5682.4692464965
 21
4505.1239578308
 31
0.0
  0
LINE
  5
324
330
1F
100
AcDbEntity
  8
0
  6
Continuous
 62
     7
100
AcDbLine
 10
5682.4692464965
 20
4505.1239578308
 30
0.0
 11
5680.1751233237
 21
4505.5487005294
 31
0.0
  0
LINE
  5
325
330
1F
100
AcDbEntity
  8
0
  6
Continuous
 62
     7
100
AcDbLine
 10
5680.1751233237
 20
4505.5487005294
 30
0.0
 11
5677.7611650126
 21
4505.8365909637
 31
0.0
  0
LINE
  5
326
330
1F
100
AcDbEntity
  8
0
  6
Continuous
 62
     7
100
AcDbLine
 10
5677.7611650126
 20
4505.8365909637
 30
0.0
 11
5675.2743698256
 21
4505.9819070877
 31
0.0
  0
LINE
  5
327
330
1F
100
AcDbEntity
  8
0
  6
Continuous
 62
     7
100
AcDbLine
 10
5675.2743698256
 20
4505.9819070877
 30
0.0
 11
5672.7631367343
 21
4505.9819070877
 31
0.0
  0
LINE
  5
328
330
1F
100
AcDbEntity
  8
0
  6
Continuous
 62
     7
100
AcDbLine
 10
5672.7631367343
 20
4505.9819070877
 30
0.0
 11
5670.2763415473
 21
4505.8365909637
 31
0.0
  0
LINE
  5
329
330
1F
100
AcDbEntity
  8
0
  6
Continuous
 62
     7
100
AcDbLine
 10
5670.2763415473
 20
4505.8365909637
 30
0.0
 11
5667.8623832362
 21
4505.5487005294
 31
0.0
  0
LINE
  5
32A
330
1F
100
AcDbEntity
  8
0
  6
Continuous
 62
     7
100
AcDbLine
 10
5667.8623832362
 20
4505.5487005294
 30
0.0
 11
5665.5682600634
 21
4505.1239578308
 31
0.0
  0
LINE
  5
32B
330
1F
100
AcDbEntity
  8
0
  6
Continuous
 62
     7
100
AcDbLine
 10
5665.5682600634
 20
4505.1239578308
 30
0.0
 11
5663.4386159079
 21
4504.5704690994
 31
0.0
  0
LINE
  5
32C
330
1F
100
AcDbEntity
  8
0
  6
Continuous
 62
     7
100
AcDbLine
 10
5663.4386159079
 20
4504.5704690994
 30
0.0
 11
5661.5149058001
 21
4503.8992015899
 31
0.0
  0
LINE
  5
32D
330
1F
100
AcDbEntity
  8
0
  6
Continuous
 62
     7
100
AcDbLine
 10
5661.5149058001
 20
4503.8992015899
 30
0.0
 11
5659.834561457
 21
4503.1231491149
 31
0.0
  0
LINE
  5
32E
330
1F
100
AcDbEntity
  8
0
  6
Continuous
 62
     7
100
AcDbLine
 10
5659.834561457
 20
4503.1231491149
 30
0.0
 11
5658.4303058284
 21
4502.2573320449
 31
0.0
  0
LINE
  5
32F
330
1F
100
AcDbEntity
  8
0
  6
Continuous
 62
     7
100
AcDbLine
 10
5658.4303058284
 20
4502.2573320449
 30
0.0
 11
5657.3294378417
 21
4501.318678099
 31
0.0
  0
LINE
  5
330
330
1F
100
AcDbEntity
  8
0
  6
Continuous
 62
     7
100
AcDbLine
 10
5657.3294378417
 20
4501.318678099
 30
0.0
 11
5656.5534449714
 21
4500.3254262985
 31
0.0
  0
LINE
  5
331
330
1F
100
AcDbEntity
  8
0
  6
Continuous
 62
     7
100
AcDbLine
 10
5656.5534449714
 20
4500.3254262985
 30
0.0
 11
5656.1173475879
 21
4499.2970077575
 31
0.0
  0
LINE
  5
332
330
1F
100
AcDbEntity
  8
0
  6
Continuous
 62
     7
100
AcDbLine
 10
5656.1173475879
 20
4499.2970077575
 30
0.0
 11
5656.0191787379
 21
4498.463496405
 31
0.0
  0
LINE
  5
333
330
1F
100
AcDbEntity
  8
0
  6
Continuous
 62
     7
100
AcDbLine
 10
5685.9811223643
 20
4498.6585228027
 30
0.0
 11
5685.1940430301
 21
4499.4792787612
 31
0.0
  0
LINE
  5
334
330
1F
100
AcDbEntity
  8
0
  6
Continuous
 62
     7
100
AcDbLine
 10
5685.1940430301
 20
4499.4792787612
 30
0.0
 11
5684.0840853351
 21
4500.2328006805
 31
0.0
  0
LINE
  5
335
330
1F
100
AcDbEntity
  8
0
  6
Continuous
 62
     7
100
AcDbLine
 10
5684.0840853351
 20
4500.2328006805
 30
0.0
 11
5682.6832569735
 21
4500.8972732604
 31
0.0
  0
LINE
  5
336
330
1F
100
AcDbEntity
  8
0
  6
Continuous
 62
     7
100
AcDbLine
 10
5682.6832569735
 20
4500.8972732604
 30
0.0
 11
5681.0320593017
 21
4501.4533845962
 31
0.0
  0
LINE
  5
337
330
1F
100
AcDbEntity
  8
0
  6
Continuous
 62
     7
100
AcDbLine
 10
5681.0320593017
 20
4501.4533845962
 30
0.0
 11
5679.1782356398
 21
4501.8852798522
 31
0.0
  0
LINE
  5
338
330
1F
100
AcDbEntity
  8
0
  6
Continuous
 62
     7
100
AcDbLine
 10
5679.1782356398
 20
4501.8852798522
 30
0.0
 11
5677.1753109591
 21
4502.1802036346
 31
0.0
  0
LINE
  5
339
330
1F
100
AcDbEntity
  8
0
  6
Continuous
 62
     7
100
AcDbLine
 10
5677.1753109591
 20
4502.1802036346
 30
0.0
 11
5675.0811613696
 21
4502.3299305023
 31
0.0
  0
LINE
  5
33A
330
1F
100
AcDbEntity
  8
0
  6
Continuous
 62
     7
100
AcDbLine
 10
5675.0811613696
 20
4502.3299305023
 30
0.0
 11
5672.9563451903
 21
4502.3299305023
 31
0.0
  0
LINE
  5
33B
330
1F
100
AcDbEntity
  8
0
  6
Continuous
 62
     7
100
AcDbLine
 10
5672.9563451903
 20
4502.3299305023
 30
0.0
 11
5670.8621956008
 21
4502.1802036346
 31
0.0
  0
LINE
  5
33C
330
1F
100
AcDbEntity
  8
0
  6
Continuous
 62
     7
100
AcDbLine
 10
5670.8621956008
 20
4502.1802036346
 30
0.0
 11
5668.8592709201
 21
4501.8852798522
 31
0.0
  0
LINE
  5
33D
330
1F
100
AcDbEntity
  8
0
  6
Continuous
 62
     7
100
AcDbLine
 10
5668.8592709201
 20
4501.8852798522
 30
0.0
 11
5667.0054472583
 21
4501.4533845962
 31
0.0
  0
LINE
  5
33E
330
1F
100
AcDbEntity
  8
0
  6
Continuous
 62
     7
100
AcDbLine
 10
5667.0054472583
 20
4501.4533845962
 30
0.0
 11
5665.3542495864
 21
4500.8972732604
 31
0.0
  0
LINE
  5
33F
330
1F
100
AcDbEntity
  8
0
  6
Continuous
 62
     7
100
AcDbLine
 10
5665.3542495864
 20
4500.8972732604
 30
0.0
 11
5663.9534212249
 21
4500.2328006805
 31
0.0
  0
LINE
  5
340
330
1F
100
AcDbEntity
  8
0
  6
Continuous
 62
     7
100
AcDbLine
 10
5663.9534212249
 20
4500.2328006805
 30
0.0
 11
5662.8434635299
 21
4499.4792787612
 31
0.0
  0
LINE
  5
341
330
1F
100
AcDbEntity
  8
0
  6
Continuous
 62
     7
100
AcDbLine
 10
5662.8434635299
 20
4499.4792787612
 30
0.0
 11
5662.0563841956
 21
4498.6585228027
 31
0.0
  0
LINE
  5
342
330
1F
100
AcDbEntity
  8
0
  6
Continuous
 62
     7
100
AcDbLine
 10
5662.0563841956
 20
4498.6585228027
 30
0.0
 11
5662.0349265235
 21
4498.5954610885
 31
0.0
  0
LINE
  5
343
330
1F
100
AcDbEntity
  8
0
  6
Continuous
 62
     7
100
AcDbLine
 10
5662.0349265235
 20
4498.5954610885
 30
0.0
 11
5662.0603479045
 21
4498.5326377929
 31
0.0
  0
LINE
  5
344
330
1F
100
AcDbEntity
  8
0
  6
Continuous
 62
     7
100
AcDbLine
 10
5662.0603479045
 20
4498.5326377929
 30
0.0
 11
5662.1302939551
 21
4498.4760133804
 31
0.0
  0
LINE
  5
345
330
1F
100
AcDbEntity
  8
0
  6
Continuous
 62
     7
100
AcDbLine
 10
5662.1302939551
 20
4498.4760133804
 30
0.0
 11
5662.2381783622
 21
4498.4308330596
 31
0.0
  0
LINE
  5
346
330
1F
100
AcDbEntity
  8
0
  6
Continuous
 62
     7
100
AcDbLine
 10
5662.2381783622
 20
4498.4308330596
 30
0.0
 11
5662.3738981383
 21
4498.4013883651
 31
0.0
  0
LINE
  5
347
330
1F
100
AcDbEntity
  8
0
  6
Continuous
 62
     7
100
AcDbLine
 10
5662.3738981383
 20
4498.4013883651
 30
0.0
 11
5662.5247276919
 21
4498.3903019012
 31
0.0
  0
LINE
  5
348
330
1F
100
AcDbEntity
  8
0
  6
Continuous
 62
     7
100
AcDbLine
 10
5662.5247276919
 20
4498.3903019012
 30
0.0
 11
5662.6764811175
 21
4498.3987657608
 31
0.0
  0
LINE
  5
349
330
1F
100
AcDbEntity
  8
0
  6
Continuous
 62
     7
100
AcDbLine
 10
5662.6764811175
 20
4498.3987657608
 30
0.0
 11
5662.8149725097
 21
4498.4259454788
 31
0.0
  0
LINE
  5
34A
330
1F
100
AcDbEntity
  8
0
  6
Continuous
 62
     7
100
AcDbLine
 10
5685.2225340503
 20
4498.4259454788
 30
0.0
 11
5685.3610254424
 21
4498.3987657608
 31
0.0
  0
LINE
  5
34B
330
1F
100
AcDbEntity
  8
0
  6
Continuous
 62
     7
100
AcDbLine
 10
5685.3610254424
 20
4498.3987657608
 30
0.0
 11
5685.512778868
 21
4498.3903019012
 31
0.0
  0
LINE
  5
34C
330
1F
100
AcDbEntity
  8
0
  6
Continuous
 62
     7
100
AcDbLine
 10
5685.512778868
 20
4498.3903019012
 30
0.0
 11
5685.6636084216
 21
4498.4013883651
 31
0.0
  0
LINE
  5
34D
330
1F
100
AcDbEntity
  8
0
  6
Continuous
 62
     7
100
AcDbLine
 10
5685.6636084216
 20
4498.4013883651
 30
0.0
 11
5685.7993281978
 21
4498.4308330596
 31
0.0
  0
LINE
  5
34E
330
1F
100
AcDbEntity
  8
0
  6
Continuous
 62
     7
100
AcDbLine
 10
5685.7993281978
 20
4498.4308330596
 30
0.0
 11
5685.9072126048
 21
4498.4760133804
 31
0.0
  0
LINE
  5
34F
330
1F
100
AcDbEntity
  8
0
  6
Continuous
 62
     7
100
AcDbLine
 10
5685.9072126048
 20
4498.4760133804
 30
0.0
 11
5685.9771586554
 21
4498.5326377929
 31
0.0
  0
LINE
  5
350
330
1F
100
AcDbEntity
  8
0
  6
Continuous
 62
     7
100
AcDbLine
 10
5685.9771586554
 20
4498.5326377929
 30
0.0
 11
5686.0025800364
 21
4498.5954610885
 31
0.0
  0
LINE
  5
351
330
1F
100
AcDbEntity
  8
0
  6
Continuous
 62
     7
100
AcDbLine
 10
5686.0025800364
 20
4498.5954610885
 30
0.0
 11
5685.9811223643
 21
4498.6585228027
 31
0.0
  0
LINE
  5
352
330
1F
100
AcDbEntity
  8
0
  6
Continuous
 62
     7
100
AcDbLine
 10
5662.8149725097
 20
4495.8747474731
 30
0.0
 11
5662.6764811175
 21
4495.9019271911
 31
0.0
  0
LINE
  5
353
330
1F
100
AcDbEntity
  8
0
  6
Continuous
 62
     7
100
AcDbLine
 10
5662.6764811175
 20
4495.9019271911
 30
0.0
 11
5662.5247276919
 21
4495.9103910507
 31
0.0
  0
LINE
  5
354
330
1F
100
AcDbEntity
  8
0
  6
Continuous
 62
     7
100
AcDbLine
 10
5662.5247276919
 20
4495.9103910507
 30
0.0
 11
5662.3738981383
 21
4495.899423796
 31
0.0
  0
LINE
  5
355
330
1F
100
AcDbEntity
  8
0
  6
Continuous
 62
     7
100
AcDbLine
 10
5662.3738981383
 20
4495.899423796
 30
0.0
 11
5662.2381783622
 21
4495.8698598922
 31
0.0
  0
LINE
  5
356
330
1F
100
AcDbEntity
  8
0
  6
Continuous
 62
     7
100
AcDbLine
 10
5662.2381783622
 20
4495.8698598922
 30
0.0
 11
5662.1302939551
 21
4495.8246795715
 31
0.0
  0
LINE
  5
357
330
1F
100
AcDbEntity
  8
0
  6
Continuous
 62
     7
100
AcDbLine
 10
5662.1302939551
 20
4495.8246795715
 30
0.0
 11
5662.0603479045
 21
4495.7680551589
 31
0.0
  0
LINE
  5
358
330
1F
100
AcDbEntity
  8
0
  6
Continuous
 62
     7
100
AcDbLine
 10
5662.0603479045
 20
4495.7680551589
 30
0.0
 11
5662.0349265235
 21
4495.7052318634
 31
0.0
  0
LINE
  5
359
330
1F
100
AcDbEntity
  8
0
  6
Continuous
 62
     7
100
AcDbLine
 10
5662.0349265235
 20
4495.7052318634
 30
0.0
 11
5662.0563841956
 21
4495.6421701492
 31
0.0
  0
LINE
  5
35A
330
1F
100
AcDbEntity
  8
0
  6
Continuous
 62
     7
100
AcDbLine
 10
5662.0563841956
 20
4495.6421701492
 30
0.0
 11
5662.8434635299
 21
4494.8214141906
 31
0.0
  0
LINE
  5
35B
330
1F
100
AcDbEntity
  8
0
  6
Continuous
 62
     7
100
AcDbLine
 10
5662.8434635299
 20
4494.8214141906
 30
0.0
 11
5663.9534212249
 21
4494.0678922714
 31
0.0
  0
LINE
  5
35C
330
1F
100
AcDbEntity
  8
0
  6
Continuous
 62
     7
100
AcDbLine
 10
5663.9534212249
 20
4494.0678922714
 30
0.0
 11
5665.3542495864
 21
4493.4034196914
 31
0.0
  0
LINE
  5
35D
330
1F
100
AcDbEntity
  8
0
  6
Continuous
 62
     7
100
AcDbLine
 10
5665.3542495864
 20
4493.4034196914
 30
0.0
 11
5667.0054472583
 21
4492.8473083557
 31
0.0
  0
LINE
  5
35E
330
1F
100
AcDbEntity
  8
0
  6
Continuous
 62
     7
100
AcDbLine
 10
5667.0054472583
 20
4492.8473083557
 30
0.0
 11
5668.8592709201
 21
4492.4155323089
 31
0.0
  0
LINE
  5
35F
330
1F
100
AcDbEntity
  8
0
  6
Continuous
 62
     7
100
AcDbLine
 10
5668.8592709201
 20
4492.4155323089
 30
0.0
 11
5670.8621956008
 21
4492.1204893173
 31
0.0
  0
LINE
  5
360
330
1F
100
AcDbEntity
  8
0
  6
Continuous
 62
     7
100
AcDbLine
 10
5670.8621956008
 20
4492.1204893173
 30
0.0
 11
5672.9563451903
 21
4491.9707624496
 31
0.0
  0
LINE
  5
361
330
1F
100
AcDbEntity
  8
0
  6
Continuous
 62
     7
100
AcDbLine
 10
5672.9563451903
 20
4491.9707624496
 30
0.0
 11
5675.0811613696
 21
4491.9707624496
 31
0.0
  0
LINE
  5
362
330
1F
100
AcDbEntity
  8
0
  6
Continuous
 62
     7
100
AcDbLine
 10
5675.0811613696
 20
4491.9707624496
 30
0.0
 11
5677.1753109591
 21
4492.1204893173
 31
0.0
  0
LINE
  5
363
330
1F
100
AcDbEntity
  8
0
  6
Continuous
 62
     7
100
AcDbLine
 10
5677.1753109591
 20
4492.1204893173
 30
0.0
 11
5679.1782356398
 21
4492.4155323089
 31
0.0
  0
LINE
  5
364
330
1F
100
AcDbEntity
  8
0
  6
Continuous
 62
     7
100
AcDbLine
 10
5679.1782356398
 20
4492.4155323089
 30
0.0
 11
5681.0320593017
 21
4492.8473083557
 31
0.0
  0
LINE
  5
365
330
1F
100
AcDbEntity
  8
0
  6
Continuous
 62
     7
100
AcDbLine
 10
5681.0320593017
 20
4492.8473083557
 30
0.0
 11
5682.6832569735
 21
4493.4034196914
 31
0.0
  0
LINE
  5
366
330
1F
100
AcDbEntity
  8
0
  6
Continuous
 62
     7
100
AcDbLine
 10
5682.6832569735
 20
4493.4034196914
 30
0.0
 11
5684.0840853351
 21
4494.0678922714
 31
0.0
  0
LINE
  5
367
330
1F
100
AcDbEntity
  8
0
  6
Continuous
 62
     7
100
AcDbLine
 10
5684.0840853351
 20
4494.0678922714
 30
0.0
 11
5685.1940430301
 21
4494.8214141906
 31
0.0
  0
LINE
  5
368
330
1F
100
AcDbEntity
  8
0
  6
Continuous
 62
     7
100
AcDbLine
 10
5685.1940430301
 20
4494.8214141906
 30
0.0
 11
5685.9811223643
 21
4495.6421701492
 31
0.0
  0
LINE
  5
369
330
1F
100
AcDbEntity
  8
0
  6
Continuous
 62
     7
100
AcDbLine
 10
5685.9811223643
 20
4495.6421701492
 30
0.0
 11
5686.0025800364
 21
4495.7052318634
 31
0.0
  0
LINE
  5
36A
330
1F
100
AcDbEntity
  8
0
  6
Continuous
 62
     7
100
AcDbLine
 10
5686.0025800364
 20
4495.7052318634
 30
0.0
 11
5685.9771586554
 21
4495.7680551589
 31
0.0
  0
LINE
  5
36B
330
1F
100
AcDbEntity
  8
0
  6
Continuous
 62
     7
100
AcDbLine
 10
5685.9771586554
 20
4495.7680551589
 30
0.0
 11
5685.9072126048
 21
4495.8246795715
 31
0.0
  0
LINE
  5
36C
330
1F
100
AcDbEntity
  8
0
  6
Continuous
 62
     7
100
AcDbLine
 10
5685.9072126048
 20
4495.8246795715
 30
0.0
 11
5685.7993281978
 21
4495.8698598922
 31
0.0
  0
LINE
  5
36D
330
1F
100
AcDbEntity
  8
0
  6
Continuous
 62
     7
100
AcDbLine
 10
5685.7993281978
 20
4495.8698598922
 30
0.0
 11
5685.6636084216
 21
4495.899423796
 31
0.0
  0
LINE
  5
36E
330
1F
100
AcDbEntity
  8
0
  6
Continuous
 62
     7
100
AcDbLine
 10
5685.6636084216
 20
4495.899423796
 30
0.0
 11
5685.512778868
 21
4495.9103910507
 31
0.0
  0
LINE
  5
36F
330
1F
100
AcDbEntity
  8
0
  6
Continuous
 62
     7
100
AcDbLine
 10
5685.512778868
 20
4495.9103910507
 30
0.0
 11
5685.3610254424
 21
4495.9019271911
 31
0.0
  0
LINE
  5
370
330
1F
100
AcDbEntity
  8
0
  6
Continuous
 62
     7
100
AcDbLine
 10
5685.3610254424
 20
4495.9019271911
 30
0.0
 11
5685.2225340503
 21
4495.8747474731
 31
0.0
  0
LINE
  5
371
330
1F
100
AcDbEntity
  8
0
  6
Continuous
 62
     7
100
AcDbLine
 10
6274.0187622207
 20
4490.2884809555
 30
0.0
 11
6276.4211721318
 21
4490.3616754592
 31
0.0
  0
LINE
  5
372
330
1F
100
AcDbEntity
  8
0
  6
Continuous
 62
     7
100
AcDbLine
 10
6276.4211721318
 20
4490.3616754592
 30
0.0
 11
6278.7723965543
 21
4490.5794708313
 31
0.0
  0
LINE
  5
373
330
1F
100
AcDbEntity
  8
0
  6
Continuous
 62
     7
100
AcDbLine
 10
6278.7723965543
 20
4490.5794708313
 30
0.0
 11
6281.0222930806
 21
4490.9373371185
 31
0.0
  0
LINE
  5
374
330
1F
100
AcDbEntity
  8
0
  6
Continuous
 62
     7
100
AcDbLine
 10
6281.0222930806
 20
4490.9373371185
 30
0.0
 11
6283.1229246753
 21
4491.4276449264
 31
0.0
  0
LINE
  5
375
330
1F
100
AcDbEntity
  8
0
  6
Continuous
 62
     7
100
AcDbLine
 10
6283.1229246753
 20
4491.4276449264
 30
0.0
 11
6285.0295133489
 21
4492.0399038375
 31
0.0
  0
LINE
  5
376
330
1F
100
AcDbEntity
  8
0
  6
Continuous
 62
     7
100
AcDbLine
 10
6285.0295133489
 20
4492.0399038375
 30
0.0
 11
6286.701438536
 21
4492.76100083
 31
0.0
  0
LINE
  5
377
330
1F
100
AcDbEntity
  8
0
  6
Continuous
 62
     7
100
AcDbLine
 10
6286.701438536
 20
4492.76100083
 30
0.0
 11
6288.1030417579
 21
4493.5757963241
 31
0.0
  0
LINE
  5
378
330
1F
100
AcDbEntity
  8
0
  6
Continuous
 62
     7
100
AcDbLine
 10
6288.1030417579
 20
4493.5757963241
 30
0.0
 11
6289.2044610875
 21
4494.4666473449
 31
0.0
  0
LINE
  5
379
330
1F
100
AcDbEntity
  8
0
  6
Continuous
 62
     7
100
AcDbLine
 10
6289.2044610875
 20
4494.4666473449
 30
0.0
 11
6289.9822420972
 21
4495.414838034
 31
0.0
  0
LINE
  5
37A
330
1F
100
AcDbEntity
  8
0
  6
Continuous
 62
     7
100
AcDbLine
 10
6289.9822420972
 20
4495.414838034
 30
0.0
 11
6290.4197699922
 21
4496.3998643936
 31
0.0
  0
LINE
  5
37B
330
1F
100
AcDbEntity
  8
0
  6
Continuous
 62
     7
100
AcDbLine
 10
6290.4197699922
 20
4496.3998643936
 30
0.0
 11
6290.5077464478
 21
4497.4009840072
 31
0.0
  0
LINE
  5
37C
330
1F
100
AcDbEntity
  8
0
  6
Continuous
 62
     7
100
AcDbLine
 10
6290.5077464478
 20
4497.4009840072
 30
0.0
 11
6290.2442939179
 21
4498.3967392028
 31
0.0
  0
LINE
  5
37D
330
1F
100
AcDbEntity
  8
0
  6
Continuous
 62
     7
100
AcDbLine
 10
6290.2442939179
 20
4498.3967392028
 30
0.0
 11
6289.635015239
 21
4499.3659107269
 31
0.0
  0
LINE
  5
37E
330
1F
100
AcDbEntity
  8
0
  6
Continuous
 62
     7
100
AcDbLine
 10
6289.635015239
 20
4499.3659107269
 30
0.0
 11
6288.6929042237
 21
4500.2878753723
 31
0.0
  0
LINE
  5
37F
330
1F
100
AcDbEntity
  8
0
  6
Continuous
 62
     7
100
AcDbLine
 10
6288.6929042237
 20
4500.2878753723
 30
0.0
 11
6287.4380327361
 21
4501.1429636062
 31
0.0
  0
LINE
  5
380
330
1F
100
AcDbEntity
  8
0
  6
Continuous
 62
     7
100
AcDbLine
 10
6287.4380327361
 20
4501.1429636062
 30
0.0
 11
6285.8971632617
 21
4501.9130556167
 31
0.0
  0
LINE
  5
381
330
1F
100
AcDbEntity
  8
0
  6
Continuous
 62
     7
100
AcDbLine
 10
6285.8971632617
 20
4501.9130556167
 30
0.0
 11
6284.1031230586
 21
4502.5814621032
 31
0.0
  0
LINE
  5
382
330
1F
100
AcDbEntity
  8
0
  6
Continuous
 62
     7
100
AcDbLine
 10
6284.1031230586
 20
4502.5814621032
 30
0.0
 11
6282.0941485064
 21
4503.1342355789
 31
0.0
  0
LINE
  5
383
330
1F
100
AcDbEntity
  8
0
  6
Continuous
 62
     7
100
AcDbLine
 10
6282.0941485064
 20
4503.1342355789
 30
0.0
 11
6279.9130655425
 21
4503.5594551147
 31
0.0
  0
LINE
  5
384
330
1F
100
AcDbEntity
  8
0
  6
Continuous
 62
     7
100
AcDbLine
 10
6279.9130655425
 20
4503.5594551147
 30
0.0
 11
6277.6063508885
 21
4503.8480608047
 31
0.0
  0
LINE
  5
385
330
1F
100
AcDbEntity
  8
0
  6
Continuous
 62
     7
100
AcDbLine
 10
6277.6063508885
 20
4503.8480608047
 30
0.0
 11
6275.2231783765
 21
4503.9938537658
 31
0.0
  0
LINE
  5
386
330
1F
100
AcDbEntity
  8
0
  6
Continuous
 62
     7
100
AcDbLine
 10
6275.2231783765
 20
4503.9938537658
 30
0.0
 11
6272.8143311637
 21
4503.9938537658
 31
0.0
  0
LINE
  5
387
330
1F
100
AcDbEntity
  8
0
  6
Continuous
 62
     7
100
AcDbLine
 10
6272.8143311637
 20
4503.9938537658
 30
0.0
 11
6270.4311586516
 21
4503.8480608047
 31
0.0
  0
LINE
  5
388
330
1F
100
AcDbEntity
  8
0
  6
Continuous
 62
     7
100
AcDbLine
 10
6270.4311586516
 20
4503.8480608047
 30
0.0
 11
6268.1244439977
 21
4503.5594551147
 31
0.0
  0
LINE
  5
389
330
1F
100
AcDbEntity
  8
0
  6
Continuous
 62
     7
100
AcDbLine
 10
6268.1244439977
 20
4503.5594551147
 30
0.0
 11
6265.9433610337
 21
4503.1342355789
 31
0.0
  0
LINE
  5
38A
330
1F
100
AcDbEntity
  8
0
  6
Continuous
 62
     7
100
AcDbLine
 10
6265.9433610337
 20
4503.1342355789
 30
0.0
 11
6263.9343864816
 21
4502.5814621032
 31
0.0
  0
LINE
  5
38B
330
1F
100
AcDbEntity
  8
0
  6
Continuous
 62
     7
100
AcDbLine
 10
6263.9343864816
 20
4502.5814621032
 30
0.0
 11
6262.1403462785
 21
4501.9130556167
 31
0.0
  0
LINE
  5
38C
330
1F
100
AcDbEntity
  8
0
  6
Continuous
 62
     7
100
AcDbLine
 10
6262.1403462785
 20
4501.9130556167
 30
0.0
 11
6260.5994768041
 21
4501.1429636062
 31
0.0
  0
LINE
  5
38D
330
1F
100
AcDbEntity
  8
0
  6
Continuous
 62
     7
100
AcDbLine
 10
6260.5994768041
 20
4501.1429636062
 30
0.0
 11
6259.3446053164
 21
4500.2878753723
 31
0.0
  0
LINE
  5
38E
330
1F
100
AcDbEntity
  8
0
  6
Continuous
 62
     7
100
AcDbLine
 10
6259.3446053164
 20
4500.2878753723
 30
0.0
 11
6258.4024943011
 21
4499.3659107269
 31
0.0
  0
LINE
  5
38F
330
1F
100
AcDbEntity
  8
0
  6
Continuous
 62
     7
100
AcDbLine
 10
6258.4024943011
 20
4499.3659107269
 30
0.0
 11
6257.7932156222
 21
4498.3967392028
 31
0.0
  0
LINE
  5
390
330
1F
100
AcDbEntity
  8
0
  6
Continuous
 62
     7
100
AcDbLine
 10
6257.7932156222
 20
4498.3967392028
 30
0.0
 11
6257.5297630923
 21
4497.4009840072
 31
0.0
  0
LINE
  5
391
330
1F
100
AcDbEntity
  8
0
  6
Continuous
 62
     7
100
AcDbLine
 10
6257.5297630923
 20
4497.4009840072
 30
0.0
 11
6257.617739548
 21
4496.3998643936
 31
0.0
  0
LINE
  5
392
330
1F
100
AcDbEntity
  8
0
  6
Continuous
 62
     7
100
AcDbLine
 10
6257.617739548
 20
4496.3998643936
 30
0.0
 11
6258.055267443
 21
4495.414838034
 31
0.0
  0
LINE
  5
393
330
1F
100
AcDbEntity
  8
0
  6
Continuous
 62
     7
100
AcDbLine
 10
6258.055267443
 20
4495.414838034
 30
0.0
 11
6258.8330484527
 21
4494.4666473449
 31
0.0
  0
LINE
  5
394
330
1F
100
AcDbEntity
  8
0
  6
Continuous
 62
     7
100
AcDbLine
 10
6258.8330484527
 20
4494.4666473449
 30
0.0
 11
6259.9344677823
 21
4493.5757963241
 31
0.0
  0
LINE
  5
395
330
1F
100
AcDbEntity
  8
0
  6
Continuous
 62
     7
100
AcDbLine
 10
6259.9344677823
 20
4493.5757963241
 30
0.0
 11
6261.3360710042
 21
4492.76100083
 31
0.0
  0
LINE
  5
396
330
1F
100
AcDbEntity
  8
0
  6
Continuous
 62
     7
100
AcDbLine
 10
6261.3360710042
 20
4492.76100083
 30
0.0
 11
6263.0079961913
 21
4492.0399038375
 31
0.0
  0
LINE
  5
397
330
1F
100
AcDbEntity
  8
0
  6
Continuous
 62
     7
100
AcDbLine
 10
6263.0079961913
 20
4492.0399038375
 30
0.0
 11
6264.9145848649
 21
4491.4276449264
 31
0.0
  0
LINE
  5
398
330
1F
100
AcDbEntity
  8
0
  6
Continuous
 62
     7
100
AcDbLine
 10
6264.9145848649
 20
4491.4276449264
 30
0.0
 11
6267.0152164596
 21
4490.9373371185
 31
0.0
  0
LINE
  5
399
330
1F
100
AcDbEntity
  8
0
  6
Continuous
 62
     7
100
AcDbLine
 10
6267.0152164596
 20
4490.9373371185
 30
0.0
 11
6269.2651129859
 21
4490.5794708313
 31
0.0
  0
LINE
  5
39A
330
1F
100
AcDbEntity
  8
0
  6
Continuous
 62
     7
100
AcDbLine
 10
6269.2651129859
 20
4490.5794708313
 30
0.0
 11
6271.6163374083
 21
4490.3616754592
 31
0.0
  0
LINE
  5
39B
330
1F
100
AcDbEntity
  8
0
  6
Continuous
 62
     7
100
AcDbLine
 10
6271.6163374083
 20
4490.3616754592
 30
0.0
 11
6274.0187622207
 21
4490.2884809555
 31
0.0
  0
LINE
  5
39C
330
1F
100
AcDbEntity
  8
0
  6
Continuous
 62
     7
100
AcDbLine
 10
6292.0176960128
 20
4498.5954610885
 30
0.0
 11
6291.9201530116
 21
4499.2970077575
 31
0.0
  0
LINE
  5
39D
330
1F
100
AcDbEntity
  8
0
  6
Continuous
 62
     7
100
AcDbLine
 10
6291.9201530116
 20
4499.2970077575
 30
0.0
 11
6291.4840854304
 21
4500.3254262985
 31
0.0
  0
LINE
  5
39E
330
1F
100
AcDbEntity
  8
0
  6
Continuous
 62
     7
100
AcDbLine
 10
6291.4840854304
 20
4500.3254262985
 30
0.0
 11
6290.7080627578
 21
4501.318678099
 31
0.0
  0
LINE
  5
39F
330
1F
100
AcDbEntity
  8
0
  6
Continuous
 62
     7
100
AcDbLine
 10
6290.7080627578
 20
4501.318678099
 30
0.0
 11
6289.6072096723
 21
4502.2573320449
 31
0.0
  0
LINE
  5
3A0
330
1F
100
AcDbEntity
  8
0
  6
Continuous
 62
     7
100
AcDbLine
 10
6289.6072096723
 20
4502.2573320449
 30
0.0
 11
6288.2029540437
 21
4503.1231491149
 31
0.0
  0
LINE
  5
3A1
330
1F
100
AcDbEntity
  8
0
  6
Continuous
 62
     7
100
AcDbLine
 10
6288.2029540437
 20
4503.1231491149
 30
0.0
 11
6286.5226097005
 21
4503.8992015899
 31
0.0
  0
LINE
  5
3A2
330
1F
100
AcDbEntity
  8
0
  6
Continuous
 62
     7
100
AcDbLine
 10
6286.5226097005
 20
4503.8992015899
 30
0.0
 11
6284.5988846915
 21
4504.5704690994
 31
0.0
  0
LINE
  5
3A3
330
1F
100
AcDbEntity
  8
0
  6
Continuous
 62
     7
100
AcDbLine
 10
6284.5988846915
 20
4504.5704690994
 30
0.0
 11
6282.469240536
 21
4505.1239578308
 31
0.0
  0
LINE
  5
3A4
330
1F
100
AcDbEntity
  8
0
  6
Continuous
 62
     7
100
AcDbLine
 10
6282.469240536
 20
4505.1239578308
 30
0.0
 11
6280.1751173633
 21
4505.5487005294
 31
0.0
  0
LINE
  5
3A5
330
1F
100
AcDbEntity
  8
0
  6
Continuous
 62
     7
100
AcDbLine
 10
6280.1751173633
 20
4505.5487005294
 30
0.0
 11
6277.7611590522
 21
4505.8365909637
 31
0.0
  0
LINE
  5
3A6
330
1F
100
AcDbEntity
  8
0
  6
Continuous
 62
     7
100
AcDbLine
 10
6277.7611590522
 20
4505.8365909637
 30
0.0
 11
6275.2743787663
 21
4505.9819070877
 31
0.0
  0
LINE
  5
3A7
330
1F
100
AcDbEntity
  8
0
  6
Continuous
 62
     7
100
AcDbLine
 10
6275.2743787663
 20
4505.9819070877
 30
0.0
 11
6272.763145675
 21
4505.9819070877
 31
0.0
  0
LINE
  5
3A8
330
1F
100
AcDbEntity
  8
0
  6
Continuous
 62
     7
100
AcDbLine
 10
6272.763145675
 20
4505.9819070877
 30
0.0
 11
6270.276350488
 21
4505.8365909637
 31
0.0
  0
LINE
  5
3A9
330
1F
100
AcDbEntity
  8
0
  6
Continuous
 62
     7
100
AcDbLine
 10
6270.276350488
 20
4505.8365909637
 30
0.0
 11
6267.8623921769
 21
4505.5487005294
 31
0.0
  0
LINE
  5
3AA
330
1F
100
AcDbEntity
  8
0
  6
Continuous
 62
     7
100
AcDbLine
 10
6267.8623921769
 20
4505.5487005294
 30
0.0
 11
6265.5682690041
 21
4505.1239578308
 31
0.0
  0
LINE
  5
3AB
330
1F
100
AcDbEntity
  8
0
  6
Continuous
 62
     7
100
AcDbLine
 10
6265.5682690041
 20
4505.1239578308
 30
0.0
 11
6263.4386248486
 21
4504.5704690994
 31
0.0
  0
LINE
  5
3AC
330
1F
100
AcDbEntity
  8
0
  6
Continuous
 62
     7
100
AcDbLine
 10
6263.4386248486
 20
4504.5704690994
 30
0.0
 11
6261.5148998397
 21
4503.8992015899
 31
0.0
  0
LINE
  5
3AD
330
1F
100
AcDbEntity
  8
0
  6
Continuous
 62
     7
100
AcDbLine
 10
6261.5148998397
 20
4503.8992015899
 30
0.0
 11
6259.8345554965
 21
4503.1231491149
 31
0.0
  0
LINE
  5
3AE
330
1F
100
AcDbEntity
  8
0
  6
Continuous
 62
     7
100
AcDbLine
 10
6259.8345554965
 20
4503.1231491149
 30
0.0
 11
6258.4302998679
 21
4502.2573320449
 31
0.0
  0
LINE
  5
3AF
330
1F
100
AcDbEntity
  8
0
  6
Continuous
 62
     7
100
AcDbLine
 10
6258.4302998679
 20
4502.2573320449
 30
0.0
 11
6257.3294467824
 21
4501.318678099
 31
0.0
  0
LINE
  5
3B0
330
1F
100
AcDbEntity
  8
0
  6
Continuous
 62
     7
100
AcDbLine
 10
6257.3294467824
 20
4501.318678099
 30
0.0
 11
6256.5534390109
 21
4500.3254262985
 31
0.0
  0
LINE
  5
3B1
330
1F
100
AcDbEntity
  8
0
  6
Continuous
 62
     7
100
AcDbLine
 10
6256.5534390109
 20
4500.3254262985
 30
0.0
 11
6256.1173565286
 21
4499.2970077575
 31
0.0
  0
LINE
  5
3B2
330
1F
100
AcDbEntity
  8
0
  6
Continuous
 62
     7
100
AcDbLine
 10
6256.1173565286
 20
4499.2970077575
 30
0.0
 11
6256.0191727775
 21
4498.463496405
 31
0.0
  0
LINE
  5
3B3
330
1F
100
AcDbEntity
  8
0
  6
Continuous
 62
     7
100
AcDbLine
 10
6285.9811164039
 20
4498.6585228027
 30
0.0
 11
6285.1940519708
 21
4499.4792787612
 31
0.0
  0
LINE
  5
3B4
330
1F
100
AcDbEntity
  8
0
  6
Continuous
 62
     7
100
AcDbLine
 10
6285.1940519708
 20
4499.4792787612
 30
0.0
 11
6284.0840793746
 21
4500.2328006805
 31
0.0
  0
LINE
  5
3B5
330
1F
100
AcDbEntity
  8
0
  6
Continuous
 62
     7
100
AcDbLine
 10
6284.0840793746
 20
4500.2328006805
 30
0.0
 11
6282.6832510131
 21
4500.8972732604
 31
0.0
  0
LINE
  5
3B6
330
1F
100
AcDbEntity
  8
0
  6
Continuous
 62
     7
100
AcDbLine
 10
6282.6832510131
 20
4500.8972732604
 30
0.0
 11
6281.0320682423
 21
4501.4533845962
 31
0.0
  0
LINE
  5
3B7
330
1F
100
AcDbEntity
  8
0
  6
Continuous
 62
     7
100
AcDbLine
 10
6281.0320682423
 20
4501.4533845962
 30
0.0
 11
6279.1782296794
 21
4501.8852798522
 31
0.0
  0
LINE
  5
3B8
330
1F
100
AcDbEntity
  8
0
  6
Continuous
 62
     7
100
AcDbLine
 10
6279.1782296794
 20
4501.8852798522
 30
0.0
 11
6277.1753049987
 21
4502.1802036346
 31
0.0
  0
LINE
  5
3B9
330
1F
100
AcDbEntity
  8
0
  6
Continuous
 62
     7
100
AcDbLine
 10
6277.1753049987
 20
4502.1802036346
 30
0.0
 11
6275.0811703103
 21
4502.3299305023
 31
0.0
  0
LINE
  5
3BA
330
1F
100
AcDbEntity
  8
0
  6
Continuous
 62
     7
100
AcDbLine
 10
6275.0811703103
 20
4502.3299305023
 30
0.0
 11
6272.9563392299
 21
4502.3299305023
 31
0.0
  0
LINE
  5
3BB
330
1F
100
AcDbEntity
  8
0
  6
Continuous
 62
     7
100
AcDbLine
 10
6272.9563392299
 20
4502.3299305023
 30
0.0
 11
6270.8622045415
 21
4502.1802036346
 31
0.0
  0
LINE
  5
3BC
330
1F
100
AcDbEntity
  8
0
  6
Continuous
 62
     7
100
AcDbLine
 10
6270.8622045415
 20
4502.1802036346
 30
0.0
 11
6268.8592798608
 21
4501.8852798522
 31
0.0
  0
LINE
  5
3BD
330
1F
100
AcDbEntity
  8
0
  6
Continuous
 62
     7
100
AcDbLine
 10
6268.8592798608
 20
4501.8852798522
 30
0.0
 11
6267.0054412978
 21
4501.4533845962
 31
0.0
  0
LINE
  5
3BE
330
1F
100
AcDbEntity
  8
0
  6
Continuous
 62
     7
100
AcDbLine
 10
6267.0054412978
 20
4501.4533845962
 30
0.0
 11
6265.3542585271
 21
4500.8972732604
 31
0.0
  0
LINE
  5
3BF
330
1F
100
AcDbEntity
  8
0
  6
Continuous
 62
     7
100
AcDbLine
 10
6265.3542585271
 20
4500.8972732604
 30
0.0
 11
6263.9534301656
 21
4500.2328006805
 31
0.0
  0
LINE
  5
3C0
330
1F
100
AcDbEntity
  8
0
  6
Continuous
 62
     7
100
AcDbLine
 10
6263.9534301656
 20
4500.2328006805
 30
0.0
 11
6262.8434575694
 21
4499.4792787612
 31
0.0
  0
LINE
  5
3C1
330
1F
100
AcDbEntity
  8
0
  6
Continuous
 62
     7
100
AcDbLine
 10
6262.8434575694
 20
4499.4792787612
 30
0.0
 11
6262.0563931363
 21
4498.6585228027
 31
0.0
  0
LINE
  5
3C2
330
1F
100
AcDbEntity
  8
0
  6
Continuous
 62
     7
100
AcDbLine
 10
6262.0563931363
 20
4498.6585228027
 30
0.0
 11
6262.034920563
 21
4498.5954610885
 31
0.0
  0
LINE
  5
3C3
330
1F
100
AcDbEntity
  8
0
  6
Continuous
 62
     7
100
AcDbLine
 10
6262.034920563
 20
4498.5954610885
 30
0.0
 11
6262.0603568452
 21
4498.5326377929
 31
0.0
  0
LINE
  5
3C4
330
1F
100
AcDbEntity
  8
0
  6
Continuous
 62
     7
100
AcDbLine
 10
6262.0603568452
 20
4498.5326377929
 30
0.0
 11
6262.1303028958
 21
4498.4760133804
 31
0.0
  0
LINE
  5
3C5
330
1F
100
AcDbEntity
  8
0
  6
Continuous
 62
     7
100
AcDbLine
 10
6262.1303028958
 20
4498.4760133804
 30
0.0
 11
6262.2381873029
 21
4498.4308330596
 31
0.0
  0
LINE
  5
3C6
330
1F
100
AcDbEntity
  8
0
  6
Continuous
 62
     7
100
AcDbLine
 10
6262.2381873029
 20
4498.4308330596
 30
0.0
 11
6262.373907079
 21
4498.4013883651
 31
0.0
  0
LINE
  5
3C7
330
1F
100
AcDbEntity
  8
0
  6
Continuous
 62
     7
100
AcDbLine
 10
6262.373907079
 20
4498.4013883651
 30
0.0
 11
6262.5247217315
 21
4498.3903019012
 31
0.0
  0
LINE
  5
3C8
330
1F
100
AcDbEntity
  8
0
  6
Continuous
 62
     7
100
AcDbLine
 10
6262.5247217315
 20
4498.3903019012
 30
0.0
 11
6262.6764900582
 21
4498.3987657608
 31
0.0
  0
LINE
  5
3C9
330
1F
100
AcDbEntity
  8
0
  6
Continuous
 62
     7
100
AcDbLine
 10
6262.6764900582
 20
4498.3987657608
 30
0.0
 11
6262.8149814504
 21
4498.4259454788
 31
0.0
  0
LINE
  5
3CA
330
1F
100
AcDbEntity
  8
0
  6
Continuous
 62
     7
100
AcDbLine
 10
6285.2225280898
 20
4498.4259454788
 30
0.0
 11
6285.3610194819
 21
4498.3987657608
 31
0.0
  0
LINE
  5
3CB
330
1F
100
AcDbEntity
  8
0
  6
Continuous
 62
     7
100
AcDbLine
 10
6285.3610194819
 20
4498.3987657608
 30
0.0
 11
6285.5127878087
 21
4498.3903019012
 31
0.0
  0
LINE
  5
3CC
330
1F
100
AcDbEntity
  8
0
  6
Continuous
 62
     7
100
AcDbLine
 10
6285.5127878087
 20
4498.3903019012
 30
0.0
 11
6285.6636024611
 21
4498.4013883651
 31
0.0
  0
LINE
  5
3CD
330
1F
100
AcDbEntity
  8
0
  6
Continuous
 62
     7
100
AcDbLine
 10
6285.6636024611
 20
4498.4013883651
 30
0.0
 11
6285.7993222373
 21
4498.4308330596
 31
0.0
  0
LINE
  5
3CE
330
1F
100
AcDbEntity
  8
0
  6
Continuous
 62
     7
100
AcDbLine
 10
6285.7993222373
 20
4498.4308330596
 30
0.0
 11
6285.9072066443
 21
4498.4760133804
 31
0.0
  0
LINE
  5
3CF
330
1F
100
AcDbEntity
  8
0
  6
Continuous
 62
     7
100
AcDbLine
 10
6285.9072066443
 20
4498.4760133804
 30
0.0
 11
6285.977152695
 21
4498.5326377929
 31
0.0
  0
LINE
  5
3D0
330
1F
100
AcDbEntity
  8
0
  6
Continuous
 62
     7
100
AcDbLine
 10
6285.977152695
 20
4498.5326377929
 30
0.0
 11
6286.0025889771
 21
4498.5954610885
 31
0.0
  0
LINE
  5
3D1
330
1F
100
AcDbEntity
  8
0
  6
Continuous
 62
     7
100
AcDbLine
 10
6286.0025889771
 20
4498.5954610885
 30
0.0
 11
6285.9811164039
 21
4498.6585228027
 31
0.0
  0
LINE
  5
3D2
330
1F
100
AcDbEntity
  8
0
  6
Continuous
 62
     7
100
AcDbLine
 10
6262.8149814504
 20
4495.8747474731
 30
0.0
 11
6262.6764900582
 21
4495.9019271911
 31
0.0
  0
LINE
  5
3D3
330
1F
100
AcDbEntity
  8
0
  6
Continuous
 62
     7
100
AcDbLine
 10
6262.6764900582
 20
4495.9019271911
 30
0.0
 11
6262.5247217315
 21
4495.9103910507
 31
0.0
  0
LINE
  5
3D4
330
1F
100
AcDbEntity
  8
0
  6
Continuous
 62
     7
100
AcDbLine
 10
6262.5247217315
 20
4495.9103910507
 30
0.0
 11
6262.373907079
 21
4495.899423796
 31
0.0
  0
LINE
  5
3D5
330
1F
100
AcDbEntity
  8
0
  6
Continuous
 62
     7
100
AcDbLine
 10
6262.373907079
 20
4495.899423796
 30
0.0
 11
6262.2381873029
 21
4495.8698598922
 31
0.0
  0
LINE
  5
3D6
330
1F
100
AcDbEntity
  8
0
  6
Continuous
 62
     7
100
AcDbLine
 10
6262.2381873029
 20
4495.8698598922
 30
0.0
 11
6262.1303028958
 21
4495.8246795715
 31
0.0
  0
LINE
  5
3D7
330
1F
100
AcDbEntity
  8
0
  6
Continuous
 62
     7
100
AcDbLine
 10
6262.1303028958
 20
4495.8246795715
 30
0.0
 11
6262.0603568452
 21
4495.7680551589
 31
0.0
  0
LINE
  5
3D8
330
1F
100
AcDbEntity
  8
0
  6
Continuous
 62
     7
100
AcDbLine
 10
6262.0603568452
 20
4495.7680551589
 30
0.0
 11
6262.034920563
 21
4495.7052318634
 31
0.0
  0
LINE
  5
3D9
330
1F
100
AcDbEntity
  8
0
  6
Continuous
 62
     7
100
AcDbLine
 10
6262.034920563
 20
4495.7052318634
 30
0.0
 11
6262.0563931363
 21
4495.6421701492
 31
0.0
  0
LINE
  5
3DA
330
1F
100
AcDbEntity
  8
0
  6
Continuous
 62
     7
100
AcDbLine
 10
6262.0563931363
 20
4495.6421701492
 30
0.0
 11
6262.8434575694
 21
4494.8214141906
 31
0.0
  0
LINE
  5
3DB
330
1F
100
AcDbEntity
  8
0
  6
Continuous
 62
     7
100
AcDbLine
 10
6262.8434575694
 20
4494.8214141906
 30
0.0
 11
6263.9534301656
 21
4494.0678922714
 31
0.0
  0
LINE
  5
3DC
330
1F
100
AcDbEntity
  8
0
  6
Continuous
 62
     7
100
AcDbLine
 10
6263.9534301656
 20
4494.0678922714
 30
0.0
 11
6265.3542585271
 21
4493.4034196914
 31
0.0
  0
LINE
  5
3DD
330
1F
100
AcDbEntity
  8
0
  6
Continuous
 62
     7
100
AcDbLine
 10
6265.3542585271
 20
4493.4034196914
 30
0.0
 11
6267.0054412978
 21
4492.8473083557
 31
0.0
  0
LINE
  5
3DE
330
1F
100
AcDbEntity
  8
0
  6
Continuous
 62
     7
100
AcDbLine
 10
6267.0054412978
 20
4492.8473083557
 30
0.0
 11
6268.8592798608
 21
4492.4155323089
 31
0.0
  0
LINE
  5
3DF
330
1F
100
AcDbEntity
  8
0
  6
Continuous
 62
     7
100
AcDbLine
 10
6268.8592798608
 20
4492.4155323089
 30
0.0
 11
6270.8622045415
 21
4492.1204893173
 31
0.0
  0
LINE
  5
3E0
330
1F
100
AcDbEntity
  8
0
  6
Continuous
 62
     7
100
AcDbLine
 10
6270.8622045415
 20
4492.1204893173
 30
0.0
 11
6272.9563392299
 21
4491.9707624496
 31
0.0
  0
LINE
  5
3E1
330
1F
100
AcDbEntity
  8
0
  6
Continuous
 62
     7
100
AcDbLine
 10
6272.9563392299
 20
4491.9707624496
 30
0.0
 11
6275.0811703103
 21
4491.9707624496
 31
0.0
  0
LINE
  5
3E2
330
1F
100
AcDbEntity
  8
0
  6
Continuous
 62
     7
100
AcDbLine
 10
6275.0811703103
 20
4491.9707624496
 30
0.0
 11
6277.1753049987
 21
4492.1204893173
 31
0.0
  0
LINE
  5
3E3
330
1F
100
AcDbEntity
  8
0
  6
Continuous
 62
     7
100
AcDbLine
 10
6277.1753049987
 20
4492.1204893173
 30
0.0
 11
6279.1782296794
 21
4492.4155323089
 31
0.0
  0
LINE
  5
3E4
330
1F
100
AcDbEntity
  8
0
  6
Continuous
 62
     7
100
AcDbLine
 10
6279.1782296794
 20
4492.4155323089
 30
0.0
 11
6281.0320682423
 21
4492.8473083557
 31
0.0
  0
LINE
  5
3E5
330
1F
100
AcDbEntity
  8
0
  6
Continuous
 62
     7
100
AcDbLine
 10
6281.0320682423
 20
4492.8473083557
 30
0.0
 11
6282.6832510131
 21
4493.4034196914
 31
0.0
  0
LINE
  5
3E6
330
1F
100
AcDbEntity
  8
0
  6
Continuous
 62
     7
100
AcDbLine
 10
6282.6832510131
 20
4493.4034196914
 30
0.0
 11
6284.0840793746
 21
4494.0678922714
 31
0.0
  0
LINE
  5
3E7
330
1F
100
AcDbEntity
  8
0
  6
Continuous
 62
     7
100
AcDbLine
 10
6284.0840793746
 20
4494.0678922714
 30
0.0
 11
6285.1940519708
 21
4494.8214141906
 31
0.0
  0
LINE
  5
3E8
330
1F
100
AcDbEntity
  8
0
  6
Continuous
 62
     7
100
AcDbLine
 10
6285.1940519708
 20
4494.8214141906
 30
0.0
 11
6285.9811164039
 21
4495.6421701492
 31
0.0
  0
LINE
  5
3E9
330
1F
100
AcDbEntity
  8
0
  6
Continuous
 62
     7
100
AcDbLine
 10
6285.9811164039
 20
4495.6421701492
 30
0.0
 11
6286.0025889771
 21
4495.7052318634
 31
0.0
  0
LINE
  5
3EA
330
1F
100
AcDbEntity
  8
0
  6
Continuous
 62
     7
100
AcDbLine
 10
6286.0025889771
 20
4495.7052318634
 30
0.0
 11
6285.977152695
 21
4495.7680551589
 31
0.0
  0
LINE
  5
3EB
330
1F
100
AcDbEntity
  8
0
  6
Continuous
 62
     7
100
AcDbLine
 10
6285.977152695
 20
4495.7680551589
 30
0.0
 11
6285.9072066443
 21
4495.8246795715
 31
0.0
  0
LINE
  5
3EC
330
1F
100
AcDbEntity
  8
0
  6
Continuous
 62
     7
100
AcDbLine
 10
6285.9072066443
 20
4495.8246795715
 30
0.0
 11
6285.7993222373
 21
4495.8698598922
 31
0.0
  0
LINE
  5
3ED
330
1F
100
AcDbEntity
  8
0
  6
Continuous
 62
     7
100
AcDbLine
 10
6285.7993222373
 20
4495.8698598922
 30
0.0
 11
6285.6636024611
 21
4495.899423796
 31
0.0
  0
LINE
  5
3EE
330
1F
100
AcDbEntity
  8
0
  6
Continuous
 62
     7
100
AcDbLine
 10
6285.6636024611
 20
4495.899423796
 30
0.0
 11
6285.5127878087
 21
4495.9103910507
 31
0.0
  0
LINE
  5
3EF
330
1F
100
AcDbEntity
  8
0
  6
Continuous
 62
     7
100
AcDbLine
 10
6285.5127878087
 20
4495.9103910507
 30
0.0
 11
6285.3610194819
 21
4495.9019271911
 31
0.0
  0
LINE
  5
3F0
330
1F
100
AcDbEntity
  8
0
  6
Continuous
 62
     7
100
AcDbLine
 10
6285.3610194819
 20
4495.9019271911
 30
0.0
 11
6285.2225280898
 21
4495.8747474731
 31
0.0
  0
LINE
  5
3F1
330
1F
100
AcDbEntity
  8
0
  6
Continuous
 62
     7
100
AcDbLine
 10
5678.2649434703
 20
4495.2356664718
 30
0.0
 11
5678.8759208815
 21
4495.6909267486
 31
0.0
  0
LINE
  5
3F2
330
1F
100
AcDbEntity
  8
0
  6
Continuous
 62
     7
100
AcDbLine
 10
5678.8759208815
 20
4495.6909267486
 30
0.0
 11
5679.2246080535
 21
4496.2371437133
 31
0.0
  0
LINE
  5
3F3
330
1F
100
AcDbEntity
  8
0
  6
Continuous
 62
     7
100
AcDbLine
 10
5679.2246080535
 20
4496.2371437133
 30
0.0
 11
5679.2246080535
 21
4496.8021957458
 31
0.0
  0
LINE
  5
3F4
330
1F
100
AcDbEntity
  8
0
  6
Continuous
 62
     7
100
AcDbLine
 10
5679.2246080535
 20
4496.8021957458
 30
0.0
 11
5678.8759208815
 21
4497.3482935012
 31
0.0
  0
LINE
  5
3F5
330
1F
100
AcDbEntity
  8
0
  6
Continuous
 62
     7
100
AcDbLine
 10
5678.8759208815
 20
4497.3482935012
 30
0.0
 11
5678.2018817561
 21
4497.838958937
 31
0.0
  0
LINE
  5
3F6
330
1F
100
AcDbEntity
  8
0
  6
Continuous
 62
     7
100
AcDbLine
 10
5678.2018817561
 20
4497.838958937
 30
0.0
 11
5677.2476411956
 21
4498.24117108
 31
0.0
  0
LINE
  5
3F7
330
1F
100
AcDbEntity
  8
0
  6
Continuous
 62
     7
100
AcDbLine
 10
5677.2476411956
 20
4498.24117108
 30
0.0
 11
5676.0771251815
 21
4498.5281078399
 31
0.0
  0
LINE
  5
3F8
330
1F
100
AcDbEntity
  8
0
  6
Continuous
 62
     7
100
AcDbLine
 10
5676.0771251815
 20
4498.5281078399
 30
0.0
 11
5674.768743624
 21
4498.6805765213
 31
0.0
  0
LINE
  5
3F9
330
1F
100
AcDbEntity
  8
0
  6
Continuous
 62
     7
100
AcDbLine
 10
5674.768743624
 20
4494.1401331008
 30
0.0
 11
5674.768743624
 21
4498.6805765213
 31
0.0
  0
LINE
  5
3FA
330
1F
100
AcDbEntity
  8
0
  6
Continuous
 62
     7
100
AcDbLine
 10
5673.2687629359
 20
4498.6805765213
 30
0.0
 11
5671.9603813785
 21
4498.5281078399
 31
0.0
  0
LINE
  5
3FB
330
1F
100
AcDbEntity
  8
0
  6
Continuous
 62
     7
100
AcDbLine
 10
5671.9603813785
 20
4498.5281078399
 30
0.0
 11
5670.7898653644
 21
4498.24117108
 31
0.0
  0
LINE
  5
3FC
330
1F
100
AcDbEntity
  8
0
  6
Continuous
 62
     7
100
AcDbLine
 10
5670.7898653644
 20
4498.24117108
 30
0.0
 11
5669.8356248038
 21
4497.838958937
 31
0.0
  0
LINE
  5
3FD
330
1F
100
AcDbEntity
  8
0
  6
Continuous
 62
     7
100
AcDbLine
 10
5669.8356248038
 20
4497.838958937
 30
0.0
 11
5669.1615856784
 21
4497.3482935012
 31
0.0
  0
LINE
  5
3FE
330
1F
100
AcDbEntity
  8
0
  6
Continuous
 62
     7
100
AcDbLine
 10
5669.1615856784
 20
4497.3482935012
 30
0.0
 11
5668.8128985064
 21
4496.8021957458
 31
0.0
  0
LINE
  5
3FF
330
1F
100
AcDbEntity
  8
0
  6
Continuous
 62
     7
100
AcDbLine
 10
5668.8128985064
 20
4496.8021957458
 30
0.0
 11
5668.8128985064
 21
4496.2371437133
 31
0.0
  0
LINE
  5
400
330
1F
100
AcDbEntity
  8
0
  6
Continuous
 62
     7
100
AcDbLine
 10
5668.8128985064
 20
4496.2371437133
 30
0.0
 11
5669.1615856784
 21
4495.6909267486
 31
0.0
  0
LINE
  5
401
330
1F
100
AcDbEntity
  8
0
  6
Continuous
 62
     7
100
AcDbLine
 10
5669.1615856784
 20
4495.6909267486
 30
0.0
 11
5669.7725630896
 21
4495.2356664718
 31
0.0
  0
LINE
  5
402
330
1F
100
AcDbEntity
  8
0
  6
Continuous
 62
     7
100
AcDbLine
 10
5673.2687629359
 20
4498.6805765213
 30
0.0
 11
5673.2687629359
 21
4494.1401331008
 31
0.0
  0
LINE
  5
403
330
1F
100
AcDbEntity
  8
0
  6
Continuous
 62
     7
100
AcDbLine
 10
5679.2687452929
 20
4497.1562473358
 30
0.0
 11
5679.089871754
 21
4497.7212993682
 31
0.0
  0
LINE
  5
404
330
1F
100
AcDbEntity
  8
0
  6
Continuous
 62
     7
100
AcDbLine
 10
5679.089871754
 20
4497.7212993682
 30
0.0
 11
5678.5653806823
 21
4498.2478468002
 31
0.0
  0
LINE
  5
405
330
1F
100
AcDbEntity
  8
0
  6
Continuous
 62
     7
100
AcDbLine
 10
5678.5653806823
 20
4498.2478468002
 30
0.0
 11
5677.731064667
 21
4498.7000076354
 31
0.0
  0
LINE
  5
406
330
1F
100
AcDbEntity
  8
0
  6
Continuous
 62
     7
100
AcDbLine
 10
5677.731064667
 20
4498.7000076354
 30
0.0
 11
5676.643756737
 21
4499.0470258773
 31
0.0
  0
LINE
  5
407
330
1F
100
AcDbEntity
  8
0
  6
Continuous
 62
     7
100
AcDbLine
 10
5676.643756737
 20
4499.0470258773
 30
0.0
 11
5675.3775454657
 21
4499.2651788772
 31
0.0
  0
LINE
  5
408
330
1F
100
AcDbEntity
  8
0
  6
Continuous
 62
     7
100
AcDbLine
 10
5675.3775454657
 20
4499.2651788772
 30
0.0
 11
5674.0187681811
 21
4499.3395654739
 31
0.0
  0
LINE
  5
409
330
1F
100
AcDbEntity
  8
0
  6
Continuous
 62
     7
100
AcDbLine
 10
5674.0187681811
 20
4499.3395654739
 30
0.0
 11
5672.6599610942
 21
4499.2651788772
 31
0.0
  0
LINE
  5
40A
330
1F
100
AcDbEntity
  8
0
  6
Continuous
 62
     7
100
AcDbLine
 10
5672.6599610942
 20
4499.2651788772
 30
0.0
 11
5671.3937498229
 21
4499.0470258773
 31
0.0
  0
LINE
  5
40B
330
1F
100
AcDbEntity
  8
0
  6
Continuous
 62
     7
100
AcDbLine
 10
5671.3937498229
 20
4499.0470258773
 30
0.0
 11
5670.3064418929
 21
4498.7000076354
 31
0.0
  0
LINE
  5
40C
330
1F
100
AcDbEntity
  8
0
  6
Continuous
 62
     7
100
AcDbLine
 10
5670.3064418929
 20
4498.7000076354
 30
0.0
 11
5669.4721258777
 21
4498.2478468002
 31
0.0
  0
LINE
  5
40D
330
1F
100
AcDbEntity
  8
0
  6
Continuous
 62
     7
100
AcDbLine
 10
5669.4721258777
 20
4498.2478468002
 30
0.0
 11
5668.947634806
 21
4497.7212993682
 31
0.0
  0
LINE
  5
40E
330
1F
100
AcDbEntity
  8
0
  6
Continuous
 62
     7
100
AcDbLine
 10
5668.947634806
 20
4497.7212993682
 30
0.0
 11
5668.768761267
 21
4497.1562473358
 31
0.0
  0
LINE
  5
40F
330
1F
100
AcDbEntity
  8
0
  6
Continuous
 62
     7
100
AcDbLine
 10
6878.2649315493
 20
4495.2356664718
 30
0.0
 11
6878.8759387629
 21
4495.6909267486
 31
0.0
  0
LINE
  5
410
330
1F
100
AcDbEntity
  8
0
  6
Continuous
 62
     7
100
AcDbLine
 10
6878.8759387629
 20
4495.6909267486
 30
0.0
 11
6879.2246259349
 21
4496.2371437133
 31
0.0
  0
LINE
  5
411
330
1F
100
AcDbEntity
  8
0
  6
Continuous
 62
     7
100
AcDbLine
 10
6879.2246259349
 20
4496.2371437133
 30
0.0
 11
6879.2246259349
 21
4496.8021957458
 31
0.0
  0
LINE
  5
412
330
1F
100
AcDbEntity
  8
0
  6
Continuous
 62
     7
100
AcDbLine
 10
6879.2246259349
 20
4496.8021957458
 30
0.0
 11
6878.8759387629
 21
4497.3482935012
 31
0.0
  0
LINE
  5
413
330
1F
100
AcDbEntity
  8
0
  6
Continuous
 62
     7
100
AcDbLine
 10
6878.8759387629
 20
4497.3482935012
 30
0.0
 11
6878.2018698352
 21
4497.838958937
 31
0.0
  0
LINE
  5
414
330
1F
100
AcDbEntity
  8
0
  6
Continuous
 62
     7
100
AcDbLine
 10
6878.2018698352
 20
4497.838958937
 30
0.0
 11
6877.247659077
 21
4498.24117108
 31
0.0
  0
LINE
  5
415
330
1F
100
AcDbEntity
  8
0
  6
Continuous
 62
     7
100
AcDbLine
 10
6877.247659077
 20
4498.24117108
 30
0.0
 11
6876.0771430629
 21
4498.5281078399
 31
0.0
  0
LINE
  5
416
330
1F
100
AcDbEntity
  8
0
  6
Continuous
 62
     7
100
AcDbLine
 10
6876.0771430629
 20
4498.5281078399
 30
0.0
 11
6874.7687615054
 21
4498.6805765213
 31
0.0
  0
LINE
  5
417
330
1F
100
AcDbEntity
  8
0
  6
Continuous
 62
     7
100
AcDbLine
 10
6874.7687615054
 20
4494.1401331008
 30
0.0
 11
6874.7687615054
 21
4498.6805765213
 31
0.0
  0
LINE
  5
418
330
1F
100
AcDbEntity
  8
0
  6
Continuous
 62
     7
100
AcDbLine
 10
6873.268751015
 20
4498.6805765213
 30
0.0
 11
6871.9603694575
 21
4498.5281078399
 31
0.0
  0
LINE
  5
419
330
1F
100
AcDbEntity
  8
0
  6
Continuous
 62
     7
100
AcDbLine
 10
6871.9603694575
 20
4498.5281078399
 30
0.0
 11
6870.7898534434
 21
4498.24117108
 31
0.0
  0
LINE
  5
41A
330
1F
100
AcDbEntity
  8
0
  6
Continuous
 62
     7
100
AcDbLine
 10
6870.7898534434
 20
4498.24117108
 30
0.0
 11
6869.8356426852
 21
4497.838958937
 31
0.0
  0
LINE
  5
41B
330
1F
100
AcDbEntity
  8
0
  6
Continuous
 62
     7
100
AcDbLine
 10
6869.8356426852
 20
4497.838958937
 30
0.0
 11
6869.1615737574
 21
4497.3482935012
 31
0.0
  0
LINE
  5
41C
330
1F
100
AcDbEntity
  8
0
  6
Continuous
 62
     7
100
AcDbLine
 10
6869.1615737574
 20
4497.3482935012
 30
0.0
 11
6868.8128865855
 21
4496.8021957458
 31
0.0
  0
LINE
  5
41D
330
1F
100
AcDbEntity
  8
0
  6
Continuous
 62
     7
100
AcDbLine
 10
6868.8128865855
 20
4496.8021957458
 30
0.0
 11
6868.8128865855
 21
4496.2371437133
 31
0.0
  0
LINE
  5
41E
330
1F
100
AcDbEntity
  8
0
  6
Continuous
 62
     7
100
AcDbLine
 10
6868.8128865855
 20
4496.2371437133
 30
0.0
 11
6869.1615737574
 21
4495.6909267486
 31
0.0
  0
LINE
  5
41F
330
1F
100
AcDbEntity
  8
0
  6
Continuous
 62
     7
100
AcDbLine
 10
6869.1615737574
 20
4495.6909267486
 30
0.0
 11
6869.772580971
 21
4495.2356664718
 31
0.0
  0
LINE
  5
420
330
1F
100
AcDbEntity
  8
0
  6
Continuous
 62
     7
100
AcDbLine
 10
6873.268751015
 20
4498.6805765213
 30
0.0
 11
6873.268751015
 21
4494.1401331008
 31
0.0
  0
LINE
  5
421
330
1F
100
AcDbEntity
  8
0
  6
Continuous
 62
     7
100
AcDbLine
 10
6879.268733372
 20
4497.1562473358
 30
0.0
 11
6879.089859833
 21
4497.7212993682
 31
0.0
  0
LINE
  5
422
330
1F
100
AcDbEntity
  8
0
  6
Continuous
 62
     7
100
AcDbLine
 10
6879.089859833
 20
4497.7212993682
 30
0.0
 11
6878.5653985637
 21
4498.2478468002
 31
0.0
  0
LINE
  5
423
330
1F
100
AcDbEntity
  8
0
  6
Continuous
 62
     7
100
AcDbLine
 10
6878.5653985637
 20
4498.2478468002
 30
0.0
 11
6877.7310527461
 21
4498.7000076354
 31
0.0
  0
LINE
  5
424
330
1F
100
AcDbEntity
  8
0
  6
Continuous
 62
     7
100
AcDbLine
 10
6877.7310527461
 20
4498.7000076354
 30
0.0
 11
6876.6437448161
 21
4499.0470258773
 31
0.0
  0
LINE
  5
425
330
1F
100
AcDbEntity
  8
0
  6
Continuous
 62
     7
100
AcDbLine
 10
6876.6437448161
 20
4499.0470258773
 30
0.0
 11
6875.3775633471
 21
4499.2651788772
 31
0.0
  0
LINE
  5
426
330
1F
100
AcDbEntity
  8
0
  6
Continuous
 62
     7
100
AcDbLine
 10
6875.3775633471
 20
4499.2651788772
 30
0.0
 11
6874.0187562602
 21
4499.3395654739
 31
0.0
  0
LINE
  5
427
330
1F
100
AcDbEntity
  8
0
  6
Continuous
 62
     7
100
AcDbLine
 10
6874.0187562602
 20
4499.3395654739
 30
0.0
 11
6872.6599491733
 21
4499.2651788772
 31
0.0
  0
LINE
  5
428
330
1F
100
AcDbEntity
  8
0
  6
Continuous
 62
     7
100
AcDbLine
 10
6872.6599491733
 20
4499.2651788772
 30
0.0
 11
6871.3937677043
 21
4499.0470258773
 31
0.0
  0
LINE
  5
429
330
1F
100
AcDbEntity
  8
0
  6
Continuous
 62
     7
100
AcDbLine
 10
6871.3937677043
 20
4499.0470258773
 30
0.0
 11
6870.3064597743
 21
4498.7000076354
 31
0.0
  0
LINE
  5
42A
330
1F
100
AcDbEntity
  8
0
  6
Continuous
 62
     7
100
AcDbLine
 10
6870.3064597743
 20
4498.7000076354
 30
0.0
 11
6869.4721139567
 21
4498.2478468002
 31
0.0
  0
LINE
  5
42B
330
1F
100
AcDbEntity
  8
0
  6
Continuous
 62
     7
100
AcDbLine
 10
6869.4721139567
 20
4498.2478468002
 30
0.0
 11
6868.9476526873
 21
4497.7212993682
 31
0.0
  0
LINE
  5
42C
330
1F
100
AcDbEntity
  8
0
  6
Continuous
 62
     7
100
AcDbLine
 10
6868.9476526873
 20
4497.7212993682
 30
0.0
 11
6868.7687791484
 21
4497.1562473358
 31
0.0
  0
LINE
  5
42D
330
1F
100
AcDbEntity
  8
0
  6
Continuous
 62
     7
100
AcDbLine
 10
6874.7687553361
 20
4338.37074612
 30
0.0
 11
6874.7687553361
 21
4348.7630509654
 31
0.0
  0
LINE
  5
42E
330
1F
100
AcDbEntity
  8
0
  6
Continuous
 62
     7
100
AcDbLine
 10
6873.2687553361
 20
4348.7630509654
 30
0.0
 11
6873.2687553361
 21
4338.37074612
 31
0.0
  0
LINE
  5
42F
330
1F
100
AcDbEntity
  8
0
  6
Continuous
 62
     7
100
AcDbLine
 10
5674.7687553361
 20
4338.37074612
 30
0.0
 11
5674.7687553361
 21
4348.7630509654
 31
0.0
  0
LINE
  5
430
330
1F
100
AcDbEntity
  8
0
  6
Continuous
 62
     7
100
AcDbLine
 10
5673.2687553361
 20
4348.7630509654
 30
0.0
 11
5673.2687553361
 21
4338.37074612
 31
0.0
  0
LINE
  5
431
330
1F
100
AcDbEntity
  8
0
  6
Continuous
 62
     7
100
AcDbLine
 10
6278.2649375098
 20
4495.2356664718
 30
0.0
 11
6278.8759149211
 21
4495.6909267486
 31
0.0
  0
LINE
  5
432
330
1F
100
AcDbEntity
  8
0
  6
Continuous
 62
     7
100
AcDbLine
 10
6278.8759149211
 20
4495.6909267486
 30
0.0
 11
6279.2246169942
 21
4496.2371437133
 31
0.0
  0
LINE
  5
433
330
1F
100
AcDbEntity
  8
0
  6
Continuous
 62
     7
100
AcDbLine
 10
6279.2246169942
 20
4496.2371437133
 30
0.0
 11
6279.2246169942
 21
4496.8021957458
 31
0.0
  0
LINE
  5
434
330
1F
100
AcDbEntity
  8
0
  6
Continuous
 62
     7
100
AcDbLine
 10
6279.2246169942
 20
4496.8021957458
 30
0.0
 11
6278.8759149211
 21
4497.3482935012
 31
0.0
  0
LINE
  5
435
330
1F
100
AcDbEntity
  8
0
  6
Continuous
 62
     7
100
AcDbLine
 10
6278.8759149211
 20
4497.3482935012
 30
0.0
 11
6278.2018757956
 21
4497.838958937
 31
0.0
  0
LINE
  5
436
330
1F
100
AcDbEntity
  8
0
  6
Continuous
 62
     7
100
AcDbLine
 10
6278.2018757956
 20
4497.838958937
 30
0.0
 11
6277.2476501363
 21
4498.24117108
 31
0.0
  0
LINE
  5
437
330
1F
100
AcDbEntity
  8
0
  6
Continuous
 62
     7
100
AcDbLine
 10
6277.2476501363
 20
4498.24117108
 30
0.0
 11
6276.0771341222
 21
4498.5281078399
 31
0.0
  0
LINE
  5
438
330
1F
100
AcDbEntity
  8
0
  6
Continuous
 62
     7
100
AcDbLine
 10
6276.0771341222
 20
4498.5281078399
 30
0.0
 11
6274.7687525647
 21
4498.6805765213
 31
0.0
  0
LINE
  5
439
330
1F
100
AcDbEntity
  8
0
  6
Continuous
 62
     7
100
AcDbLine
 10
6274.7687525647
 20
4494.1401331008
 30
0.0
 11
6274.7687525647
 21
4498.6805765213
 31
0.0
  0
LINE
  5
43A
330
1F
100
AcDbEntity
  8
0
  6
Continuous
 62
     7
100
AcDbLine
 10
6273.2687569755
 20
4498.6805765213
 30
0.0
 11
6271.960375418
 21
4498.5281078399
 31
0.0
  0
LINE
  5
43B
330
1F
100
AcDbEntity
  8
0
  6
Continuous
 62
     7
100
AcDbLine
 10
6271.960375418
 20
4498.5281078399
 30
0.0
 11
6270.7898594039
 21
4498.24117108
 31
0.0
  0
LINE
  5
43C
330
1F
100
AcDbEntity
  8
0
  6
Continuous
 62
     7
100
AcDbLine
 10
6270.7898594039
 20
4498.24117108
 30
0.0
 11
6269.8356337445
 21
4497.838958937
 31
0.0
  0
LINE
  5
43D
330
1F
100
AcDbEntity
  8
0
  6
Continuous
 62
     7
100
AcDbLine
 10
6269.8356337445
 20
4497.838958937
 30
0.0
 11
6269.1615946191
 21
4497.3482935012
 31
0.0
  0
LINE
  5
43E
330
1F
100
AcDbEntity
  8
0
  6
Continuous
 62
     7
100
AcDbLine
 10
6269.1615946191
 20
4497.3482935012
 30
0.0
 11
6268.812892546
 21
4496.8021957458
 31
0.0
  0
LINE
  5
43F
330
1F
100
AcDbEntity
  8
0
  6
Continuous
 62
     7
100
AcDbLine
 10
6268.812892546
 20
4496.8021957458
 30
0.0
 11
6268.812892546
 21
4496.2371437133
 31
0.0
  0
LINE
  5
440
330
1F
100
AcDbEntity
  8
0
  6
Continuous
 62
     7
100
AcDbLine
 10
6268.812892546
 20
4496.2371437133
 30
0.0
 11
6269.1615946191
 21
4495.6909267486
 31
0.0
  0
LINE
  5
441
330
1F
100
AcDbEntity
  8
0
  6
Continuous
 62
     7
100
AcDbLine
 10
6269.1615946191
 20
4495.6909267486
 30
0.0
 11
6269.7725720303
 21
4495.2356664718
 31
0.0
  0
LINE
  5
442
330
1F
100
AcDbEntity
  8
0
  6
Continuous
 62
     7
100
AcDbLine
 10
6273.2687569755
 20
4498.6805765213
 30
0.0
 11
6273.2687569755
 21
4494.1401331008
 31
0.0
  0
LINE
  5
443
330
1F
100
AcDbEntity
  8
0
  6
Continuous
 62
     7
100
AcDbLine
 10
6279.2687542336
 20
4497.1562473358
 30
0.0
 11
6279.0898657935
 21
4497.7212993682
 31
0.0
  0
LINE
  5
444
330
1F
100
AcDbEntity
  8
0
  6
Continuous
 62
     7
100
AcDbLine
 10
6279.0898657935
 20
4497.7212993682
 30
0.0
 11
6278.565389623
 21
4498.2478468002
 31
0.0
  0
LINE
  5
445
330
1F
100
AcDbEntity
  8
0
  6
Continuous
 62
     7
100
AcDbLine
 10
6278.565389623
 20
4498.2478468002
 30
0.0
 11
6277.7310587066
 21
4498.7000076354
 31
0.0
  0
LINE
  5
446
330
1F
100
AcDbEntity
  8
0
  6
Continuous
 62
     7
100
AcDbLine
 10
6277.7310587066
 20
4498.7000076354
 30
0.0
 11
6276.6437507766
 21
4499.0470258773
 31
0.0
  0
LINE
  5
447
330
1F
100
AcDbEntity
  8
0
  6
Continuous
 62
     7
100
AcDbLine
 10
6276.6437507766
 20
4499.0470258773
 30
0.0
 11
6275.3775544064
 21
4499.2651788772
 31
0.0
  0
LINE
  5
448
330
1F
100
AcDbEntity
  8
0
  6
Continuous
 62
     7
100
AcDbLine
 10
6275.3775544064
 20
4499.2651788772
 30
0.0
 11
6274.0187622207
 21
4499.3395654739
 31
0.0
  0
LINE
  5
449
330
1F
100
AcDbEntity
  8
0
  6
Continuous
 62
     7
100
AcDbLine
 10
6274.0187622207
 20
4499.3395654739
 30
0.0
 11
6272.6599551337
 21
4499.2651788772
 31
0.0
  0
LINE
  5
44A
330
1F
100
AcDbEntity
  8
0
  6
Continuous
 62
     7
100
AcDbLine
 10
6272.6599551337
 20
4499.2651788772
 30
0.0
 11
6271.3937587636
 21
4499.0470258773
 31
0.0
  0
LINE
  5
44B
330
1F
100
AcDbEntity
  8
0
  6
Continuous
 62
     7
100
AcDbLine
 10
6271.3937587636
 20
4499.0470258773
 30
0.0
 11
6270.3064508336
 21
4498.7000076354
 31
0.0
  0
LINE
  5
44C
330
1F
100
AcDbEntity
  8
0
  6
Continuous
 62
     7
100
AcDbLine
 10
6270.3064508336
 20
4498.7000076354
 30
0.0
 11
6269.4721199172
 21
4498.2478468002
 31
0.0
  0
LINE
  5
44D
330
1F
100
AcDbEntity
  8
0
  6
Continuous
 62
     7
100
AcDbLine
 10
6269.4721199172
 20
4498.2478468002
 30
0.0
 11
6268.9476437467
 21
4497.7212993682
 31
0.0
  0
LINE
  5
44E
330
1F
100
AcDbEntity
  8
0
  6
Continuous
 62
     7
100
AcDbLine
 10
6268.9476437467
 20
4497.7212993682
 30
0.0
 11
6268.7687553065
 21
4497.1562473358
 31
0.0
  0
LINE
  5
44F
330
1F
100
AcDbEntity
  8
0
  6
Continuous
 62
     7
100
AcDbLine
 10
6274.7687553361
 20
4338.37074612
 30
0.0
 11
6274.7687553361
 21
4348.7630509654
 31
0.0
  0
LINE
  5
450
330
1F
100
AcDbEntity
  8
0
  6
Continuous
 62
     7
100
AcDbLine
 10
6273.2687553361
 20
4348.7630509654
 30
0.0
 11
6273.2687553361
 21
4338.37074612
 31
0.0
  0
LINE
  5
451
330
1F
100
AcDbEntity
  8
0
  6
Continuous
 62
     7
100
AcDbLine
 10
6314.018753876
 20
4623.6614434303
 30
0.0
 11
6234.0187556641
 21
4623.6614434303
 31
0.0
  0
LINE
  5
452
330
1F
100
AcDbEntity
  8
0
  6
Continuous
 62
     7
100
AcDbLine
 10
6294.0187580483
 20
4633.6614934982
 30
0.0
 11
6254.0187514918
 21
4633.6614934982
 31
0.0
  0
LINE
  5
453
330
1F
100
AcDbEntity
  8
0
  6
Continuous
 62
     7
100
AcDbLine
 10
6914.0187777179
 20
4623.6614434303
 30
0.0
 11
6834.0187348025
 21
4623.6614434303
 31
0.0
  0
LINE
  5
454
330
1F
100
AcDbEntity
  8
0
  6
Continuous
 62
     7
100
AcDbLine
 10
6894.0187371867
 20
4633.6614934982
 30
0.0
 11
6854.0187753337
 21
4633.6614934982
 31
0.0
  0
LINE
  5
455
330
1F
100
AcDbEntity
  8
0
  6
Continuous
 62
     7
100
AcDbLine
 10
5714.0187598365
 20
4623.6614434303
 30
0.0
 11
5634.0187467235
 21
4623.6614434303
 31
0.0
  0
LINE
  5
456
330
1F
100
AcDbEntity
  8
0
  6
Continuous
 62
     7
100
AcDbLine
 10
5694.0187491076
 20
4633.6614934982
 30
0.0
 11
5654.0187574523
 21
4633.6614934982
 31
0.0
  0
LINE
  5
457
330
1F
100
AcDbEntity
  8
0
  6
Continuous
 62
     7
100
AcDbLine
 10
6862.8149903911
 20
4499.4555561126
 30
0.0
 11
6862.8149903911
 21
4498.4259454788
 31
0.0
  0
LINE
  5
458
330
1F
100
AcDbEntity
  8
0
  6
Continuous
 62
     7
100
AcDbLine
 10
6885.2225221293
 20
4499.4555561126
 30
0.0
 11
6885.2225221293
 21
4498.4259454788
 31
0.0
  0
LINE
  5
459
330
1F
100
AcDbEntity
  8
0
  6
Continuous
 62
     7
100
AcDbLine
 10
6862.056402077
 20
4495.7628099502
 30
0.0
 11
6862.056402077
 21
4495.6421701492
 31
0.0
  0
LINE
  5
45A
330
1F
100
AcDbEntity
  8
0
  6
Continuous
 62
     7
100
AcDbLine
 10
6885.9811104434
 20
4495.7628099502
 30
0.0
 11
6885.9811104434
 21
4495.6421701492
 31
0.0
  0
LINE
  5
45B
330
1F
100
AcDbEntity
  8
0
  6
Continuous
 62
     7
100
AcDbLine
 10
5662.8149725097
 20
4499.4555561126
 30
0.0
 11
5662.8149725097
 21
4498.4259454788
 31
0.0
  0
LINE
  5
45C
330
1F
100
AcDbEntity
  8
0
  6
Continuous
 62
     7
100
AcDbLine
 10
5685.2225340503
 20
4499.4555561126
 30
0.0
 11
5685.2225340503
 21
4498.4259454788
 31
0.0
  0
LINE
  5
45D
330
1F
100
AcDbEntity
  8
0
  6
Continuous
 62
     7
100
AcDbLine
 10
5662.0563841956
 20
4495.7628099502
 30
0.0
 11
5662.0563841956
 21
4495.6421701492
 31
0.0
  0
LINE
  5
45E
330
1F
100
AcDbEntity
  8
0
  6
Continuous
 62
     7
100
AcDbLine
 10
5685.9811223643
 20
4495.7628099502
 30
0.0
 11
5685.9811223643
 21
4495.6421701492
 31
0.0
  0
LINE
  5
45F
330
1F
100
AcDbEntity
  8
0
  6
Continuous
 62
     7
100
AcDbLine
 10
6262.8149814504
 20
4499.4555561126
 30
0.0
 11
6262.8149814504
 21
4498.4259454788
 31
0.0
  0
LINE
  5
460
330
1F
100
AcDbEntity
  8
0
  6
Continuous
 62
     7
100
AcDbLine
 10
6285.2225280898
 20
4499.4555561126
 30
0.0
 11
6285.2225280898
 21
4498.4259454788
 31
0.0
  0
LINE
  5
461
330
1F
100
AcDbEntity
  8
0
  6
Continuous
 62
     7
100
AcDbLine
 10
6262.0563931363
 20
4495.7628099502
 30
0.0
 11
6262.0563931363
 21
4495.6421701492
 31
0.0
  0
LINE
  5
462
330
1F
100
AcDbEntity
  8
0
  6
Continuous
 62
     7
100
AcDbLine
 10
6285.9811164039
 20
4495.7628099502
 30
0.0
 11
6285.9811164039
 21
4495.6421701492
 31
0.0
  0
LWPOLYLINE
  5
463
330
1F
100
AcDbEntity
  8
0
  6
Continuous
 62
     7
100
AcDbPolyline
 90
       12
 70
   128
 43
0.0
 10
7819.9157714844
 20
5142.0033460195
 10
7823.5588586297
 20
5116.7836494445
 10
7814.0368935368
 20
5101.956803366
 10
7813.0495420783
 20
5100.711982223
 10
7813.0107816807
 20
5100.6635783161
 10
7813.0082201607
 20
5100.6603863976
 10
7813.0080703387
 20
5100.6602010604
 10
7813.0080650195
 20
5100.6601949987
 10
7813.0081609452
 20
5100.6603163159
 10
7813.0084184612
 20
5100.6606393801
 10
7813.0134252378
 20
5100.6668988864
 10
7813.0326746908
 20
5100.6909429739
  0
LWPOLYLINE
  5
464
330
1F
100
AcDbEntity
  8
0
  6
Continuous
 62
     7
100
AcDbPolyline
 90
        3
 70
   128
 43
0.0
 10
7818.1343078613
 20
5144.655702925
 10
7818.7310001658
 20
5143.7965445007
 10
7819.9159382787
 20
5142.0033455926
  0
LINE
  5
465
330
1F
100
AcDbEntity
  8
0
  6
Continuous
 62
     7
100
AcDbLine
 10
7818.1343078613
 20
5144.655702925
 30
0.0
 11
7822.6680039373
 21
5144.655702925
 31
0.0
  0
LWPOLYLINE
  5
466
330
1F
100
AcDbEntity
  8
0
  6
Continuous
 62
     7
100
AcDbPolyline
 90
        3
 70
   128
 43
0.0
 10
7817.6498413086
 20
5224.8467735658
 10
7818.122182279
 20
5224.5227930886
 10
7819.0944670644
 20
5223.8557047854
  0
LWPOLYLINE
  5
467
330
1F
100
AcDbEntity
  8
0
  6
Continuous
 62
     7
100
AcDbPolyline
 90
       10
 70
   128
 43
0.0
 10
7821.1364746094
 20
5206.8784765611
 10
7818.8708911046
 20
5200.3577059818
 10
7818.6547513659
 20
5199.8918158943
 10
7818.6526188707
 20
5199.8872742777
 10
7818.6523646518
 20
5199.8867275921
 10
7818.6523537171
 20
5199.8867031691
 10
7818.6523513981
 20
5199.8866976371
 10
7818.652351139
 20
5199.8866964753
 10
7818.6523833373
 20
5199.8867615205
 10
7818.6556576696
 20
5199.8936690102
  0
LWPOLYLINE
  5
468
330
1F
100
AcDbEntity
  8
0
  6
Continuous
 62
     7
100
AcDbPolyline
 90
        3
 70
   128
 43
0.0
 10
7819.091796875
 20
5223.8557047854
 10
7820.2133385975
 20
5221.042988692
 10
7821.1377142873
 20
5217.8329311023
  0
LWPOLYLINE
  5
469
330
1F
100
AcDbEntity
  8
0
  6
Continuous
 62
     7
100
AcDbPolyline
 90
        3
 70
   128
 43
0.0
 10
5661.6744995117
 20
4503.9504615844
 10
5662.6400864009
 20
4504.3425873347
 10
5663.5187543528
 20
4504.6322195114
  0
LWPOLYLINE
  5
46A
330
1F
100
AcDbEntity
  8
0
  6
Continuous
 62
     7
100
AcDbPolyline
 90
        3
 70
   128
 43
0.0
 10
6261.6729736328
 20
4503.9504615844
 10
6262.6400711407
 20
4504.3425898502
 10
6263.5187483924
 20
4504.6322195114
  0
LWPOLYLINE
  5
46B
330
1F
100
AcDbEntity
  8
0
  6
Continuous
 62
     7
100
AcDbPolyline
 90
        3
 70
   128
 43
0.0
 10
6861.6752624512
 20
4503.9504615844
 10
6862.6400743449
 20
4504.3425906008
 10
6863.5187424319
 20
4504.6322195114
  0
LWPOLYLINE
  5
46C
330
1F
100
AcDbEntity
  8
0
  6
Continuous
 62
     7
100
AcDbPolyline
 90
        4
 70
   128
 43
0.0
 10
6856.0485839844
 20
4498.4434692443
 10
6857.6537064466
 20
4494.8885280453
 10
6861.6511792878
 20
4492.3296863372
 10
6874.0187562602
 20
4490.1527015747
  0
LWPOLYLINE
  5
46D
330
1F
100
AcDbEntity
  8
0
  6
Continuous
 62
     7
100
AcDbPolyline
 90
        4
 70
   128
 43
0.0
 10
6874.0158081055
 20
4490.1527015747
 10
6886.5030462899
 20
4492.3796577037
 10
6890.4876235524
 20
4494.9975014543
 10
6891.9766224521
 20
4498.6263362945
  0
LWPOLYLINE
  5
46E
330
1F
100
AcDbEntity
  8
0
  6
Continuous
 62
     7
100
AcDbPolyline
 90
        4
 70
   128
 43
0.0
 10
5656.0516357422
 20
4498.4434692443
 10
5657.6537031695
 20
4494.8885271668
 10
5661.6511743465
 20
4492.3296834434
 10
5674.0187681811
 20
4490.1527015747
  0
LWPOLYLINE
  5
46F
330
1F
100
AcDbEntity
  8
0
  6
Continuous
 62
     7
100
AcDbPolyline
 90
        4
 70
   128
 43
0.0
 10
5674.015045166
 20
4490.1527015747
 10
5686.5030531777
 20
4492.3796545865
 10
5690.4876076451
 20
4494.9975033137
 10
5691.976634373
 20
4498.6263362945
  0
LWPOLYLINE
  5
470
330
1F
100
AcDbEntity
  8
0
  6
Continuous
 62
     7
100
AcDbPolyline
 90
        4
 70
   128
 43
0.0
 10
6256.0501098633
 20
4498.4434692443
 10
6257.6537061998
 20
4494.8885284375
 10
6261.6511731097
 20
4492.3296833035
 10
6274.0187622207
 20
4490.1527015747
  0
LWPOLYLINE
  5
471
330
1F
100
AcDbEntity
  8
0
  6
Continuous
 62
     7
100
AcDbPolyline
 90
        4
 70
   128
 43
0.0
 10
6274.0173339844
 20
4490.1527015747
 10
6286.5030475913
 20
4492.3796544211
 10
6290.4876129275
 20
4494.9975004393
 10
6291.9766433137
 20
4498.6263362945
  0
LWPOLYLINE
  5
472
330
1F
100
AcDbEntity
  8
0
  6
Continuous
 62
     7
100
AcDbPolyline
 90
        8
 70
   128
 43
0.0
 10
6291.7633056641
 20
4497.0710126937
 10
6292.1763622783
 20
4498.7206470406
 10
6291.601395969
 20
4500.3824143267
 10
6284.9169769085
 20
4504.5332515552
 10
6273.6290450298
 20
4506.0730445434
 10
6262.5027243568
 20
4504.3289907861
 10
6256.2541865122
 20
4500.0634883541
 10
6256.4099706309
 20
4496.7526046813
  0
LWPOLYLINE
  5
473
330
1F
100
AcDbEntity
  8
0
  6
Continuous
 62
     7
100
AcDbPolyline
 90
        8
 70
   128
 43
0.0
 10
5691.7610168457
 20
4497.0710126937
 10
5692.1763690613
 20
4498.7206445238
 10
5691.6013884718
 20
4500.3824110136
 10
5684.9169793704
 20
4504.5332511608
 10
5673.6290472898
 20
4506.073044826
 10
5662.502724179
 20
4504.3289909002
 10
5656.2541938248
 20
4500.0634880775
 10
5656.4099765914
 20
4496.7526046813
  0
LWPOLYLINE
  5
474
330
1F
100
AcDbEntity
  8
0
  6
Continuous
 62
     7
100
AcDbPolyline
 90
        8
 70
   128
 43
0.0
 10
6891.7617797852
 20
4497.0710126937
 10
6892.1763567172
 20
4498.7206447663
 10
6891.6013976961
 20
4500.38241166
 10
6884.9169778742
 20
4504.5332504291
 10
6873.6290484959
 20
4506.0730446762
 10
6862.5027256871
 20
4504.3289919388
 10
6856.254185559
 20
4500.0634886703
 10
6856.4099944728
 20
4496.7526046813
  0
ENDSEC
  0
SECTION
  2
OBJECTS
  0
DICTIONARY
  5
C
330
0
100
AcDbDictionary
281
     1
  3
ACAD_GROUP
350
D
  3
ACAD_LAYOUT
350
1A
  3
ACAD_MLINESTYLE
350
17
  3
ACAD_PLOTSETTINGS
350
19
  3
ACAD_PLOTSTYLENAME
350
E
  3
ACAD_SCALELIST
350
47
  3
DWGPROPS
350
475
  0
DICTIONARY
  5
D
102
{ACAD_REACTORS
330
C
102
}
330
C
100
AcDbDictionary
281
     1
  0
DICTIONARY
  5
1A
102
{ACAD_REACTORS
330
C
102
}
330
C
100
AcDbDictionary
281
     1
  3
Layout1
350
1E
  3
Layout2
350
26
  3
Model
350
22
  0
DICTIONARY
  5
17
102
{ACAD_REACTORS
330
C
102
}
330
C
100
AcDbDictionary
281
     1
  3
Standard
350
18
  0
DICTIONARY
  5
19
102
{ACAD_REACTORS
330
C
102
}
330
C
100
AcDbDictionary
281
     1
  0
ACDBDICTIONARYWDFLT
  5
E
102
{ACAD_REACTORS
330
C
102
}
330
C
100
AcDbDictionary
281
     1
  3
Normal
350
F
100
AcDbDictionaryWithDefault
340
F
  0
DICTIONARY
  5
47
102
{ACAD_REACTORS
330
C
102
}
330
C
100
AcDbDictionary
281
     1
  3
A0
350
48
  3
A1
350
49
  3
A2
350
4A
  3
A3
350
4B
  3
A4
350
4C
  3
A5
350
4D
  3
A6
350
4E
  3
A7
350
4F
  3
A8
350
50
  3
A9
350
51
  3
B0
350
52
  3
B1
350
53
  3
B2
350
54
  3
B3
350
55
  3
B4
350
56
  3
B5
350
57
  3
B6
350
58
  3
B7
350
59
  3
B8
350
5A
  3
B9
350
5B
  3
C0
350
5C
  3
C1
350
5D
  3
C2
350
5E
  3
C3
350
5F
  3
C4
350
60
  3
C5
350
61
  3
C6
350
62
  3
C7
350
63
  3
C8
350
64
  3
C9
350
65
  3
D0
350
66
  3
D1
350
67
  3
D2
350
68
  0
XRECORD
  5
475
102
{ACAD_REACTORS
330
C
102
}
330
C
100
AcDbXrecord
280
     1
  1
DWGPROPS COOKIE
  2

  3

  4

  6

  7

  8
radek.stransky
  9

300
=
301
=
302
=
303
=
304
=
305
=
306
=
307
=
308
=
309
=
 40
0.0
 41
2459096.330163599
 42
2459096.330192072
  1

 90
        0
  0
LAYOUT
  5
1E
102
{ACAD_REACTORS
330
1A
102
}
330
1A
100
AcDbPlotSettings
  1

  2
none_device
  4

  6

 40
0.0
 41
0.0
 42
0.0
 43
0.0
 44
0.0
 45
0.0
 46
0.0
 47
0.0
 48
0.0
 49
0.0
140
0.0
141
0.0
142
1.0
143
1.0
 70
   688
 72
     1
 73
     0
 74
     5
  7

 75
    16
147
1.0
148
0.0
149
0.0
100
AcDbLayout
  1
Layout1
 70
     1
 71
     1
 10
0.0
 20
0.0
 11
420.0
 21
297.0
 12
0.0
 22
0.0
 32
0.0
 14
1.0000000000E+20
 24
1.0000000000E+20
 34
1.0000000000E+20
 15
-1.0000000000E+20
 25
-1.0000000000E+20
 35
-1.0000000000E+20
146
0.0
 13
0.0
 23
0.0
 33
0.0
 16
1.0
 26
0.0
 36
0.0
 17
0.0
 27
1.0
 37
0.0
 76
     0
330
1B
  0
LAYOUT
  5
26
102
{ACAD_REACTORS
330
1A
102
}
330
1A
100
AcDbPlotSettings
  1

  2
none_device
  4

  6

 40
0.0
 41
0.0
 42
0.0
 43
0.0
 44
0.0
 45
0.0
 46
0.0
 47
0.0
 48
0.0
 49
0.0
140
0.0
141
0.0
142
1.0
143
1.0
 70
   688
 72
     1
 73
     0
 74
     5
  7

 75
    16
147
1.0
148
0.0
149
0.0
100
AcDbLayout
  1
Layout2
 70
     1
 71
     2
 10
0.0
 20
0.0
 11
0.0
 21
0.0
 12
0.0
 22
0.0
 32
0.0
 14
0.0
 24
0.0
 34
0.0
 15
0.0
 25
0.0
 35
0.0
146
0.0
 13
0.0
 23
0.0
 33
0.0
 16
1.0
 26
0.0
 36
0.0
 17
0.0
 27
1.0
 37
0.0
 76
     0
330
23
  0
LAYOUT
  5
22
102
{ACAD_REACTORS
330
1A
102
}
330
1A
100
AcDbPlotSettings
  1

  2
none_device
  4
ANSI_A_(11.00_x_8.50_Inches)
  6

 40
6.35
 41
19.05
 42
6.35000508
 43
19.05000254
 44
279.4
 45
215.9
 46
-557.3201820826
 47
-401.1936280305
 48
0.0
 49
0.0
140
0.0
141
0.0
142
0.0040466437
143
1.0
 70
  1696
 72
     0
 73
     0
 74
     0
  7

 75
     0
147
0.0179189148
148
-1300.4909072572
149
0.0
100
AcDbLayout
  1
Model
 70
     1
 71
     0
 10
0.0
 20
0.0
 11
420.0
 21
297.0
 12
0.0
 22
0.0
 32
0.0
 14
5374.0187553361
 24
4123.566850859
 34
0.0
 15
8065.1377915349
 25
5412.7431966076
 35
0.0
146
0.0
 13
0.0
 23
0.0
 33
0.0
 16
1.0
 26
0.0
 36
0.0
 17
0.0
 27
1.0
 37
0.0
 76
     0
330
1F
331
29
  0
MLINESTYLE
  5
18
102
{ACAD_REACTORS
330
17
102
}
330
17
100
AcDbMlineStyle
  2
Standard
 70
     0
  3

 62
   256
 51
90.0
 52
90.0
 71
     2
 49
0.5
 62
   256
  6
BYLAYER
 49
-0.5
 62
   256
  6
BYLAYER
  0
ACDBPLACEHOLDER
  5
F
102
{ACAD_REACTORS
330
E
102
}
330
E
  0
SCALE
  5
48
102
{ACAD_REACTORS
330
47
102
}
330
47
100
AcDbScale
 70
     0
300
1:1
140
1.0
141
1.0
290
     1
  0
SCALE
  5
49
102
{ACAD_REACTORS
330
47
102
}
330
47
100
AcDbScale
 70
     0
300
1:2
140
1.0
141
2.0
290
     0
  0
SCALE
  5
4A
102
{ACAD_REACTORS
330
47
102
}
330
47
100
AcDbScale
 70
     0
300
1:4
140
1.0
141
4.0
290
     0
  0
SCALE
  5
4B
102
{ACAD_REACTORS
330
47
102
}
330
47
100
AcDbScale
 70
     0
300
1:5
140
1.0
141
5.0
290
     0
  0
SCALE
  5
4C
102
{ACAD_REACTORS
330
47
102
}
330
47
100
AcDbScale
 70
     0
300
1:8
140
1.0
141
8.0
290
     0
  0
SCALE
  5
4D
102
{ACAD_REACTORS
330
47
102
}
330
47
100
AcDbScale
 70
     0
300
1:10
140
1.0
141
10.0
290
     0
  0
SCALE
  5
4E
102
{ACAD_REACTORS
330
47
102
}
330
47
100
AcDbScale
 70
     0
300
1:16
140
1.0
141
16.0
290
     0
  0
SCALE
  5
4F
102
{ACAD_REACTORS
330
47
102
}
330
47
100
AcDbScale
 70
     0
300
1:20
140
1.0
141
20.0
290
     0
  0
SCALE
  5
50
102
{ACAD_REACTORS
330
47
102
}
330
47
100
AcDbScale
 70
     0
300
1:30
140
1.0
141
30.0
290
     0
  0
SCALE
  5
51
102
{ACAD_REACTORS
330
47
102
}
330
47
100
AcDbScale
 70
     0
300
1:40
140
1.0
141
40.0
290
     0
  0
SCALE
  5
52
102
{ACAD_REACTORS
330
47
102
}
330
47
100
AcDbScale
 70
     0
300
1:50
140
1.0
141
50.0
290
     0
  0
SCALE
  5
53
102
{ACAD_REACTORS
330
47
102
}
330
47
100
AcDbScale
 70
     0
300
1:100
140
1.0
141
100.0
290
     0
  0
SCALE
  5
54
102
{ACAD_REACTORS
330
47
102
}
330
47
100
AcDbScale
 70
     0
300
2:1
140
2.0
141
1.0
290
     0
  0
SCALE
  5
55
102
{ACAD_REACTORS
330
47
102
}
330
47
100
AcDbScale
 70
     0
300
4:1
140
4.0
141
1.0
290
     0
  0
SCALE
  5
56
102
{ACAD_REACTORS
330
47
102
}
330
47
100
AcDbScale
 70
     0
300
8:1
140
8.0
141
1.0
290
     0
  0
SCALE
  5
57
102
{ACAD_REACTORS
330
47
102
}
330
47
100
AcDbScale
 70
     0
300
10:1
140
10.0
141
1.0
290
     0
  0
SCALE
  5
58
102
{ACAD_REACTORS
330
47
102
}
330
47
100
AcDbScale
 70
     0
300
100:1
140
100.0
141
1.0
290
     0
  0
SCALE
  5
59
102
{ACAD_REACTORS
330
47
102
}
330
47
100
AcDbScale
 70
     0
300
1/128" = 1'-0"
140
0.0078125
141
12.0
290
     0
  0
SCALE
  5
5A
102
{ACAD_REACTORS
330
47
102
}
330
47
100
AcDbScale
 70
     0
300
1/64" = 1'-0"
140
0.015625
141
12.0
290
     0
  0
SCALE
  5
5B
102
{ACAD_REACTORS
330
47
102
}
330
47
100
AcDbScale
 70
     0
300
1/32" = 1'-0"
140
0.03125
141
12.0
290
     0
  0
SCALE
  5
5C
102
{ACAD_REACTORS
330
47
102
}
330
47
100
AcDbScale
 70
     0
300
1/16" = 1'-0"
140
0.0625
141
12.0
290
     0
  0
SCALE
  5
5D
102
{ACAD_REACTORS
330
47
102
}
330
47
100
AcDbScale
 70
     0
300
3/32" = 1'-0"
140
0.09375
141
12.0
290
     0
  0
SCALE
  5
5E
102
{ACAD_REACTORS
330
47
102
}
330
47
100
AcDbScale
 70
     0
300
1/8" = 1'-0"
140
0.125
141
12.0
290
     0
  0
SCALE
  5
5F
102
{ACAD_REACTORS
330
47
102
}
330
47
100
AcDbScale
 70
     0
300
3/16" = 1'-0"
140
0.1875
141
12.0
290
     0
  0
SCALE
  5
60
102
{ACAD_REACTORS
330
47
102
}
330
47
100
AcDbScale
 70
     0
300
1/4" = 1'-0"
140
0.25
141
12.0
290
     0
  0
SCALE
  5
61
102
{ACAD_REACTORS
330
47
102
}
330
47
100
AcDbScale
 70
     0
300
3/8" = 1'-0"
140
0.375
141
12.0
290
     0
  0
SCALE
  5
62
102
{ACAD_REACTORS
330
47
102
}
330
47
100
AcDbScale
 70
     0
300
1/2" = 1'-0"
140
0.5
141
12.0
290
     0
  0
SCALE
  5
63
102
{ACAD_REACTORS
330
47
102
}
330
47
100
AcDbScale
 70
     0
300
3/4" = 1'-0"
140
0.75
141
12.0
290
     0
  0
SCALE
  5
64
102
{ACAD_REACTORS
330
47
102
}
330
47
100
AcDbScale
 70
     0
300
1" = 1'-0"
140
1.0
141
12.0
290
     0
  0
SCALE
  5
65
102
{ACAD_REACTORS
330
47
102
}
330
47
100
AcDbScale
 70
     0
300
1-1/2" = 1'-0"
140
1.5
141
12.0
290
     0
  0
SCALE
  5
66
102
{ACAD_REACTORS
330
47
102
}
330
47
100
AcDbScale
 70
     0
300
3" = 1'-0"
140
3.0
141
12.0
290
     0
  0
SCALE
  5
67
102
{ACAD_REACTORS
330
47
102
}
330
47
100
AcDbScale
 70
     0
300
6" = 1'-0"
140
6.0
141
12.0
290
     0
  0
SCALE
  5
68
102
{ACAD_REACTORS
330
47
102
}
330
47
100
AcDbScale
 70
     0
300
1'-0" = 1'-0"
140
12.0
141
12.0
290
     0
  0
ENDSEC
  0
EOF
