  0
SECTION
  2
HEADER
  9
$ACADVER
  1
AC1015
  9
$ACADMAINTVER
 70
     6
  9
$DWGCODEPAGE
  3
ANSI_1250
  9
$INSBASE
 10
0.0
 20
0.0
 30
0.0
  9
$EXTMIN
 10
0.0
 20
0.0
 30
0.0
  9
$EXTMAX
 10
20000.0
 20
10000.0
 30
0.0
  9
$LIMMIN
 10
0.0
 20
0.0
  9
$LIMMAX
 10
20000.0
 20
10000.0
  9
$ORTHOMODE
 70
     0
  9
$REGENMODE
 70
     1
  9
$FILLMODE
 70
     1
  9
$QTEXTMODE
 70
     0
  9
$MIRRTEXT
 70
     1
  9
$LTSCALE
 40
1.0
  9
$ATTMODE
 70
     1
  9
$TEXTSIZE
 40
2.0
  9
$TRACEWID
 40
1.0
  9
$TEXTSTYLE
  7
Standard
  9
$CLAYER
  8
0
  9
$CELTYPE
  6
ByLayer
  9
$CECOLOR
 62
   256
  9
$CELTSCALE
 40
1.0
  9
$DISPSILH
 70
     0
  9
$DIMSCALE
 40
1.0
  9
$DIMASZ
 40
2.0
  9
$DIMEXO
 40
1.0
  9
$DIMDLI
 40
3.75
  9
$DIMRND
 40
0.0
  9
$DIMDLE
 40
0.0
  9
$DIMEXE
 40
1.0
  9
$DIMTP
 40
0.0
  9
$DIMTM
 40
0.0
  9
$DIMTXT
 40
2.0
  9
$DIMCEN
 40
2.5
  9
$DIMTSZ
 40
0.0
  9
$DIMTOL
 70
     0
  9
$DIMLIM
 70
     0
  9
$DIMTIH
 70
     1
  9
$DIMTOH
 70
     1
  9
$DIMSE1
 70
     0
  9
$DIMSE2
 70
     0
  9
$DIMTAD
 70
     1
  9
$DIMZIN
 70
     0
  9
$DIMBLK
  1

  9
$DIMASO
 70
     1
  9
$DIMSHO
 70
     1
  9
$DIMPOST
  1

  9
$DIMAPOST
  1

  9
$DIMALT
 70
     0
  9
$DIMALTD
 70
     3
  9
$DIMALTF
 40
0.0393700787
  9
$DIMLFAC
 40
1.0
  9
$DIMTOFL
 70
     1
  9
$DIMTVP
 40
0.0
  9
$DIMTIX
 70
     0
  9
$DIMSOXD
 70
     0
  9
$DIMSAH
 70
     0
  9
$DIMBLK1
  1

  9
$DIMBLK2
  1

  9
$DIMSTYLE
  2
ISO-25
  9
$DIMCLRD
 70
     0
  9
$DIMCLRE
 70
     0
  9
$DIMCLRT
 70
     0
  9
$DIMTFAC
 40
1.0
  9
$DIMGAP
 40
1.524
  9
$DIMJUST
 70
     0
  9
$DIMSD1
 70
     0
  9
$DIMSD2
 70
     0
  9
$DIMTOLJ
 70
     0
  9
$DIMTZIN
 70
     0
  9
$DIMALTZ
 70
     0
  9
$DIMALTTZ
 70
     0
  9
$DIMUPT
 70
     0
  9
$DIMDEC
 70
     2
  9
$DIMTDEC
 70
     0
  9
$DIMALTU
 70
     2
  9
$DIMALTTD
 70
     3
  9
$DIMTXSTY
  7
Standard
  9
$DIMAUNIT
 70
     0
  9
$DIMADEC
 70
     2
  9
$DIMALTRND
 40
0.0
  9
$DIMAZIN
 70
     0
  9
$DIMDSEP
 70
    44
  9
$DIMATFIT
 70
     3
  9
$DIMFRAC
 70
     0
  9
$DIMLDRBLK
  1

  9
$DIMLUNIT
 70
     2
  9
$DIMLWD
 70
    -2
  9
$DIMLWE
 70
    -2
  9
$DIMTMOVE
 70
     0
  9
$LUNITS
 70
     2
  9
$LUPREC
 70
     3
  9
$SKETCHINC
 40
1.0
  9
$FILLETRAD
 40
10.0
  9
$AUNITS
 70
     0
  9
$AUPREC
 70
     2
  9
$MENU
  1
.
  9
$ELEVATION
 40
0.0
  9
$PELEVATION
 40
0.0
  9
$THICKNESS
 40
0.0
  9
$LIMCHECK
 70
     0
  9
$CHAMFERA
 40
0.0
  9
$CHAMFERB
 40
0.0
  9
$CHAMFERC
 40
0.0
  9
$CHAMFERD
 40
0.0
  9
$SKPOLY
 70
     0
  9
$TDCREATE
 40
2458674.404461169
  9
$TDUCREATE
 40
2458674.321127836
  9
$TDUPDATE
 40
2458674.404461713
  9
$TDUUPDATE
 40
2458674.32112838
  9
$TDINDWG
 40
0.0000000116
  9
$TDUSRTIMER
 40
0.0000000116
  9
$USRTIMER
 70
     1
  9
$ANGBASE
 50
0.0
  9
$ANGDIR
 70
     0
  9
$PDMODE
 70
     0
  9
$PDSIZE
 40
-1.0
  9
$PLINEWID
 40
0.0
  9
$SPLFRAME
 70
     0
  9
$SPLINETYPE
 70
     6
  9
$SPLINESEGS
 70
     8
  9
$HANDSEED
  5
2CD
  9
$SURFTAB1
 70
     6
  9
$SURFTAB2
 70
     6
  9
$SURFTYPE
 70
     6
  9
$SURFU
 70
     6
  9
$SURFV
 70
     6
  9
$UCSBASE
  2

  9
$UCSNAME
  2

  9
$UCSORG
 10
0.0
 20
0.0
 30
0.0
  9
$UCSXDIR
 10
1.0
 20
0.0
 30
0.0
  9
$UCSYDIR
 10
0.0
 20
1.0
 30
0.0
  9
$UCSORTHOREF
  2

  9
$UCSORTHOVIEW
 70
     0
  9
$UCSORGTOP
 10
0.0
 20
0.0
 30
0.0
  9
$UCSORGBOTTOM
 10
0.0
 20
0.0
 30
0.0
  9
$UCSORGLEFT
 10
0.0
 20
0.0
 30
0.0
  9
$UCSORGRIGHT
 10
0.0
 20
0.0
 30
0.0
  9
$UCSORGFRONT
 10
0.0
 20
0.0
 30
0.0
  9
$UCSORGBACK
 10
0.0
 20
0.0
 30
0.0
  9
$PUCSBASE
  2

  9
$PUCSNAME
  2

  9
$PUCSORG
 10
0.0
 20
0.0
 30
0.0
  9
$PUCSXDIR
 10
1.0
 20
0.0
 30
0.0
  9
$PUCSYDIR
 10
0.0
 20
1.0
 30
0.0
  9
$PUCSORTHOREF
  2

  9
$PUCSORTHOVIEW
 70
     0
  9
$PUCSORGTOP
 10
0.0
 20
0.0
 30
0.0
  9
$PUCSORGBOTTOM
 10
0.0
 20
0.0
 30
0.0
  9
$PUCSORGLEFT
 10
0.0
 20
0.0
 30
0.0
  9
$PUCSORGRIGHT
 10
0.0
 20
0.0
 30
0.0
  9
$PUCSORGFRONT
 10
0.0
 20
0.0
 30
0.0
  9
$PUCSORGBACK
 10
0.0
 20
0.0
 30
0.0
  9
$USERI1
 70
     0
  9
$USERI2
 70
     0
  9
$USERI3
 70
     0
  9
$USERI4
 70
     0
  9
$USERI5
 70
     0
  9
$USERR1
 40
0.0
  9
$USERR2
 40
0.0
  9
$USERR3
 40
0.0
  9
$USERR4
 40
0.0
  9
$USERR5
 40
0.0
  9
$WORLDVIEW
 70
     1
  9
$SHADEDGE
 70
     3
  9
$SHADEDIF
 70
    70
  9
$TILEMODE
 70
     1
  9
$MAXACTVP
 70
    64
  9
$PINSBASE
 10
0.0
 20
0.0
 30
0.0
  9
$PLIMCHECK
 70
     0
  9
$PEXTMIN
 10
1.0000000000E+20
 20
1.0000000000E+20
 30
1.0000000000E+20
  9
$PEXTMAX
 10
-1.0000000000E+20
 20
-1.0000000000E+20
 30
-1.0000000000E+20
  9
$PLIMMIN
 10
0.0
 20
0.0
  9
$PLIMMAX
 10
420.0
 20
297.0
  9
$UNITMODE
 70
     0
  9
$VISRETAIN
 70
     1
  9
$PLINEGEN
 70
     0
  9
$PSLTSCALE
 70
     1
  9
$TREEDEPTH
 70
  3020
  9
$CMLSTYLE
  2
Standard
  9
$CMLJUST
 70
     0
  9
$CMLSCALE
 40
20.0
  9
$PROXYGRAPHICS
 70
     1
  9
$MEASUREMENT
 70
     1
  9
$CELWEIGHT
370
    -1
  9
$ENDCAPS
280
     0
  9
$JOINSTYLE
280
     0
  9
$LWDISPLAY
290
     1
  9
$INSUNITS
 70
     4
  9
$HYPERLINKBASE
  1

  9
$STYLESHEET
  1

  9
$XEDIT
290
     1
  9
$CEPSNTYPE
380
     0
  9
$PSTYLEMODE
290
     1
  9
$FINGERPRINTGUID
  2
{E20A9F3F-DE40-4C3C-A5E5-AFFD609E97AF}
  9
$VERSIONGUID
  2
{FAEB1C32-E019-11D5-929B-00C0DF256EC4}
  9
$EXTNAMES
290
     1
  9
$PSVPSCALE
 40
0.0
  9
$OLESTARTUP
290
     0
  0
ENDSEC
  0
SECTION
  2
CLASSES
  0
CLASS
  1
ACDBDICTIONARYWDFLT
  2
AcDbDictionaryWithDefault
  3
ObjectDBX Classes
 90
        0
280
     0
281
     0
  0
CLASS
  1
VISUALSTYLE
  2
AcDbVisualStyle
  3
ObjectDBX Classes
 90
     4095
280
     0
281
     0
  0
CLASS
  1
MATERIAL
  2
AcDbMaterial
  3
ObjectDBX Classes
 90
     1153
280
     0
281
     0
  0
CLASS
  1
SCALE
  2
AcDbScale
  3
ObjectDBX Classes
 90
     1153
280
     0
281
     0
  0
CLASS
  1
TABLESTYLE
  2
AcDbTableStyle
  3
ObjectDBX Classes
 90
     4095
280
     0
281
     0
  0
CLASS
  1
MLEADERSTYLE
  2
AcDbMLeaderStyle
  3
ACDB_MLEADERSTYLE_CLASS
 90
     4095
280
     0
281
     0
  0
CLASS
  1
SUN
  2
AcDbSun
  3
SCENEOE
 90
     1153
280
     0
281
     0
  0
CLASS
  1
ACDBPLACEHOLDER
  2
AcDbPlaceHolder
  3
ObjectDBX Classes
 90
        0
280
     0
281
     0
  0
CLASS
  1
LAYOUT
  2
AcDbLayout
  3
ObjectDBX Classes
 90
        0
280
     0
281
     0
  0
ENDSEC
  0
SECTION
  2
TABLES
  0
TABLE
  2
VPORT
  5
8
330
0
100
AcDbSymbolTable
 70
     1
  0
VPORT
  5
29
330
8
100
AcDbSymbolTableRecord
100
AcDbViewportTableRecord
  2
*Active
 70
     0
 10
0.0
 20
0.0
 11
1.0
 21
1.0
 12
10000.0
 22
5000.0
 13
0.0
 23
0.0
 14
10.0
 24
10.0
 15
10.0
 25
10.0
 16
0.0
 26
0.0
 36
1.0
 17
0.0
 27
0.0
 37
0.0
 40
10000.0
 41
2.0
 42
50.0
 43
0.0
 44
0.0
 50
0.0
 51
0.0
 71
     0
 72
  2000
 73
     1
 74
     3
 75
     0
 76
     0
 77
     0
 78
     0
281
     0
 65
     1
110
0.0
120
0.0
130
0.0
111
1.0
121
0.0
131
0.0
112
0.0
122
1.0
132
0.0
 79
     0
146
0.0
  0
ENDTAB
  0
TABLE
  2
LTYPE
  5
5
330
0
100
AcDbSymbolTable
 70
     6
  0
LTYPE
  5
14
330
5
100
AcDbSymbolTableRecord
100
AcDbLinetypeTableRecord
  2
ByBlock
 70
     0
  3

 72
    65
 73
     0
 40
0.0
  0
LTYPE
  5
15
330
5
100
AcDbSymbolTableRecord
100
AcDbLinetypeTableRecord
  2
ByLayer
 70
     0
  3

 72
    65
 73
     0
 40
0.0
  0
LTYPE
  5
16
330
5
100
AcDbSymbolTableRecord
100
AcDbLinetypeTableRecord
  2
Continuous
 70
     0
  3
Solid line
 72
    65
 73
     0
 40
0.0
  0
LTYPE
  5
6E
330
5
100
AcDbSymbolTableRecord
100
AcDbLinetypeTableRecord
  2
HIDDEN
 70
     0
  3
Hidden __ __ __ __ __ __ __ __ __ __ __ __ __ __
 72
    65
 73
     2
 40
1.905
 49
1.27
 74
     0
 49
-0.635
 74
     0
  0
LTYPE
  5
6F
330
5
100
AcDbSymbolTableRecord
100
AcDbLinetypeTableRecord
  2
PHANTOM
 70
     0
  3
Phantom ______  __  __  ______  __  __  ______
 72
    65
 73
     6
 40
12.7
 49
6.35
 74
     0
 49
-1.27
 74
     0
 49
1.27
 74
     0
 49
-1.27
 74
     0
 49
1.27
 74
     0
 49
-1.27
 74
     0
  0
LTYPE
  5
70
330
5
100
AcDbSymbolTableRecord
100
AcDbLinetypeTableRecord
  2
CENTER
 70
     0
  3
Center ____ _ ____ _ ____ _ ____ _ ____ _ ____
 72
    65
 73
     4
 40
10.16
 49
6.35
 74
     0
 49
-1.27
 74
     0
 49
1.27
 74
     0
 49
-1.27
 74
     0
  0
LTYPE
  5
71
330
5
100
AcDbSymbolTableRecord
100
AcDbLinetypeTableRecord
  2
CENTERX2
 70
     0
  3
Center (2x) ________  __  ________  __  _____
 72
    65
 73
     4
 40
20.32
 49
12.7
 74
     0
 49
-2.54
 74
     0
 49
2.54
 74
     0
 49
-2.54
 74
     0
  0
LTYPE
  5
72
330
5
100
AcDbSymbolTableRecord
100
AcDbLinetypeTableRecord
  2
DOT2
 70
     0
  3
Dot (.5x) ........................................
 72
    65
 73
     2
 40
0.635
 49
0.0
 74
     0
 49
-0.635
 74
     0
  0
ENDTAB
  0
TABLE
  2
LAYER
  5
2
330
0
100
AcDbSymbolTable
 70
    13
  0
LAYER
  5
10
330
2
100
AcDbSymbolTableRecord
100
AcDbLayerTableRecord
  2
0
 70
     0
 62
     7
  6
Continuous
370
    -3
390
F
  0
LAYER
  5
73
330
2
100
AcDbSymbolTableRecord
100
AcDbLayerTableRecord
  2
FORMAT
 70
     0
 62
     7
  6
Continuous
370
    -3
390
F
  0
LAYER
  5
74
330
2
100
AcDbSymbolTableRecord
100
AcDbLayerTableRecord
  2
OSA
 70
     0
 62
     7
  6
CENTER
370
    -3
390
F
  0
LAYER
  5
75
330
2
100
AcDbSymbolTableRecord
100
AcDbLayerTableRecord
  2
0_35
 70
     0
 62
     7
  6
Continuous
370
    35
390
F
  0
LAYER
  5
76
330
2
100
AcDbSymbolTableRecord
100
AcDbLayerTableRecord
  2
0_5
 70
     0
 62
     7
  6
Continuous
370
    50
390
F
  0
LAYER
  5
77
330
2
100
AcDbSymbolTableRecord
100
AcDbLayerTableRecord
  2
0_25
 70
     0
 62
     7
  6
Continuous
370
    25
390
F
  0
LAYER
  5
78
330
2
100
AcDbSymbolTableRecord
100
AcDbLayerTableRecord
  2
0_18
 70
     0
 62
     7
  6
Continuous
370
    -3
390
F
  0
LAYER
  5
79
330
2
100
AcDbSymbolTableRecord
100
AcDbLayerTableRecord
  2
SLD-0
 70
     0
 62
   179
  6
Continuous
370
    -3
390
F
  0
LAYER
  5
7A
330
2
100
AcDbSymbolTableRecord
100
AcDbLayerTableRecord
  2
KOTY
 70
     0
 62
     7
  6
Continuous
370
    -3
390
F
  0
LAYER
  5
7B
330
2
100
AcDbSymbolTableRecord
100
AcDbLayerTableRecord
  2
SILNA
 70
     0
 62
   179
  6
Continuous
370
    -3
390
F
  0
LAYER
  5
7C
330
2
100
AcDbSymbolTableRecord
100
AcDbLayerTableRecord
  2
0_18_1
 70
     0
 62
   179
  6
Continuous
370
    -3
390
F
  0
LAYER
  5
7D
330
2
100
AcDbSymbolTableRecord
100
AcDbLayerTableRecord
  2
0_35_1
 70
     0
 62
   179
  6
Continuous
370
    35
390
F
  0
LAYER
  5
7E
330
2
100
AcDbSymbolTableRecord
100
AcDbLayerTableRecord
  2
0_5_1
 70
     0
 62
   179
  6
Continuous
370
    50
390
F
  0
ENDTAB
  0
TABLE
  2
STYLE
  5
3
330
0
100
AcDbSymbolTable
 70
     1
  0
STYLE
  5
11
330
3
100
AcDbSymbolTableRecord
100
AcDbTextStyleTableRecord
  2
Standard
 70
     0
 40
0.0
 41
1.0
 50
0.0
 71
     0
 42
2.0
  3
txt
  4

  0
ENDTAB
  0
TABLE
  2
VIEW
  5
6
330
0
100
AcDbSymbolTable
 70
     0
  0
ENDTAB
  0
TABLE
  2
UCS
  5
7
330
0
100
AcDbSymbolTable
 70
     0
  0
ENDTAB
  0
TABLE
  2
APPID
  5
9
330
0
100
AcDbSymbolTable
 70
     1
  0
APPID
  5
12
330
9
100
AcDbSymbolTableRecord
100
AcDbRegAppTableRecord
  2
ACAD
 70
     0
  0
ENDTAB
  0
TABLE
  2
DIMSTYLE
  5
A
330
0
100
AcDbSymbolTable
 70
     1
100
AcDbDimStyleTable
  0
DIMSTYLE
105
27
330
A
100
AcDbSymbolTableRecord
100
AcDbDimStyleTableRecord
  2
ISO-25
 70
     0
 41
2.5
 42
0.625
 43
3.75
 44
1.25
 73
     0
 74
     0
 77
     1
 78
     8
140
2.5
141
2.5
143
0.0393700787
147
0.625
171
     3
172
     1
178
     0
271
     2
272
     2
274
     3
278
    44
283
     0
284
     8
340
11
  0
ENDTAB
  0
TABLE
  2
BLOCK_RECORD
  5
1
330
0
100
AcDbSymbolTable
 70
     1
  0
BLOCK_RECORD
  5
1F
330
1
100
AcDbSymbolTableRecord
100
AcDbBlockTableRecord
  2
*Model_Space
340
22
  0
BLOCK_RECORD
  5
1B
330
1
100
AcDbSymbolTableRecord
100
AcDbBlockTableRecord
  2
*Paper_Space
340
1E
  0
BLOCK_RECORD
  5
23
330
1
100
AcDbSymbolTableRecord
100
AcDbBlockTableRecord
  2
*Paper_Space0
340
26
  0
ENDTAB
  0
ENDSEC
  0
SECTION
  2
BLOCKS
  0
BLOCK
  5
20
330
1F
100
AcDbEntity
  8
0
100
AcDbBlockBegin
  2
*Model_Space
 70
     0
 10
0.0
 20
0.0
 30
0.0
  3
*Model_Space
  1

  0
ENDBLK
  5
21
330
1F
100
AcDbEntity
  8
0
100
AcDbBlockEnd
  0
BLOCK
  5
1C
330
1B
100
AcDbEntity
 67
     1
  8
0
100
AcDbBlockBegin
  2
*Paper_Space
 70
     0
 10
0.0
 20
0.0
 30
0.0
  3
*Paper_Space
  1

  0
ENDBLK
  5
1D
330
1B
100
AcDbEntity
 67
     1
  8
0
100
AcDbBlockEnd
  0
BLOCK
  5
24
330
23
100
AcDbEntity
  8
0
100
AcDbBlockBegin
  2
*Paper_Space0
 70
     0
 10
0.0
 20
0.0
 30
0.0
  3
*Paper_Space0
  1

  0
ENDBLK
  5
25
330
23
100
AcDbEntity
  8
0
100
AcDbBlockEnd
  0
ENDSEC
  0
SECTION
  2
ENTITIES
  0
LINE
  5
7F
330
1F
100
AcDbEntity
  8
0
  6
Continuous
 62
     7
370
    25
100
AcDbLine
 10
6308.0197914529
 20
5079.1994277272
 30
0.0
 11
6301.3292296815
 21
5136.5470830236
 31
0.0
  0
LINE
  5
80
330
1F
100
AcDbEntity
  8
0
  6
Continuous
 62
     7
370
    25
100
AcDbLine
 10
6246.7103495288
 20
5136.5470830236
 30
0.0
 11
6240.0197896201
 21
5079.1994277272
 31
0.0
  0
LINE
  5
81
330
1F
100
AcDbEntity
  8
0
  6
Continuous
 62
     7
370
    25
100
AcDbLine
 10
6240.0197896201
 20
5079.1994277272
 30
0.0
 11
6246.9135752905
 21
5011.8937436376
 31
0.0
  0
LINE
  5
82
330
1F
100
AcDbEntity
  8
0
  6
Continuous
 62
     7
370
    25
100
AcDbLine
 10
6301.1260076452
 20
5011.8937436376
 30
0.0
 11
6308.0197914529
 21
5079.1994277272
 31
0.0
  0
ARC
  5
83
330
1F
100
AcDbEntity
  8
0
  6
Continuous
 62
     7
370
    25
100
AcDbCircle
 10
6249.6901375807
 20
5136.1994545927
 30
0.0
 40
3.0
100
AcDbArc
 50
90.0
 51
173.345574954
  0
ARC
  5
84
330
1F
100
AcDbEntity
  8
0
  6
Continuous
 62
     7
370
    25
100
AcDbCircle
 10
6298.3494422565
 20
5136.1994545927
 30
0.0
 40
3.0
100
AcDbArc
 50
6.654425046
 51
90.0
  0
ARC
  5
85
330
1F
100
AcDbEntity
  8
0
  6
Continuous
 62
     7
370
    25
100
AcDbCircle
 10
6249.8979620524
 20
5012.1994545927
 30
0.0
 40
3.000000000000517
100
AcDbArc
 50
185.8481280262
 51
270.0
  0
ARC
  5
86
330
1F
100
AcDbEntity
  8
0
  6
Continuous
 62
     7
370
    25
100
AcDbCircle
 10
6298.1416177848
 20
5012.1994545927
 30
0.0
 40
3.000000000000517
100
AcDbArc
 50
270.0
 51
354.1518719738
  0
LINE
  5
87
330
1F
100
AcDbEntity
  8
0
  6
Continuous
 62
     7
370
    25
100
AcDbLine
 10
6299.019788115
 20
5141.6994277272
 30
0.0
 11
6297.0197915125
 21
5145.6994954381
 31
0.0
  0
LINE
  5
88
330
1F
100
AcDbEntity
  8
0
  6
Continuous
 62
     7
370
    25
100
AcDbLine
 10
6251.0197914231
 20
5145.6994954381
 30
0.0
 11
6249.0197910953
 21
5141.6994277272
 31
0.0
  0
ARC
  5
89
330
1F
100
AcDbEntity
  8
0
  6
Continuous
 62
     7
370
    25
100
AcDbCircle
 10
6254.0197899186
 20
5152.6994545927
 30
0.0
 40
3.0
100
AcDbArc
 50
90.0
 51
180.0
  0
ARC
  5
8A
330
1F
100
AcDbEntity
  8
0
  6
Continuous
 62
     7
370
    25
100
AcDbCircle
 10
6294.0197899186
 20
5152.6994545927
 30
0.0
 40
3.0
100
AcDbArc
 50
0.0
 51
90.0
  0
LINE
  5
8B
330
1F
100
AcDbEntity
  8
0
  6
Continuous
 62
     7
370
    25
100
AcDbLine
 10
6251.0197914231
 20
5152.6994649205
 30
0.0
 11
6251.0197914231
 21
5145.6994954381
 31
0.0
  0
LINE
  5
8C
330
1F
100
AcDbEntity
  8
0
  6
Continuous
 62
     7
370
    25
100
AcDbLine
 10
6297.0197915125
 20
5145.6994954381
 30
0.0
 11
6297.0197915125
 21
5152.6994649205
 31
0.0
  0
LINE
  5
8D
330
1F
100
AcDbEntity
  8
0
  6
Continuous
 62
     7
370
    25
100
AcDbLine
 10
6290.0197922278
 20
5139.1994897161
 30
0.0
 11
6290.0197922278
 21
5141.6994277272
 31
0.0
  0
LINE
  5
8E
330
1F
100
AcDbEntity
  8
0
  6
Continuous
 62
     7
370
    25
100
AcDbLine
 10
6244.018754645
 20
5269.8994818959
 30
0.0
 11
6246.0187568355
 21
5265.8994141851
 31
0.0
  0
LINE
  5
8F
330
1F
100
AcDbEntity
  8
0
  6
Continuous
 62
     7
370
    25
100
AcDbLine
 10
6302.018758564
 20
5265.8994141851
 30
0.0
 11
6304.0187551666
 21
5269.8994818959
 31
0.0
  0
LINE
  5
90
330
1F
100
AcDbEntity
  8
0
  6
Continuous
 62
     7
370
    25
100
AcDbLine
 10
6246.0187568355
 20
5265.8994141851
 30
0.0
 11
6246.0187568355
 21
5258.8994447026
 31
0.0
  0
LINE
  5
91
330
1F
100
AcDbEntity
  8
0
  6
Continuous
 62
     7
370
    25
100
AcDbLine
 10
6302.018758564
 20
5258.8994447026
 30
0.0
 11
6302.018758564
 21
5265.8994141851
 31
0.0
  0
ARC
  5
92
330
1F
100
AcDbEntity
  8
0
  6
Continuous
 62
     7
370
    25
100
AcDbCircle
 10
6249.0187553361
 20
5258.8994545927
 30
0.0
 40
3.000000000000909
100
AcDbArc
 50
180.0
 51
270.0
  0
ARC
  5
93
330
1F
100
AcDbEntity
  8
0
  6
Continuous
 62
     7
370
    25
100
AcDbCircle
 10
6299.0187553361
 20
5258.8994545927
 30
0.0
 40
3.000000000000909
100
AcDbArc
 50
270.0
 51
0.0
  0
LINE
  5
94
330
1F
100
AcDbEntity
  8
0
  6
Continuous
 62
     7
370
    25
100
AcDbLine
 10
6258.0187550771
 20
5255.8994237218
 30
0.0
 11
6258.0187550771
 21
5155.6994859014
 31
0.0
  0
LINE
  5
95
330
1F
100
AcDbEntity
  8
0
  6
Continuous
 62
     7
370
    25
100
AcDbLine
 10
6258.0187550771
 20
5141.6994277272
 30
0.0
 11
6258.0187550771
 21
5139.1994897161
 31
0.0
  0
LINE
  5
96
330
1F
100
AcDbEntity
  8
0
  6
Continuous
 62
     7
370
    25
100
AcDbLine
 10
6290.0187565971
 20
5155.6994859014
 30
0.0
 11
6290.0187565971
 21
5255.8994237218
 31
0.0
  0
LINE
  5
97
330
1F
100
AcDbEntity
  8
0
  6
Continuous
 62
     7
370
    25
100
AcDbLine
 10
6309.0187578488
 20
5310.899490479
 30
0.0
 11
6309.0187578488
 21
5313.1993953023
 31
0.0
  0
LINE
  5
98
330
1F
100
AcDbEntity
  8
0
  6
Continuous
 62
     7
370
    25
100
AcDbLine
 10
6239.0187556881
 20
5313.1993953023
 30
0.0
 11
6239.0187556881
 21
5310.899490479
 31
0.0
  0
LINE
  5
99
330
1F
100
AcDbEntity
  8
0
  6
Continuous
 62
     7
370
    25
100
AcDbLine
 10
6310.518753438
 20
5306.9994393621
 30
0.0
 11
6310.518753438
 21
5310.899490479
 31
0.0
  0
LINE
  5
9A
330
1F
100
AcDbEntity
  8
0
  6
Continuous
 62
     7
370
    25
100
AcDbLine
 10
6237.5187545109
 20
5310.899490479
 30
0.0
 11
6237.5187545109
 21
5306.9994393621
 31
0.0
  0
ARC
  5
9B
330
1F
100
AcDbEntity
  8
0
  6
Continuous
 62
     7
370
    25
100
AcDbCircle
 10
6309.5187553361
 20
5306.9994545927
 30
0.0
 40
1.0
100
AcDbArc
 50
270.0
 51
0.0
  0
ARC
  5
9C
330
1F
100
AcDbEntity
  8
0
  6
Continuous
 62
     7
370
    25
100
AcDbCircle
 10
6238.5187553361
 20
5306.9994545927
 30
0.0
 40
1.0
100
AcDbArc
 50
180.0
 51
270.0
  0
ARC
  5
9D
330
1F
100
AcDbEntity
  8
0
  6
Continuous
 62
     7
370
    25
100
AcDbCircle
 10
6300.5187553361
 20
5303.9994545927
 30
0.0
 40
2.0
100
AcDbArc
 50
90.0
 51
180.0
  0
ARC
  5
9E
330
1F
100
AcDbEntity
  8
0
  6
Continuous
 62
     7
370
    25
100
AcDbCircle
 10
6247.5187553361
 20
5303.9994545927
 30
0.0
 40
2.0
100
AcDbArc
 50
0.0
 51
90.0
  0
LINE
  5
9F
330
1F
100
AcDbEntity
  8
0
  6
Continuous
 62
     7
370
    25
100
AcDbLine
 10
6298.5187589216
 20
5294.4995108876
 30
0.0
 11
6298.5187589216
 21
5303.9994183812
 31
0.0
  0
LINE
  5
A0
330
1F
100
AcDbEntity
  8
0
  6
Continuous
 62
     7
370
    25
100
AcDbLine
 10
6249.5187564779
 20
5303.9994183812
 30
0.0
 11
6249.5187564779
 21
5294.4995108876
 31
0.0
  0
LINE
  5
A1
330
1F
100
AcDbEntity
  8
0
  6
Continuous
 62
     7
370
    25
100
AcDbLine
 10
6249.5187564779
 20
5294.4995108876
 30
0.0
 11
6254.0187544215
 21
5271.8994561467
 31
0.0
  0
LINE
  5
A2
330
1F
100
AcDbEntity
  8
0
  6
Continuous
 62
     7
370
    25
100
AcDbLine
 10
6294.0187572527
 20
5271.8994561467
 30
0.0
 11
6298.5187589216
 21
5294.4995108876
 31
0.0
  0
LINE
  5
A3
330
1F
100
AcDbEntity
  8
0
  6
Continuous
 62
     7
370
    25
100
AcDbLine
 10
6252.9612041104
 20
5270.5004159246
 30
0.0
 11
6252.9612041104
 21
5270.2561560903
 31
0.0
  0
SPLINE
  5
A4
330
1F
100
AcDbEntity
  8
0
  6
Continuous
 62
     7
370
    25
100
AcDbSpline
210
0.0
220
0.0
230
1.0
 70
     8
 71
     3
 72
     9
 73
     5
 74
     0
 42
0.000000001
 43
0.00000001
 40
0.0
 40
0.0
 40
0.0
 40
0.0
 40
0.4999960393400013
 40
1.0
 40
1.0
 40
1.0
 40
1.0
 10
6254.025478570484
 20
5271.118873718743
 30
0.0
 10
6253.849165780707
 20
5271.017028845672
 30
0.0
 10
6253.496537407871
 20
5270.813337486025
 30
0.0
 10
6253.143906239045
 20
5270.609650966834
 30
0.0
 10
6252.967589257978
 20
5270.507806900506
 30
0.0
  0
LINE
  5
A5
330
1F
100
AcDbEntity
  8
0
  6
Continuous
 62
     7
370
    25
100
AcDbLine
 10
6294.363458364
 20
5269.8994818959
 30
0.0
 11
6293.9022823262
 21
5270.1669875417
 31
0.0
  0
SPLINE
  5
A6
330
1F
100
AcDbEntity
  8
0
  6
Continuous
 62
     7
370
    25
100
AcDbSpline
210
0.0
220
0.0
230
1.0
 70
     8
 71
     3
 72
     9
 73
     5
 74
     0
 42
0.000000001
 43
0.00000001
 40
0.0
 40
0.0
 40
0.0
 40
0.0
 40
0.8746172876858745
 40
0.9999999999999999
 40
0.9999999999999999
 40
0.9999999999999999
 40
0.9999999999999999
 10
6252.967589257978
 20
5270.248765114312
 30
0.0
 10
6253.143876269796
 20
5270.146869178743
 30
0.0
 10
6253.345435299441
 20
5270.030365724027
 30
0.0
 10
6253.547110948613
 20
5269.914064107994
 30
0.0
 10
6253.572397588514
 20
5269.899481895928
 30
0.0
  0
LINE
  5
A7
330
1F
100
AcDbEntity
  8
0
  6
Continuous
 62
     7
370
    25
100
AcDbLine
 10
6294.0187572527
 20
5270.1340857778
 30
0.0
 11
6294.0187572527
 21
5271.8994561467
 31
0.0
  0
LINE
  5
A8
330
1F
100
AcDbEntity
  8
0
  6
Continuous
 62
     7
370
    25
100
AcDbLine
 10
6254.0187544215
 20
5271.8994561467
 30
0.0
 11
6254.0187544215
 21
5271.1149398122
 31
0.0
  0
SPLINE
  5
A9
330
1F
100
AcDbEntity
  8
0
  6
Continuous
 62
     7
370
    25
100
AcDbSpline
210
0.0
220
0.0
230
1.0
 70
     8
 71
     3
 72
    71
 73
    67
 74
     0
 42
0.000000001
 43
0.00000001
 40
0.0
 40
0.0
 40
0.0
 40
0.0
 40
0.001714143807877
 40
0.0081626900422084
 40
0.0160573068869459
 40
0.0238605139500948
 40
0.0311794020370892
 40
0.0396254348964661
 40
0.0464218775573008
 40
0.0525308785446019
 40
0.0579567589112206
 40
0.0627064119135729
 40
0.066787754997239
 40
0.0708254860041632
 40
0.0739760810884987
 40
0.0765997423753655
 40
0.0794983790214966
 40
0.0865674279366726
 40
0.0956591038189261
 40
0.1112043292011306
 40
0.1308062250278809
 40
0.1517252462114129
 40
0.1712685563041409
 40
0.1895371724319418
 40
0.2067693395796947
 40
0.2203240212696382
 40
0.2352913986213123
 40
0.2519478244965428
 40
0.2705650182051201
 40
0.2914092482337519
 40
0.3139610564139051
 40
0.3357755739498822
 40
0.3566235611969663
 40
0.3765138202166921
 40
0.3955120538874579
 40
0.4137591440246342
 40
0.4316297051456988
 40
0.4673791730815243
 40
0.5031812121316733
 40
0.5211055224682678
 40
0.5383585741537406
 40
0.554246006390054
 40
0.5692553178986997
 40
0.5839791748419801
 40
0.5990168601878634
 40
0.6148623405138004
 40
0.6307877576057878
 40
0.6463625943090411
 40
0.6619331846377635
 40
0.6778063880129886
 40
0.6942460663687581
 40
0.7172934916254928
 40
0.7415069098919812
 40
0.7668994651454087
 40
0.7935162383113549
 40
0.821093805641257
 40
0.8477971098342356
 40
0.8763665280196729
 40
0.9035810457666927
 40
0.9289556355005116
 40
0.9382666513842978
 40
0.9472039218997357
 40
0.9561865909124838
 40
0.9682553086505776
 40
0.9840963382749625
 40
1.0
 40
1.0
 40
1.0
 40
1.0
 10
6341.785561947845
 20
5321.164840820794
 30
0.0
 10
6341.942235602787
 20
5321.16475821973
 30
0.0
 10
6342.688309810326
 20
5321.164364876484
 30
0.0
 10
6344.157569437923
 20
5321.164009735596
 30
0.0
 10
6346.182835835944
 20
5321.16416040778
 30
0.0
 10
6347.97583908645
 20
5321.164802488479
 30
0.0
 10
6349.282083625641
 20
5321.166302988341
 30
0.0
 10
6349.674621119315
 20
5321.171171879709
 30
0.0
 10
6350.014369305796
 20
5321.180078862662
 30
0.0
 10
6350.368488229192
 20
5321.190637261205
 30
0.0
 10
6350.730166974779
 20
5321.203198719767
 30
0.0
 10
6351.103704308414
 20
5321.217047992405
 30
0.0
 10
6351.506626867869
 20
5321.23231638181
 30
0.0
 10
6351.943769223657
 20
5321.249315170322
 30
0.0
 10
6352.440597436961
 20
5321.268319852892
 30
0.0
 10
6353.057254382991
 20
5321.290767754059
 30
0.0
 10
6354.077239006238
 20
5321.328919298806
 30
0.0
 10
6355.777854005368
 20
5321.399096517966
 30
0.0
 10
6358.663200674565
 20
5321.540767116211
 30
0.0
 10
6362.712950352843
 20
5321.787789247574
 30
0.0
 10
6367.81883007991
 20
5322.181873839421
 30
0.0
 10
6373.268290548321
 20
5322.697822568671
 30
0.0
 10
6378.561561204698
 20
5323.285365887005
 30
0.0
 10
6383.447001102604
 20
5323.894994301768
 30
0.0
 10
6387.687924868916
 20
5324.475943507454
 30
0.0
 10
6391.403824947808
 20
5325.015604274206
 30
0.0
 10
6394.822585287973
 20
5325.535288979237
 30
0.0
 10
6398.334877345348
 20
5326.090385020233
 30
0.0
 10
6401.939445806266
 20
5326.678321576962
 30
0.0
 10
6405.583804658627
 20
5327.286189232921
 30
0.0
 10
6409.124391514035
 20
5327.890315862835
 30
0.0
 10
6413.025906308458
 20
5328.603208479239
 30
0.0
 10
6417.032333186903
 20
5329.39251035959
 30
0.0
 10
6421.164252882606
 20
5330.279721344066
 30
0.0
 10
6425.408057274202
 20
5331.28008444776
 30
0.0
 10
6429.80018506981
 20
5332.426020303384
 30
0.0
 10
6435.759304296096
 20
5334.151371715806
 30
0.0
 10
6443.044822124451
 20
5336.569705993289
 30
0.0
 10
6450.248541780456
 20
5339.401867843797
 30
0.0
 10
6455.894889020837
 20
5341.900652190963
 30
0.0
 10
6459.87458334599
 20
5343.793116505874
 30
0.0
 10
6463.314816496289
 20
5345.527525460968
 30
0.0
 10
6466.168878472807
 20
5347.038123164582
 30
0.0
 10
6468.409464131802
 20
5348.266917217562
 30
0.0
 10
6470.097390763209
 20
5349.215306290995
 30
0.0
 10
6471.019254721335
 20
5349.728049504646
 30
0.0
 10
6472.062336727296
 20
5350.324368723484
 30
0.0
 10
6473.667307458113
 20
5351.288074095709
 30
0.0
 10
6475.679638951507
 20
5352.547408346605
 30
0.0
 10
6478.109486766802
 20
5354.135609973207
 30
0.0
 10
6481.270553855591
 20
5356.30506181755
 30
0.0
 10
6485.195886557522
 20
5359.179279716692
 30
0.0
 10
6489.638988318407
 20
5362.708749686453
 30
0.0
 10
6494.302460781722
 20
5366.756003091376
 30
0.0
 10
6499.091849860402
 20
5371.342253373321
 30
0.0
 10
6503.826947699166
 20
5376.397093643469
 30
0.0
 10
6508.409399407061
 20
5381.880605171185
 30
0.0
 10
6512.686910138325
 20
5387.658185063928
 30
0.0
 10
6516.579745867807
 20
5393.643108320464
 30
0.0
 10
6519.304952504279
 20
5398.41220879294
 30
0.0
 10
6521.105276314387
 20
5401.860318624706
 30
0.0
 10
6522.189006973987
 20
5404.040391640191
 30
0.0
 10
6523.339277470047
 20
5406.470099855315
 30
0.0
 10
6524.687252321971
 20
5409.500535514473
 30
0.0
 10
6526.200427013882
 20
5413.15135975426
 30
0.0
 10
6527.170946096753
 20
5415.859218073388
 30
0.0
 10
6527.657163052581
 20
5417.215818527703
 30
0.0
  0
LINE
  5
AA
330
1F
100
AcDbEntity
  8
0
  6
Continuous
 62
     7
370
    25
100
AcDbLine
 10
6340.7389490891
 20
5321.1655560765
 30
0.0
 11
6341.7855619478
 21
5321.1648408208
 31
0.0
  0
SPLINE
  5
AB
330
1F
100
AcDbEntity
  8
0
  6
Continuous
 62
     7
370
    25
100
AcDbSpline
210
0.0
220
0.0
230
1.0
 70
     8
 71
     3
 72
    28
 73
    24
 74
     0
 42
0.000000001
 43
0.00000001
 40
0.0
 40
0.0
 40
0.0
 40
0.0
 40
0.042454305586959
 40
0.0873806747699769
 40
0.122450357001048
 40
0.148438951723294
 40
0.1733470835562184
 40
0.1995179946484082
 40
0.2269430090684691
 40
0.3086744932122535
 40
0.3968421553507099
 40
0.4671803596281442
 40
0.5406029576936104
 40
0.6149485214476179
 40
0.6792315457370296
 40
0.7321714491376068
 40
0.7741783978659219
 40
0.8010403019354917
 40
0.828409555277154
 40
0.8568927036764179
 40
0.8869997131996621
 40
0.9436582642843238
 40
0.9999999999999999
 40
0.9999999999999999
 40
0.9999999999999999
 40
0.9999999999999999
 10
6020.463627486251
 20
5417.217010620599
 30
0.0
 10
6020.960546966456
 20
5416.101140640837
 30
0.0
 10
6021.983320955718
 20
5413.804424902843
 30
0.0
 10
6023.532011168692
 20
5410.659386021783
 30
0.0
 10
6024.923233791574
 20
5407.972814353079
 30
0.0
 10
6026.089474735485
 20
5405.822140757477
 30
0.0
 10
6027.161310679105
 20
5403.914755739424
 30
0.0
 10
6028.280060193116
 20
5401.993571785901
 30
0.0
 10
6030.257106001085
 20
5398.720925141632
 30
0.0
 10
6033.281888346241
 20
5394.067212027585
 30
0.0
 10
6037.219882610073
 20
5388.636893437773
 30
0.0
 10
6041.238396259832
 20
5383.613772914282
 30
0.0
 10
6045.190836167282
 20
5379.081919876069
 30
0.0
 10
6049.207859371314
 20
5374.860509381036
 30
0.0
 10
6052.88174739992
 20
5371.299156754242
 30
0.0
 10
6055.899511752682
 20
5368.55751190194
 30
0.0
 10
6058.110649275282
 20
5366.647898441348
 30
0.0
 10
6059.632647407116
 20
5365.377890042827
 30
0.0
 10
6060.72539361943
 20
5364.488588315217
 30
0.0
 10
6061.63506092372
 20
5363.765037626529
 30
0.0
 10
6062.544016749061
 20
5363.058858873318
 30
0.0
 10
6063.215884824837
 20
5362.558773289474
 30
0.0
 10
6063.274646109285
 20
5362.54362169082
 30
0.0
 10
6063.303944377922
 20
5362.536067131524
 30
0.0
  0
SPLINE
  5
AC
330
1F
100
AcDbEntity
  8
0
  6
Continuous
 62
     7
370
    25
100
AcDbSpline
210
0.0
220
0.0
230
1.0
 70
     8
 71
     3
 72
    70
 73
    66
 74
     0
 42
0.000000001
 43
0.00000001
 40
0.0
 40
0.0
 40
0.0
 40
0.0
 40
0.0170996485879404
 40
0.0693826028011479
 40
0.1239648086220399
 40
0.1582910306867062
 40
0.1896960995570496
 40
0.2176215228774633
 40
0.2417577070120497
 40
0.2619158621283786
 40
0.2737739485198009
 40
0.2835969405983685
 40
0.2914467030913914
 40
0.2974610887437052
 40
0.2998804203169351
 40
0.3019952515202671
 40
0.303913726765966
 40
0.3057795668870729
 40
0.3077444920891007
 40
0.3114152533940139
 40
0.3178456326411889
 40
0.3335590600551677
 40
0.3521099638646302
 40
0.3688148860807262
 40
0.3845384430065131
 40
0.4024597860294601
 40
0.42282621888803
 40
0.4455264861597868
 40
0.4669065751389225
 40
0.4869827972789893
 40
0.5056321890215407
 40
0.5234561042677346
 40
0.5409962018054139
 40
0.5586962286716098
 40
0.5766180697920459
 40
0.5924147513282154
 40
0.6055513368587635
 40
0.6160973040482889
 40
0.6254483923502236
 40
0.6376994895203763
 40
0.6532258293216994
 40
0.6720885776547866
 40
0.6925242662194965
 40
0.7107784618752832
 40
0.726788553906838
 40
0.740615032579194
 40
0.7526262635981249
 40
0.7651466390363507
 40
0.7791557590569952
 40
0.7950189912455558
 40
0.8123429499491875
 40
0.8293646908618392
 40
0.846020130497765
 40
0.8623459833121339
 40
0.8782578444859003
 40
0.8929492843976802
 40
0.9062963273992365
 40
0.9183822404710146
 40
0.9300138722551566
 40
0.9437700677882253
 40
0.9601687816315786
 40
0.9795435788140929
 40
0.9904672738338934
 40
0.997305030182713
 40
1.0
 40
1.0
 40
1.0
 40
1.0
 10
6063.249167709373
 20
5363.255495193963
 30
0.0
 10
6063.254500584389
 20
5363.264965999898
 30
0.0
 10
6063.276138967608
 20
5363.303394226242
 30
0.0
 10
6063.371935590508
 20
5363.279687582542
 30
0.0
 10
6063.546058213543
 20
5363.153570839992
 30
0.0
 10
6063.77926751413
 20
5362.92787537395
 30
0.0
 10
6064.140074168677
 20
5362.556144626445
 30
0.0
 10
6064.619318572125
 20
5362.065903158792
 30
0.0
 10
6065.2063164894
 20
5361.480626939116
 30
0.0
 10
6065.838512518777
 20
5360.870382524022
 30
0.0
 10
6066.479714605755
 20
5360.271642901315
 30
0.0
 10
6067.068367666627
 20
5359.736504270177
 30
0.0
 10
6067.697189026798
 20
5359.179721190035
 30
0.0
 10
6068.296663773609
 20
5358.662433069103
 30
0.0
 10
6068.818563927501
 20
5358.222790232897
 30
0.0
 10
6069.197634472131
 20
5357.907288695371
 30
0.0
 10
6069.595243200089
 20
5357.581145437924
 30
0.0
 10
6070.006795798785
 20
5357.248003010572
 30
0.0
 10
6070.528562586178
 20
5356.83136380397
 30
0.0
 10
6071.26033736414
 20
5356.257277255631
 30
0.0
 10
6072.88505974106
 20
5355.010354207519
 30
0.0
 10
6075.493445741399
 20
5353.116911506921
 30
0.0
 10
6078.876503350913
 20
5350.866093124623
 30
0.0
 10
6082.354375278095
 20
5348.759686129602
 30
0.0
 10
6085.858463423957
 20
5346.805405975301
 30
0.0
 10
6089.58445618689
 20
5344.885793829559
 30
0.0
 10
6093.811763888777
 20
5342.877912336162
 30
0.0
 10
6098.337326244802
 20
5340.899748212767
 30
0.0
 10
6102.839991000023
 20
5339.071495076782
 30
0.0
 10
6107.495265450885
 20
5337.318898608023
 30
0.0
 10
6112.197091462273
 20
5335.679674362238
 30
0.0
 10
6116.869349019172
 20
5334.167632026386
 30
0.0
 10
6121.490508981463
 20
5332.779571518729
 30
0.0
 10
6126.041564276593
 20
5331.508350293057
 30
0.0
 10
6130.234454346747
 20
5330.414624744465
 30
0.0
 10
6134.115170607008
 20
5329.459242762214
 30
0.0
 10
6137.435784715763
 20
5328.684000895192
 30
0.0
 10
6140.244421230626
 20
5328.056649873924
 30
0.0
 10
6143.04348041356
 20
5327.456174825014
 30
0.0
 10
6146.35217183242
 20
5326.780252379341
 30
0.0
 10
6150.513504101087
 20
5325.986055238859
 30
0.0
 10
6155.413363871657
 20
5325.132800952686
 30
0.0
 10
6160.557736610978
 20
5324.334832884721
 30
0.0
 10
6165.420309264668
 20
5323.670600520195
 30
0.0
 10
6169.654654993047
 20
5323.160170988377
 30
0.0
 10
6173.257903594369
 20
5322.773710622377
 30
0.0
 10
6176.492278219635
 20
5322.464249718668
 30
0.0
 10
6179.176447021808
 20
5322.233244073559
 30
0.0
 10
6181.505788826409
 20
5322.05076106668
 30
0.0
 10
6183.497987438623
 20
5321.907043042691
 30
0.0
 10
6185.157782577562
 20
5321.795706101035
 30
0.0
 10
6186.925629202678
 20
5321.687162940175
 30
0.0
 10
6188.614392115383
 20
5321.595282655154
 30
0.0
 10
6190.256603981922
 20
5321.515332123466
 30
0.0
 10
6191.784169009875
 20
5321.447081490533
 30
0.0
 10
6193.316635138569
 20
5321.384608571226
 30
0.0
 10
6194.810721835569
 20
5321.329739455963
 30
0.0
 10
6196.311682146526
 20
5321.281701844422
 30
0.0
 10
6197.883521844858
 20
5321.240849981931
 30
0.0
 10
6198.918598010723
 20
5321.218627838436
 30
0.0
 10
6199.702304601603
 20
5321.203591041636
 30
0.0
 10
6200.147178222663
 20
5321.197086335939
 30
0.0
 10
6200.224502325392
 20
5321.194193144485
 30
0.0
 10
6200.449524298099
 20
5321.193486975911
 30
0.0
 10
6200.87538680714
 20
5321.193366032549
 30
0.0
 10
6200.995781182073
 20
5321.193331840997
 30
0.0
  0
LINE
  5
AD
330
1F
100
AcDbEntity
  8
0
  6
Continuous
 62
     7
370
    25
100
AcDbLine
 10
6204.8085114944
 20
5318.251723412
 30
0.0
 11
6204.8028239075
 21
5318.2733002935
 31
0.0
  0
ARC
  5
AE
330
1F
100
AcDbEntity
  8
0
  6
Continuous
 62
     7
370
    25
100
AcDbCircle
 10
6200.939652982
 20
5317.2358540576
 30
0.0
 40
4.000032171021818
100
AcDbArc
 50
14.9967011865
 51
89.118395039
  0
ARC
  5
AF
330
1F
100
AcDbEntity
  8
0
  6
Continuous
 62
     7
370
    25
100
AcDbCircle
 10
6200.9518534583
 20
5317.1904150022
 30
0.0
 40
4.000001394581133
100
AcDbArc
 50
14.6756284241
 51
89.6738963842
  0
ARC
  5
B0
330
1F
100
AcDbEntity
  8
0
  6
Continuous
 62
     7
370
    25
100
AcDbCircle
 10
6274.0197899186
 20
5117.1994545927
 30
0.0
 40
40.00000000000017
100
AcDbArc
 50
0.0
 51
54.9003678047
  0
ARC
  5
B1
330
1F
100
AcDbEntity
  8
0
  6
Continuous
 62
     7
370
    25
100
AcDbCircle
 10
6274.0197899186
 20
5117.1994545927
 30
0.0
 40
40.00000000000009
100
AcDbArc
 50
125.0996321955
 51
216.1070114057
  0
ARC
  5
B2
330
1F
100
AcDbEntity
  8
0
  6
Continuous
 62
     7
370
    25
100
AcDbCircle
 10
6274.0197899186
 20
5117.1994545927
 30
0.0
 40
40.0000000000003
100
AcDbArc
 50
323.8929885942
 51
0.0
  0
LINE
  5
B3
330
1F
100
AcDbEntity
  8
0
  6
Continuous
 62
     7
370
    25
100
AcDbLine
 10
6240.0197896201
 20
5079.1994277272
 30
0.0
 11
6308.0197914529
 21
5079.1994277272
 31
0.0
  0
LINE
  5
B4
330
1F
100
AcDbEntity
  8
0
  6
Continuous
 62
     7
370
    25
100
AcDbLine
 10
6249.690138458
 20
5139.1994897161
 30
0.0
 11
6298.3494444776
 21
5139.1994897161
 31
0.0
  0
LINE
  5
B5
330
1F
100
AcDbEntity
  8
0
  6
Continuous
 62
     7
370
    25
100
AcDbLine
 10
6249.8979612279
 20
5009.1994944844
 30
0.0
 11
6298.1416179824
 21
5009.1994944844
 31
0.0
  0
LINE
  5
B6
330
1F
100
AcDbEntity
  8
0
  6
Continuous
 62
     7
370
    25
100
AcDbLine
 10
6251.0197914231
 20
5145.6994954381
 30
0.0
 11
6297.0197915125
 21
5145.6994954381
 31
0.0
  0
LINE
  5
B7
330
1F
100
AcDbEntity
  8
0
  6
Continuous
 62
     7
370
    25
100
AcDbLine
 10
6249.0197910953
 20
5141.6994277272
 30
0.0
 11
6299.019788115
 21
5141.6994277272
 31
0.0
  0
LINE
  5
B8
330
1F
100
AcDbEntity
  8
0
  6
Continuous
 62
     7
370
    25
100
AcDbLine
 10
6254.0197900522
 20
5155.6994859014
 30
0.0
 11
6294.0197928834
 21
5155.6994859014
 31
0.0
  0
LINE
  5
B9
330
1F
100
AcDbEntity
  8
0
  6
Continuous
 62
     7
370
    25
100
AcDbLine
 10
6290.519793241
 20
5139.1994897161
 30
0.0
 11
6290.0197922278
 21
5139.5657006536
 31
0.0
  0
LINE
  5
BA
330
1F
100
AcDbEntity
  8
0
  6
Continuous
 62
     7
370
    25
100
AcDbLine
 10
6258.0197907078
 20
5139.5657006536
 30
0.0
 11
6257.5197896946
 21
5139.1994897161
 31
0.0
  0
LINE
  5
BB
330
1F
100
AcDbEntity
  8
0
  6
Continuous
 62
     7
370
    25
100
AcDbLine
 10
6265.0676972258
 20
5265.8994141851
 30
0.0
 11
6302.018758564
 21
5265.8994141851
 31
0.0
  0
LINE
  5
BC
330
1F
100
AcDbEntity
  8
0
  6
Continuous
 62
     7
370
    25
100
AcDbLine
 10
6246.0187568355
 20
5265.8994141851
 30
0.0
 11
6265.0676972258
 21
5265.8994141851
 31
0.0
  0
LINE
  5
BD
330
1F
100
AcDbEntity
  8
0
  6
Continuous
 62
     7
370
    25
100
AcDbLine
 10
6264.4283331025
 20
5269.8994818959
 30
0.0
 11
6304.0187551666
 21
5269.8994818959
 31
0.0
  0
LINE
  5
BE
330
1F
100
AcDbEntity
  8
0
  6
Continuous
 62
     7
370
    25
100
AcDbLine
 10
6244.018754645
 20
5269.8994818959
 30
0.0
 11
6264.4283331025
 21
5269.8994818959
 31
0.0
  0
LINE
  5
BF
330
1F
100
AcDbEntity
  8
0
  6
Continuous
 62
     7
370
    25
100
AcDbLine
 10
6266.0267396856
 20
5255.8994237218
 30
0.0
 11
6299.0187524843
 21
5255.8994237218
 31
0.0
  0
LINE
  5
C0
330
1F
100
AcDbEntity
  8
0
  6
Continuous
 62
     7
370
    25
100
AcDbLine
 10
6249.0187554646
 20
5255.8994237218
 30
0.0
 11
6266.0267396856
 21
5255.8994237218
 31
0.0
  0
LINE
  5
C1
330
1F
100
AcDbEntity
  8
0
  6
Continuous
 62
     7
370
    25
100
AcDbLine
 10
6310.518753438
 20
5310.899490479
 30
0.0
 11
6237.5187545109
 21
5310.899490479
 31
0.0
  0
LINE
  5
C2
330
1F
100
AcDbEntity
  8
0
  6
Continuous
 62
     7
370
    25
100
AcDbLine
 10
6309.518758862
 20
5305.9995118413
 30
0.0
 11
6238.5187546748
 21
5305.9995118413
 31
0.0
  0
LINE
  5
C3
330
1F
100
AcDbEntity
  8
0
  6
Continuous
 62
     7
370
    25
100
AcDbLine
 10
6298.5187589216
 20
5294.4995108876
 30
0.0
 11
6249.5187564779
 21
5294.4995108876
 31
0.0
  0
LINE
  5
C4
330
1F
100
AcDbEntity
  8
0
  6
Continuous
 62
     7
370
    25
100
AcDbLine
 10
6294.0187572527
 20
5271.8994561467
 30
0.0
 11
6254.0187544215
 21
5271.8994561467
 31
0.0
  0
SPLINE
  5
C5
330
1F
100
AcDbEntity
  8
0
  6
Continuous
 62
     7
370
    25
100
AcDbSpline
210
0.0
220
0.0
230
1.0
 70
     8
 71
     3
 72
    13
 73
     9
 74
     0
 42
0.000000001
 43
0.00000001
 40
0.0
 40
0.0
 40
0.0
 40
0.0
 40
0.1270550637639405
 40
0.3023637734567489
 40
0.4782821105661083
 40
0.653118713336369
 40
0.8257339180035006
 40
1.0
 40
1.0
 40
1.0
 40
1.0
 10
6253.006134836696
 20
5270.508045319085
 30
0.0
 10
6253.028782850411
 20
5270.51824374413
 30
0.0
 10
6253.082680260595
 20
5270.542513806166
 30
0.0
 10
6253.635265963362
 20
5270.582344245043
 30
0.0
 10
6254.582944273666
 20
5270.626269452259
 30
0.0
 10
6255.916755731674
 20
5270.669620724286
 30
0.0
 10
6257.565258054165
 20
5270.710759421613
 30
0.0
 10
6258.917126535883
 20
5270.739364870755
 30
0.0
 10
6259.596277682804
 20
5270.753735664849
 30
0.0
  0
LINE
  5
C6
330
1F
100
AcDbEntity
  8
0
  6
Continuous
 62
     7
370
    25
100
AcDbLine
 10
6259.5962776828
 20
5270.7537356648
 30
0.0
 11
6259.5962776828
 21
5270.5094758306
 31
0.0
  0
LWPOLYLINE
  5
C7
330
1F
100
AcDbEntity
  8
0
  6
Continuous
 62
     7
370
    25
100
AcDbPolyline
 90
       48
 70
   128
 43
0.0
 10
6252.9845318783
 20
5270.248645905
 10
6252.9901160884
 20
5268.31817067
 10
6253.3417127121
 20
5268.360966805
 10
6254.0944448698
 20
5268.4049550328
 10
6255.2310532916
 20
5268.4487048421
 10
6256.7124522317
 20
5268.4910241399
 10
6258.5110819924
 20
5268.5327473912
 10
6260.6292746055
 20
5268.5762587819
 10
6263.0151107002
 20
5268.6202470098
 10
6265.5994339872
 20
5268.6635199819
 10
6268.3083496082
 20
5268.7051240239
 10
6271.14675632
 20
5268.7476817403
 10
6274.0672311771
 20
5268.7915507588
 10
6276.9863053251
 20
5268.8353005681
 10
6279.8206402946
 20
5268.8778582845
 10
6282.5258269
 20
5268.9195815358
 10
6285.1048230219
 20
5268.9628545079
 10
6287.4828471828
 20
5269.0068427358
 10
6289.5911901283
 20
5269.0502349172
 10
6291.3789643932
 20
5269.0919581685
 10
6292.8497909594
 20
5269.1343966756
 10
6293.9742251325
 20
5269.1781464849
 10
6294.7138517189
 20
5269.2220155034
 10
6295.0521676827
 20
5269.2648116384
 10
6294.9933900523
 20
5269.3062964711
 10
6294.5351644445
 20
5269.3494502339
 10
6293.6781167078
 20
5269.3934384618
 10
6292.4455522585
 20
5269.4369498525
 10
6290.8813401151
 20
5269.4787923131
 10
6288.9947040963
 20
5269.5211116109
 10
6286.7996959973
 20
5269.5647422109
 10
6284.3540205646
 20
5269.6087304387
 10
6281.7301123429
 20
5269.651645783
 10
6278.9897440958
 20
5269.6931306157
 10
6276.1217697549
 20
5269.7361651692
 10
6273.1934010077
 20
5269.7801533971
 10
6270.2888554919
 20
5269.8236647878
 10
6267.4900895941
 20
5269.865745667
 10
6264.8132710743
 20
5269.9078265462
 10
6262.280133276
 20
5269.9514571462
 10
6259.9674358058
 20
5269.9953261647
 10
6257.9400732208
 20
5270.0383607183
 10
6256.2381072927
 20
5270.079845551
 10
6254.8541954744
 20
5270.1227608953
 10
6253.8288018692
 20
5270.1667491231
 10
6253.1948282409
 20
5270.2103797231
 10
6252.962649523
 20
5270.2526990209
 10
6252.962649523
 20
5270.2526990209
  0
SPLINE
  5
C8
330
1F
100
AcDbEntity
  8
0
  6
Continuous
 62
     7
370
    25
100
AcDbSpline
210
0.0
220
0.0
230
1.0
 70
     8
 71
     3
 72
    13
 73
     9
 74
     0
 42
0.000000001
 43
0.00000001
 40
0.0
 40
0.0
 40
0.0
 40
0.0
 40
0.1534882870827657
 40
0.3234885585446065
 40
0.4940799975901107
 40
0.6636224577707391
 40
0.8310107849295773
 40
1.0
 40
1.0
 40
1.0
 40
1.0
 10
6252.976626812242
 20
5270.256275299554
 30
0.0
 10
6253.002230965747
 20
5270.268951783215
 30
0.0
 10
6253.056193719958
 20
5270.295668463064
 30
0.0
 10
6253.632580012005
 20
5270.338080219572
 30
0.0
 10
6254.583664857468
 20
5270.382010735013
 30
0.0
 10
6255.916571556716
 20
5270.425360597202
 30
0.0
 10
6257.565309025917
 20
5270.466499660946
 30
0.0
 10
6258.917146059882
 20
5270.495105061084
 30
0.0
 10
6259.596281408094
 20
5270.509475830559
 30
0.0
  0
SPLINE
  5
C9
330
1F
100
AcDbEntity
  8
0
  6
Continuous
 62
     7
370
    25
100
AcDbSpline
210
0.0
220
0.0
230
1.0
 70
     8
 71
     3
 72
    12
 73
     8
 74
     0
 42
0.000000001
 43
0.00000001
 40
0.0
 40
0.0
 40
0.0
 40
0.0
 40
0.0921062033845255
 40
0.3641113230198106
 40
0.6401183614059317
 40
0.9149152567752379
 40
1.0
 40
1.0
 40
1.0
 40
1.0
 10
6288.506452648662
 20
5269.899481895928
 30
0.0
 10
6288.843334077061
 20
5269.906741680427
 30
0.0
 10
6290.175083059082
 20
5269.935440830336
 30
0.0
 10
6291.865124824089
 20
5269.983607240983
 30
0.0
 10
6293.424271952299
 20
5270.0497570984
 30
0.0
 10
6293.973633472977
 20
5270.100103435902
 30
0.0
 10
6294.01012885882
 20
5270.127587806346
 30
0.0
 10
6294.018757252716
 20
5270.134085777764
 30
0.0
  0
SPLINE
  5
CA
330
1F
100
AcDbEntity
  8
0
  6
Continuous
 62
     7
370
    25
100
AcDbSpline
210
0.0
220
0.0
230
1.0
 70
     8
 71
     3
 72
    12
 73
     8
 74
     0
 42
0.000000001
 43
0.00000001
 40
0.0
 40
0.0
 40
0.0
 40
0.0
 40
0.1873713599167074
 40
0.451397286599723
 40
0.7135127486585569
 40
0.9738234401171506
 40
1.0
 40
1.0
 40
1.0
 40
1.0
 10
6254.110690860771
 20
5271.118992928033
 30
0.0
 10
6254.144570515916
 20
5271.13407881395
 30
0.0
 10
6254.226190163708
 20
5271.17042229767
 30
0.0
 10
6255.345387020329
 20
5271.23044092324
 30
0.0
 10
6257.270001977188
 20
5271.295008812139
 30
0.0
 10
6259.129686204284
 20
5271.338173839037
 30
0.0
 10
6260.220899505704
 20
5271.362136187748
 30
0.0
 10
6260.320604501985
 20
5271.364325645928
 30
0.0
  0
LINE
  5
CB
330
1F
100
AcDbEntity
  8
0
  6
Continuous
 62
     7
370
    25
100
AcDbLine
 10
6260.3206082273
 20
5271.3643256459
 30
0.0
 11
6259.5962776828
 21
5270.7537356648
 31
0.0
  0
LINE
  5
CC
330
1F
100
AcDbEntity
  8
0
  6
Continuous
 62
     7
370
    25
100
AcDbLine
 10
6259.5962776828
 20
5270.5094758306
 30
0.0
 11
6260.3206082273
 21
5269.8988858495
 31
0.0
  0
LINE
  5
CD
330
1F
100
AcDbEntity
  8
0
  6
Continuous
 62
     7
370
    25
100
AcDbLine
 10
6260.3206082273
 20
5269.8994818959
 30
0.0
 11
6260.3206082273
 21
5271.3643256459
 31
0.0
  0
LINE
  5
CE
330
1F
100
AcDbEntity
  8
0
  6
Continuous
 62
     7
370
    25
100
AcDbLine
 10
6519.0187512923
 20
5417.199486855
 30
0.0
 11
6519.0187512923
 21
5418.1994143758
 31
0.0
  0
LINE
  5
CF
330
1F
100
AcDbEntity
  8
0
  6
Continuous
 62
     7
370
    25
100
AcDbLine
 10
6029.0187566567
 20
5417.199486855
 30
0.0
 11
6519.0187512923
 21
5417.199486855
 31
0.0
  0
LINE
  5
D0
330
1F
100
AcDbEntity
  8
0
  6
Continuous
 62
     7
370
    25
100
AcDbLine
 10
6029.0187566567
 20
5417.199486855
 30
0.0
 11
6029.0187566567
 21
5418.1994143758
 31
0.0
  0
LINE
  5
D1
330
1F
100
AcDbEntity
  8
0
  6
Continuous
 62
     7
370
    25
100
AcDbLine
 10
6029.0187566567
 20
5418.1994143758
 30
0.0
 11
6519.0187512923
 21
5418.1994143758
 31
0.0
  0
LINE
  5
D2
330
1F
100
AcDbEntity
  8
0
  6
Continuous
 62
     7
370
    25
100
AcDbLine
 10
6009.018760829
 20
5417.199486855
 30
0.0
 11
6009.018760829
 21
5418.1994143758
 31
0.0
  0
LINE
  5
D3
330
1F
100
AcDbEntity
  8
0
  6
Continuous
 62
     7
370
    25
100
AcDbLine
 10
6009.018760829
 20
5418.1994143758
 30
0.0
 11
6029.0187566567
 21
5418.1994143758
 31
0.0
  0
LINE
  5
D4
330
1F
100
AcDbEntity
  8
0
  6
Continuous
 62
     7
370
    25
100
AcDbLine
 10
6009.018760829
 20
5417.199486855
 30
0.0
 11
6029.0187566567
 21
5417.199486855
 31
0.0
  0
LINE
  5
D5
330
1F
100
AcDbEntity
  8
0
  6
Continuous
 62
     7
370
    25
100
AcDbLine
 10
6539.0187620211
 20
5417.199486855
 30
0.0
 11
6539.0187620211
 21
5418.1994143758
 31
0.0
  0
LINE
  5
D6
330
1F
100
AcDbEntity
  8
0
  6
Continuous
 62
     7
370
    25
100
AcDbLine
 10
6519.0187512923
 20
5418.1994143758
 30
0.0
 11
6539.0187620211
 21
5418.1994143758
 31
0.0
  0
LINE
  5
D7
330
1F
100
AcDbEntity
  8
0
  6
Continuous
 62
     7
370
    25
100
AcDbLine
 10
6519.0187512923
 20
5417.199486855
 30
0.0
 11
6539.0187620211
 21
5417.199486855
 31
0.0
  0
LINE
  5
D8
330
1F
100
AcDbEntity
  8
0
  6
Continuous
 62
     7
370
    25
100
AcDbLine
 10
6342.9933755684
 20
5321.1638871465
 30
0.0
 11
6343.3896272469
 21
5321.1643639836
 31
0.0
  0
LINE
  5
D9
330
1F
100
AcDbEntity
  8
0
  6
Continuous
 62
     7
370
    25
100
AcDbLine
 10
6341.8273746062
 20
5321.1637679372
 30
0.0
 11
6342.9933755684
 21
5321.1638871465
 31
0.0
  0
LINE
  5
DA
330
1F
100
AcDbEntity
  8
0
  6
Continuous
 62
     7
370
    25
100
AcDbLine
 10
6338.7412994194
 20
5321.170682076
 30
0.0
 11
6341.8273746062
 21
5321.1637679372
 31
0.0
  0
SPLINE
  5
DB
330
1F
100
AcDbEntity
  8
0
  6
Continuous
 62
     7
370
    25
100
AcDbSpline
210
0.0
220
0.0
230
1.0
 70
     8
 71
     3
 72
    12
 73
     8
 74
     0
 42
0.000000001
 43
0.00000001
 40
0.0
 40
0.0
 40
0.0
 40
0.0
 40
0.061804634052208
 40
0.3090231839470554
 40
0.5562417373916347
 40
0.6940562727679594
 40
1.0
 40
1.0
 40
1.0
 40
1.0
 10
6209.301426962711
 20
5321.299666527276
 30
0.0
 10
6211.968093392573
 20
5321.299920120966
 30
0.0
 10
6225.301426132383
 20
5321.301188089466
 30
0.0
 10
6249.301422016266
 20
5321.296057374184
 30
0.0
 10
6276.581019463443
 20
5321.307466591246
 30
0.0
 10
6306.394338703722
 20
5321.256629709563
 30
0.0
 10
6325.540921322394
 20
5321.205756198395
 30
0.0
 10
6338.741299419426
 20
5321.170682075982
 30
0.0
  0
LINE
  5
DC
330
1F
100
AcDbEntity
  8
0
  6
Continuous
 62
     7
370
    25
100
AcDbLine
 10
6206.2536847803
 20
5321.2746325765
 30
0.0
 11
6209.3014269627
 21
5321.2996665273
 31
0.0
  0
SPLINE
  5
DD
330
1F
100
AcDbEntity
  8
0
  6
Continuous
 62
     7
370
    25
100
AcDbSpline
210
0.0
220
0.0
230
1.0
 70
     8
 71
     3
 72
     9
 73
     5
 74
     0
 42
0.000000001
 43
0.00000001
 40
0.0
 40
0.0
 40
0.0
 40
0.0
 40
0.0000585252151015
 40
1.0
 40
1.0
 40
1.0
 40
1.0
 10
6205.418241864763
 20
5321.259731415276
 30
0.0
 10
6205.418259715158
 20
5321.259731415268
 30
0.0
 10
6205.723263203648
 20
5321.259731269219
 30
0.0
 10
6205.988481752971
 20
5321.267182140877
 30
0.0
 10
6206.253684780322
 20
5321.27463257647
 30
0.0
  0
SPLINE
  5
DE
330
1F
100
AcDbEntity
  8
0
  6
Continuous
 62
     7
370
    25
100
AcDbSpline
210
0.0
220
0.0
230
1.0
 70
     8
 71
     3
 72
    12
 73
     8
 74
     0
 42
0.000000001
 43
0.00000001
 40
0.0
 40
0.0
 40
0.0
 40
0.0
 40
0.4834742372627872
 40
0.898046051738064
 40
0.9602494869157876
 40
0.9999904506171782
 40
0.9999999999999999
 40
0.9999999999999999
 40
0.9999999999999999
 40
0.9999999999999999
 10
6201.600306390546
 20
5321.237200859551
 30
0.0
 10
6202.033606810367
 20
5321.237203469354
 30
0.0
 10
6202.838455758347
 20
5321.237208317023
 30
0.0
 10
6204.293016546607
 20
5321.24642022228
 30
0.0
 10
6205.176299619006
 20
5321.255014506554
 30
0.0
 10
6205.341979906362
 20
5321.259731563199
 30
0.0
 10
6205.418223548529
 20
5321.259731415312
 30
0.0
 10
6205.418241864763
 20
5321.259731415276
 30
0.0
  0
LINE
  5
DF
330
1F
100
AcDbEntity
  8
0
  6
Continuous
 62
     7
370
    25
100
AcDbLine
 10
6201.2062759164
 20
5321.2387505803
 30
0.0
 11
6201.6003063905
 21
5321.2372008596
 31
0.0
  0
LINE
  5
E0
330
1F
100
AcDbEntity
  8
0
  6
Continuous
 62
     7
370
    25
100
AcDbLine
 10
6201.0062110636
 20
5321.2412539754
 30
0.0
 11
6201.2062759164
 21
5321.2387505803
 31
0.0
  0
SPLINE
  5
E1
330
1F
100
AcDbEntity
  8
0
  6
Continuous
 62
     7
370
    25
100
AcDbSpline
210
0.0
220
0.0
230
1.0
 70
     8
 71
     3
 72
    11
 73
     7
 74
     0
 42
0.000000001
 43
0.00000001
 40
0.0
 40
0.0
 40
0.0
 40
0.0
 40
0.1827124037100573
 40
0.3654613039880951
 40
0.6827062679912294
 40
1.0
 40
1.0
 40
1.0
 40
1.0
 10
6200.972304402612
 20
5321.190113190179
 30
0.0
 10
6200.974031895234
 20
5321.192759463871
 30
0.0
 10
6200.97748722554
 20
5321.198052539845
 30
0.0
 10
6200.985454922696
 20
5321.214537199035
 30
0.0
 10
6200.987280383551
 20
5321.217291714301
 30
0.0
 10
6200.999900513599
 20
5321.233266145788
 30
0.0
 10
6201.006211063586
 20
5321.241253975396
 30
0.0
  0
LINE
  5
E2
330
1F
100
AcDbEntity
  8
0
  6
Continuous
 62
     7
370
    25
100
AcDbLine
 10
6340.3941809225
 20
5318.1990329061
 30
0.0
 11
6338.7357412863
 21
5318.2061854634
 31
0.0
  0
LWPOLYLINE
  5
E3
330
1F
100
AcDbEntity
  8
0
  6
Continuous
 62
     7
370
    25
100
AcDbPolyline
 90
        9
 70
   128
 43
0.0
 10
6338.7357412863
 20
5318.2061854634
 10
6338.7366651583
 20
5318.8165370259
 10
6338.7375741291
 20
5319.3837348256
 10
6338.7384383965
 20
5319.892758492
 10
6338.739228158
 20
5320.3303757939
 10
6338.7399285126
 20
5320.6850234304
 10
6338.7405096579
 20
5320.9475222859
 10
6338.7409715939
 20
5321.1108390126
 10
6338.7412994194
 20
5321.170682076
  0
LWPOLYLINE
  5
E4
330
1F
100
AcDbEntity
  8
0
  6
Continuous
 62
     7
370
    25
100
AcDbPolyline
 90
        9
 70
   128
 43
0.0
 10
6341.8273746062
 20
5321.1637679372
 10
6341.5861695099
 20
5321.1094085012
 10
6341.3513272095
 20
5320.9497872624
 10
6341.1291061926
 20
5320.6894341741
 10
6340.9254073191
 20
5320.3350249562
 10
6340.7456844139
 20
5319.8962155614
 10
6340.5946909476
 20
5319.3845692906
 10
6340.4764800358
 20
5318.8137952123
 10
6340.3941809225
 20
5318.1990329061
  0
LINE
  5
E5
330
1F
100
AcDbEntity
  8
0
  6
Continuous
 62
     7
370
    25
100
AcDbLine
 10
6209.3017741132
 20
5318.3392230306
 30
0.0
 11
6207.6602049197
 21
5318.313473824
 31
0.0
  0
LWPOLYLINE
  5
E6
330
1F
100
AcDbEntity
  8
0
  6
Continuous
 62
     7
370
    25
100
AcDbPolyline
 90
        9
 70
   128
 43
0.0
 10
6207.6602049197
 20
5318.313473824
 10
6207.5735714312
 20
5318.9111892018
 10
6207.4537344302
 20
5319.467896584
 10
6207.303710005
 20
5319.9695292745
 10
6207.1272714089
 20
5320.4034510884
 10
6206.9288582567
 20
5320.7588139806
 10
6206.7134615059
 20
5321.0265580449
 10
6206.4865005228
 20
5321.1998883519
 10
6206.2536847803
 20
5321.2746325765
  0
LWPOLYLINE
  5
E7
330
1F
100
AcDbEntity
  8
0
  6
Continuous
 62
     7
370
    25
100
AcDbPolyline
 90
        9
 70
   128
 43
0.0
 10
6209.3017741132
 20
5318.3392230306
 10
6209.3017168369
 20
5318.9336005483
 10
6209.3016611903
 20
5319.4873276982
 10
6209.301608105
 20
5319.9868146215
 10
6209.3015592105
 20
5320.4197827611
 10
6209.3015156712
 20
5320.7751456533
 10
6209.3014784183
 20
5321.0444394383
 10
6209.301448616
 20
5321.2206307683
 10
6209.3014269627
 20
5321.2996665273
  0
SPLINE
  5
E8
330
1F
100
AcDbEntity
  8
0
  6
Continuous
 62
     7
370
    25
100
AcDbSpline
210
0.0
220
0.0
230
1.0
 70
     8
 71
     3
 72
    12
 73
     8
 74
     0
 42
0.000000001
 43
0.00000001
 40
0.0
 40
0.0
 40
0.0
 40
0.0
 40
0.3059846890838678
 40
0.611968452710933
 40
0.8059842264538377
 40
0.902992112993014
 40
1.0
 40
1.0
 40
1.0
 40
1.0
 10
6338.7357412863
 20
5318.206185463433
 30
0.0
 10
6325.534177247373
 20
5318.244640395186
 30
0.0
 10
6299.131089097912
 20
5318.321550142384
 30
0.0
 10
6264.357117480208
 20
5318.340102722706
 30
0.0
 10
6238.599411258539
 20
5318.340922729345
 30
0.0
 10
6221.857904093261
 20
5318.340606038403
 30
0.0
 10
6213.487150779949
 20
5318.339684033183
 30
0.0
 10
6209.301774113201
 20
5318.339223030572
 30
0.0
  0
LWPOLYLINE
  5
E9
330
1F
100
AcDbEntity
  8
0
  6
Continuous
 62
     7
370
    25
100
AcDbPolyline
 90
        9
 70
   128
 43
0.0
 10
6342.9933755684
 20
5321.1638871465
 10
6342.6603495169
 20
5321.1123887334
 10
6342.3361747551
 20
5320.9549132619
 10
6342.0295535612
 20
5320.6957522664
 10
6341.7487113762
 20
5320.3415814672
 10
6341.5012179899
 20
5319.9020568166
 10
6341.293689518
 20
5319.3890992436
 10
6341.131728797
 20
5318.8162986074
 10
6341.0196571636
 20
5318.1991521153
  0
LINE
  5
EA
330
1F
100
AcDbEntity
  8
0
  6
Continuous
 62
     7
370
    25
100
AcDbLine
 10
6341.0196571636
 20
5318.1991521153
 30
0.0
 11
6340.3941809225
 21
5318.1990329061
 31
0.0
  0
SPLINE
  5
EB
330
1F
100
AcDbEntity
  8
0
  6
Continuous
 62
     7
370
    25
100
AcDbSpline
210
0.0
220
0.0
230
1.0
 70
     8
 71
     3
 72
    10
 73
     6
 74
     0
 42
0.000000001
 43
0.00000001
 40
0.0
 40
0.0
 40
0.0
 40
0.0
 40
0.1717582699236734
 40
0.5859311707848489
 40
1.0
 40
1.0
 40
1.0
 40
1.0
 10
6207.660204919748
 20
5318.313473824029
 30
0.0
 10
6207.469727523043
 20
5318.306408062924
 30
0.0
 10
6206.819938467126
 20
5318.282304130815
 30
0.0
 10
6205.835156795794
 20
5318.273877344737
 30
0.0
 10
6205.363663066479
 20
5318.273174723013
 30
0.0
 10
6205.127945824288
 20
5318.272823456292
 30
0.0
  0
ARC
  5
EC
330
1F
100
AcDbEntity
  8
0
  6
Continuous
 62
     7
370
    25
100
AcDbCircle
 10
6201.4402737442
 20
5317.4656081658
 30
0.0
 40
3.774986343715314
100
AcDbArc
 50
12.3470497924
 51
87.5703372083
  0
ARC
  5
ED
330
1F
100
AcDbEntity
  8
0
  6
Continuous
 62
     7
370
    25
100
AcDbCircle
 10
6346.1094688896
 20
5317.6001710044
 30
0.0
 40
3.571153923390903
100
AcDbArc
 50
92.8630345954
 51
170.2938303439
  0
SPLINE
  5
EE
330
1F
100
AcDbEntity
  8
0
  6
Continuous
 62
     7
370
    25
100
AcDbSpline
210
0.0
220
0.0
230
1.0
 70
     8
 71
     3
 72
     9
 73
     5
 74
     0
 42
0.000000001
 43
0.00000001
 40
0.0
 40
0.0
 40
0.0
 40
0.0
 40
0.3271181898735586
 40
1.0
 40
1.0
 40
1.0
 40
1.0
 10
6342.58943489077
 20
5318.202251556878
 30
0.0
 10
6342.455761941108
 20
5318.202136124916
 30
0.0
 10
6342.047123859214
 20
5318.201783249515
 30
0.0
 10
6341.432934207947
 20
5318.200210434179
 30
0.0
 10
6341.019657163642
 20
5318.19915211535
 30
0.0
  0
LINE
  5
EF
330
1F
100
AcDbEntity
  8
0
  6
Continuous
 62
     7
370
    25
100
AcDbLine
 10
6204.9116387058
 20
5318.2744923863
 30
0.0
 11
6204.80179759
 21
5318.2771149907
 31
0.0
  0
LINE
  5
F0
330
1F
100
AcDbEntity
  8
0
  6
Continuous
 62
     7
370
    25
100
AcDbLine
 10
6205.1279458243
 20
5318.2728234563
 30
0.0
 11
6204.9116387058
 21
5318.2744923863
 31
0.0
  0
LINE
  5
F1
330
1F
100
AcDbEntity
  8
0
  6
Continuous
 62
     7
370
    25
100
AcDbLine
 10
6209.3017741132
 20
5316.1641303334
 30
0.0
 11
6209.3017741132
 21
5318.3392230306
 31
0.0
  0
LINE
  5
F2
330
1F
100
AcDbEntity
  8
0
  6
Continuous
 62
     7
370
    25
100
AcDbLine
 10
6205.3679537054
 20
5316.1641303334
 30
0.0
 11
6209.3017741132
 21
5316.1641303334
 31
0.0
  0
LINE
  5
F3
330
1F
100
AcDbEntity
  8
0
  6
Continuous
 62
     7
370
    25
100
AcDbLine
 10
6205.3679537054
 20
5316.1641303334
 30
0.0
 11
6204.80179759
 21
5318.2771149907
 31
0.0
  0
LINE
  5
F4
330
1F
100
AcDbEntity
  8
0
  6
Continuous
 62
     7
370
    25
100
AcDbLine
 10
6342.8916304398
 20
5318.2023707662
 30
0.0
 11
6342.5894348908
 21
5318.2022515569
 31
0.0
  0
LINE
  5
F5
330
1F
100
AcDbEntity
  8
0
  6
Continuous
 62
     7
370
    25
100
AcDbLine
 10
6343.105745225
 20
5318.2023707662
 30
0.0
 11
6342.8916304398
 21
5318.2023707662
 31
0.0
  0
LINE
  5
F6
330
1F
100
AcDbEntity
  8
0
  6
Continuous
 62
     7
370
    25
100
AcDbLine
 10
6343.2161330271
 20
5318.2040396962
 30
0.0
 11
6343.105745225
 21
5318.2023707662
 31
0.0
  0
LINE
  5
F7
330
1F
100
AcDbEntity
  8
0
  6
Continuous
 62
     7
370
    25
100
AcDbLine
 10
6342.6695584345
 20
5316.1641303334
 30
0.0
 11
6343.2161330271
 21
5318.2040396962
 31
0.0
  0
LINE
  5
F8
330
1F
100
AcDbEntity
  8
0
  6
Continuous
 62
     7
370
    25
100
AcDbLine
 10
6338.7357412863
 20
5316.1641303334
 30
0.0
 11
6342.6695584345
 21
5316.1641303334
 31
0.0
  0
LINE
  5
F9
330
1F
100
AcDbEntity
  8
0
  6
Continuous
 62
     7
370
    25
100
AcDbLine
 10
6338.7357412863
 20
5316.1641303334
 30
0.0
 11
6338.7357412863
 21
5318.2061854634
 31
0.0
  0
LINE
  5
FA
330
1F
100
AcDbEntity
  8
0
  6
Continuous
 62
     7
370
    25
100
AcDbLine
 10
6209.3017741132
 20
5316.1641303334
 30
0.0
 11
6338.7357412863
 21
5316.1641303334
 31
0.0
  0
ARC
  5
FB
330
1F
100
AcDbEntity
  8
0
  6
Continuous
 62
     7
370
    25
100
AcDbCircle
 10
6346.5740176079
 20
5317.3989151876
 30
0.0
 40
3.769020578694507
100
AcDbArc
 50
91.2024368445
 51
167.6916032044
  0
LINE
  5
FC
330
1F
100
AcDbEntity
  8
0
  6
Continuous
 62
     7
370
    25
100
AcDbLine
 10
6209.3017741132
 20
5316.1641303334
 30
0.0
 11
6209.3017741132
 21
5313.1993953023
 31
0.0
  0
LINE
  5
FD
330
1F
100
AcDbEntity
  8
0
  6
Continuous
 62
     7
370
    25
100
AcDbLine
 10
6209.3017741132
 20
5313.1993953023
 30
0.0
 11
6209.231656932
 21
5313.1993953023
 31
0.0
  0
ARC
  5
FE
330
1F
100
AcDbEntity
  8
0
  6
Continuous
 62
     7
370
    25
100
AcDbCircle
 10
6209.2316568275
 20
5317.1994545927
 30
0.0
 40
4.000000000000004
100
AcDbArc
 50
195.0
 51
270.0
  0
LINE
  5
FF
330
1F
100
AcDbEntity
  8
0
  6
Continuous
 62
     7
370
    25
100
AcDbLine
 10
6338.8058512497
 20
5313.1993953023
 30
0.0
 11
6338.7357412863
 21
5313.1993953023
 31
0.0
  0
LINE
  5
100
330
1F
100
AcDbEntity
  8
0
  6
Continuous
 62
     7
370
    25
100
AcDbLine
 10
6338.7357412863
 20
5316.1641303334
 30
0.0
 11
6338.7357412863
 21
5313.1993953023
 31
0.0
  0
ARC
  5
101
330
1F
100
AcDbEntity
  8
0
  6
Continuous
 62
     7
370
    25
100
AcDbCircle
 10
6338.8058538447
 20
5317.1994545927
 30
0.0
 40
4.000000000000004
100
AcDbArc
 50
270.0
 51
345.0
  0
LINE
  5
102
330
1F
100
AcDbEntity
  8
0
  6
Continuous
 62
     7
370
    25
100
AcDbLine
 10
6338.7357412863
 20
5313.1993953023
 30
0.0
 11
6209.3017741132
 21
5313.1993953023
 31
0.0
  0
ARC
  5
103
330
1F
100
AcDbEntity
  8
0
  6
Continuous
 62
     7
370
    25
100
AcDbCircle
 10
6346.9071081533
 20
5317.2477382899
 30
0.0
 40
3.919398331067342
100
AcDbArc
 50
90.227232431
 51
165.9028908252
  0
ARC
  5
104
330
1F
100
AcDbEntity
  8
0
  6
Continuous
 62
     7
370
    25
100
AcDbCircle
 10
6201.1095312794
 20
5317.3198126072
 30
0.0
 40
3.920131931740684
100
AcDbArc
 50
14.0951293783
 51
88.5858582547
  0
ARC
  5
105
330
1F
100
AcDbEntity
  8
0
  6
Continuous
 62
     7
370
    25
100
AcDbCircle
 10
6347.0793779191
 20
5317.1691002761
 30
0.0
 40
3.999470052296791
100
AcDbArc
 50
113.8050074944
 51
165.0029602834
  0
ARC
  5
106
330
1F
100
AcDbEntity
  8
0
  6
Continuous
 62
     7
370
    25
100
AcDbCircle
 10
6200.9383093504
 20
5317.2420017964
 30
0.0
 40
3.999750079966702
100
AcDbArc
 50
14.9985421698
 51
82.8463846409
  0
ARC
  5
107
330
1F
100
AcDbEntity
  8
0
  6
Continuous
 62
     7
370
    25
100
AcDbCircle
 10
6200.9613303958
 20
5317.2273021825
 30
0.0
 40
3.962826202517679
100
AcDbArc
 50
61.4145321934
 51
89.841334177
  0
LINE
  5
108
330
1F
100
AcDbEntity
  8
0
  6
Continuous
 62
     8
370
    25
100
AcDbLine
 10
6301.3292296815
 20
5136.5470830236
 30
0.0
 11
6246.7103495288
 21
5136.5470830236
 31
0.0
  0
LINE
  5
109
330
1F
100
AcDbEntity
  8
0
  6
Continuous
 62
     8
370
    25
100
AcDbLine
 10
6246.9135752905
 20
5011.8937436376
 30
0.0
 11
6301.1260076452
 21
5011.8937436376
 31
0.0
  0
LINE
  5
10A
330
1F
100
AcDbEntity
  8
0
  6
Continuous
 62
     8
370
    25
100
AcDbLine
 10
6251.0197914231
 20
5152.6994649205
 30
0.0
 11
6297.0197915125
 21
5152.6994649205
 31
0.0
  0
LINE
  5
10B
330
1F
100
AcDbEntity
  8
0
  6
Continuous
 62
     8
370
    25
100
AcDbLine
 10
6265.0676972258
 20
5258.8994447026
 30
0.0
 11
6302.018758564
 21
5258.8994447026
 31
0.0
  0
LINE
  5
10C
330
1F
100
AcDbEntity
  8
0
  6
Continuous
 62
     8
370
    25
100
AcDbLine
 10
6246.0187568355
 20
5258.8994447026
 30
0.0
 11
6265.0676972258
 21
5258.8994447026
 31
0.0
  0
LINE
  5
10D
330
1F
100
AcDbEntity
  8
0
  6
Continuous
 62
     8
370
    25
100
AcDbLine
 10
6310.518753438
 20
5306.9994393621
 30
0.0
 11
6237.5187545109
 21
5306.9994393621
 31
0.0
  0
LINE
  5
10E
330
1F
100
AcDbEntity
  8
0
  6
Continuous
 62
     8
370
    25
100
AcDbLine
 10
6298.5187589216
 20
5303.9994183812
 30
0.0
 11
6249.5187564779
 21
5303.9994183812
 31
0.0
  0
LINE
  5
10F
330
1F
100
AcDbEntity
  8
0
  6
Continuous
 62
     8
370
    25
100
AcDbLine
 10
6201.0192346785
 20
5321.1897555623
 30
0.0
 11
6200.9723044026
 21
5321.1901131902
 31
0.0
  0
LINE
  5
110
330
1F
100
AcDbEntity
  8
0
  6
Continuous
 62
     8
370
    25
100
AcDbLine
 10
6201.436398274
 20
5321.210617188
 30
0.0
 11
6201.0062110636
 21
5321.2412539754
 31
0.0
  0
LINE
  5
111
330
1F
100
AcDbEntity
  8
0
  6
Continuous
 62
     7
370
    25
100
AcDbLine
 10
6770.8160987668
 20
5157.1994963918
 30
0.0
 11
6755.8162322812
 21
5157.1994963918
 31
0.0
  0
LINE
  5
112
330
1F
100
AcDbEntity
  8
0
  6
Continuous
 62
     7
370
    25
100
AcDbLine
 10
6755.8162322812
 20
5077.1994534764
 30
0.0
 11
6770.8160987668
 21
5077.1994534764
 31
0.0
  0
ARC
  5
113
330
1F
100
AcDbEntity
  8
0
  6
Continuous
 62
     7
370
    25
100
AcDbCircle
 10
6770.8160332699
 20
5137.1994545927
 30
0.0
 40
20.0
100
AcDbArc
 50
0.0
 51
90.0
  0
ARC
  5
114
330
1F
100
AcDbEntity
  8
0
  6
Continuous
 62
     7
370
    25
100
AcDbCircle
 10
6770.8160332699
 20
5097.1994545927
 30
0.0
 40
20.0
100
AcDbArc
 50
270.0
 51
0.0
  0
LINE
  5
115
330
1F
100
AcDbEntity
  8
0
  6
Continuous
 62
     7
370
    25
100
AcDbLine
 10
6755.8162322812
 20
5137.199396256
 30
0.0
 11
6745.8160033993
 21
5137.199396256
 31
0.0
  0
LINE
  5
116
330
1F
100
AcDbEntity
  8
0
  6
Continuous
 62
     7
370
    25
100
AcDbLine
 10
6745.8160033993
 20
5097.1994344029
 30
0.0
 11
6755.8162322812
 21
5097.1994344029
 31
0.0
  0
LINE
  5
117
330
1F
100
AcDbEntity
  8
0
  6
Continuous
 62
     7
370
    25
100
AcDbLine
 10
6855.8161369137
 20
5137.199396256
 30
0.0
 11
6790.8160796933
 21
5137.199396256
 31
0.0
  0
LINE
  5
118
330
1F
100
AcDbEntity
  8
0
  6
Continuous
 62
     7
370
    25
100
AcDbLine
 10
6790.8160796933
 20
5097.1994344029
 30
0.0
 11
6855.8161369137
 21
5097.1994344029
 31
0.0
  0
LINE
  5
119
330
1F
100
AcDbEntity
  8
0
  6
Continuous
 62
     7
370
    25
100
AcDbLine
 10
6881.8161598019
 20
5079.1994277272
 30
0.0
 11
6888.7097945981
 21
5011.8937436376
 31
0.0
  0
LINE
  5
11A
330
1F
100
AcDbEntity
  8
0
  6
Continuous
 62
     7
370
    25
100
AcDbLine
 10
6942.9223647885
 20
5011.8937436376
 30
0.0
 11
6949.8159995846
 21
5079.1994277272
 31
0.0
  0
LINE
  5
11B
330
1F
100
AcDbEntity
  8
0
  6
Continuous
 62
     7
370
    25
100
AcDbLine
 10
6949.8159995846
 20
5079.1994277272
 30
0.0
 11
6943.1254974179
 21
5136.5470830236
 31
0.0
  0
LINE
  5
11C
330
1F
100
AcDbEntity
  8
0
  6
Continuous
 62
     7
370
    25
100
AcDbLine
 10
6883.6872688107
 20
5095.2374879155
 30
0.0
 11
6881.8161598019
 21
5079.1994277272
 31
0.0
  0
LINE
  5
11D
330
1F
100
AcDbEntity
  8
0
  6
Continuous
 62
     7
370
    25
100
AcDbLine
 10
6871.8159309201
 20
5144.6994487081
 30
0.0
 11
6867.8162208371
 21
5143.1994382176
 31
0.0
  0
LINE
  5
11E
330
1F
100
AcDbEntity
  8
0
  6
Continuous
 62
     7
370
    25
100
AcDbLine
 10
6867.8162208371
 20
5091.1995116506
 30
0.0
 11
6871.8159309201
 21
5089.6995011601
 31
0.0
  0
ARC
  5
11F
330
1F
100
AcDbEntity
  8
0
  6
Continuous
 62
     7
370
    25
100
AcDbCircle
 10
6940.1457273092
 20
5136.1994545927
 30
0.0
 40
3.0
100
AcDbArc
 50
6.654425046
 51
90.0
  0
ARC
  5
120
330
1F
100
AcDbEntity
  8
0
  6
Continuous
 62
     7
370
    25
100
AcDbCircle
 10
6891.6942471051
 20
5012.1994545927
 30
0.0
 40
3.000000000000517
100
AcDbArc
 50
185.8481280262
 51
270.0
  0
ARC
  5
121
330
1F
100
AcDbEntity
  8
0
  6
Continuous
 62
     7
370
    25
100
AcDbCircle
 10
6939.9379028375
 20
5012.1994545927
 30
0.0
 40
3.000000000000517
100
AcDbArc
 50
270.0
 51
354.1518719738
  0
ARC
  5
122
330
1F
100
AcDbEntity
  8
0
  6
Continuous
 62
     7
370
    25
100
AcDbCircle
 10
6858.8160749713
 20
5140.1994545927
 30
0.0
 40
3.0
100
AcDbArc
 50
90.0
 51
180.0
  0
ARC
  5
123
330
1F
100
AcDbEntity
  8
0
  6
Continuous
 62
     7
370
    25
100
AcDbCircle
 10
6858.8160749713
 20
5094.1994545927
 30
0.0
 40
3.000000000000909
100
AcDbArc
 50
180.0
 51
270.0
  0
LINE
  5
124
330
1F
100
AcDbEntity
  8
0
  6
Continuous
 62
     7
370
    25
100
AcDbLine
 10
6867.8162208371
 20
5143.1994382176
 30
0.0
 11
6858.815919476
 21
5143.1994382176
 31
0.0
  0
LINE
  5
125
330
1F
100
AcDbEntity
  8
0
  6
Continuous
 62
     7
370
    25
100
AcDbLine
 10
6858.815919476
 20
5091.1995116506
 30
0.0
 11
6867.8162208371
 21
5091.1995116506
 31
0.0
  0
LINE
  5
126
330
1F
100
AcDbEntity
  8
0
  6
Continuous
 62
     7
370
    25
100
AcDbLine
 10
6940.8161750607
 20
5141.6994277272
 30
0.0
 11
6938.8158431821
 21
5145.6994954381
 31
0.0
  0
LINE
  5
127
330
1F
100
AcDbEntity
  8
0
  6
Continuous
 62
     7
370
    25
100
AcDbLine
 10
6892.8158393674
 20
5145.6994954381
 30
0.0
 11
6890.8159843259
 21
5141.6994277272
 31
0.0
  0
ARC
  5
128
330
1F
100
AcDbEntity
  8
0
  6
Continuous
 62
     7
370
    25
100
AcDbCircle
 10
6895.8160749713
 20
5152.6994545927
 30
0.0
 40
3.0
100
AcDbArc
 50
90.0
 51
180.0
  0
ARC
  5
129
330
1F
100
AcDbEntity
  8
0
  6
Continuous
 62
     7
370
    25
100
AcDbCircle
 10
6935.8160749713
 20
5152.6994545927
 30
0.0
 40
3.000000000000909
100
AcDbArc
 50
0.0
 51
90.0
  0
LINE
  5
12A
330
1F
100
AcDbEntity
  8
0
  6
Continuous
 62
     7
370
    25
100
AcDbLine
 10
6892.8158393674
 20
5152.6994649205
 30
0.0
 11
6892.8158393674
 21
5145.6994954381
 31
0.0
  0
LINE
  5
12B
330
1F
100
AcDbEntity
  8
0
  6
Continuous
 62
     7
370
    25
100
AcDbLine
 10
6938.8158431821
 20
5145.6994954381
 30
0.0
 11
6938.8158431821
 21
5152.6994649205
 31
0.0
  0
LINE
  5
12C
330
1F
100
AcDbEntity
  8
0
  6
Continuous
 62
     7
370
    25
100
AcDbLine
 10
6871.8159309201
 20
5095.1994601522
 30
0.0
 11
6883.7111106686
 21
5095.1994601522
 31
0.0
  0
LINE
  5
12D
330
1F
100
AcDbEntity
  8
0
  6
Continuous
 62
     7
370
    25
100
AcDbLine
 10
6888.8161292844
 20
5139.1994897161
 30
0.0
 11
6871.8159309201
 21
5139.1994897161
 31
0.0
  0
LINE
  5
12E
330
1F
100
AcDbEntity
  8
0
  6
Continuous
 62
     7
370
    25
100
AcDbLine
 10
6931.8158736996
 20
5139.1994897161
 30
0.0
 11
6931.8158736996
 21
5141.6994277272
 31
0.0
  0
LINE
  5
12F
330
1F
100
AcDbEntity
  8
0
  6
Continuous
 62
     7
370
    25
100
AcDbLine
 10
6885.8158698849
 20
5269.8994818959
 30
0.0
 11
6887.8162017636
 21
5265.8994141851
 31
0.0
  0
LINE
  5
130
330
1F
100
AcDbEntity
  8
0
  6
Continuous
 62
     7
370
    25
100
AcDbLine
 10
6943.815957623
 20
5265.8994141851
 30
0.0
 11
6945.8158126645
 21
5269.8994818959
 31
0.0
  0
ARC
  5
131
330
1F
100
AcDbEntity
  8
0
  6
Continuous
 62
     7
370
    25
100
AcDbCircle
 10
6890.8160332699
 20
5258.8994545927
 30
0.0
 40
3.000000000000909
100
AcDbArc
 50
180.0
 51
270.0
  0
ARC
  5
132
330
1F
100
AcDbEntity
  8
0
  6
Continuous
 62
     7
370
    25
100
AcDbCircle
 10
6940.8160332699
 20
5258.8994545927
 30
0.0
 40
3.000000000000909
100
AcDbArc
 50
270.0
 51
0.0
  0
LINE
  5
133
330
1F
100
AcDbEntity
  8
0
  6
Continuous
 62
     7
370
    25
100
AcDbLine
 10
6887.8162017636
 20
5265.8994141851
 30
0.0
 11
6887.8162017636
 21
5258.8994447026
 31
0.0
  0
LINE
  5
134
330
1F
100
AcDbEntity
  8
0
  6
Continuous
 62
     7
370
    25
100
AcDbLine
 10
6943.815957623
 20
5258.8994447026
 30
0.0
 11
6943.815957623
 21
5265.8994141851
 31
0.0
  0
LINE
  5
135
330
1F
100
AcDbEntity
  8
0
  6
Continuous
 62
     7
370
    25
100
AcDbLine
 10
6899.8158088498
 20
5255.8994237218
 30
0.0
 11
6899.8158088498
 21
5155.6994859014
 31
0.0
  0
LINE
  5
136
330
1F
100
AcDbEntity
  8
0
  6
Continuous
 62
     7
370
    25
100
AcDbLine
 10
6899.8158088498
 20
5141.6994277272
 30
0.0
 11
6899.8158088498
 21
5139.1994897161
 31
0.0
  0
LINE
  5
137
330
1F
100
AcDbEntity
  8
0
  6
Continuous
 62
     7
370
    25
100
AcDbLine
 10
6931.8158736996
 20
5155.6994859014
 30
0.0
 11
6931.8158736996
 21
5255.8994237218
 31
0.0
  0
SPLINE
  5
138
330
1F
100
AcDbEntity
  8
0
  6
Continuous
 62
     7
370
    25
100
AcDbSpline
210
0.0
220
0.0
230
1.0
 70
     8
 71
     3
 72
    28
 73
    24
 74
     0
 42
0.000000001
 43
0.00000001
 40
0.0
 40
0.0
 40
0.0
 40
0.0
 40
0.0618987978984193
 40
0.1265050735259264
 40
0.189043368852455
 40
0.24547453227434
 40
0.2763067250396184
 40
0.3028924823214727
 40
0.3286750788908879
 40
0.3614343899553511
 40
0.4029870829904409
 40
0.4662030067634612
 40
0.5279183024264862
 40
0.5875800654043638
 40
0.6517782352036382
 40
0.697784201667324
 40
0.747106053174998
 40
0.801846377246264
 40
0.8527522352439816
 40
0.9087221932713299
 40
0.9332601964580499
 40
0.9652453186518241
 40
1.0
 40
1.0
 40
1.0
 40
1.0
 10
6767.514478283374
 20
5354.091519478326
 30
0.0
 10
6768.77783178536
 20
5351.801965323972
 30
0.0
 10
6771.359798367655
 20
5347.122711017395
 30
0.0
 10
6775.380875446519
 20
5340.221409803641
 30
0.0
 10
6779.338238484906
 20
5333.551181715233
 30
0.0
 10
6782.603779670307
 20
5328.129482250804
 30
0.0
 10
6785.10813761542
 20
5324.02287735521
 30
0.0
 10
6786.925201838957
 20
5321.013365741524
 30
0.0
 10
6788.895562741002
 20
5318.003597593983
 30
0.0
 10
6791.314361556178
 20
5314.534252930093
 30
0.0
 10
6794.736089027112
 20
5309.837473133088
 30
0.0
 10
6799.087694708258
 20
5304.307988767431
 30
0.0
 10
6804.311384950059
 20
5298.502170272117
 30
0.0
 10
6810.181636701094
 20
5293.280249419809
 30
0.0
 10
6816.071932077932
 20
5289.148693867836
 30
0.0
 10
6821.973220155034
 20
5285.875625957016
 30
0.0
 10
6827.782420646048
 20
5283.315244568277
 30
0.0
 10
6833.976789531117
 20
5281.173804914203
 30
0.0
 10
6840.575460426273
 20
5279.402806802857
 30
0.0
 10
6846.017566694997
 20
5278.286993829726
 30
0.0
 10
6850.709645311968
 20
5277.525256131423
 30
0.0
 10
6854.543410374947
 20
5277.098549492644
 30
0.0
 10
6857.352887346471
 20
5276.865566518222
 30
0.0
 10
6858.815919476001
 20
5276.744240883355
 30
0.0
  0
SPLINE
  5
139
330
1F
100
AcDbEntity
  8
0
  6
Continuous
 62
     7
370
    25
100
AcDbSpline
210
0.0
220
0.0
230
1.0
 70
     8
 71
     3
 72
    35
 73
    31
 74
     0
 42
0.000000001
 43
0.00000001
 40
0.0
 40
0.0
 40
0.0
 40
0.0
 40
0.0307572053136087
 40
0.0650454087339598
 40
0.0907896191252953
 40
0.1128858165666275
 40
0.1727526791248831
 40
0.2239970596363272
 40
0.2677543212962263
 40
0.3049988507453015
 40
0.3372004785962934
 40
0.3734647881232582
 40
0.4024509215369131
 40
0.4248320856328088
 40
0.4466799234329378
 40
0.4697834002628561
 40
0.4872590524974541
 40
0.5065392085895262
 40
0.5277751174017469
 40
0.5526353113728195
 40
0.5787690589639843
 40
0.6120146244413754
 40
0.65238170684838
 40
0.6926040106913093
 40
0.7464411404441256
 40
0.7996475388717194
 40
0.8540624228044643
 40
0.9073610585844489
 40
0.9569538625169877
 40
1.0
 40
1.0
 40
1.0
 40
1.0
 10
6858.815919476001
 20
5301.852459076409
 30
0.0
 10
6857.732193335815
 20
5301.872956795166
 30
0.0
 10
6855.440326795101
 20
5301.916305418068
 30
0.0
 10
6852.242007295441
 20
5302.014136755164
 30
0.0
 10
6849.350209556048
 20
5302.149386975711
 30
0.0
 10
6845.562995349313
 20
5302.415542305761
 30
0.0
 10
6840.891692646835
 20
5302.919229822475
 30
0.0
 10
6835.508741561121
 20
5303.848676365299
 30
0.0
 10
6830.974736841819
 20
5304.944964755739
 30
0.0
 10
6827.163157536655
 20
5306.136469912273
 30
0.0
 10
6823.694058216907
 20
5307.504529608214
 30
0.0
 10
6820.60114802386
 20
5309.008135187365
 30
0.0
 10
6817.928995681375
 20
5310.561755538552
 30
0.0
 10
6815.776425308251
 20
5311.987223447016
 30
0.0
 10
6813.865540285985
 20
5313.396196325833
 30
0.0
 10
6812.158477362024
 20
5314.786283527817
 30
0.0
 10
6810.589946939934
 20
5316.198387755269
 30
0.0
 10
6809.130365297493
 20
5317.63026996906
 30
0.0
 10
6807.54584337901
 20
5319.304127580068
 30
0.0
 10
6805.861838532408
 20
5321.21437323735
 30
0.0
 10
6803.969050800086
 20
5323.50274823982
 30
0.0
 10
6801.810968167718
 20
5326.279395039304
 30
0.0
 10
6799.449008084613
 20
5329.523227466922
 30
0.0
 10
6796.728702596571
 20
5333.405479426138
 30
0.0
 10
6794.073287367246
 20
5337.870279759411
 30
0.0
 10
6791.269981325757
 20
5342.822386272258
 30
0.0
 10
6788.502559866477
 20
5347.774217171945
 30
0.0
 10
6785.87658138636
 20
5352.657302173315
 30
0.0
 10
6783.507468201596
 20
5357.224716718861
 30
0.0
 10
6782.151922308354
 20
5360.194791013321
 30
0.0
 10
6781.522046642749
 20
5361.574882629876
 30
0.0
  0
LINE
  5
13A
330
1F
100
AcDbEntity
  8
0
  6
Continuous
 62
     7
370
    25
100
AcDbLine
 10
6874.8161903195
 20
5308.7494317327
 30
0.0
 11
6871.8159309201
 21
5308.7494317327
 31
0.0
  0
LINE
  5
13B
330
1F
100
AcDbEntity
  8
0
  6
Continuous
 62
     7
370
    25
100
AcDbLine
 10
6871.8159309201
 20
5269.24943364
 30
0.0
 11
6874.8161903195
 21
5269.24943364
 31
0.0
  0
LINE
  5
13C
330
1F
100
AcDbEntity
  8
0
  6
Continuous
 62
     7
370
    25
100
AcDbLine
 10
6860.8162513547
 20
5288.8578120503
 30
0.0
 11
6860.8162513547
 21
5288.8539973531
 31
0.0
  0
ARC
  5
13D
330
1F
100
AcDbEntity
  8
0
  6
Continuous
 62
     7
370
    25
100
AcDbCircle
 10
6860.8160332699
 20
5305.4994545927
 30
0.0
 40
2.0
100
AcDbArc
 50
90.0
 51
180.0
  0
ARC
  5
13E
330
1F
100
AcDbEntity
  8
0
  6
Continuous
 62
     7
370
    25
100
AcDbCircle
 10
6860.8160332699
 20
5272.4994545927
 30
0.0
 40
1.999999999999091
100
AcDbArc
 50
180.0
 51
270.0
  0
LINE
  5
13F
330
1F
100
AcDbEntity
  8
0
  6
Continuous
 62
     7
370
    25
100
AcDbLine
 10
6860.8162513547
 20
5302.3312035832
 30
0.0
 11
6860.8162513547
 21
5301.9803706441
 31
0.0
  0
LINE
  5
140
330
1F
100
AcDbEntity
  8
0
  6
Continuous
 62
     7
370
    25
100
AcDbLine
 10
6860.8162513547
 20
5275.8182231221
 30
0.0
 11
6860.8162513547
 21
5275.4620257649
 31
0.0
  0
LINE
  5
141
330
1F
100
AcDbEntity
  8
0
  6
Continuous
 62
     7
370
    25
100
AcDbLine
 10
6860.8162513547
 20
5307.9988900456
 30
0.0
 11
6860.8162513547
 21
5307.4989262853
 31
0.0
  0
LINE
  5
142
330
1F
100
AcDbEntity
  8
0
  6
Continuous
 62
     7
370
    25
100
AcDbLine
 10
6860.8162513547
 20
5270.4994622502
 30
0.0
 11
6860.8162513547
 21
5269.999975327
 31
0.0
  0
LINE
  5
143
330
1F
100
AcDbEntity
  8
0
  6
Continuous
 62
     7
370
    25
100
AcDbLine
 10
6950.8159271054
 20
5310.899490479
 30
0.0
 11
6950.8159271054
 21
5313.1993953023
 31
0.0
  0
LINE
  5
144
330
1F
100
AcDbEntity
  8
0
  6
Continuous
 62
     7
370
    25
100
AcDbLine
 10
6880.8162322812
 20
5313.1993953023
 30
0.0
 11
6880.8162322812
 21
5310.899490479
 31
0.0
  0
LINE
  5
145
330
1F
100
AcDbEntity
  8
0
  6
Continuous
 62
     7
370
    25
100
AcDbLine
 10
6759.8488441281
 20
5372.2091857228
 30
0.0
 11
6769.0284362607
 21
5354.9534026418
 31
0.0
  0
LINE
  5
146
330
1F
100
AcDbEntity
  8
0
  6
Continuous
 62
     7
370
    25
100
AcDbLine
 10
6779.6108833127
 20
5360.6119099889
 30
0.0
 11
6773.8545051388
 21
5371.4324179921
 31
0.0
  0
LINE
  5
147
330
1F
100
AcDbEntity
  8
0
  6
Continuous
 62
     7
370
    25
100
AcDbLine
 10
6952.3160568051
 20
5306.9994393621
 30
0.0
 11
6952.3160568051
 21
5310.899490479
 31
0.0
  0
LINE
  5
148
330
1F
100
AcDbEntity
  8
0
  6
Continuous
 62
     7
370
    25
100
AcDbLine
 10
6879.3161025815
 20
5310.899490479
 30
0.0
 11
6879.3161025815
 21
5306.9994393621
 31
0.0
  0
ARC
  5
149
330
1F
100
AcDbEntity
  8
0
  6
Continuous
 62
     7
370
    25
100
AcDbCircle
 10
6951.3160332699
 20
5306.9994545927
 30
0.0
 40
1.0
100
AcDbArc
 50
270.0
 51
0.0
  0
ARC
  5
14A
330
1F
100
AcDbEntity
  8
0
  6
Continuous
 62
     7
370
    25
100
AcDbCircle
 10
6880.3160332699
 20
5306.9994545927
 30
0.0
 40
1.0
100
AcDbArc
 50
180.0
 51
270.0
  0
ARC
  5
14B
330
1F
100
AcDbEntity
  8
0
  6
Continuous
 62
     7
370
    25
100
AcDbCircle
 10
6942.3160332699
 20
5303.9994545927
 30
0.0
 40
2.000000000000909
100
AcDbArc
 50
90.0
 51
180.0
  0
ARC
  5
14C
330
1F
100
AcDbEntity
  8
0
  6
Continuous
 62
     7
370
    25
100
AcDbCircle
 10
6889.3160332699
 20
5303.9994545927
 30
0.0
 40
2.0
100
AcDbArc
 50
0.0
 51
90.0
  0
LINE
  5
14D
330
1F
100
AcDbEntity
  8
0
  6
Continuous
 62
     7
370
    25
100
AcDbLine
 10
6940.3159728818
 20
5294.4995108876
 30
0.0
 11
6940.3159728818
 21
5303.9994183812
 31
0.0
  0
LINE
  5
14E
330
1F
100
AcDbEntity
  8
0
  6
Continuous
 62
     7
370
    25
100
AcDbLine
 10
6895.3921905331
 20
5274.0281764302
 30
0.0
 11
6895.8160987668
 21
5271.8994561467
 31
0.0
  0
LINE
  5
14F
330
1F
100
AcDbEntity
  8
0
  6
Continuous
 62
     7
370
    25
100
AcDbLine
 10
6935.8160606198
 20
5271.8994561467
 30
0.0
 11
6940.3159728818
 21
5294.4995108876
 31
0.0
  0
SPLINE
  5
150
330
1F
100
AcDbEntity
  8
0
  6
Continuous
 62
     7
370
    25
100
AcDbSpline
210
0.0
220
0.0
230
1.0
 70
     8
 71
     3
 72
     9
 73
     5
 74
     0
 42
0.000000001
 43
0.00000001
 40
0.0
 40
0.0
 40
0.0
 40
0.0
 40
0.5001446152097057
 40
1.0
 40
1.0
 40
1.0
 40
1.0
 10
6895.823728161304
 20
5270.631188515191
 30
0.0
 10
6895.647284171036
 20
5270.529408455677
 30
0.0
 10
6895.294498226923
 20
5270.325907195403
 30
0.0
 10
6894.941883084799
 20
5270.122110021183
 30
0.0
 10
6894.765626507251
 20
5270.020240906243
 30
0.0
  0
LINE
  5
151
330
1F
100
AcDbEntity
  8
0
  6
Continuous
 62
     7
370
    25
100
AcDbLine
 10
6935.8160606198
 20
5269.8994818959
 30
0.0
 11
6935.8160606198
 21
5271.8994561467
 31
0.0
  0
LINE
  5
152
330
1F
100
AcDbEntity
  8
0
  6
Continuous
 62
     7
370
    25
100
AcDbLine
 10
6895.8160987668
 20
5271.8994561467
 30
0.0
 11
6895.8160987668
 21
5270.6268969808
 31
0.0
  0
LINE
  5
153
330
1F
100
AcDbEntity
  8
0
  6
Continuous
 62
     7
370
    25
100
AcDbLine
 10
6875.2076736264
 20
5272.9419413838
 30
0.0
 11
6875.4518142514
 21
5272.9419413838
 31
0.0
  0
LINE
  5
154
330
1F
100
AcDbEntity
  8
0
  6
Continuous
 62
     7
370
    25
100
AcDbLine
 10
6876.4283767514
 20
5305.0570431981
 30
0.0
 11
6876.1842361264
 21
5305.0570431981
 31
0.0
  0
LINE
  5
155
330
1F
100
AcDbEntity
  8
0
  6
Continuous
 62
     7
370
    25
100
AcDbLine
 10
6871.8159309201
 20
5304.2690697942
 30
0.0
 11
6871.6604820065
 21
5303.9994183812
 31
0.0
  0
SPLINE
  5
156
330
1F
100
AcDbEntity
  8
0
  6
Continuous
 62
     7
370
    25
100
AcDbSpline
210
0.0
220
0.0
230
1.0
 70
     8
 71
     3
 72
     9
 73
     5
 74
     0
 42
0.000000001
 43
0.00000001
 40
0.0
 40
0.0
 40
0.0
 40
0.0
 40
0.5048632508871808
 40
1.0
 40
1.0
 40
1.0
 40
1.0
 10
6876.173268871753
 20
5305.047506454949
 30
0.0
 10
6876.071358043133
 20
5304.871171529181
 30
0.0
 10
6875.869499760833
 20
5304.521898878701
 30
0.0
 10
6875.667954823208
 20
5304.172445560941
 30
0.0
 10
6875.568162517993
 20
5303.999418381219
 30
0.0
  0
SPLINE
  5
157
330
1F
100
AcDbEntity
  8
0
  6
Continuous
 62
     7
370
    25
100
AcDbSpline
210
0.0
220
0.0
230
1.0
 70
     8
 71
     3
 72
     9
 73
     5
 74
     0
 42
0.000000001
 43
0.00000001
 40
0.0
 40
0.0
 40
0.0
 40
0.0
 40
0.1966063874406406
 40
0.9999999999999999
 40
0.9999999999999999
 40
0.9999999999999999
 40
0.9999999999999999
 10
6874.816190319508
 20
5273.609990242486
 30
0.0
 10
6874.841146899901
 20
5273.566837696619
 30
0.0
 10
6874.968083673006
 20
5273.347350698106
 30
0.0
 10
6875.094857272045
 20
5273.127769250312
 30
0.0
 10
6875.196706371754
 20
5272.951358917718
 30
0.0
  0
SPLINE
  5
158
330
1F
100
AcDbEntity
  8
0
  6
Continuous
 62
     7
370
    25
100
AcDbSpline
210
0.0
220
0.0
230
1.0
 70
     8
 71
     3
 72
     9
 73
     5
 74
     0
 42
0.000000001
 43
0.00000001
 40
0.0
 40
0.0
 40
0.0
 40
0.0
 40
0.5000423161276447
 40
1.0
 40
1.0
 40
1.0
 40
1.0
 10
6875.097047405688
 20
5303.989285591607
 30
0.0
 10
6874.995167511626
 20
5304.165678074937
 30
0.0
 10
6874.791424966695
 20
5304.518433187135
 30
0.0
 10
6874.587630685624
 20
5304.871158649662
 30
0.0
 10
6874.485742168872
 20
5305.047506454949
 30
0.0
  0
SPLINE
  5
159
330
1F
100
AcDbEntity
  8
0
  6
Continuous
 62
     7
370
    25
100
AcDbSpline
210
0.0
220
0.0
230
1.0
 70
     8
 71
     3
 72
     9
 73
     5
 74
     0
 42
0.000000001
 43
0.00000001
 40
0.0
 40
0.0
 40
0.0
 40
0.0
 40
0.5000423161276447
 40
1.0
 40
1.0
 40
1.0
 40
1.0
 10
6877.050649242847
 20
5303.989285591607
 30
0.0
 10
6876.948769348785
 20
5304.165678074937
 30
0.0
 10
6876.745026803854
 20
5304.518433187135
 30
0.0
 10
6876.541232522782
 20
5304.871158649662
 30
0.0
 10
6876.43934400603
 20
5305.047506454949
 30
0.0
  0
SPLINE
  5
15A
330
1F
100
AcDbEntity
  8
0
  6
Continuous
 62
     7
370
    25
100
AcDbSpline
210
0.0
220
0.0
230
1.0
 70
     8
 71
     3
 72
     9
 73
     5
 74
     0
 42
0.000000001
 43
0.00000001
 40
0.0
 40
0.0
 40
0.0
 40
0.0
 40
0.6548720289941473
 40
1.0
 40
1.0
 40
1.0
 40
1.0
 10
6871.554624157397
 20
5272.951358917718
 30
0.0
 10
6871.656490310561
 20
5273.127759387181
 30
0.0
 10
6871.812041545999
 20
5273.39712570862
 30
0.0
 10
6871.967719067984
 20
5273.666418877361
 30
0.0
 10
6872.021447735278
 20
5273.759359482293
 30
0.0
  0
SPLINE
  5
15B
330
1F
100
AcDbEntity
  8
0
  6
Continuous
 62
     7
370
    25
100
AcDbSpline
210
0.0
220
0.0
230
1.0
 70
     8
 71
     3
 72
     9
 73
     5
 74
     0
 42
0.000000001
 43
0.00000001
 40
0.0
 40
0.0
 40
0.0
 40
0.0
 40
0.5000421481941302
 40
1.0
 40
1.0
 40
1.0
 40
1.0
 10
6875.462304668872
 20
5272.951358917718
 30
0.0
 10
6875.564184580051
 20
5273.127751430669
 30
0.0
 10
6875.767927227634
 20
5273.480506720575
 30
0.0
 10
6875.97172140604
 20
5273.833232005388
 30
0.0
 10
6876.073609905688
 20
5274.00957978106
 30
0.0
  0
LINE
  5
15C
330
1F
100
AcDbEntity
  8
0
  6
Continuous
 62
     7
370
    25
100
AcDbLine
 10
6876.0621658139
 20
5273.9994469914
 30
0.0
 11
6895.4155555539
 21
5273.9994469914
 31
0.0
  0
LINE
  5
15D
330
1F
100
AcDbEntity
  8
0
  6
Continuous
 62
     7
370
    25
100
AcDbLine
 10
6875.5738845639
 20
5303.9994183812
 30
0.0
 11
6875.0908485226
 21
5303.9994183812
 31
0.0
  0
LINE
  5
15E
330
1F
100
AcDbEntity
  8
0
  6
Continuous
 62
     7
370
    25
100
AcDbLine
 10
6891.3161865048
 20
5303.9994183812
 30
0.0
 11
6877.0449271969
 21
5303.9994183812
 31
0.0
  0
LWPOLYLINE
  5
15F
330
1F
100
AcDbEntity
  8
0
  6
Continuous
 62
     7
370
    25
100
AcDbPolyline
 90
       48
 70
   128
 43
0.0
 10
6963.2289520077
 20
5321.1758080754
 10
6963.3905998044
 20
5321.1762849126
 10
6964.2641654782
 20
5321.180576447
 10
6964.6270385556
 20
5321.1857024465
 10
6965.4009452634
 20
5321.2150279317
 10
6966.2711730771
 20
5321.2627116475
 10
6967.42845686
 20
5321.3397208486
 10
6968.1136718564
 20
5321.3916960988
 10
6968.8694587521
 20
5321.4542809758
 10
6969.6939101987
 20
5321.5284291539
 10
6970.5851188473
 20
5321.615332726
 10
6971.5421310239
 20
5321.7159453664
 10
6972.5620857052
 20
5321.8312207494
 10
6975.2428642087
 20
5322.1777621541
 10
6978.2407394223
 20
5322.6367179189
 10
6981.5418830685
 20
5323.2219163213
 10
6984.7891441159
 20
5323.8718453679
 10
6987.7331367306
 20
5324.5171252523
 10
6991.9631591611
 20
5325.5164567266
 10
6995.3534713559
 20
5326.3512793813
 10
6998.3494392209
 20
5327.1082583699
 10
7001.7144790463
 20
5328.0339185033
 10
7005.4519286923
 20
5329.1808310781
 10
7009.5503440671
 20
5330.6194487844
 10
7013.9997115903
 20
5332.4462119374
 10
7018.3594337277
 20
5334.5421496663
 10
7021.2180724911
 20
5336.0910359654
 10
7023.7448325925
 20
5337.5796023641
 10
7025.9487739377
 20
5338.970297936
 10
7027.8399101071
 20
5340.2324858937
 10
7029.5360198788
 20
5341.4244595799
 10
7031.6050163083
 20
5342.989796761
 10
7034.606229382
 20
5345.4600516591
 10
7038.1825080685
 20
5348.7019482884
 10
7042.2823539548
 20
5352.8448287282
 10
7046.8204131894
 20
5358.0534402165
 10
7051.744233685
 20
5364.6192494664
 10
7056.0052505307
 20
5371.2989035878
 10
7059.6335044675
 20
5377.9683057103
 10
7062.6719108395
 20
5384.5030013356
 10
7065.4881110959
 20
5391.6463795934
 10
7067.8451171689
 20
5398.7959567342
 10
7068.5093513302
 20
5401.0783377919
 10
7069.2994705014
 20
5403.9905015264
 10
7070.2321639828
 20
5407.7651444707
 10
7071.2583175473
 20
5412.4724808965
 10
7072.1347442441
 20
5417.2185603414
 10
7072.1347442441
 20
5417.2185603414
  0
LINE
  5
160
330
1F
100
AcDbEntity
  8
0
  6
Continuous
 62
     7
370
    25
100
AcDbLine
 10
6876.9424072079
 20
5321.1908284459
 30
0.0
 11
6879.5030227475
 21
5321.1915437017
 31
0.0
  0
SPLINE
  5
161
330
1F
100
AcDbEntity
  8
0
  6
Continuous
 62
     7
370
    25
100
AcDbSpline
210
0.0
220
0.0
230
1.0
 70
     8
 71
     3
 72
    13
 73
     9
 74
     0
 42
0.000000001
 43
0.00000001
 40
0.0
 40
0.0
 40
0.0
 40
0.0
 40
0.0384297017611168
 40
0.243105161785947
 40
0.4309597389933303
 40
0.6281005589280892
 40
0.8188247187119246
 40
1.0
 40
1.0
 40
1.0
 40
1.0
 10
6870.202313976733
 20
5321.189517143731
 30
0.0
 10
6870.219630003981
 20
5321.189516491398
 30
0.0
 10
6870.329170682477
 20
5321.189512364753
 30
0.0
 10
6870.829729479652
 20
5321.189643880823
 30
0.0
 10
6871.549517166533
 20
5321.189753875567
 30
0.0
 10
6872.427427362206
 20
5321.189882742094
 30
0.0
 10
6873.379312657112
 20
5321.189956692679
 30
0.0
 10
6874.059172732584
 20
5321.190142083905
 30
0.0
 10
6874.390374737232
 20
5321.190232399468
 30
0.0
  0
SPLINE
  5
162
330
1F
100
AcDbEntity
  8
0
  6
Continuous
 62
     7
370
    25
100
AcDbSpline
210
0.0
220
0.0
230
1.0
 70
     8
 71
     3
 72
    42
 73
    38
 74
     0
 42
0.000000001
 43
0.00000001
 40
0.0
 40
0.0
 40
0.0
 40
0.0
 40
0.0058039612333092
 40
0.0112003205965641
 40
0.0131963670873744
 40
0.014897331063575
 40
0.0165303742804814
 40
0.0183518662956987
 40
0.0205487630706893
 40
0.0232310113781801
 40
0.0302624391271266
 40
0.0396944695002034
 40
0.0550566889744106
 40
0.0744313974460643
 40
0.0978726415084665
 40
0.1254212925089889
 40
0.1570382276558779
 40
0.1902092574172759
 40
0.3506159423600017
 40
0.4990580390659493
 40
0.6518687068512621
 40
0.6989531948916706
 40
0.7463734690929192
 40
0.7920003346308178
 40
0.8321063639515258
 40
0.8666597480172487
 40
0.891262575697029
 40
0.9121284755381538
 40
0.929382019342162
 40
0.9400888411991742
 40
0.94476738778166
 40
0.9491464987541447
 40
0.9536266141944042
 40
0.958595590074961
 40
0.9710167194059809
 40
0.9892072845732044
 40
1.0
 40
1.0
 40
1.0
 40
1.0
 10
6759.627591686695
 20
5417.199486855035
 30
0.0
 10
6759.683498264935
 20
5417.021153089903
 30
0.0
 10
6759.791385201906
 20
5416.677009622644
 30
0.0
 10
6759.965084714049
 20
5416.129743899606
 30
0.0
 10
6760.121501449958
 20
5415.641616038663
 30
0.0
 10
6760.228635502377
 20
5415.311424712268
 30
0.0
 10
6760.331288545805
 20
5414.991699325374
 30
0.0
 10
6760.426745704912
 20
5414.700759582001
 30
0.0
 10
6760.514192240012
 20
5414.43293458686
 30
0.0
 10
6760.634879711579
 20
5414.064216399644
 30
0.0
 10
6760.767052375945
 20
5413.666041444582
 30
0.0
 10
6760.91668615509
 20
5413.216253565931
 30
0.0
 10
6761.054181470196
 20
5412.805871897005
 30
0.0
 10
6761.175748308578
 20
5412.44558635987
 30
0.0
 10
6761.27341223298
 20
5412.160383034242
 30
0.0
 10
6761.345740710243
 20
5411.947469714681
 30
0.0
 10
6761.386258271602
 20
5411.830605536366
 30
0.0
 10
6761.472818402606
 20
5411.580287438243
 30
0.0
 10
6761.599806572975
 20
5411.213426197251
 30
0.0
 10
6761.717441875267
 20
5410.871738818278
 30
0.0
 10
6761.748524359388
 20
5410.784166550308
 30
0.0
 10
6761.735559247901
 20
5410.820059717093
 30
0.0
 10
6761.71463948215
 20
5410.882356082906
 30
0.0
 10
6761.699240958825
 20
5410.925291408909
 30
0.0
 10
6761.772196731475
 20
5410.713009298405
 30
0.0
 10
6761.914510808911
 20
5410.298759119748
 30
0.0
 10
6762.118219847354
 20
5409.707138643998
 30
0.0
 10
6762.365113341811
 20
5408.996924195901
 30
0.0
 10
6762.65144466445
 20
5408.182222332759
 30
0.0
 10
6762.929106047758
 20
5407.401039189577
 30
0.0
 10
6763.138572352783
 20
5406.812466989131
 30
0.0
 10
6763.362944572876
 20
5406.189906185717
 30
0.0
 10
6763.646681555339
 20
5405.407080161942
 30
0.0
 10
6764.136639256303
 20
5404.072915451642
 30
0.0
 10
6764.945247528741
 20
5401.911697401328
 30
0.0
 10
6765.823681857677
 20
5399.630344169671
 30
0.0
 10
6766.466073549738
 20
5398.044275925349
 30
0.0
 10
6766.705285625903
 20
5397.453660133843
 30
0.0
  0
SPLINE
  5
163
330
1F
100
AcDbEntity
  8
0
  6
Continuous
 62
     7
370
    25
100
AcDbSpline
210
0.0
220
0.0
230
1.0
 70
     8
 71
     3
 72
    14
 73
    10
 74
     0
 42
0.000000001
 43
0.00000001
 40
0.0
 40
0.0
 40
0.0
 40
0.0
 40
0.0127929111868582
 40
0.1711498139732177
 40
0.3417242993193661
 40
0.5240895630960004
 40
0.7015041929206873
 40
0.8655350789253564
 40
1.0
 40
1.0
 40
1.0
 40
1.0
 10
6777.662526684254
 20
5374.591106537347
 30
0.0
 10
6777.756494639906
 20
5374.419579666121
 30
0.0
 10
6779.013643845002
 20
5372.124809408362
 30
0.0
 10
6781.660848682598
 20
5367.952597342702
 30
0.0
 10
6785.725264702747
 20
5362.063833416735
 30
0.0
 10
6790.136812474042
 20
5356.612997773896
 30
0.0
 10
6794.661907025147
 20
5351.86921906231
 30
0.0
 10
6798.91411870339
 20
5348.104364687136
 30
0.0
 10
6801.665120672565
 20
5346.128266804026
 30
0.0
 10
6802.904378490894
 20
5345.238083961968
 30
0.0
  0
SPLINE
  5
164
330
1F
100
AcDbEntity
  8
0
  6
Continuous
 62
     7
370
    25
100
AcDbSpline
210
0.0
220
0.0
230
1.0
 70
     8
 71
     3
 72
    34
 73
    30
 74
     0
 42
0.000000001
 43
0.00000001
 40
0.0
 40
0.0
 40
0.0
 40
0.0
 40
0.0108185026551577
 40
0.0569427504255991
 40
0.0948154145867007
 40
0.1247601169944658
 40
0.1422772558666319
 40
0.1558549935522179
 40
0.1659908364059661
 40
0.1700834148724271
 40
0.1737891702756079
 40
0.1830843923798715
 40
0.1954575396991559
 40
0.2211403327205943
 40
0.2658023942604634
 40
0.3139919075945565
 40
0.357215060379268
 40
0.3956649489546339
 40
0.429507743521449
 40
0.4627731643359146
 40
0.5037489173526815
 40
0.5464292867683596
 40
0.5955111583510079
 40
0.6509175947487291
 40
0.7126091237131145
 40
0.7806510440700437
 40
0.8549236470697634
 40
0.9351282044029192
 40
0.9999999999999999
 40
0.9999999999999999
 40
0.9999999999999999
 40
0.9999999999999999
 10
6792.928468304126
 20
5354.938859108453
 30
0.0
 10
6792.9240261027
 20
5354.942015251209
 30
0.0
 10
6792.900644755461
 20
5354.958627480743
 30
0.0
 10
6792.97054916172
 20
5354.868459244978
 30
0.0
 10
6793.155358940975
 20
5354.649832813344
 30
0.0
 10
6793.434615687036
 20
5354.333691600772
 30
0.0
 10
6793.771853441221
 20
5353.961097082924
 30
0.0
 10
6794.112510765723
 20
5353.589273696827
 30
0.0
 10
6794.468876416749
 20
5353.206559664143
 30
0.0
 10
6794.791226039138
 20
5352.864177580944
 30
0.0
 10
6795.158931337372
 20
5352.476781254574
 30
0.0
 10
6795.745256113493
 20
5351.866705358292
 30
0.0
 10
6796.833303761487
 20
5350.758396261798
 30
0.0
 10
6798.786415570675
 20
5348.839393853214
 30
0.0
 10
6801.680430335163
 20
5346.194157690272
 30
0.0
 10
6805.161013181839
 20
5343.318719660627
 30
0.0
 10
6808.629168401963
 20
5340.750144698108
 30
0.0
 10
6811.827129410995
 20
5338.62158085724
 30
0.0
 10
6814.821182441722
 20
5336.825650467837
 30
0.0
 10
6817.960279168624
 20
5335.111319336393
 30
0.0
 10
6821.434998569805
 20
5333.359283178577
 30
0.0
 10
6825.394615618426
 20
5331.479303153202
 30
0.0
 10
6829.784789434098
 20
5329.440422871596
 30
0.0
 10
6834.784552797743
 20
5327.27337973843
 30
0.0
 10
6840.469223294383
 20
5325.161598340394
 30
0.0
 10
6846.904704562523
 20
5323.353689277969
 30
0.0
 10
6854.083434484287
 20
5321.990350532752
 30
0.0
 10
6861.283132039945
 20
5321.180416707452
 30
0.0
 10
6866.09872678827
 20
5321.190494446992
 30
0.0
 10
6868.252049999683
 20
5321.19500077105
 30
0.0
  0
SPLINE
  5
165
330
1F
100
AcDbEntity
  8
0
  6
Continuous
 62
     7
370
    25
100
AcDbSpline
210
0.0
220
0.0
230
1.0
 70
     8
 71
     3
 72
    37
 73
    33
 74
     0
 42
0.000000001
 43
0.00000001
 40
0.0
 40
0.0
 40
0.0
 40
0.0
 40
0.0029953955249741
 40
0.035499688393805
 40
0.0685144167194672
 40
0.101343117942538
 40
0.1251645115013657
 40
0.1468011518925374
 40
0.1684279875036347
 40
0.1903538404835317
 40
0.2124770266230938
 40
0.2590748890524823
 40
0.3093086832203376
 40
0.3630915281368974
 40
0.4186201929217337
 40
0.4748521720676416
 40
0.5222666832882634
 40
0.5699651112986581
 40
0.6177345452512791
 40
0.6643153446281748
 40
0.7095270569931301
 40
0.7534449323519825
 40
0.8010287140281295
 40
0.84680166850457
 40
0.8906130735190841
 40
0.9183054455092244
 40
0.9444695957125253
 40
0.9523457597941029
 40
0.9609149203748085
 40
0.9724674691183808
 40
0.9870776540733462
 40
1.0
 40
1.0
 40
1.0
 40
1.0
 10
6963.670980053394
 20
5321.323866013055
 30
0.0
 10
6963.659449334476
 20
5321.323214820666
 30
0.0
 10
6963.522793949519
 20
5321.315497266607
 30
0.0
 10
6964.105065044521
 20
5321.345449338285
 30
0.0
 10
6965.527614025254
 20
5321.427571362174
 30
0.0
 10
6967.516016883558
 20
5321.571373451018
 30
0.0
 10
6969.514012127186
 20
5321.747738788349
 30
0.0
 10
6971.642122506333
 20
5321.968704140295
 30
0.0
 10
6973.979129552247
 20
5322.254119038281
 30
0.0
 10
6976.598141906651
 20
5322.62656264459
 30
0.0
 10
6980.689308565963
 20
5323.310495627528
 30
0.0
 10
6986.189708064424
 20
5324.462869869891
 30
0.0
 10
6993.184087270509
 20
5326.397233773248
 30
0.0
 10
7000.502790520607
 20
5329.078865276059
 30
0.0
 10
7007.873048941987
 20
5332.550774280005
 30
0.0
 10
7014.872323609939
 20
5336.309072929147
 30
0.0
 10
7021.553036288052
 20
5340.104582889518
 30
0.0
 10
7027.807769345781
 20
5344.202859996457
 30
0.0
 10
7033.889360416555
 20
5349.076718403891
 30
0.0
 10
7039.593897970597
 20
5354.932231982131
 30
0.0
 10
7044.822732988117
 20
5361.571137117113
 30
0.0
 10
7049.7829219648
 20
5369.002046350342
 30
0.0
 10
7054.459465530064
 20
5377.085239155141
 30
0.0
 10
7058.850224205552
 20
5385.668652627141
 30
0.0
 10
7062.398574004918
 20
5393.352344795945
 30
0.0
 10
7065.227761004978
 20
5399.936637773259
 30
0.0
 10
7066.962569155317
 20
5404.180546506408
 30
0.0
 10
7068.137804110301
 20
5407.14221367673
 30
0.0
 10
7068.90392615909
 20
5409.098520975625
 30
0.0
 10
7069.843968353472
 20
5411.541822786998
 30
0.0
 10
7070.889626960023
 20
5414.308066737872
 30
0.0
 10
7071.610132759681
 20
5416.276540677677
 30
0.0
 10
7071.94830091521
 20
5417.200440529351
 30
0.0
  0
ARC
  5
166
330
1F
100
AcDbEntity
  8
0
  6
Continuous
 62
     7
370
    25
100
AcDbCircle
 10
6868.2670177848
 20
5317.1237220758
 30
0.0
 40
4.000000000000247
100
AcDbArc
 50
15.0603433113
 51
90.1954875992
  0
SPLINE
  5
167
330
1F
100
AcDbEntity
  8
0
  6
Continuous
 62
     7
370
    25
100
AcDbSpline
210
0.0
220
0.0
230
1.0
 70
     8
 71
     3
 72
    16
 73
    12
 74
     0
 42
0.000000001
 43
0.00000001
 40
0.0
 40
0.0
 40
0.0
 40
0.0
 40
0.1238050830812494
 40
0.386478657419027
 40
0.5980687148096338
 40
0.7479850707418942
 40
0.8112193496375983
 40
0.8541592421926606
 40
0.8998152374574114
 40
0.9711234673684971
 40
1.0
 40
1.0
 40
1.0
 40
1.0
 10
6961.492787914722
 20
5320.684546593194
 30
0.0
 10
6961.568389866328
 20
5320.72878914842
 30
0.0
 10
6961.804394237296
 20
5320.866899821413
 30
0.0
 10
6962.208103071743
 20
5321.004401770916
 30
0.0
 10
6962.634675824802
 20
5321.108187087578
 30
0.0
 10
6962.93459045789
 20
5321.14823831553
 30
0.0
 10
6963.096842875655
 20
5321.161299193833
 30
0.0
 10
6963.164371385505
 20
5321.165210794486
 30
0.0
 10
6963.20606684643
 20
5321.167025405397
 30
0.0
 10
6963.228569634109
 20
5321.167818373847
 30
0.0
 10
6963.229976899265
 20
5321.167912990656
 30
0.0
 10
6963.230382519214
 20
5321.167940262322
 30
0.0
  0
LINE
  5
168
330
1F
100
AcDbEntity
  8
0
  6
Continuous
 62
     7
370
    25
100
AcDbLine
 10
6755.8162322812
 20
5157.1994963918
 30
0.0
 11
6755.8162322812
 21
5077.1994534764
 31
0.0
  0
LINE
  5
169
330
1F
100
AcDbEntity
  8
0
  6
Continuous
 62
     7
370
    25
100
AcDbLine
 10
6790.8160796933
 20
5137.199396256
 30
0.0
 11
6790.8160796933
 21
5097.1994344029
 31
0.0
  0
LINE
  5
16A
330
1F
100
AcDbEntity
  8
0
  6
Continuous
 62
     7
370
    25
100
AcDbLine
 10
6745.8160033993
 20
5137.199396256
 30
0.0
 11
6745.8160033993
 21
5097.1994344029
 31
0.0
  0
LINE
  5
16B
330
1F
100
AcDbEntity
  8
0
  6
Continuous
 62
     7
370
    25
100
AcDbLine
 10
6881.8161598019
 20
5079.1994277272
 30
0.0
 11
6949.8159995846
 21
5079.1994277272
 31
0.0
  0
SPLINE
  5
16C
330
1F
100
AcDbEntity
  8
0
  6
Continuous
 62
     7
370
    25
100
AcDbSpline
210
0.0
220
0.0
230
1.0
 70
     8
 71
     3
 72
    26
 73
    22
 74
     0
 42
0.000000001
 43
0.00000001
 40
0.0
 40
0.0
 40
0.0
 40
0.0
 40
0.0518162850664237
 40
0.1113810647931919
 40
0.1722822755659778
 40
0.2246879008320087
 40
0.2783592092060609
 40
0.3194176665828299
 40
0.3616211452943473
 40
0.4027072907576421
 40
0.4449493843887367
 40
0.5015065462302224
 40
0.5596416428445581
 40
0.6344139646960868
 40
0.7113471836439297
 40
0.7733901747970815
 40
0.837063269516858
 40
0.8877157362377247
 40
0.939748252386618
 40
0.9904520136794518
 40
0.9999999999999999
 40
0.9999999999999999
 40
0.9999999999999999
 40
0.9999999999999999
 10
6890.59425504729
 20
5136.547083023553
 30
0.0
 10
6890.921499811264
 20
5136.029079226852
 30
0.0
 10
6891.62492481004
 20
5134.915610471429
 30
0.0
 10
6892.883890999516
 20
5132.721313008024
 30
0.0
 10
6894.146509820052
 20
5130.185814749747
 30
0.0
 10
6895.245080801964
 20
5127.412908150666
 30
0.0
 10
6895.988113781515
 20
5124.715260396724
 30
0.0
 10
6896.363295543602
 20
5122.028259903007
 30
0.0
 10
6896.387785135937
 20
5119.497603304266
 30
0.0
 10
6896.067170086996
 20
5116.932468466787
 30
0.0
 10
6895.368361972282
 20
5114.144134004621
 30
0.0
 10
6894.232202695433
 20
5111.175413406517
 30
0.0
 10
6892.571303970198
 20
5107.861475478496
 30
0.0
 10
6890.558512844421
 20
5104.531710911745
 30
0.0
 10
6888.517885038437
 20
5101.550469870688
 30
0.0
 10
6886.745641788029
 20
5099.131323732939
 30
0.0
 10
6885.429087801002
 20
5097.41036268401
 30
0.0
 10
6884.462344408879
 20
5096.177640591685
 30
0.0
 10
6883.898037409657
 20
5095.468149138998
 30
0.0
 10
6883.645940092645
 20
5095.153292053597
 30
0.0
 10
6883.702195910179
 20
5095.223603908406
 30
0.0
 10
6883.711110668629
 20
5095.234746101861
 30
0.0
  0
LINE
  5
16D
330
1F
100
AcDbEntity
  8
0
  6
Continuous
 62
     7
370
    25
100
AcDbLine
 10
6871.8159309201
 20
5144.6994487081
 30
0.0
 11
6871.8159309201
 21
5089.6995011601
 31
0.0
  0
LINE
  5
16E
330
1F
100
AcDbEntity
  8
0
  6
Continuous
 62
     7
370
    25
100
AcDbLine
 10
6867.8162208371
 20
5143.1994382176
 30
0.0
 11
6867.8162208371
 21
5091.1995116506
 31
0.0
  0
ARC
  5
16F
330
1F
100
AcDbEntity
  8
0
  6
Continuous
 62
     7
370
    25
100
AcDbCircle
 10
6893.4473660508
 20
5136.340718981
 30
0.0
 40
2.860564370296984
100
AcDbArc
 50
92.0290909883
 51
175.863030138
  0
LINE
  5
170
330
1F
100
AcDbEntity
  8
0
  6
Continuous
 62
     7
370
    25
100
AcDbLine
 10
6893.3460822873
 20
5139.1994897161
 30
0.0
 11
6940.1457420163
 21
5139.1994897161
 31
0.0
  0
LINE
  5
171
330
1F
100
AcDbEntity
  8
0
  6
Continuous
 62
     7
370
    25
100
AcDbLine
 10
6891.6943183713
 20
5009.1994944844
 30
0.0
 11
6939.9378410153
 21
5009.1994944844
 31
0.0
  0
LINE
  5
172
330
1F
100
AcDbEntity
  8
0
  6
Continuous
 62
     7
370
    25
100
AcDbLine
 10
6855.8161369137
 20
5140.1994172368
 30
0.0
 11
6855.8161369137
 21
5094.1994134221
 31
0.0
  0
LINE
  5
173
330
1F
100
AcDbEntity
  8
0
  6
Continuous
 62
     7
370
    25
100
AcDbLine
 10
6892.8158393674
 20
5145.6994954381
 30
0.0
 11
6938.8158431821
 21
5145.6994954381
 31
0.0
  0
LINE
  5
174
330
1F
100
AcDbEntity
  8
0
  6
Continuous
 62
     7
370
    25
100
AcDbLine
 10
6890.8159843259
 20
5141.6994277272
 30
0.0
 11
6940.8161750607
 21
5141.6994277272
 31
0.0
  0
LINE
  5
175
330
1F
100
AcDbEntity
  8
0
  6
Continuous
 62
     7
370
    25
100
AcDbLine
 10
6895.8160987668
 20
5155.6994859014
 30
0.0
 11
6935.8160606198
 21
5155.6994859014
 31
0.0
  0
SPLINE
  5
176
330
1F
100
AcDbEntity
  8
0
  6
Continuous
 62
     7
370
    25
100
AcDbSpline
210
0.0
220
0.0
230
1.0
 70
     8
 71
     3
 72
    11
 73
     7
 74
     0
 42
0.000000001
 43
0.00000001
 40
0.0
 40
0.0
 40
0.0
 40
0.0
 40
0.1561471647966867
 40
0.4307983138940106
 40
0.7130079957813447
 40
1.0
 40
1.0
 40
1.0
 40
1.0
 10
6888.816129284352
 20
5139.199489716058
 30
0.0
 10
6888.825458319548
 20
5139.185931867573
 30
0.0
 10
6888.851196427813
 20
5139.148526780683
 30
0.0
 10
6889.135925106984
 20
5138.73999580667
 30
0.0
 10
6889.718469521306
 20
5137.891268205284
 30
0.0
 10
6890.300695954052
 20
5136.997647427035
 30
0.0
 10
6890.59425504729
 20
5136.547083023553
 30
0.0
  0
SPLINE
  5
177
330
1F
100
AcDbEntity
  8
0
  6
Continuous
 62
     7
370
    25
100
AcDbSpline
210
0.0
220
0.0
230
1.0
 70
    24
 71
     3
 72
    12
 73
     8
 74
     0
 42
0.000000001
 43
0.00000001
 40
0.0
 40
0.0
 40
0.0
 40
0.0
 40
0.0026510083762492
 40
0.0516628315632542
 40
0.3670736838501296
 40
0.731146361059412
 40
0.9999999999999999
 40
0.9999999999999999
 40
0.9999999999999999
 40
0.9999999999999999
 10
6888.816129284351
 20
5139.199489716058
 30
0.0
 10
6888.81946440367
 20
5139.199489716058
 30
0.0
 10
6888.884459184223
 20
5139.199489716055
 30
0.0
 10
6889.368446133461
 20
5139.199489716067
 30
0.0
 10
6890.451580373054
 20
5139.199489716054
 30
0.0
 10
6892.046710995339
 20
5139.199489716059
 30
0.0
 10
6892.958692106115
 20
5139.199489716058
 30
0.0
 10
6893.34608228728
 20
5139.199489716058
 30
0.0
  0
LINE
  5
178
330
1F
100
AcDbEntity
  8
0
  6
Continuous
 62
     7
370
    25
100
AcDbLine
 10
6944.2417732052
 20
5269.8994818959
 30
0.0
 11
6945.8158126645
 21
5269.8994818959
 31
0.0
  0
LINE
  5
179
330
1F
100
AcDbEntity
  8
0
  6
Continuous
 62
     7
370
    25
100
AcDbLine
 10
6885.8158698849
 20
5269.8994818959
 30
0.0
 11
6944.2417732052
 21
5269.8994818959
 31
0.0
  0
LINE
  5
17A
330
1F
100
AcDbEntity
  8
0
  6
Continuous
 62
     7
370
    25
100
AcDbLine
 10
6942.3468223385
 20
5265.8994141851
 30
0.0
 11
6943.815957623
 21
5265.8994141851
 31
0.0
  0
LINE
  5
17B
330
1F
100
AcDbEntity
  8
0
  6
Continuous
 62
     7
370
    25
100
AcDbLine
 10
6887.8162017636
 20
5265.8994141851
 30
0.0
 11
6942.3468223385
 21
5265.8994141851
 31
0.0
  0
LINE
  5
17C
330
1F
100
AcDbEntity
  8
0
  6
Continuous
 62
     7
370
    25
100
AcDbLine
 10
6939.5043960385
 20
5255.8994237218
 30
0.0
 11
6940.8161750607
 21
5255.8994237218
 31
0.0
  0
LINE
  5
17D
330
1F
100
AcDbEntity
  8
0
  6
Continuous
 62
     7
370
    25
100
AcDbLine
 10
6890.8159843259
 20
5255.8994237218
 30
0.0
 11
6939.5043960385
 21
5255.8994237218
 31
0.0
  0
ARC
  5
17E
330
1F
100
AcDbEntity
  8
0
  6
Continuous
 62
     7
370
    25
100
AcDbCircle
 10
6838.0245489695
 20
5231.6118726912
 30
0.0
 40
141.3255248345051
100
AcDbArc
 50
117.913733449
 51
119.9263147025
  0
LWPOLYLINE
  5
17F
330
1F
100
AcDbEntity
  8
0
  6
Continuous
 62
     7
370
    25
100
AcDbPolyline
 90
        8
 70
   128
 43
0.0
 10
6781.5158477597
 20
5361.5716639791
 10
6781.5215698056
 20
5361.5751210485
 10
6780.9641471677
 20
5361.3099995885
 10
6780.3065887265
 20
5360.9735909734
 10
6779.424916821
 20
5360.5154696736
 10
6778.3563247494
 20
5359.9551860127
 10
6777.1389594845
 20
5359.3126479421
 10
6776.2916198544
 20
5358.8629905019
  0
LINE
  5
180
330
1F
100
AcDbEntity
  8
0
  6
Continuous
 62
     7
370
    25
100
AcDbLine
 10
6874.8161903195
 20
5308.7494317327
 30
0.0
 11
6874.8161903195
 21
5269.24943364
 31
0.0
  0
LINE
  5
181
330
1F
100
AcDbEntity
  8
0
  6
Continuous
 62
     7
370
    25
100
AcDbLine
 10
6871.8159309201
 20
5308.7494317327
 30
0.0
 11
6871.8159309201
 21
5269.24943364
 31
0.0
  0
ARC
  5
182
330
1F
100
AcDbEntity
  8
0
  6
Continuous
 62
     7
370
    25
100
AcDbCircle
 10
6862.6909566086
 20
5288.8539973531
 30
0.0
 40
1.874923718780894
100
AcDbArc
 50
89.993324323
 51
270.006675677
  0
LINE
  5
183
330
1F
100
AcDbEntity
  8
0
  6
Continuous
 62
     7
370
    25
100
AcDbLine
 10
6871.8159309201
 20
5290.7289210591
 30
0.0
 11
6862.6911750607
 21
5290.7289210591
 31
0.0
  0
LINE
  5
184
330
1F
100
AcDbEntity
  8
0
  6
Continuous
 62
     7
370
    25
100
AcDbLine
 10
6862.6911750607
 20
5286.979073647
 30
0.0
 11
6871.8159309201
 21
5286.979073647
 31
0.0
  0
SPLINE
  5
185
330
1F
100
AcDbEntity
  8
0
  6
Continuous
 62
     7
370
    25
100
AcDbSpline
210
0.0
220
0.0
230
1.0
 70
     8
 71
     3
 72
    12
 73
     8
 74
     0
 42
0.000000001
 43
0.00000001
 40
0.0
 40
0.0
 40
0.0
 40
0.0
 40
0.1442504816660332
 40
0.3578374452814942
 40
0.5720331227739462
 40
0.7870416978098531
 40
1.0
 40
1.0
 40
1.0
 40
1.0
 10
6862.691175060718
 20
5290.733570221429
 30
0.0
 10
6862.549873844558
 20
5290.724070452287
 30
0.0
 10
6862.199352545623
 20
5290.70050468612
 30
0.0
 10
6861.671805056909
 20
5290.472938886904
 30
0.0
 10
6861.198558066129
 20
5290.048583706392
 30
0.0
 10
6860.877565723263
 20
5289.48756123473
 30
0.0
 10
6860.836624097466
 20
5289.067056937924
 30
0.0
 10
6860.816251354663
 20
5288.857812050347
 30
0.0
  0
LINE
  5
186
330
1F
100
AcDbEntity
  8
0
  6
Continuous
 62
     7
370
    25
100
AcDbLine
 10
6862.6911750607
 20
5290.7335702214
 30
0.0
 11
6862.6911750607
 21
5290.7289210591
 31
0.0
  0
LINE
  5
187
330
1F
100
AcDbEntity
  8
0
  6
Continuous
 62
     7
370
    25
100
AcDbLine
 10
6871.8159309201
 20
5290.7335702214
 30
0.0
 11
6862.6911750607
 21
5290.7335702214
 31
0.0
  0
LINE
  5
188
330
1F
100
AcDbEntity
  8
0
  6
Continuous
 62
     7
370
    25
100
AcDbLine
 10
6860.8162513547
 20
5301.9803706441
 30
0.0
 11
6860.8162513547
 21
5288.8578120503
 31
0.0
  0
LINE
  5
189
330
1F
100
AcDbEntity
  8
0
  6
Continuous
 62
     7
370
    25
100
AcDbLine
 10
6860.8162513547
 20
5288.8578120503
 30
0.0
 11
6860.8162513547
 21
5275.8182231221
 31
0.0
  0
LINE
  5
18A
330
1F
100
AcDbEntity
  8
0
  6
Continuous
 62
     7
370
    25
100
AcDbLine
 10
6858.815919476
 20
5305.4994288716
 30
0.0
 11
6858.815919476
 21
5272.499436501
 31
0.0
  0
SPLINE
  5
18B
330
1F
100
AcDbEntity
  8
0
  6
Continuous
 62
     7
370
    25
100
AcDbSpline
210
0.0
220
0.0
230
1.0
 70
     8
 71
     3
 72
    13
 73
     9
 74
     0
 42
0.000000001
 43
0.00000001
 40
0.0
 40
0.0
 40
0.0
 40
0.0
 40
0.0017119496345013
 40
0.2153765182710572
 40
0.4290356084542409
 40
0.6436717576175154
 40
0.8587250694485656
 40
1.0
 40
1.0
 40
1.0
 40
1.0
 10
6860.816251354663
 20
5301.980370644097
 30
0.0
 10
6860.81625058012
 20
5301.979178634571
 30
0.0
 10
6860.816153136647
 20
5301.829214607405
 30
0.0
 10
6860.889220650401
 20
5301.522596729394
 30
0.0
 10
6861.199036415126
 20
5301.104008062344
 30
0.0
 10
6861.677119663223
 20
5300.778858851296
 30
0.0
 10
6862.2036953255
 20
5300.602814514187
 30
0.0
 10
6862.552774283786
 20
5300.584783689513
 30
0.0
 10
6862.691175060718
 20
5300.577634933953
 30
0.0
  0
LINE
  5
18C
330
1F
100
AcDbEntity
  8
0
  6
Continuous
 62
     7
370
    25
100
AcDbLine
 10
6862.6911750607
 20
5300.577634934
 30
0.0
 11
6871.8159309201
 21
5300.577634934
 31
0.0
  0
LINE
  5
18D
330
1F
100
AcDbEntity
  8
0
  6
Continuous
 62
     7
370
    25
100
AcDbLine
 10
6871.8159309201
 20
5277.2017661367
 30
0.0
 11
6862.6911750607
 21
5277.2017661367
 31
0.0
  0
SPLINE
  5
18E
330
1F
100
AcDbEntity
  8
0
  6
Continuous
 62
     7
370
    25
100
AcDbSpline
210
0.0
220
0.0
230
1.0
 70
     8
 71
     3
 72
    12
 73
     8
 74
     0
 42
0.000000001
 43
0.00000001
 40
0.0
 40
0.0
 40
0.0
 40
0.0
 40
0.1442522020777043
 40
0.3578342404352895
 40
0.5720319384829117
 40
0.7870474450184727
 40
1.0
 40
1.0
 40
1.0
 40
1.0
 10
6862.691175060718
 20
5277.201766136651
 30
0.0
 10
6862.549875030835
 20
5277.194405658019
 30
0.0
 10
6862.199363994341
 20
5277.176147141042
 30
0.0
 10
6861.671792901242
 20
5277.000650924225
 30
0.0
 10
6861.198554396416
 20
5276.679484748473
 30
0.0
 10
6860.877572605656
 20
5276.264665007686
 30
0.0
 10
6860.836625979441
 20
5275.966558091751
 30
0.0
 10
6860.816251354663
 20
5275.818223122124
 30
0.0
  0
LWPOLYLINE
  5
18F
330
1F
100
AcDbEntity
  8
0
  6
Continuous
 62
     7
370
    25
100
AcDbPolyline
 90
        9
 70
   128
 43
0.0
 10
6862.6911750607
 20
5303.6671820912
 10
6861.9735351376
 20
5303.5654965673
 10
6861.3650909238
 20
5303.2759372029
 10
6860.958825665
 20
5302.8424922261
 10
6860.8162513547
 20
5302.3312035832
 10
6860.958825665
 20
5301.8200341497
 10
6861.3650909238
 20
5301.3865891728
 10
6861.9735351376
 20
5301.0970298085
 10
6862.6911750607
 20
5300.9953442845
  0
LINE
  5
190
330
1F
100
AcDbEntity
  8
0
  6
Continuous
 62
     7
370
    25
100
AcDbLine
 10
6871.8159309201
 20
5303.6671820912
 30
0.0
 11
6862.6911750607
 21
5303.6671820912
 31
0.0
  0
LINE
  5
191
330
1F
100
AcDbEntity
  8
0
  6
Continuous
 62
     7
370
    25
100
AcDbLine
 10
6862.6911750607
 20
5300.9953442845
 30
0.0
 11
6871.8159309201
 21
5300.9953442845
 31
0.0
  0
LINE
  5
192
330
1F
100
AcDbEntity
  8
0
  6
Continuous
 62
     7
370
    25
100
AcDbLine
 10
6862.6911750607
 20
5300.577634934
 30
0.0
 11
6862.6911750607
 21
5300.9953442845
 31
0.0
  0
LWPOLYLINE
  5
193
330
1F
100
AcDbEntity
  8
0
  6
Continuous
 62
     7
370
    25
100
AcDbPolyline
 90
        9
 70
   128
 43
0.0
 10
6862.6911750607
 20
5276.7776194844
 10
6861.9735351376
 20
5276.6774836812
 10
6861.3650909238
 20
5276.3922158513
 10
6860.958825665
 20
5275.9654465947
 10
6860.8162513547
 20
5275.4620257649
 10
6860.958825665
 20
5274.9584857259
 10
6861.3650909238
 20
5274.5317164693
 10
6861.9735351376
 20
5274.2464486394
 10
6862.6911750607
 20
5274.1463128362
  0
LINE
  5
194
330
1F
100
AcDbEntity
  8
0
  6
Continuous
 62
     7
370
    25
100
AcDbLine
 10
6862.6911750607
 20
5277.2017661367
 30
0.0
 11
6862.6911750607
 21
5276.7776194844
 31
0.0
  0
LINE
  5
195
330
1F
100
AcDbEntity
  8
0
  6
Continuous
 62
     7
370
    25
100
AcDbLine
 10
6871.8159309201
 20
5276.7776194844
 30
0.0
 11
6862.6911750607
 21
5276.7776194844
 31
0.0
  0
LINE
  5
196
330
1F
100
AcDbEntity
  8
0
  6
Continuous
 62
     7
370
    25
100
AcDbLine
 10
6862.6911750607
 20
5274.1463128362
 30
0.0
 11
6871.8159309201
 21
5274.1463128362
 31
0.0
  0
SPLINE
  5
197
330
1F
100
AcDbEntity
  8
0
  6
Continuous
 62
     7
370
    25
100
AcDbSpline
210
0.0
220
0.0
230
1.0
 70
     8
 71
     3
 72
    13
 73
     9
 74
     0
 42
0.000000001
 43
0.00000001
 40
0.0
 40
0.0
 40
0.0
 40
0.0
 40
0.0017125880402739
 40
0.2153895118760941
 40
0.4290297190723135
 40
0.6436763198186968
 40
0.8587263408377032
 40
0.9999999999999999
 40
0.9999999999999999
 40
0.9999999999999999
 40
0.9999999999999999
 10
6860.816251354663
 20
5307.498926285271
 30
0.0
 10
6860.816250579858
 20
5307.498926425824
 30
0.0
 10
6860.816153133864
 20
5307.498944102867
 30
0.0
 10
6860.889194200689
 20
5307.485694207752
 30
0.0
 10
6861.199074504807
 20
5307.453698078817
 30
0.0
 10
6861.677094266138
 20
5307.416582283359
 30
0.0
 10
6862.203699167547
 20
5307.392881865083
 30
0.0
 10
6862.552774997581
 20
5307.390283806017
 30
0.0
 10
6862.691175060718
 20
5307.389253738885
 30
0.0
  0
LINE
  5
198
330
1F
100
AcDbEntity
  8
0
  6
Continuous
 62
     7
370
    25
100
AcDbLine
 10
6862.6911750607
 20
5307.3892537389
 30
0.0
 11
6871.8159309201
 21
5307.3892537389
 31
0.0
  0
LINE
  5
199
330
1F
100
AcDbEntity
  8
0
  6
Continuous
 62
     7
370
    25
100
AcDbLine
 10
6871.8159309201
 20
5270.580882195
 30
0.0
 11
6862.6911750607
 21
5270.580882195
 31
0.0
  0
SPLINE
  5
19A
330
1F
100
AcDbEntity
  8
0
  6
Continuous
 62
     7
370
    25
100
AcDbSpline
210
0.0
220
0.0
230
1.0
 70
     8
 71
     3
 72
    12
 73
     8
 74
     0
 42
0.000000001
 43
0.00000001
 40
0.0
 40
0.0
 40
0.0
 40
0.0
 40
0.1516732269929264
 40
0.3762387392759147
 40
0.6014685388203238
 40
0.8275570560560401
 40
1.0
 40
1.0
 40
1.0
 40
1.0
 10
6862.691175060718
 20
5270.580882195
 30
0.0
 10
6862.549895826865
 20
5270.579990280307
 30
0.0
 10
6862.199440298987
 20
5270.577777807702
 30
0.0
 10
6861.671330115075
 20
5270.557173840537
 30
0.0
 10
6861.200183560301
 20
5270.52732959012
 30
0.0
 10
6860.896569646492
 20
5270.50303751765
 30
0.0
 10
6860.857149953543
 20
5270.501790129406
 30
0.0
 10
6860.840093212573
 20
5270.50125038958
 30
0.0
  0
LWPOLYLINE
  5
19B
330
1F
100
AcDbEntity
  8
0
  6
Continuous
 62
     7
370
    25
100
AcDbPolyline
 90
        9
 70
   128
 43
0.0
 10
6862.6911750607
 20
5308.0131951604
 10
6861.9735351376
 20
5308.0121222768
 10
6861.3650909238
 20
5308.0090228353
 10
6860.958825665
 20
5308.004373673
 10
6860.8162513547
 20
5307.9988900456
 10
6860.958825665
 20
5307.9934064183
 10
6861.3650909238
 20
5307.988757256
 10
6861.9735351376
 20
5307.9856578145
 10
6862.6911750607
 20
5307.9845849309
  0
LINE
  5
19C
330
1F
100
AcDbEntity
  8
0
  6
Continuous
 62
     7
370
    25
100
AcDbLine
 10
6871.8159309201
 20
5308.0131951604
 30
0.0
 11
6862.6911750607
 21
5308.0131951604
 31
0.0
  0
LINE
  5
19D
330
1F
100
AcDbEntity
  8
0
  6
Continuous
 62
     7
370
    25
100
AcDbLine
 10
6862.6911750607
 20
5307.9845849309
 30
0.0
 11
6871.8159309201
 21
5307.9845849309
 31
0.0
  0
LINE
  5
19E
330
1F
100
AcDbEntity
  8
0
  6
Continuous
 62
     7
370
    25
100
AcDbLine
 10
6862.6911750607
 20
5307.3892537389
 30
0.0
 11
6862.6911750607
 21
5307.9845849309
 31
0.0
  0
ARC
  5
19F
330
1F
100
AcDbEntity
  8
0
  6
Continuous
 62
     7
370
    25
100
AcDbCircle
 10
6862.2207419929
 20
5331.2047288873
 30
0.0
 40
61.22086615141725
100
AcDbArc
 50
268.6854409054
 51
270.4402762699
  0
LINE
  5
1A0
330
1F
100
AcDbEntity
  8
0
  6
Continuous
 62
     7
370
    25
100
AcDbLine
 10
6862.6911750607
 20
5270.580882195
 30
0.0
 11
6862.6911750607
 21
5269.9856702123
 31
0.0
  0
LINE
  5
1A1
330
1F
100
AcDbEntity
  8
0
  6
Continuous
 62
     7
370
    25
100
AcDbLine
 10
6871.8159309201
 20
5269.9856702123
 30
0.0
 11
6862.6911750607
 21
5269.9856702123
 31
0.0
  0
LWPOLYLINE
  5
1A2
330
1F
100
AcDbEntity
  8
0
  6
Continuous
 62
     7
370
    25
100
AcDbPolyline
 90
        9
 70
   128
 43
0.0
 10
6759.8149886899
 20
5410.4045573506
 10
6759.8331085019
 20
5410.3707019124
 10
6759.8869911008
 20
5410.2702084813
 10
6759.9737754635
 20
5410.1070109639
 10
6760.0906005673
 20
5409.8874274526
 10
6760.2331748776
 20
5409.6199218068
 10
6760.3957763486
 20
5409.3146268163
 10
6760.5717292599
 20
5408.9833442006
 10
6760.7548347287
 20
5408.6389485631
  0
LINE
  5
1A3
330
1F
100
AcDbEntity
  8
0
  6
Continuous
 62
     7
370
    25
100
AcDbLine
 10
6760.7548347287
 20
5408.6389485631
 30
0.0
 11
6768.0304160885
 21
5394.9630204473
 31
0.0
  0
LINE
  5
1A4
330
1F
100
AcDbEntity
  8
0
  6
Continuous
 62
     7
370
    25
100
AcDbLine
 10
6778.4130683713
 20
5374.9904576573
 30
0.0
 11
6775.1591316037
 21
5373.2594195638
 31
0.0
  0
LINE
  5
1A5
330
1F
100
AcDbEntity
  8
0
  6
Continuous
 62
     7
370
    25
100
AcDbLine
 10
6759.7949615292
 20
5410.4045573506
 30
0.0
 11
6756.3684097104
 21
5408.5817281041
 31
0.0
  0
LINE
  5
1A6
330
1F
100
AcDbEntity
  8
0
  6
Continuous
 62
     7
370
    25
100
AcDbLine
 10
6759.7949615292
 20
5410.4045573506
 30
0.0
 11
6759.8149886899
 21
5410.4045573506
 31
0.0
  0
LWPOLYLINE
  5
1A7
330
1F
100
AcDbEntity
  8
0
  6
Continuous
 62
     7
370
    25
100
AcDbPolyline
 90
        8
 70
   128
 43
0.0
 10
6752.4387946896
 20
5407.6241198812
 10
6752.4564376645
 20
5407.5901452336
 10
6752.5098434262
 20
5407.4897710118
 10
6752.596627789
 20
5407.3265734944
 10
6752.7134528927
 20
5407.1069899831
 10
6752.8555503659
 20
5406.839365128
 10
6753.0181518368
 20
5406.5341893468
 10
6753.1898132138
 20
5406.2112513814
  0
LINE
  5
1A8
330
1F
100
AcDbEntity
  8
0
  6
Continuous
 62
     7
370
    25
100
AcDbLine
 10
6752.4597755246
 20
5407.6241198812
 30
0.0
 11
6752.4387946896
 21
5407.6241198812
 31
0.0
  0
LWPOLYLINE
  5
1A9
330
1F
100
AcDbEntity
  8
0
  6
Continuous
 62
     7
370
    25
100
AcDbPolyline
 90
        9
 70
   128
 43
0.0
 10
6753.3996215634
 20
5405.8583918843
 10
6753.2165160947
 20
5406.2029067311
 10
6753.0400863461
 20
5406.5341893468
 10
6752.8774848752
 20
5406.839365128
 10
6752.735387402
 20
5407.1069899831
 10
6752.6185622983
 20
5407.3265734944
 10
6752.5313010983
 20
5407.4897710118
 10
6752.4778953366
 20
5407.5901452336
 10
6752.4597755246
 20
5407.6241198812
  0
LINE
  5
1AA
330
1F
100
AcDbEntity
  8
0
  6
Continuous
 62
     7
370
    25
100
AcDbLine
 10
6771.2466827206
 20
5372.3101559911
 30
0.0
 11
6753.3996215634
 21
5405.8583918843
 31
0.0
  0
LWPOLYLINE
  5
1AB
330
1F
100
AcDbEntity
  8
0
  6
Continuous
 62
     7
370
    25
100
AcDbPolyline
 90
        9
 70
   128
 43
0.0
 10
6772.185098248
 20
5370.5444279943
 10
6772.1674552731
 20
5370.5784026418
 10
6772.1140495114
 20
5370.6788960729
 10
6772.0272651486
 20
5370.8420935903
 10
6771.9104400448
 20
5371.0616771016
 10
6771.7683425717
 20
5371.3291827474
 10
6771.6062179379
 20
5371.6344777379
 10
6771.4297881894
 20
5371.9656411443
 10
6771.2466827206
 20
5372.3101559911
  0
LINE
  5
1AC
330
1F
100
AcDbEntity
  8
0
  6
Continuous
 62
     7
370
    25
100
AcDbLine
 10
6772.1779456906
 20
5370.5444279943
 30
0.0
 11
6772.185098248
 21
5370.5444279943
 31
0.0
  0
LINE
  5
1AD
330
1F
100
AcDbEntity
  8
0
  6
Continuous
 62
     7
370
    25
100
AcDbLine
 10
6771.4274040036
 20
5371.9549123082
 30
0.0
 11
6772.1779456906
 21
5370.5444279943
 31
0.0
  0
LWPOLYLINE
  5
1AE
330
1F
100
AcDbEntity
  8
0
  6
Continuous
 62
     7
370
    25
100
AcDbPolyline
 90
        9
 70
   128
 43
0.0
 10
6771.4336028866
 20
5371.9570580754
 10
6771.4302650265
 20
5371.9638530049
 10
6771.4197746091
 20
5371.9838801656
 10
6771.4021316342
 20
5372.0165435109
 10
6771.3787666135
 20
5372.0604125295
 10
6771.3506332211
 20
5372.1139375005
 10
6771.3182082944
 20
5372.1749726567
 10
6771.2829223447
 20
5372.2412530217
 10
6771.2462058835
 20
5372.3101559911
  0
LINE
  5
1AF
330
1F
100
AcDbEntity
  8
0
  6
Continuous
 62
     7
370
    25
100
AcDbLine
 10
6771.2462058835
 20
5372.3101559911
 30
0.0
 11
6753.3991447262
 21
5405.8583918843
 31
0.0
  0
ARC
  5
1B0
330
1F
100
AcDbEntity
  8
0
  6
Continuous
 62
     7
370
    25
100
AcDbCircle
 10
6920.1151090056
 20
5494.7600778313
 30
0.0
 40
188.9384093026048
100
AcDbArc
 50
207.9475532255
 51
208.0688760175
  0
LINE
  5
1B1
330
1F
100
AcDbEntity
  8
0
  6
Continuous
 62
     7
370
    25
100
AcDbLine
 10
6753.2112708859
 20
5406.2116090093
 30
0.0
 11
6753.190290051
 21
5406.2116090093
 31
0.0
  0
LINE
  5
1B2
330
1F
100
AcDbEntity
  8
0
  6
Continuous
 62
     7
370
    25
100
AcDbLine
 10
6753.3996215634
 20
5405.8583918843
 30
0.0
 11
6756.8428626828
 21
5407.6900426183
 31
0.0
  0
LINE
  5
1B3
330
1F
100
AcDbEntity
  8
0
  6
Continuous
 62
     7
370
    25
100
AcDbLine
 10
6752.4597755246
 20
5407.6241198812
 30
0.0
 11
6755.903016644
 21
5409.4557706151
 31
0.0
  0
LWPOLYLINE
  5
1B4
330
1F
100
AcDbEntity
  8
0
  6
Continuous
 62
     7
370
    25
100
AcDbPolyline
 90
        9
 70
   128
 43
0.0
 10
6756.8428626828
 20
5407.6900426183
 10
6756.6592803769
 20
5408.0345574651
 10
6756.4833274655
 20
5408.3658400807
 10
6756.3207259946
 20
5408.671015862
 10
6756.1781516843
 20
5408.938640717
 10
6756.0613265805
 20
5409.1582242284
 10
6755.9745422177
 20
5409.3214217458
 10
6755.921136456
 20
5409.4219151769
 10
6755.903016644
 20
5409.4557706151
  0
LINE
  5
1B5
330
1F
100
AcDbEntity
  8
0
  6
Continuous
 62
     7
370
    25
100
AcDbLine
 10
6771.2466827206
 20
5372.3101559911
 30
0.0
 11
6774.68992384
 21
5374.141806725
 31
0.0
  0
LINE
  5
1B6
330
1F
100
AcDbEntity
  8
0
  6
Continuous
 62
     7
370
    25
100
AcDbLine
 10
6774.68992384
 20
5374.141806725
 30
0.0
 11
6756.8428626828
 21
5407.6900426183
 31
0.0
  0
LINE
  5
1B7
330
1F
100
AcDbEntity
  8
0
  6
Continuous
 62
     7
370
    25
100
AcDbLine
 10
6772.185098248
 20
5370.5444279943
 30
0.0
 11
6775.6283393674
 21
5372.3760787282
 31
0.0
  0
LWPOLYLINE
  5
1B8
330
1F
100
AcDbEntity
  8
0
  6
Continuous
 62
     7
370
    25
100
AcDbPolyline
 90
        9
 70
   128
 43
0.0
 10
6775.6283393674
 20
5372.3760787282
 10
6775.6106963925
 20
5372.4100533757
 10
6775.5572906308
 20
5372.5105468068
 10
6775.470506268
 20
5372.6737443242
 10
6775.3536811642
 20
5372.8933278356
 10
6775.2115836911
 20
5373.1608334813
 10
6775.0489822201
 20
5373.4661284719
 10
6774.8730293088
 20
5373.7974110875
 10
6774.68992384
 20
5374.141806725
  0
LINE
  5
1B9
330
1F
100
AcDbEntity
  8
0
  6
Continuous
 62
     7
370
    25
100
AcDbLine
 10
6769.2430129819
 20
5371.2447825704
 30
0.0
 11
6771.2462058835
 21
5372.3101559911
 31
0.0
  0
LINE
  5
1BA
330
1F
100
AcDbEntity
  8
0
  6
Continuous
 62
     7
370
    25
100
AcDbLine
 10
6768.9230552487
 20
5371.1407128606
 30
0.0
 11
6769.2430129819
 21
5371.2447825704
 31
0.0
  0
LINE
  5
1BB
330
1F
100
AcDbEntity
  8
0
  6
Continuous
 62
     7
370
    25
100
AcDbLine
 10
6768.9230552487
 20
5371.1407128606
 30
0.0
 11
6751.1308303647
 21
5404.5857135091
 31
0.0
  0
LINE
  5
1BC
330
1F
100
AcDbEntity
  8
0
  6
Continuous
 62
     7
370
    25
100
AcDbLine
 10
6751.1308303647
 20
5404.5857135091
 30
0.0
 11
6751.3964286618
 21
5404.7930184636
 31
0.0
  0
LINE
  5
1BD
330
1F
100
AcDbEntity
  8
0
  6
Continuous
 62
     7
370
    25
100
AcDbLine
 10
6751.3964286618
 20
5404.7930184636
 30
0.0
 11
6753.3991447262
 21
5405.8583918843
 31
0.0
  0
LINE
  5
1BE
330
1F
100
AcDbEntity
  8
0
  6
Continuous
 62
     7
370
    25
100
AcDbLine
 10
6751.3964286618
 20
5404.7930184636
 30
0.0
 11
6753.2112708859
 21
5406.2116090093
 31
0.0
  0
LINE
  5
1BF
330
1F
100
AcDbEntity
  8
0
  6
Continuous
 62
     7
370
    25
100
AcDbLine
 10
6769.2430129819
 20
5371.2447825704
 30
0.0
 11
6771.4336028866
 21
5371.9570580754
 31
0.0
  0
LINE
  5
1C0
330
1F
100
AcDbEntity
  8
0
  6
Continuous
 62
     7
370
    25
100
AcDbLine
 10
6751.1308303647
 20
5404.5857135091
 30
0.0
 11
6751.1098495297
 21
5404.5857135091
 31
0.0
  0
LINE
  5
1C1
330
1F
100
AcDbEntity
  8
0
  6
Continuous
 62
     7
370
    25
100
AcDbLine
 10
6751.1098495297
 20
5404.5857135091
 30
0.0
 11
6751.3754478268
 21
5404.7930184636
 31
0.0
  0
LINE
  5
1C2
330
1F
100
AcDbEntity
  8
0
  6
Continuous
 62
     7
370
    25
100
AcDbLine
 10
6751.3754478268
 20
5404.7930184636
 30
0.0
 11
6753.190290051
 21
5406.2116090093
 31
0.0
  0
LINE
  5
1C3
330
1F
100
AcDbEntity
  8
0
  6
Continuous
 62
     7
370
    25
100
AcDbLine
 10
6752.4387946896
 20
5407.6241198812
 30
0.0
 11
6755.8815589719
 21
5409.4557706151
 31
0.0
  0
LINE
  5
1C4
330
1F
100
AcDbEntity
  8
0
  6
Continuous
 62
     7
370
    25
100
AcDbLine
 10
6755.903016644
 20
5409.4557706151
 30
0.0
 11
6755.8815589719
 21
5409.4557706151
 31
0.0
  0
LWPOLYLINE
  5
1C5
330
1F
100
AcDbEntity
  8
0
  6
Continuous
 62
     7
370
    25
100
AcDbPolyline
 90
        9
 70
   128
 43
0.0
 10
6766.5994277768
 20
5375.503296021
 10
6766.5636649899
 20
5375.5711261067
 10
6766.4568534665
 20
5375.7721129689
 10
6766.2832847409
 20
5376.0985080037
 10
6766.0501113705
 20
5376.5376750264
 10
6765.7654395871
 20
5377.0728055272
 10
6765.4407134823
 20
5377.683276299
 10
6765.0883308224
 20
5378.345722321
 10
6764.7221198849
 20
5379.0347520146
  0
LINE
  5
1C6
330
1F
100
AcDbEntity
  8
0
  6
Continuous
 62
     7
370
    25
100
AcDbLine
 10
6764.7221198849
 20
5379.0347520146
 30
0.0
 11
6755.3289047055
 21
5396.691674355
 31
0.0
  0
LWPOLYLINE
  5
1C7
330
1F
100
AcDbEntity
  8
0
  6
Continuous
 62
     7
370
    25
100
AcDbPolyline
 90
        9
 70
   128
 43
0.0
 10
6755.3289047055
 20
5396.691674355
 10
6754.9622169308
 20
5397.3805848393
 10
6754.6098342709
 20
5398.0430308614
 10
6754.2851081662
 20
5398.6536208425
 10
6753.9999595456
 20
5399.1887513433
 10
6753.7663093381
 20
5399.627918366
 10
6753.5922637753
 20
5399.9543134007
 10
6753.4854522519
 20
5400.1551810536
 10
6753.4492126279
 20
5400.2231303487
  0
LINE
  5
1C8
330
1F
100
AcDbEntity
  8
0
  6
Continuous
 62
     7
370
    25
100
AcDbLine
 10
6753.4492126279
 20
5400.2231303487
 30
0.0
 11
6753.4339538388
 21
5400.2231303487
 31
0.0
  0
LINE
  5
1C9
330
1F
100
AcDbEntity
  8
0
  6
Continuous
 62
     7
370
    25
100
AcDbLine
 10
6751.1098495297
 20
5404.5857135091
 30
0.0
 11
6753.431569653
 21
5400.2218190465
 31
0.0
  0
LINE
  5
1CA
330
1F
100
AcDbEntity
  8
0
  6
Continuous
 62
     7
370
    25
100
AcDbLine
 10
6768.9163795285
 20
5371.1407128606
 30
0.0
 11
6766.5965667538
 21
5375.5018655095
 31
0.0
  0
LINE
  5
1CB
330
1F
100
AcDbEntity
  8
0
  6
Continuous
 62
     7
370
    25
100
AcDbLine
 10
6768.9163795285
 20
5371.1407128606
 30
0.0
 11
6768.9230552487
 21
5371.1407128606
 31
0.0
  0
LINE
  5
1CC
330
1F
100
AcDbEntity
  8
0
  6
Continuous
 62
     7
370
    25
100
AcDbLine
 10
6746.5002647214
 20
5391.9950667653
 30
0.0
 11
6755.3289047055
 21
5396.691674355
 31
0.0
  0
LWPOLYLINE
  5
1CD
330
1F
100
AcDbEntity
  8
0
  6
Continuous
 62
     7
370
    25
100
AcDbPolyline
 90
        9
 70
   128
 43
0.0
 10
6746.5002647214
 20
5391.9950667653
 10
6746.1655250363
 20
5392.6238957677
 10
6745.8441367917
 20
5393.2285252843
 10
6745.5475440793
 20
5393.7858287129
 10
6745.2876678281
 20
5394.2742291722
 10
6745.0740447812
 20
5394.6750108037
 10
6744.9152580075
 20
5394.9729148183
 10
6744.8175063901
 20
5395.1562587056
 10
6744.7846046261
 20
5395.2182475362
  0
LINE
  5
1CE
330
1F
100
AcDbEntity
  8
0
  6
Continuous
 62
     7
370
    25
100
AcDbLine
 10
6744.7846046261
 20
5395.2182475362
 30
0.0
 11
6753.4492126279
 21
5400.2231303487
 31
0.0
  0
LINE
  5
1CF
330
1F
100
AcDbEntity
  8
0
  6
Continuous
 62
     7
370
    25
100
AcDbLine
 10
6755.8934799008
 20
5374.3381444249
 30
0.0
 11
6764.7221198849
 21
5379.0347520146
 31
0.0
  0
LINE
  5
1D0
330
1F
100
AcDbEntity
  8
0
  6
Continuous
 62
     7
370
    25
100
AcDbLine
 10
6755.8934799008
 20
5374.3381444249
 30
0.0
 11
6746.5002647214
 21
5391.9950667653
 31
0.0
  0
LINE
  5
1D1
330
1F
100
AcDbEntity
  8
0
  6
Continuous
 62
     7
370
    25
100
AcDbLine
 10
6757.6067558102
 20
5371.1150828633
 30
0.0
 11
6766.5994277768
 21
5375.503296021
 31
0.0
  0
LWPOLYLINE
  5
1D2
330
1F
100
AcDbEntity
  8
0
  6
Continuous
 62
     7
370
    25
100
AcDbPolyline
 90
        9
 70
   128
 43
0.0
 10
6757.6067558102
 20
5371.1150828633
 10
6757.5743308835
 20
5371.1769524846
 10
6757.476579266
 20
5371.3604155812
 10
6757.3187461667
 20
5371.6582003865
 10
6757.105599957
 20
5372.0591012273
 10
6756.8457237057
 20
5372.5475016866
 10
6756.5496078305
 20
5373.1046859059
 10
6756.2277427487
 20
5373.7093154225
 10
6755.8934799008
 20
5374.3381444249
  0
LINE
  5
1D3
330
1F
100
AcDbEntity
  8
0
  6
Continuous
 62
     7
370
    25
100
AcDbLine
 10
6746.4826217465
 20
5391.9950667653
 30
0.0
 11
6755.875836926
 21
5374.3381444249
 31
0.0
  0
LWPOLYLINE
  5
1D4
330
1F
100
AcDbEntity
  8
0
  6
Continuous
 62
     7
370
    25
100
AcDbPolyline
 90
        9
 70
   128
 43
0.0
 10
6744.7693458371
 20
5395.2182475362
 10
6744.8017707638
 20
5395.1562587056
 10
6744.8995223813
 20
5394.9729148183
 10
6745.0578323178
 20
5394.6750108037
 10
6745.2705016904
 20
5394.2742291722
 10
6745.5303779416
 20
5393.7858287129
 10
6745.8264938168
 20
5393.2285252843
 10
6746.1483588986
 20
5392.6238957677
 10
6746.4826217465
 20
5391.9950667653
  0
LINE
  5
1D5
330
1F
100
AcDbEntity
  8
0
  6
Continuous
 62
     7
370
    25
100
AcDbLine
 10
6744.7846046261
 20
5395.2182475362
 30
0.0
 11
6744.7693458371
 21
5395.2182475362
 31
0.0
  0
LINE
  5
1D6
330
1F
100
AcDbEntity
  8
0
  6
Continuous
 62
     7
370
    25
100
AcDbLine
 10
6757.5914970212
 20
5371.1150828633
 30
0.0
 11
6757.6067558102
 21
5371.1150828633
 31
0.0
  0
LWPOLYLINE
  5
1D7
330
1F
100
AcDbEntity
  8
0
  6
Continuous
 62
     7
370
    25
100
AcDbPolyline
 90
        9
 70
   128
 43
0.0
 10
6755.875836926
 20
5374.3381444249
 10
6756.210576611
 20
5373.7093154225
 10
6756.5319648556
 20
5373.1046859059
 10
6756.828557568
 20
5372.5475016866
 10
6757.0884338193
 20
5372.0591012273
 10
6757.3020568661
 20
5371.6582003865
 10
6757.4608436398
 20
5371.3604155812
 10
6757.5585952573
 20
5371.1769524846
 10
6757.5914970212
 20
5371.1150828633
  0
LWPOLYLINE
  5
1D8
330
1F
100
AcDbEntity
  8
0
  6
Continuous
 62
     7
370
    25
100
AcDbPolyline
 90
       17
 70
   128
 43
0.0
 10
6752.3620239072
 20
5380.9595052037
 10
6752.2723785214
 20
5381.1274710927
 10
6752.0177474789
 20
5381.605977181
 10
6751.6367545895
 20
5382.321948174
 10
6751.1870971493
 20
5383.1666651998
 10
6750.7379165463
 20
5384.0112630162
 10
6750.3574004941
 20
5384.7273532186
 10
6750.1032462887
 20
5385.2057400975
 10
6750.0140777402
 20
5385.3737059865
 10
6750.1037231259
 20
5385.2057400975
 10
6750.3583541684
 20
5384.7273532186
 10
6750.7393470578
 20
5384.0112630162
 10
6751.189004498
 20
5383.1666651998
 10
6751.638185101
 20
5382.321948174
 10
6752.0187011532
 20
5381.605977181
 10
6752.2733321957
 20
5381.1274710927
 10
6752.3620239072
 20
5380.9595052037
  0
LINE
  5
1D9
330
1F
100
AcDbEntity
  8
0
  6
Continuous
 62
     7
370
    25
100
AcDbLine
 10
6744.7693458371
 20
5395.2182475362
 30
0.0
 11
6753.4339538388
 21
5400.2231303487
 31
0.0
  0
ELLIPSE
  5
1DA
330
1F
100
AcDbEntity
  8
0
  6
Continuous
 62
     7
370
    25
100
AcDbEllipse
 10
6788.280653517
 20
5331.5392072511
 30
0.0
 11
5.297096443739975
 21
2.817938943466288
 31
0.0
210
0.0
220
0.0
230
1.0
 40
0.0003225035
 41
4.71299521501136
 42
5.19160471302178
  0
ELLIPSE
  5
1DB
330
1F
100
AcDbEntity
  8
0
  6
Continuous
 62
     7
370
    25
100
AcDbEllipse
 10
6788.280653517
 20
5331.5392072511
 30
0.0
 11
5.297096443739975
 21
2.817938943466288
 31
0.0
210
0.0
220
0.0
230
1.0
 40
0.0003225035
 41
3.141950138764154
 42
4.71299521501136
  0
LINE
  5
1DC
330
1F
100
AcDbEntity
  8
0
  6
Continuous
 62
     7
370
    25
100
AcDbLine
 10
6952.3160568051
 20
5310.899490479
 30
0.0
 11
6879.3161025815
 21
5310.899490479
 31
0.0
  0
LINE
  5
1DD
330
1F
100
AcDbEntity
  8
0
  6
Continuous
 62
     7
370
    25
100
AcDbLine
 10
6951.3161292844
 20
5305.9995118413
 30
0.0
 11
6880.3160301022
 21
5305.9995118413
 31
0.0
  0
LINE
  5
1DE
330
1F
100
AcDbEntity
  8
0
  6
Continuous
 62
     7
370
    25
100
AcDbLine
 10
6940.3159728818
 20
5294.4995108876
 30
0.0
 11
6895.6787696652
 21
5294.4995108876
 31
0.0
  0
SPLINE
  5
1DF
330
1F
100
AcDbEntity
  8
0
  6
Continuous
 62
     7
370
    25
100
AcDbSpline
210
0.0
220
0.0
230
1.0
 70
     8
 71
     3
 72
    14
 73
    10
 74
     0
 42
0.000000001
 43
0.00000001
 40
0.0
 40
0.0
 40
0.0
 40
0.0
 40
0.1220912704947378
 40
0.2480784201399344
 40
0.370091748934324
 40
0.4951793084494823
 40
0.6269608882676105
 40
0.7617563198469653
 40
1.0
 40
1.0
 40
1.0
 40
1.0
 10
6891.31618650481
 20
5303.999418381219
 30
0.0
 10
6891.336409900247
 20
5303.966391372875
 30
0.0
 10
6891.377502010836
 20
5303.899283478769
 30
0.0
 10
6891.702442730873
 20
5303.363875629897
 30
0.0
 10
6892.190243873864
 20
5302.531958895987
 30
0.0
 10
6892.827754666383
 20
5301.394326792193
 30
0.0
 10
6893.577626344796
 20
5299.942750012329
 30
0.0
 10
6894.612569030332
 20
5297.771667558518
 30
0.0
 10
6895.263224574775
 20
5295.774813673276
 30
0.0
 10
6895.67876966521
 20
5294.499510887627
 30
0.0
  0
SPLINE
  5
1E0
330
1F
100
AcDbEntity
  8
0
  6
Continuous
 62
     7
370
    25
100
AcDbSpline
210
0.0
220
0.0
230
1.0
 70
     8
 71
     3
 72
    20
 73
    16
 74
     0
 42
0.000000001
 43
0.00000001
 40
0.0
 40
0.0
 40
0.0
 40
0.0
 40
0.0795270956227258
 40
0.160855036940526
 40
0.2278737415703596
 40
0.2967449154336927
 40
0.3638249154134215
 40
0.4329921404731329
 40
0.5652202182868237
 40
0.6436348681910862
 40
0.72383285343079
 40
0.8117131940799415
 40
0.9025805715760289
 40
0.9832079920211017
 40
1.0
 40
1.0
 40
1.0
 40
1.0
 10
6895.67876966521
 20
5294.499510887627
 30
0.0
 10
6896.01465728125
 20
5293.819745609479
 30
0.0
 10
6896.694038496709
 20
5292.444822156393
 30
0.0
 10
6897.495576977058
 20
5290.326989847691
 30
0.0
 10
6898.069895031505
 20
5288.231664995122
 30
0.0
 10
6898.391960275939
 20
5286.236154325406
 30
0.0
 10
6898.476529837004
 20
5284.247401859618
 30
0.0
 10
6898.290593640141
 20
5281.765656938656
 30
0.0
 10
6897.737438422838
 20
5279.457697247587
 30
0.0
 10
6897.035096755528
 20
5277.480349072684
 30
0.0
 10
6896.441499883361
 20
5276.083726520422
 30
0.0
 10
6895.894196790723
 20
5274.947817370632
 30
0.0
 10
6895.534848185222
 20
5274.254849641183
 30
0.0
 10
6895.377626763875
 20
5273.962070204535
 30
0.0
 10
6895.409979049771
 20
5274.022422737284
 30
0.0
 10
6895.415555553882
 20
5274.032825592522
 30
0.0
  0
LINE
  5
1E1
330
1F
100
AcDbEntity
  8
0
  6
Continuous
 62
     7
370
    25
100
AcDbLine
 10
6935.8160606198
 20
5271.8994561467
 30
0.0
 11
6895.8160987668
 21
5271.8994561467
 31
0.0
  0
SPLINE
  5
1E2
330
1F
100
AcDbEntity
  8
0
  6
Continuous
 62
     7
370
    25
100
AcDbSpline
210
0.0
220
0.0
230
1.0
 70
     8
 71
     3
 72
    71
 73
    67
 74
     0
 42
0.000000001
 43
0.00000001
 40
0.0
 40
0.0
 40
0.0
 40
0.0
 40
0.0137403938568918
 40
0.0294841765120354
 40
0.0450432943439305
 40
0.0607793502906342
 40
0.0766352614430098
 40
0.0924614134868495
 40
0.1081042438797408
 40
0.1237137592311482
 40
0.1395210413693703
 40
0.1553842669972578
 40
0.1711448015204343
 40
0.1867066084009727
 40
0.2024234864890306
 40
0.2182760384958883
 40
0.234109791483786
 40
0.2497765207748528
 40
0.2653665923300852
 40
0.2789416680009505
 40
0.291786779789462
 40
0.3076496300819852
 40
0.3234258653694064
 40
0.3389972475101126
 40
0.3546933214295047
 40
0.3705387464283214
 40
0.3863816261241799
 40
0.4020705385634039
 40
0.4176447993382989
 40
0.4334278100128143
 40
0.4492908833049945
 40
0.4650822635262043
 40
0.4806660332541836
 40
0.4963391240601177
 40
0.5121783654849686
 40
0.5280278155777437
 40
0.5437361419884689
 40
0.559301821436439
 40
0.5750684219632463
 40
0.5909322092396503
 40
0.6067358898744624
 40
0.6223363645486822
 40
0.6379883804152753
 40
0.6538166004754378
 40
0.6696721825888755
 40
0.6854007805413024
 40
0.7009613173565985
 40
0.7167112635596394
 40
0.7325708621846594
 40
0.7483873033453502
 40
0.7640108470981447
 40
0.7796382174811501
 40
0.7954567291966484
 40
0.8113166552810005
 40
0.8270640075719102
 40
0.8426224396520795
 40
0.8583560957354464
 40
0.8742097232259147
 40
0.8900378030364952
 40
0.905684378238789
 40
0.9212900421634532
 40
0.9370969282286804
 40
0.9529587819628417
 40
0.9687231000327399
 40
0.9842871235092707
 40
0.9999999999999999
 40
0.9999999999999999
 40
0.9999999999999999
 40
0.9999999999999999
 10
6894.782792644946
 20
5270.020240906243
 30
0.0
 10
6894.790136287819
 20
5269.212569654035
 30
0.0
 10
6894.80589429774
 20
5267.479466366618
 30
0.0
 10
6895.315650889287
 20
5268.305672798362
 30
0.0
 10
6896.196784796541
 20
5268.129200575418
 30
0.0
 10
6897.462497069148
 20
5268.231060414965
 30
0.0
 10
6899.084424603931
 20
5268.259148378087
 30
0.0
 10
6901.026466666864
 20
5268.307063878606
 30
0.0
 10
6903.238443993904
 20
5268.348111283727
 30
0.0
 10
6905.687212396507
 20
5268.390285944108
 30
0.0
 10
6908.340339323154
 20
5268.433777290354
 30
0.0
 10
6911.14626870052
 20
5268.477875578302
 30
0.0
 10
6914.026922784738
 20
5268.520683345978
 30
0.0
 10
6916.931709052797
 20
5268.563844946822
 30
0.0
 10
6919.823129983128
 20
5268.599346770166
 30
0.0
 10
6922.647638851658
 20
5268.671293830213
 30
0.0
 10
6925.363344139966
 20
5268.610457076051
 30
0.0
 10
6927.78707442285
 20
5269.038698750041
 30
0.0
 10
6930.216322707559
 20
5267.710166304352
 30
0.0
 10
6931.162253946201
 20
5272.144286986955
 30
0.0
 10
6931.996594462701
 20
5267.710587115507
 30
0.0
 10
6933.892543935643
 20
5269.186713045349
 30
0.0
 10
6935.155062095499
 20
5268.822894427685
 30
0.0
 10
6936.15524005559
 20
5268.971966979716
 30
0.0
 10
6936.743339208812
 20
5268.985732641704
 30
0.0
 10
6936.942186578753
 20
5269.037508612319
 30
0.0
 10
6936.731341317153
 20
5269.07910691786
 30
0.0
 10
6936.123699007753
 20
5269.122350743182
 30
0.0
 10
6935.134840332984
 20
5269.163520642887
 30
0.0
 10
6933.773865639757
 20
5269.207188275468
 30
0.0
 10
6932.061664633003
 20
5269.251057329125
 30
0.0
 10
6930.044872700195
 20
5269.294616989991
 30
0.0
 10
6927.767042151044
 20
5269.336144605944
 30
0.0
 10
6925.261288842232
 20
5269.37863726281
 30
0.0
 10
6922.560102186909
 20
5269.422397386131
 30
0.0
 10
6919.727128738308
 20
5269.466300013199
 30
0.0
 10
6916.836055320478
 20
5269.509029324211
 30
0.0
 10
6913.931043836398
 20
5269.55045290349
 30
0.0
 10
6911.051894294917
 20
5269.593724314934
 30
0.0
 10
6908.249709397604
 20
5269.637665749513
 30
0.0
 10
6905.602765039818
 20
5269.681315688693
 30
0.0
 10
6903.161611797997
 20
5269.723032572593
 30
0.0
 10
6900.957698830909
 20
5269.765165806026
 30
0.0
 10
6899.026039518139
 20
5269.809012202222
 30
0.0
 10
6897.414122408574
 20
5269.853020602893
 30
0.0
 10
6896.16365034965
 20
5269.895902774077
 30
0.0
 10
6895.286137336247
 20
5269.937087093435
 30
0.0
 10
6894.795925585201
 20
5269.980520885417
 30
0.0
 10
6894.706687439477
 20
5270.024221042744
 30
0.0
 10
6895.023218556911
 20
5270.06800256316
 30
0.0
 10
6895.733326107091
 20
5270.110051878867
 30
0.0
 10
6896.821928849444
 20
5270.151844165852
 30
0.0
 10
6898.278752195647
 20
5270.195629346316
 30
0.0
 10
6900.077433712672
 20
5270.239566149258
 30
0.0
 10
6902.166885038854
 20
5270.28276154388
 30
0.0
 10
6904.508096585229
 20
5270.323976579426
 30
0.0
 10
6907.069212167139
 20
5270.36700544196
 30
0.0
 10
6909.812819196628
 20
5270.4110353714
 30
0.0
 10
6912.667024852402
 20
5270.454685324321
 30
0.0
 10
6915.565763329312
 20
5270.49684574506
 30
0.0
 10
6918.467977628301
 20
5270.538730459222
 30
0.0
 10
6921.332852918104
 20
5270.582330916041
 30
0.0
 10
6924.102631463215
 20
5270.626273004736
 30
0.0
 10
6926.693882920134
 20
5270.669619793125
 30
0.0
 10
6929.091817809358
 20
5270.710759655749
 30
0.0
 10
6930.467935485351
 20
5270.739364949048
 30
0.0
 10
6931.159268932788
 20
5270.753735664849
 30
0.0
  0
LINE
  5
1E3
330
1F
100
AcDbEntity
  8
0
  6
Continuous
 62
     7
370
    25
100
AcDbLine
 10
6931.1592689328
 20
5270.7537356648
 30
0.0
 11
6931.1592689328
 21
5270.5094758306
 31
0.0
  0
SPLINE
  5
1E4
330
1F
100
AcDbEntity
  8
0
  6
Continuous
 62
     7
370
    25
100
AcDbSpline
210
0.0
220
0.0
230
1.0
 70
     8
 71
     3
 72
    68
 73
    64
 74
     0
 42
0.000000001
 43
0.00000001
 40
0.0
 40
0.0
 40
0.0
 40
0.0
 40
0.0155158630664933
 40
0.0321359288252415
 40
0.0487247881441588
 40
0.065121482929818
 40
0.0814832723947252
 40
0.098052349264773
 40
0.1146800745554769
 40
0.1312001597281504
 40
0.1475119399364382
 40
0.1639862647305257
 40
0.1806028121487566
 40
0.1971996526307519
 40
0.2136214018939106
 40
0.2299628089421154
 40
0.2441921109989964
 40
0.2576557188782326
 40
0.274283067951488
 40
0.2908195918181501
 40
0.3071414087490688
 40
0.3235939375030715
 40
0.3402030042953634
 40
0.3568094031183931
 40
0.3732544145094381
 40
0.3895792188560704
 40
0.406122890714151
 40
0.4227504563276019
 40
0.4393028737513148
 40
0.4556376752670224
 40
0.4720660810575747
 40
0.4886686662696615
 40
0.5052819521380845
 40
0.5217473230819818
 40
0.5380631527183493
 40
0.5545895962348014
 40
0.5712179102416632
 40
0.5877832208753158
 40
0.6041355324021398
 40
0.6205418789406897
 40
0.6371329332580302
 40
0.6537526466688363
 40
0.670239227949725
 40
0.6865496768842578
 40
0.7030586950989333
 40
0.719682628729923
 40
0.7362612837661702
 40
0.7526377761443699
 40
0.7690183090102247
 40
0.7855991471617388
 40
0.8022234037534961
 40
0.8187296713998988
 40
0.8350379141653762
 40
0.851529825540117
 40
0.8681474901284109
 40
0.8847383712300281
 40
0.9011390149046732
 40
0.9174967571382088
 40
0.934065427682237
 40
0.9506917149632611
 40
0.9672157660238937
 40
0.9835298696530361
 40
1.0
 40
1.0
 40
1.0
 40
1.0
 10
6896.662961559742
 20
5269.899481895928
 30
0.0
 10
6896.896134866462
 20
5269.087779349767
 30
0.0
 10
6897.379075503191
 20
5267.406608593173
 30
0.0
 10
6899.116172228395
 20
5268.174685713118
 30
0.0
 10
6901.018074927504
 20
5268.020709924316
 30
0.0
 10
6903.240676560537
 20
5268.115234957854
 30
0.0
 10
6905.686605483014
 20
5268.142935985562
 30
0.0
 10
6908.340504224556
 20
5268.190353155718
 30
0.0
 10
6911.146224874801
 20
5268.233393734778
 30
0.0
 10
6914.026934358997
 20
5268.276479323677
 30
0.0
 10
6916.931705817262
 20
5268.319579888791
 30
0.0
 10
6919.823131901601
 20
5268.355051138818
 30
0.0
 10
6922.647638428611
 20
5268.427183855245
 30
0.0
 10
6925.363342746787
 20
5268.366349156228
 30
0.0
 10
6927.787074218861
 20
5268.794398941004
 30
0.0
 10
6930.216327241818
 20
5267.465913031996
 30
0.0
 10
6931.162227517138
 20
5271.899978017199
 30
0.0
 10
6931.996631551667
 20
5267.466469880763
 30
0.0
 10
6933.892537592999
 20
5268.942572958725
 30
0.0
 10
6935.155064266049
 20
5268.578742859185
 30
0.0
 10
6936.155239900952
 20
5268.727869123351
 30
0.0
 10
6936.743339109423
 20
5268.74142978355
 30
0.0
 10
6936.942186659636
 20
5268.793256584026
 30
0.0
 10
6936.73134105158
 20
5268.834859008695
 30
0.0
 10
6936.123700344529
 20
5268.878036254174
 30
0.0
 10
6935.134837500019
 20
5268.919467083024
 30
0.0
 10
6933.773867485436
 20
5268.96287248657
 30
0.0
 10
6932.061664475098
 20
5269.006812515002
 30
0.0
 10
6930.044872432331
 20
5269.05035293715
 30
0.0
 10
6927.767044353929
 20
5269.091886846147
 30
0.0
 10
6925.261286439096
 20
5269.13437318981
 30
0.0
 10
6922.560102724789
 20
5269.178152696692
 30
0.0
 10
6919.727127264441
 20
5269.22198410703
 30
0.0
 10
6916.836057766103
 20
5269.264975851575
 30
0.0
 10
6913.931042450762
 20
5269.306136958469
 30
0.0
 10
6911.051894521049
 20
5269.349480688969
 30
0.0
 10
6908.249709320244
 20
5269.393397888237
 30
0.0
 10
6905.602765122449
 20
5269.437071603644
 30
0.0
 10
6903.161611057722
 20
5269.478718375641
 30
0.0
 10
6900.957697937334
 20
5269.52110973012
 30
0.0
 10
6899.026040862002
 20
5269.564707306975
 30
0.0
 10
6897.414123805971
 20
5269.608735662719
 30
0.0
 10
6896.163649144171
 20
5269.651785894533
 30
0.0
 10
6895.286136705748
 20
5269.692993231251
 30
0.0
 10
6894.795925980338
 20
5269.736165628332
 30
0.0
 10
6894.706687145658
 20
5269.780175829334
 30
0.0
 10
6895.023218905419
 20
5269.823696306224
 30
0.0
 10
6895.733327407439
 20
5269.865766940793
 30
0.0
 10
6896.82192642884
 20
5269.907732000157
 30
0.0
 10
6898.278752863571
 20
5269.951521479964
 30
0.0
 10
6900.077434324576
 20
5269.995265947179
 30
0.0
 10
6902.166884999481
 20
5270.038512081746
 30
0.0
 10
6904.508096562831
 20
5270.079714928804
 30
0.0
 10
6907.06921229864
 20
5270.122742368419
 30
0.0
 10
6909.812818436719
 20
5270.166790439055
 30
0.0
 10
6912.667026770976
 20
5270.210369523362
 30
0.0
 10
6915.565760978056
 20
5270.252792156057
 30
0.0
 10
6918.467978884513
 20
5270.294414644645
 30
0.0
 10
6921.332852713268
 20
5270.338086226362
 30
0.0
 10
6924.10263151781
 20
5270.382009134071
 30
0.0
 10
6926.693882905824
 20
5270.425361016834
 30
0.0
 10
6929.091817812957
 20
5270.466499555431
 30
0.0
 10
6930.467935486551
 20
5270.495105025801
 30
0.0
 10
6931.159268932788
 20
5270.509475830559
 30
0.0
  0
SPLINE
  5
1E5
330
1F
100
AcDbEntity
  8
0
  6
Continuous
 62
     7
370
    25
100
AcDbSpline
210
0.0
220
0.0
230
1.0
 70
     8
 71
     3
 72
    20
 73
    16
 74
     0
 42
0.000000001
 43
0.00000001
 40
0.0
 40
0.0
 40
0.0
 40
0.0
 40
0.0256015895269285
 40
0.1132882445681761
 40
0.2006423456170688
 40
0.2891257575334061
 40
0.3768593316041218
 40
0.4641685803647156
 40
0.5526391450381215
 40
0.6404395786848155
 40
0.7276937028924945
 40
0.8161669844003435
 40
0.9040000822844496
 40
0.991228413889054
 40
1.0
 40
1.0
 40
1.0
 40
1.0
 10
6895.913373547046
 20
5270.63130772448
 30
0.0
 10
6895.898358293111
 20
5270.63767896519
 30
0.0
 10
6895.831915084257
 20
5270.665872006681
 30
0.0
 10
6896.581873051437
 20
5270.714408729295
 30
0.0
 10
6898.146000334738
 20
5270.777601597268
 30
0.0
 10
6900.532605556668
 20
5270.843752310971
 30
0.0
 10
6903.556658275894
 20
5270.907987621013
 30
0.0
 10
6907.108224350545
 20
5270.970914758816
 30
0.0
 10
6911.033172892454
 20
5271.03711551179
 30
0.0
 10
6915.162627083363
 20
5271.101481122426
 30
0.0
 10
6919.319050416852
 20
5271.164263948581
 30
0.0
 10
6923.328232951689
 20
5271.230445333337
 30
0.0
 10
6927.009968136843
 20
5271.295007581422
 30
0.0
 10
6929.253983668715
 20
5271.338173861473
 30
0.0
 10
6930.293700372476
 20
5271.362136189627
 30
0.0
 10
6930.388700085132
 20
5271.364325645928
 30
0.0
  0
LINE
  5
1E6
330
1F
100
AcDbEntity
  8
0
  6
Continuous
 62
     7
370
    25
100
AcDbLine
 10
6930.3887000851
 20
5271.3643256459
 30
0.0
 11
6931.1592689328
 21
5270.7537356648
 31
0.0
  0
LINE
  5
1E7
330
1F
100
AcDbEntity
  8
0
  6
Continuous
 62
     7
370
    25
100
AcDbLine
 10
6931.1592689328
 20
5270.5094758306
 30
0.0
 11
6930.3887000851
 21
5269.8988858495
 31
0.0
  0
SPLINE
  5
1E8
330
1F
100
AcDbEntity
  8
0
  6
Continuous
 62
     7
370
    25
100
AcDbSpline
210
0.0
220
0.0
230
1.0
 70
     8
 71
     3
 72
    42
 73
    38
 74
     0
 42
0.000000001
 43
0.00000001
 40
0.0
 40
0.0
 40
0.0
 40
0.0
 40
0.0312823495757663
 40
0.0604835198618783
 40
0.0898653330827548
 40
0.1189357435276778
 40
0.1483799101438024
 40
0.1774252359685223
 40
0.2068462451451146
 40
0.2359728085850247
 40
0.2652880960231679
 40
0.2945843327344955
 40
0.3237286557351992
 40
0.3531413091691941
 40
0.3821909668949487
 40
0.411636180567883
 40
0.4406977444457594
 40
0.4700922393597507
 40
0.4992716138004092
 40
0.5285308981385033
 40
0.5578763256733906
 40
0.586976441736274
 40
0.616409553779117
 40
0.6454511672503468
 40
0.6748885157667616
 40
0.7039785381997957
 40
0.7333357989276625
 40
0.7625785902636246
 40
0.7917741732452998
 40
0.8211593628061568
 40
0.8502271184954268
 40
0.8796714259217024
 40
0.9087178589286433
 40
0.9381371751986567
 40
0.9672683340273135
 40
0.9965786109393744
 40
1.0
 40
1.0
 40
1.0
 40
1.0
 10
6874.485742168872
 20
5304.93044293261
 30
0.0
 10
6873.682064711156
 20
5304.830177124099
 30
0.0
 10
6872.128177546812
 20
5304.636316077764
 30
0.0
 10
6872.828938286331
 20
5302.548140207663
 30
0.0
 10
6872.755876642887
 20
5299.6204719979
 30
0.0
 10
6872.882211413296
 20
5295.84221992176
 30
0.0
 10
6872.958842584752
 20
5291.568016111907
 30
0.0
 10
6873.045420030523
 20
5287.081193858615
 30
0.0
 10
6873.1326988824
 20
5282.754232948202
 30
0.0
 10
6873.21719231886
 20
5278.890401796636
 30
0.0
 10
6873.303647944791
 20
5275.797302022662
 30
0.0
 10
6873.390097948078
 20
5273.707535079139
 30
0.0
 10
6873.47498551955
 20
5272.776455562939
 30
0.0
 10
6873.56324641322
 20
5273.077952601579
 30
0.0
 10
6873.64571124806
 20
5274.589756346571
 30
0.0
 10
6873.734939000053
 20
5277.18741017236
 30
0.0
 10
6873.81809326572
 20
5280.69186131563
 30
0.0
 10
6873.906265025256
 20
5284.816452533178
 30
0.0
 10
6873.991222250066
 20
5289.26724194579
 30
0.0
 10
6874.076837427408
 20
5293.695736427575
 30
0.0
 10
6874.164412475647
 20
5297.763809992853
 30
0.0
 10
6874.247506989705
 20
5301.173481292351
 30
0.0
 10
6874.336882922199
 20
5303.649912599067
 30
0.0
 10
6874.419083683805
 20
5305.021751487165
 30
0.0
 10
6874.508401342437
 20
5305.175763435608
 30
0.0
 10
6874.591636730709
 20
5304.100515227368
 30
0.0
 10
6874.67888642145
 20
5301.882925348714
 30
0.0
 10
6874.765410793292
 20
5298.683269074331
 30
0.0
 10
6874.850230762965
 20
5294.748199467253
 30
0.0
 10
6874.93774267684
 20
5290.383359458112
 30
0.0
 10
6875.021024531082
 20
5285.903558652638
 30
0.0
 10
6875.110287676399
 20
5281.670940869084
 30
0.0
 10
6875.192506680761
 20
5277.989199441461
 30
0.0
 10
6875.281781268042
 20
5275.119839820512
 30
0.0
 10
6875.365568855689
 20
5273.419903331078
 30
0.0
 10
6875.427058230389
 20
5272.735151424458
 30
0.0
 10
6875.45896907859
 20
5272.988099572944
 30
0.0
 10
6875.462304668873
 20
5273.01453984118
 30
0.0
  0
SPLINE
  5
1E9
330
1F
100
AcDbEntity
  8
0
  6
Continuous
 62
     7
370
    25
100
AcDbSpline
210
0.0
220
0.0
230
1.0
 70
     8
 71
     3
 72
    16
 73
    12
 74
     0
 42
0.000000001
 43
0.00000001
 40
0.0
 40
0.0
 40
0.0
 40
0.0
 40
0.0609538241051733
 40
0.1775891640326032
 40
0.2958093286485841
 40
0.4126518989737507
 40
0.5305397864340862
 40
0.6480061868514656
 40
0.7652392123449415
 40
0.8832667766679595
 40
1.0
 40
1.0
 40
1.0
 40
1.0
 10
6876.439344006031
 20
5304.892653587823
 30
0.0
 10
6876.454563727276
 20
5304.894093761589
 30
0.0
 10
6876.498906434441
 20
5304.898289712521
 30
0.0
 10
6876.567682895197
 20
5303.578356841393
 30
0.0
 10
6876.657058182272
 20
5301.134542506175
 30
0.0
 10
6876.740201972137
 20
5297.698107920791
 30
0.0
 10
6876.827705982704
 20
5293.626432577151
 30
0.0
 10
6876.913388808893
 20
5289.189918795276
 30
0.0
 10
6876.998353343822
 20
5284.75573836235
 30
0.0
 10
6877.08622648514
 20
5280.587847970029
 30
0.0
 10
6877.142402315559
 20
5278.391511892881
 30
0.0
 10
6877.170335369557
 20
5277.299398544793
 30
0.0
  0
LINE
  5
1EA
330
1F
100
AcDbEntity
  8
0
  6
Continuous
 62
     7
370
    25
100
AcDbLine
 10
6877.1703353696
 20
5277.2993985448
 30
0.0
 11
6876.9261947446
 21
5277.2993985448
 31
0.0
  0
SPLINE
  5
1EB
330
1F
100
AcDbEntity
  8
0
  6
Continuous
 62
     7
370
    25
100
AcDbSpline
210
0.0
220
0.0
230
1.0
 70
     8
 71
     3
 72
    12
 73
     8
 74
     0
 42
0.000000001
 43
0.00000001
 40
0.0
 40
0.0
 40
0.0
 40
0.0
 40
0.1276057791479912
 40
0.3518623951184619
 40
0.5789977932759617
 40
0.8039084369703107
 40
1.0
 40
1.0
 40
1.0
 40
1.0
 10
6874.816190319507
 20
5284.112447861199
 30
0.0
 10
6874.832684740975
 20
5283.309878637907
 30
0.0
 10
6874.878166745654
 20
5281.096860300947
 30
0.0
 10
6874.948391242559
 20
5277.989709939074
 30
0.0
 10
6875.037615558424
 20
5275.157566531954
 30
0.0
 10
6875.117767844155
 20
5273.354034347383
 30
0.0
 10
6875.171622373147
 20
5273.127706090933
 30
0.0
 10
6875.196706371753
 20
5273.022288445
 30
0.0
  0
SPLINE
  5
1EC
330
1F
100
AcDbEntity
  8
0
  6
Continuous
 62
     7
370
    25
100
AcDbSpline
210
0.0
220
0.0
230
1.0
 70
     8
 71
     3
 72
    16
 73
    12
 74
     0
 42
0.000000001
 43
0.00000001
 40
0.0
 40
0.0
 40
0.0
 40
0.0
 40
0.074786550118603
 40
0.1897038423030624
 40
0.3061826145835947
 40
0.4213064638264855
 40
0.5374549746420694
 40
0.6531910711797356
 40
0.7686972572361356
 40
0.8849862662411887
 40
1.0
 40
1.0
 40
1.0
 40
1.0
 10
6876.184236126392
 20
5304.9145880971
 30
0.0
 10
6876.20315164537
 20
5304.921849209615
 30
0.0
 10
6876.251132821444
 20
5304.940267774736
 30
0.0
 10
6876.323592123537
 20
5303.58624616715
 30
0.0
 10
6876.412905704153
 20
5301.132444523128
 30
0.0
 10
6876.496062219216
 20
5297.698584968049
 30
0.0
 10
6876.58356605629
 20
5293.626258195158
 30
0.0
 10
6876.669248198528
 20
5289.189954914241
 30
0.0
 10
6876.754212711144
 20
5284.755728845046
 30
0.0
 10
6876.842085861271
 20
5280.587850362022
 30
0.0
 10
6876.898261690934
 20
5278.391512687277
 30
0.0
 10
6876.926194744557
 20
5277.299398544793
 30
0.0
  0
LINE
  5
1ED
330
1F
100
AcDbEntity
  8
0
  6
Continuous
 62
     7
370
    25
100
AcDbLine
 10
6876.9261947446
 20
5277.2993985448
 30
0.0
 11
6876.3153663449
 21
5278.0699673924
 31
0.0
  0
SPLINE
  5
1EE
330
1F
100
AcDbEntity
  8
0
  6
Continuous
 62
     7
370
    25
100
AcDbSpline
210
0.0
220
0.0
230
1.0
 70
     8
 71
     3
 72
    17
 73
    13
 74
     0
 42
0.000000001
 43
0.00000001
 40
0.0
 40
0.0
 40
0.0
 40
0.0
 40
0.0368279241096061
 40
0.1520538032644655
 40
0.2681245123138547
 40
0.3840078014756994
 40
0.4994079586095122
 40
0.6157830673289886
 40
0.7307679594157941
 40
0.8473069500873021
 40
0.9622988329146914
 40
1.0
 40
1.0
 40
1.0
 40
1.0
 10
6875.573884563892
 20
5303.87436783648
 30
0.0
 10
6875.583129775431
 20
5303.909634461707
 30
0.0
 10
6875.621301071003
 20
5304.055242030521
 30
0.0
 10
6875.686233459871
 20
5303.145569566497
 30
0.0
 10
6875.772665242909
 20
5301.198782641352
 30
0.0
 10
6875.859222685525
 20
5298.241706668756
 30
0.0
 10
6875.944000452946
 20
5294.603009828039
 30
0.0
 10
6876.032327017944
 20
5290.542189211454
 30
0.0
 10
6876.11480493729
 20
5286.351833761685
 30
0.0
 10
6876.20384243332
 20
5282.385483372057
 30
0.0
 10
6876.268751696227
 20
5279.667264660185
 30
0.0
 10
6876.306135882514
 20
5278.386258360344
 30
0.0
 10
6876.315366344897
 20
5278.069967392449
 30
0.0
  0
SPLINE
  5
1EF
330
1F
100
AcDbEntity
  8
0
  6
Continuous
 62
     7
370
    25
100
AcDbSpline
210
0.0
220
0.0
230
1.0
 70
     8
 71
     3
 72
    20
 73
    16
 74
     0
 42
0.000000001
 43
0.00000001
 40
0.0
 40
0.0
 40
0.0
 40
0.0
 40
0.0164466348361812
 40
0.1050500887254109
 40
0.1943036056643363
 40
0.283412790414751
 40
0.3721502555835643
 40
0.4616376280790961
 40
0.550056195289742
 40
0.6396695611472103
 40
0.7280931274352846
 40
0.8175725906357156
 40
0.9063254128152671
 40
0.9954182373120603
 40
0.9999999999999999
 40
0.9999999999999999
 40
0.9999999999999999
 40
0.9999999999999999
 10
6875.097047405689
 20
5303.902501228814
 30
0.0
 10
6875.102470122967
 20
5303.920372316646
 30
0.0
 10
6875.137106809248
 20
5304.034520857125
 30
0.0
 10
6875.19696948812
 20
5303.132523747718
 30
0.0
 10
6875.284606595465
 20
5301.202294742278
 30
0.0
 10
6875.371034410483
 20
5298.240740816944
 30
0.0
 10
6875.455126339807
 20
5294.603400368611
 30
0.0
 10
6875.543457944346
 20
5290.541576765983
 30
0.0
 10
6875.626600882008
 20
5286.353856699762
 30
0.0
 10
6875.715849849592
 20
5282.377951996043
 30
0.0
 10
6875.798218506913
 20
5278.900872756007
 30
0.0
 10
6875.886743315613
 20
5276.16385586498
 30
0.0
 10
6875.970898361072
 20
5274.52463447354
 30
0.0
 10
6876.031521076443
 20
5273.829691474291
 30
0.0
 10
6876.060736828235
 20
5274.018125383825
 30
0.0
 10
6876.062165813892
 20
5274.027341965203
 30
0.0
  0
SPLINE
  5
1F0
330
1F
100
AcDbEntity
  8
0
  6
Continuous
 62
     7
370
    25
100
AcDbSpline
210
0.0
220
0.0
230
1.0
 70
     8
 71
     3
 72
    17
 73
    13
 74
     0
 42
0.000000001
 43
0.00000001
 40
0.0
 40
0.0
 40
0.0
 40
0.0
 40
0.0217236641160788
 40
0.138756496737668
 40
0.256647407738571
 40
0.3743479597637837
 40
0.4915578033632025
 40
0.6097578875802327
 40
0.7265459540138234
 40
0.844912457531995
 40
0.9617076832242907
 40
1.0
 40
1.0
 40
1.0
 40
1.0
 10
6877.050649242847
 20
5303.902501228814
 30
0.0
 10
6877.056067848439
 20
5303.920372268512
 30
0.0
 10
6877.090678341649
 20
5304.034520731139
 30
0.0
 10
6877.151423253533
 20
5303.132531725718
 30
0.0
 10
6877.238020925221
 20
5301.202281031256
 30
0.0
 10
6877.324533921701
 20
5298.240774488542
 30
0.0
 10
6877.409323564526
 20
5294.603261655161
 30
0.0
 10
6877.497646940122
 20
5290.542122226505
 30
0.0
 10
6877.580125680086
 20
5286.351853006657
 30
0.0
 10
6877.669163038593
 20
5282.385475691889
 30
0.0
 10
6877.734072201425
 20
5279.667268066776
 30
0.0
 10
6877.771456467009
 20
5278.386258570066
 30
0.0
 10
6877.780686932056
 20
5278.069967392449
 30
0.0
  0
LINE
  5
1F1
330
1F
100
AcDbEntity
  8
0
  6
Continuous
 62
     7
370
    25
100
AcDbLine
 10
6877.7806869321
 20
5278.0699673924
 30
0.0
 11
6877.1703353696
 21
5277.2993985448
 31
0.0
  0
LINE
  5
1F2
330
1F
100
AcDbEntity
  8
0
  6
Continuous
 62
     7
370
    25
100
AcDbLine
 10
6768.3160415463
 20
5417.199486855
 30
0.0
 11
6768.3160415463
 21
5418.1994143758
 31
0.0
  0
LINE
  5
1F3
330
1F
100
AcDbEntity
  8
0
  6
Continuous
 62
     7
370
    25
100
AcDbLine
 10
6748.3160606198
 20
5417.199486855
 30
0.0
 11
6748.3160606198
 21
5418.1994143758
 31
0.0
  0
LINE
  5
1F4
330
1F
100
AcDbEntity
  8
0
  6
Continuous
 62
     7
370
    25
100
AcDbLine
 10
6748.3160606198
 20
5418.1994143758
 30
0.0
 11
6768.3160415463
 21
5418.1994143758
 31
0.0
  0
LINE
  5
1F5
330
1F
100
AcDbEntity
  8
0
  6
Continuous
 62
     7
370
    25
100
AcDbLine
 10
6748.3160606198
 20
5417.199486855
 30
0.0
 11
6768.3160415463
 21
5417.199486855
 31
0.0
  0
LINE
  5
1F6
330
1F
100
AcDbEntity
  8
0
  6
Continuous
 62
     7
370
    25
100
AcDbLine
 10
7063.3161178403
 20
5417.199486855
 30
0.0
 11
7063.3161178403
 21
5418.1994143758
 31
0.0
  0
LINE
  5
1F7
330
1F
100
AcDbEntity
  8
0
  6
Continuous
 62
     7
370
    25
100
AcDbLine
 10
6768.3160415463
 20
5418.1994143758
 30
0.0
 11
7063.3161178403
 21
5418.1994143758
 31
0.0
  0
LINE
  5
1F8
330
1F
100
AcDbEntity
  8
0
  6
Continuous
 62
     7
370
    25
100
AcDbLine
 10
6768.3160415463
 20
5417.199486855
 30
0.0
 11
7063.3161178403
 21
5417.199486855
 31
0.0
  0
LINE
  5
1F9
330
1F
100
AcDbEntity
  8
0
  6
Continuous
 62
     7
370
    25
100
AcDbLine
 10
7083.3160987668
 20
5417.199486855
 30
0.0
 11
7083.3160987668
 21
5418.1994143758
 31
0.0
  0
LINE
  5
1FA
330
1F
100
AcDbEntity
  8
0
  6
Continuous
 62
     7
370
    25
100
AcDbLine
 10
7063.3161178403
 20
5418.1994143758
 30
0.0
 11
7083.3160987668
 21
5418.1994143758
 31
0.0
  0
LINE
  5
1FB
330
1F
100
AcDbEntity
  8
0
  6
Continuous
 62
     7
370
    25
100
AcDbLine
 10
7063.3161178403
 20
5417.199486855
 30
0.0
 11
7083.3160987668
 21
5417.199486855
 31
0.0
  0
SPLINE
  5
1FC
330
1F
100
AcDbEntity
  8
0
  6
Continuous
 62
     7
370
    25
100
AcDbSpline
210
0.0
220
0.0
230
1.0
 70
     8
 71
     3
 72
    12
 73
     8
 74
     0
 42
0.000000001
 43
0.00000001
 40
0.0
 40
0.0
 40
0.0
 40
0.0
 40
0.061804634052208
 40
0.3090231839470554
 40
0.5562417373916347
 40
0.6940562727679594
 40
1.0
 40
1.0
 40
1.0
 40
1.0
 10
6963.226567821948
 20
5321.299666527276
 30
0.0
 10
6963.225398712641
 20
5321.299920120966
 30
0.0
 10
6963.219553165848
 20
5321.301188089466
 30
0.0
 10
6963.216657233857
 20
5321.296057374184
 30
0.0
 10
6963.207960809806
 20
5321.307466591246
 30
0.0
 10
6963.250718302375
 20
5321.256629709563
 30
0.0
 10
6963.298799700096
 20
5321.205756198395
 30
0.0
 10
6963.331948833911
 20
5321.170682075982
 30
0.0
  0
LINE
  5
1FD
330
1F
100
AcDbEntity
  8
0
  6
Continuous
 62
     7
370
    25
100
AcDbLine
 10
6962.6653304867
 20
5321.2746325765
 30
0.0
 11
6963.2265678219
 21
5321.2996665273
 31
0.0
  0
SPLINE
  5
1FE
330
1F
100
AcDbEntity
  8
0
  6
Continuous
 62
     7
370
    25
100
AcDbSpline
210
0.0
220
0.0
230
1.0
 70
     8
 71
     3
 72
     9
 73
     5
 74
     0
 42
0.000000001
 43
0.00000001
 40
0.0
 40
0.0
 40
0.0
 40
0.0
 40
0.0000585252151015
 40
1.0
 40
1.0
 40
1.0
 40
1.0
 10
6962.292443829029
 20
5321.259731415276
 30
0.0
 10
6962.292443828816
 20
5321.259731415268
 30
0.0
 10
6962.292440194269
 20
5321.259731269219
 30
0.0
 10
6962.478890796538
 20
5321.267182140877
 30
0.0
 10
6962.665330486744
 20
5321.27463257647
 30
0.0
  0
SPLINE
  5
1FF
330
1F
100
AcDbEntity
  8
0
  6
Continuous
 62
     7
370
    25
100
AcDbSpline
210
0.0
220
0.0
230
1.0
 70
     8
 71
     3
 72
    12
 73
     8
 74
     0
 42
0.000000001
 43
0.00000001
 40
0.0
 40
0.0
 40
0.0
 40
0.0
 40
0.4834742372627872
 40
0.898046051738064
 40
0.9602494869157876
 40
0.9999904506171782
 40
0.9999999999999999
 40
0.9999999999999999
 40
0.9999999999999999
 40
0.9999999999999999
 10
6958.132993298022
 20
5321.237200859551
 30
0.0
 10
6958.954669289276
 20
5321.237203469354
 30
0.0
 10
6960.480919961765
 20
5321.237208317023
 30
0.0
 10
6961.753070543949
 20
5321.24642022228
 30
0.0
 10
6962.155969260883
 20
5321.255014506554
 30
0.0
 10
6962.292448090576
 20
5321.259731563199
 30
0.0
 10
6962.292443830052
 20
5321.259731415312
 30
0.0
 10
6962.292443829029
 20
5321.259731415276
 30
0.0
  0
LINE
  5
200
330
1F
100
AcDbEntity
  8
0
  6
Continuous
 62
     7
370
    25
100
AcDbLine
 10
6956.8574538998
 20
5321.2387505803
 30
0.0
 11
6958.132993298
 21
5321.2372008596
 31
0.0
  0
LINE
  5
201
330
1F
100
AcDbEntity
  8
0
  6
Continuous
 62
     7
370
    25
100
AcDbLine
 10
6955.0316444211
 20
5321.2412539754
 30
0.0
 11
6956.8574538998
 21
5321.2387505803
 31
0.0
  0
LINE
  5
202
330
1F
100
AcDbEntity
  8
0
  6
Continuous
 62
     7
370
    25
100
AcDbLine
 10
6876.5976539426
 20
5321.1901131902
 30
0.0
 11
6879.5030227475
 21
5321.1919013295
 31
0.0
  0
LINE
  5
203
330
1F
100
AcDbEntity
  8
0
  6
Continuous
 62
     7
370
    25
100
AcDbLine
 10
6874.7665992551
 20
5321.188801888
 30
0.0
 11
6876.5976539426
 21
5321.1901131902
 31
0.0
  0
SPLINE
  5
204
330
1F
100
AcDbEntity
  8
0
  6
Continuous
 62
     7
370
    25
100
AcDbSpline
210
0.0
220
0.0
230
1.0
 70
     8
 71
     3
 72
    11
 73
     7
 74
     0
 42
0.000000001
 43
0.00000001
 40
0.0
 40
0.0
 40
0.0
 40
0.0
 40
0.000007543545072
 40
0.2720745732060544
 40
0.6607593053656355
 40
0.9999999999999999
 40
0.9999999999999999
 40
0.9999999999999999
 40
0.9999999999999999
 10
6869.239102917163
 20
5321.194762352471
 30
0.0
 10
6869.239102917021
 20
5321.194762352472
 30
0.0
 10
6869.239097737373
 20
5321.194762389183
 30
0.0
 10
6870.597539266478
 20
5321.185960956658
 30
0.0
 10
6872.253073596782
 20
5321.188390865262
 30
0.0
 10
6873.967576335218
 20
5321.188671228263
 30
0.0
 10
6874.766599255055
 20
5321.188801887994
 30
0.0
  0
SPLINE
  5
205
330
1F
100
AcDbEntity
  8
0
  6
Continuous
 62
     7
370
    25
100
AcDbSpline
210
0.0
220
0.0
230
1.0
 70
     8
 71
     3
 72
     9
 73
     5
 74
     0
 42
0.000000001
 43
0.00000001
 40
0.0
 40
0.0
 40
0.0
 40
0.0
 40
0.9999339880172883
 40
1.0
 40
1.0
 40
1.0
 40
1.0
 10
6868.916760998218
 20
5321.200603607659
 30
0.0
 10
6869.077928412505
 20
5321.197683043559
 30
0.0
 10
6869.239106466474
 20
5321.194762286652
 30
0.0
 10
6869.239102917397
 20
5321.194762352467
 30
0.0
 10
6869.239102917163
 20
5321.194762352471
 30
0.0
  0
LINE
  5
206
330
1F
100
AcDbEntity
  8
0
  6
Continuous
 62
     7
370
    25
100
AcDbLine
 10
6868.3579078488
 20
5321.2124053273
 30
0.0
 11
6868.9167609982
 21
5321.2006036077
 31
0.0
  0
LINE
  5
207
330
1F
100
AcDbEntity
  8
0
  6
Continuous
 62
     7
370
    25
100
AcDbLine
 10
6868.250142651
 20
5321.1390916143
 30
0.0
 11
6868.2510963254
 21
5321.1395684514
 31
0.0
  0
LINE
  5
208
330
1F
100
AcDbEntity
  8
0
  6
Continuous
 62
     7
370
    25
100
AcDbLine
 10
6876.599084454
 20
5318.2253781591
 30
0.0
 11
6875.6144157223
 21
5318.2240668569
 31
0.0
  0
ARC
  5
209
330
1F
100
AcDbEntity
  8
0
  6
Continuous
 62
     7
370
    25
100
AcDbCircle
 10
6871.8628584088
 20
5318.754836453
 30
0.0
 40
3.788917872052284
100
AcDbArc
 50
351.9472498634
 51
39.9703165198
  0
LWPOLYLINE
  5
20A
330
1F
100
AcDbEntity
  8
0
  6
Continuous
 62
     7
370
    25
100
AcDbPolyline
 90
        9
 70
   128
 43
0.0
 10
6876.599084454
 20
5318.2253781591
 10
6876.5986076169
 20
5318.8385907445
 10
6876.5986076169
 20
5319.40817273
 10
6876.5986076169
 20
5319.9188653264
 10
6876.5981307797
 20
5320.3573170934
 10
6876.5981307797
 20
5320.7118455205
 10
6876.5981307797
 20
5320.9729138646
 10
6876.5976539426
 20
5321.1337271962
 10
6876.5976539426
 20
5321.1901131902
  0
LINE
  5
20B
330
1F
100
AcDbEntity
  8
0
  6
Continuous
 62
     7
370
    25
100
AcDbLine
 10
6956.0182205014
 20
5318.2744923863
 30
0.0
 11
6955.0330749325
 21
5318.2771149907
 31
0.0
  0
LWPOLYLINE
  5
20C
330
1F
100
AcDbEntity
  8
0
  6
Continuous
 62
     7
370
    25
100
AcDbPolyline
 90
        9
 70
   128
 43
0.0
 10
6955.0330749325
 20
5318.2771149907
 10
6955.0325980954
 20
5318.8848439488
 10
6955.0325980954
 20
5319.4498959813
 10
6955.0321212582
 20
5319.9574891362
 10
6955.0321212582
 20
5320.3943911824
 10
6955.0321212582
 20
5320.7492772374
 10
6955.0316444211
 20
5321.0128489766
 10
6955.0316444211
 20
5321.1781922612
 10
6955.0316444211
 20
5321.2412539754
  0
ARC
  5
20D
330
1F
100
AcDbEntity
  8
0
  6
Continuous
 62
     7
370
    25
100
AcDbCircle
 10
6959.8797347383
 20
5318.7821600233
 30
0.0
 40
3.894742434508044
100
AcDbArc
 50
140.8948677925
 51
187.4896393024
  0
SPLINE
  5
20E
330
1F
100
AcDbEntity
  8
0
  6
Continuous
 62
     7
370
    25
100
AcDbSpline
210
0.0
220
0.0
230
1.0
 70
     8
 71
     3
 72
    11
 73
     7
 74
     0
 42
0.000000001
 43
0.00000001
 40
0.0
 40
0.0
 40
0.0
 40
0.0
 40
0.3172633061847623
 40
0.6345265259584543
 40
0.8172632726534615
 40
1.0
 40
1.0
 40
1.0
 40
1.0
 10
6955.033074932544
 20
5318.277114990716
 30
0.0
 10
6946.73833441371
 20
5318.268991310319
 30
0.0
 10
6930.148855635231
 20
5318.252743951736
 30
0.0
 10
6908.781774908633
 20
5318.249897881727
 30
0.0
 10
6890.931856868495
 20
5318.233468581647
 30
0.0
 10
6881.376675090232
 20
5318.228074966488
 30
0.0
 10
6876.599084454028
 20
5318.225378159051
 30
0.0
  0
SPLINE
  5
20F
330
1F
100
AcDbEntity
  8
0
  6
Continuous
 62
     7
370
    25
100
AcDbSpline
210
0.0
220
0.0
230
1.0
 70
     8
 71
     3
 72
    10
 73
     6
 74
     0
 42
0.000000001
 43
0.00000001
 40
0.0
 40
0.0
 40
0.0
 40
0.0
 40
0.3037066064953425
 40
0.651856766868579
 40
1.0
 40
1.0
 40
1.0
 40
1.0
 10
6875.614415722339
 20
5318.224066856866
 30
0.0
 10
6875.193527278883
 20
5318.223883580094
 30
0.0
 10
6874.290158784105
 20
5318.223490206352
 30
0.0
 10
6873.126735371731
 20
5318.221717655203
 30
0.0
 10
6872.65817576792
 20
5318.231787419027
 30
0.0
 10
6872.423898296802
 20
5318.236822250848
 30
0.0
  0
ARC
  5
210
330
1F
100
AcDbEntity
  8
0
  6
Continuous
 62
     7
370
    25
100
AcDbCircle
 10
6868.7419341152
 20
5317.4367808015
 30
0.0
 40
3.76788091044266
100
AcDbArc
 50
12.2590447738
 51
87.340563446
  0
LINE
  5
211
330
1F
100
AcDbEntity
  8
0
  6
Continuous
 62
     7
370
    25
100
AcDbLine
 10
6956.7120185666
 20
5318.2728234563
 30
0.0
 11
6956.0182205014
 21
5318.2744923863
 31
0.0
  0
LWPOLYLINE
  5
212
330
1F
100
AcDbEntity
  8
0
  6
Continuous
 62
     7
370
    25
100
AcDbPolyline
 90
        9
 70
   128
 43
0.0
 10
6956.7120185666
 20
5318.2728234563
 10
6956.7930808835
 20
5318.8815060887
 10
6956.9099059872
 20
5319.4472733769
 10
6957.0596328549
 20
5319.955343369
 10
6957.2374931149
 20
5320.3924838338
 10
6957.4391952328
 20
5320.7472506795
 10
6957.6594939999
 20
5321.0104647908
 10
6957.8926673703
 20
5321.175212029
 10
6958.132993298
 20
5321.2372008596
  0
ARC
  5
213
330
1F
100
AcDbEntity
  8
0
  6
Continuous
 62
     7
370
    25
100
AcDbCircle
 10
6962.9111560922
 20
5317.5205381461
 30
0.0
 40
3.762134396949626
100
AcDbArc
 50
93.7464933985
 51
167.8326662563
  0
SPLINE
  5
214
330
1F
100
AcDbEntity
  8
0
  6
Continuous
 62
     7
370
    25
100
AcDbSpline
210
0.0
220
0.0
230
1.0
 70
     8
 71
     3
 72
    10
 73
     6
 74
     0
 42
0.000000001
 43
0.00000001
 40
0.0
 40
0.0
 40
0.0
 40
0.0
 40
0.1717582699236734
 40
0.5859311707848489
 40
1.0
 40
1.0
 40
1.0
 40
1.0
 10
6959.233533459155
 20
5318.313473824029
 30
0.0
 10
6959.147058849491
 20
5318.306408062924
 30
0.0
 10
6958.852061879005
 20
5318.282304130815
 30
0.0
 10
6958.064959318603
 20
5318.273877344737
 30
0.0
 10
6957.162961037443
 20
5318.273174723013
 30
0.0
 10
6956.712018566577
 20
5318.272823456292
 30
0.0
  0
LINE
  5
215
330
1F
100
AcDbEntity
  8
0
  6
Continuous
 62
     7
370
    25
100
AcDbLine
 10
6959.549676495
 20
5318.3392230306
 30
0.0
 11
6959.2335334592
 21
5318.313473824
 31
0.0
  0
LINE
  5
216
330
1F
100
AcDbEntity
  8
0
  6
Continuous
 62
     7
370
    25
100
AcDbLine
 10
6958.9669814877
 20
5316.1641303334
 30
0.0
 11
6959.549676495
 21
5318.3392230306
 31
0.0
  0
LINE
  5
217
330
1F
100
AcDbEntity
  8
0
  6
Continuous
 62
     7
370
    25
100
AcDbLine
 10
6955.0330749325
 20
5316.1641303334
 30
0.0
 11
6958.9669814877
 21
5316.1641303334
 31
0.0
  0
LINE
  5
218
330
1F
100
AcDbEntity
  8
0
  6
Continuous
 62
     7
370
    25
100
AcDbLine
 10
6955.0330749325
 20
5316.1641303334
 30
0.0
 11
6955.0330749325
 21
5318.2771149907
 31
0.0
  0
LINE
  5
219
330
1F
100
AcDbEntity
  8
0
  6
Continuous
 62
     7
370
    25
100
AcDbLine
 10
6876.599084454
 20
5316.1641303334
 30
0.0
 11
6876.599084454
 21
5318.2253781591
 31
0.0
  0
LINE
  5
21A
330
1F
100
AcDbEntity
  8
0
  6
Continuous
 62
     7
370
    25
100
AcDbLine
 10
6872.6651778989
 20
5316.1641303334
 30
0.0
 11
6876.599084454
 21
5316.1641303334
 31
0.0
  0
LINE
  5
21B
330
1F
100
AcDbEntity
  8
0
  6
Continuous
 62
     7
370
    25
100
AcDbLine
 10
6872.6651778989
 20
5316.1641303334
 30
0.0
 11
6872.1063247494
 21
5318.2493392263
 31
0.0
  0
LINE
  5
21C
330
1F
100
AcDbEntity
  8
0
  6
Continuous
 62
     7
370
    25
100
AcDbLine
 10
6872.4238982968
 20
5318.2368222508
 30
0.0
 11
6872.1063247494
 21
5318.2493392263
 31
0.0
  0
LINE
  5
21D
330
1F
100
AcDbEntity
  8
0
  6
Continuous
 62
     7
370
    25
100
AcDbLine
 10
6876.599084454
 20
5316.1641303334
 30
0.0
 11
6955.0330749325
 21
5316.1641303334
 31
0.0
  0
LINE
  5
21E
330
1F
100
AcDbEntity
  8
0
  6
Continuous
 62
     7
370
    25
100
AcDbLine
 10
6876.599084454
 20
5313.1993953023
 30
0.0
 11
6876.5289893918
 21
5313.1993953023
 31
0.0
  0
ARC
  5
21F
330
1F
100
AcDbEntity
  8
0
  6
Continuous
 62
     7
370
    25
100
AcDbCircle
 10
6876.5289347613
 20
5317.1994545927
 30
0.0
 40
4.000000000000004
100
AcDbArc
 50
195.0
 51
270.0
  0
LINE
  5
220
330
1F
100
AcDbEntity
  8
0
  6
Continuous
 62
     7
370
    25
100
AcDbLine
 10
6876.599084454
 20
5316.1641303334
 30
0.0
 11
6876.599084454
 21
5313.1993953023
 31
0.0
  0
LINE
  5
221
330
1F
100
AcDbEntity
  8
0
  6
Continuous
 62
     7
370
    25
100
AcDbLine
 10
6955.0330749325
 20
5316.1641303334
 30
0.0
 11
6955.0330749325
 21
5313.1993953023
 31
0.0
  0
LINE
  5
222
330
1F
100
AcDbEntity
  8
0
  6
Continuous
 62
     7
370
    25
100
AcDbLine
 10
6955.0330749325
 20
5313.1993953023
 30
0.0
 11
6876.599084454
 21
5313.1993953023
 31
0.0
  0
ARC
  5
223
330
1F
100
AcDbEntity
  8
0
  6
Continuous
 62
     7
370
    25
100
AcDbCircle
 10
6955.1031317786
 20
5317.1994545927
 30
0.0
 40
4.000000000000004
100
AcDbArc
 50
270.0
 51
345.0
  0
LINE
  5
224
330
1F
100
AcDbEntity
  8
0
  6
Continuous
 62
     7
370
    25
100
AcDbLine
 10
6955.1031699948
 20
5313.1993953023
 30
0.0
 11
6955.0330749325
 21
5313.1993953023
 31
0.0
  0
ARC
  5
225
330
1F
100
AcDbEntity
  8
0
  6
Continuous
 62
     7
370
    25
100
AcDbCircle
 10
6868.2430616368
 20
5317.2146253021
 30
0.0
 40
3.999429307080813
100
AcDbArc
 50
14.9938517489
 51
88.3544882536
  0
ARC
  5
226
330
1F
100
AcDbEntity
  8
0
  6
Continuous
 62
     7
370
    25
100
AcDbCircle
 10
6963.4133528895
 20
5317.3039955594
 30
0.0
 40
4.000000000000004
100
AcDbArc
 50
92.6733032451
 51
165.0
  0
ARC
  5
227
330
1F
100
AcDbEntity
  8
0
  6
Continuous
 62
     7
370
    25
100
AcDbCircle
 10
6963.3877225476
 20
5317.1629009995
 30
0.0
 40
4.011837159846655
100
AcDbArc
 50
118.2555893056
 51
164.9268791557
  0
LINE
  5
228
330
1F
100
AcDbEntity
  8
0
  6
Continuous
 62
     8
370
    25
100
AcDbLine
 10
6770.8160987668
 20
5157.1994963918
 30
0.0
 11
6770.8160987668
 21
5077.1994534764
 31
0.0
  0
LINE
  5
229
330
1F
100
AcDbEntity
  8
0
  6
Continuous
 62
     8
370
    25
100
AcDbLine
 10
6888.7097945981
 20
5011.8937436376
 30
0.0
 11
6942.9223647885
 21
5011.8937436376
 31
0.0
  0
LINE
  5
22A
330
1F
100
AcDbEntity
  8
0
  6
Continuous
 62
     8
370
    25
100
AcDbLine
 10
6943.1254974179
 20
5136.5470830236
 30
0.0
 11
6890.5942550473
 21
5136.5470830236
 31
0.0
  0
LINE
  5
22B
330
1F
100
AcDbEntity
  8
0
  6
Continuous
 62
     8
370
    25
100
AcDbLine
 10
6858.815919476
 20
5143.1994382176
 30
0.0
 11
6858.815919476
 21
5091.1995116506
 31
0.0
  0
LINE
  5
22C
330
1F
100
AcDbEntity
  8
0
  6
Continuous
 62
     8
370
    25
100
AcDbLine
 10
6892.8158393674
 20
5152.6994649205
 30
0.0
 11
6938.8158431821
 21
5152.6994649205
 31
0.0
  0
LINE
  5
22D
330
1F
100
AcDbEntity
  8
0
  6
Continuous
 62
     8
370
    25
100
AcDbLine
 10
6942.3468223385
 20
5258.8994447026
 30
0.0
 11
6943.815957623
 21
5258.8994447026
 31
0.0
  0
LINE
  5
22E
330
1F
100
AcDbEntity
  8
0
  6
Continuous
 62
     8
370
    25
100
AcDbLine
 10
6887.8162017636
 20
5258.8994447026
 30
0.0
 11
6942.3468223385
 21
5258.8994447026
 31
0.0
  0
LINE
  5
22F
330
1F
100
AcDbEntity
  8
0
  6
Continuous
 62
     8
370
    25
100
AcDbLine
 10
6860.8162513547
 20
5307.4989262853
 30
0.0
 11
6860.8162513547
 21
5302.3312035832
 31
0.0
  0
LINE
  5
230
330
1F
100
AcDbEntity
  8
0
  6
Continuous
 62
     8
370
    25
100
AcDbLine
 10
6860.8162513547
 20
5275.4620257649
 30
0.0
 11
6860.8162513547
 21
5270.4999390874
 31
0.0
  0
LINE
  5
231
330
1F
100
AcDbEntity
  8
0
  6
Continuous
 62
     8
370
    25
100
AcDbLine
 10
6760.7548347287
 20
5408.6389485631
 30
0.0
 11
6757.3120704465
 21
5406.8074170384
 31
0.0
  0
LINE
  5
232
330
1F
100
AcDbEntity
  8
0
  6
Continuous
 62
     8
370
    25
100
AcDbLine
 10
6756.3727012448
 20
5408.5733834539
 30
0.0
 11
6759.8149886899
 21
5410.4045573506
 31
0.0
  0
LINE
  5
233
330
1F
100
AcDbEntity
  8
0
  6
Continuous
 62
     8
370
    25
100
AcDbLine
 10
6774.219762402
 20
5375.024909142
 30
0.0
 11
6777.3983588986
 21
5376.715773705
 31
0.0
  0
LINE
  5
234
330
1F
100
AcDbEntity
  8
0
  6
Continuous
 62
     8
370
    25
100
AcDbLine
 10
6952.3160568051
 20
5306.9994393621
 30
0.0
 11
6879.3161025815
 21
5306.9994393621
 31
0.0
  0
LINE
  5
235
330
1F
100
AcDbEntity
  8
0
  6
Continuous
 62
     8
370
    25
100
AcDbLine
 10
6940.3159728818
 20
5303.9994183812
 30
0.0
 11
6891.3161865048
 21
5303.9994183812
 31
0.0
  0
SPLINE
  5
236
330
1F
100
AcDbEntity
  8
0
  6
Continuous
 62
     8
370
    25
100
AcDbSpline
210
0.0
220
0.0
230
1.0
 70
     8
 71
     3
 72
    11
 73
     7
 74
     0
 42
0.000000001
 43
0.00000001
 40
0.0
 40
0.0
 40
0.0
 40
0.0
 40
0.1512737032726888
 40
0.3410524275162203
 40
0.6705008917729177
 40
1.0
 40
1.0
 40
1.0
 40
1.0
 10
6879.503022747485
 20
5321.191901329522
 30
0.0
 10
6883.311521286898
 20
5321.194036457903
 30
0.0
 10
6891.897928864408
 20
5321.198850187598
 30
0.0
 10
6908.778595500163
 20
5321.214589065719
 30
0.0
 10
6930.146314752275
 20
5321.217275962932
 30
0.0
 10
6946.736109523924
 20
5321.233260895063
 30
0.0
 10
6955.031644421069
 20
5321.241253975396
 30
0.0
  0
SPLINE
  5
237
330
1F
100
AcDbEntity
  8
0
  6
Continuous
 62
     8
370
    25
100
AcDbSpline
210
0.0
220
0.0
230
1.0
 70
     8
 71
     3
 72
    12
 73
     8
 74
     0
 42
0.000000001
 43
0.00000001
 40
0.0
 40
0.0
 40
0.0
 40
0.0
 40
0.3471464683122269
 40
0.510329122348464
 40
0.5919255523588695
 40
0.7551333999214519
 40
1.0
 40
1.0
 40
1.0
 40
1.0
 10
6868.251096325366
 20
5321.139568451409
 30
0.0
 10
6868.249056237941
 20
5321.137078586281
 30
0.0
 10
6868.246057169478
 20
5321.133418313739
 30
0.0
 10
6868.275848759015
 20
5321.1568608289
 30
0.0
 10
6868.297239312496
 20
5321.172498439137
 30
0.0
 10
6868.324668477931
 20
5321.193420295179
 30
0.0
 10
6868.345442386932
 20
5321.205285541718
 30
0.0
 10
6868.357907848804
 20
5321.212405327325
 30
0.0
  0
ARC
  5
238
330
1F
100
AcDbEntity
  8
0
  6
Continuous
 62
     8
370
    25
100
AcDbCircle
 10
6963.3779331013
 20
5317.16994273
 30
0.0
 40
4.001003607562045
100
AcDbArc
 50
90.6585253887
 51
118.1798434163
  0
LINE
  5
239
330
1F
100
AcDbEntity
  8
0
  6
Continuous
 62
     7
370
    25
100
AcDbLine
 10
6263.701756208
 20
4787.5911263732
 30
0.0
 11
6263.7015736687
 21
4788.1819276122
 31
0.0
  0
LINE
  5
23A
330
1F
100
AcDbEntity
  8
0
  6
Continuous
 62
     7
370
    25
100
AcDbLine
 10
6263.701756208
 20
4787.5911263732
 30
0.0
 11
6249.0187554646
 21
4787.5868348387
 31
0.0
  0
LINE
  5
23B
330
1F
100
AcDbEntity
  8
0
  6
Continuous
 62
     7
370
    25
100
AcDbLine
 10
6299.0187524843
 20
4787.6020936278
 30
0.0
 11
6282.812212317
 21
4787.5973252562
 31
0.0
  0
LINE
  5
23C
330
1F
100
AcDbEntity
  8
0
  6
Continuous
 62
     7
370
    25
100
AcDbLine
 10
6282.8120260525
 20
4788.2010010985
 30
0.0
 11
6282.812212317
 21
4787.5973252562
 31
0.0
  0
LINE
  5
23D
330
1F
100
AcDbEntity
  8
0
  6
Continuous
 62
     7
370
    25
100
AcDbLine
 10
6248.2494271386
 20
4812.3575715331
 30
0.0
 11
6298.2494204331
 21
4812.3728303221
 31
0.0
  0
LINE
  5
23E
330
1F
100
AcDbEntity
  8
0
  6
Continuous
 62
     7
370
    25
100
AcDbLine
 10
6244.5991567362
 20
4810.6419114379
 30
0.0
 11
6244.5278882075
 21
4808.8261155394
 31
0.0
  0
LWPOLYLINE
  5
23F
330
1F
100
AcDbEntity
  8
0
  6
Continuous
 62
     7
370
    25
100
AcDbPolyline
 90
        9
 70
   128
 43
0.0
 10
6244.5991567362
 20
4810.6419114379
 10
6244.6692033696
 20
4810.9766511229
 10
6244.8768585015
 20
4811.2980393675
 10
6245.2141351092
 20
4811.5946320799
 10
6245.6680803585
 20
4811.8545083312
 10
6246.2212412644
 20
4812.068131378
 10
6246.8523687709
 20
4812.2269181517
 10
6247.5372000623
 20
4812.3246697691
 10
6248.2494271386
 20
4812.3575715331
  0
LWPOLYLINE
  5
240
330
1F
100
AcDbEntity
  8
0
  6
Continuous
 62
     7
370
    25
100
AcDbPolyline
 90
        9
 70
   128
 43
0.0
 10
6298.2494204331
 20
4812.3728303221
 10
6298.9616661358
 20
4812.3404053954
 10
6299.6465607572
 20
4812.2426537779
 10
6300.2777813959
 20
4812.0843438414
 10
6300.8310764122
 20
4811.8716744689
 10
6301.285181849
 20
4811.6117982176
 10
6301.622640996
 20
4811.3156823424
 10
6301.8304898429
 20
4810.9938172606
 10
6301.9007413674
 20
4810.6595544127
  0
LINE
  5
241
330
1F
100
AcDbEntity
  8
0
  6
Continuous
 62
     7
370
    25
100
AcDbLine
 10
6301.9007413674
 20
4810.6595544127
 30
0.0
 11
6301.9738166619
 21
4808.8261155394
 31
0.0
  0
SPLINE
  5
242
330
1F
100
AcDbEntity
  8
0
  6
Continuous
 62
     7
370
    25
100
AcDbSpline
210
0.0
220
0.0
230
1.0
 70
     8
 71
     3
 72
     9
 73
     5
 74
     0
 42
0.000000001
 43
0.00000001
 40
0.0
 40
0.0
 40
0.0
 40
0.0
 40
0.1322741418886836
 40
1.0
 40
1.0
 40
1.0
 40
1.0
 10
6263.701756207965
 20
4787.591126373153
 30
0.0
 10
6263.765069298792
 20
4787.560640791022
 30
0.0
 10
6264.243719849249
 20
4787.33016806448
 30
0.0
 10
6264.745911514306
 20
4787.148715933872
 30
0.0
 10
6265.181676207803
 20
4786.991265228134
 30
0.0
  0
SPLINE
  5
243
330
1F
100
AcDbEntity
  8
0
  6
Continuous
 62
     7
370
    25
100
AcDbSpline
210
0.0
220
0.0
230
1.0
 70
     8
 71
     3
 72
     9
 73
     5
 74
     0
 42
0.000000001
 43
0.00000001
 40
0.0
 40
0.0
 40
0.0
 40
0.0
 40
0.1565962505912585
 40
0.9999999999999999
 40
0.9999999999999999
 40
0.9999999999999999
 40
0.9999999999999999
 10
6281.371836273693
 20
4787.012246063095
 30
0.0
 10
6281.449967393684
 20
4787.035466055742
 30
0.0
 10
6281.94890092304
 20
4787.183745421048
 30
0.0
 10
6282.417225561227
 20
4787.408102041401
 30
0.0
 10
6282.812212317012
 20
4787.59732525621
 30
0.0
  0
ARC
  5
244
330
1F
100
AcDbEntity
  8
0
  6
Continuous
 62
     7
370
    25
100
AcDbCircle
 10
6333.0187553361
 20
4608.3261428893
 30
0.0
 40
7.0
100
AcDbArc
 50
270.0
 51
0.0
  0
LINE
  5
245
330
1F
100
AcDbEntity
  8
0
  6
Continuous
 62
     7
370
    25
100
AcDbLine
 10
6215.0187552466
 20
4601.3261346129
 30
0.0
 11
6333.0187543321
 21
4601.3261346129
 31
0.0
  0
ARC
  5
246
330
1F
100
AcDbEntity
  8
0
  6
Continuous
 62
     7
370
    25
100
AcDbCircle
 10
6215.0187553361
 20
4608.3261428893
 30
0.0
 40
7.0
100
AcDbArc
 50
180.0
 51
270.0
  0
ARC
  5
247
330
1F
100
AcDbEntity
  8
0
  6
Continuous
 62
     7
370
    25
100
AcDbCircle
 10
6333.0187553361
 20
4674.3261428893
 30
0.0
 40
7.0
100
AcDbArc
 50
0.0
 51
90.0
  0
LINE
  5
248
330
1F
100
AcDbEntity
  8
0
  6
Continuous
 62
     7
370
    25
100
AcDbLine
 10
6333.0187543321
 20
4681.326058319
 30
0.0
 11
6215.0187552466
 21
4681.326058319
 31
0.0
  0
LINE
  5
249
330
1F
100
AcDbEntity
  8
0
  6
Continuous
 62
     7
370
    25
100
AcDbLine
 10
6340.0187610674
 20
4608.3261040953
 30
0.0
 11
6340.0187610674
 21
4674.3260888365
 31
0.0
  0
ARC
  5
24A
330
1F
100
AcDbEntity
  8
0
  6
Continuous
 62
     7
370
    25
100
AcDbCircle
 10
6215.0187553361
 20
4674.3261428893
 30
0.0
 40
7.0
100
AcDbArc
 50
90.0
 51
180.0
  0
LINE
  5
24B
330
1F
100
AcDbEntity
  8
0
  6
Continuous
 62
     7
370
    25
100
AcDbLine
 10
6208.0187552634
 20
4674.3260888365
 30
0.0
 11
6208.0187552634
 21
4608.3261040953
 31
0.0
  0
ARC
  5
24C
330
1F
100
AcDbEntity
  8
0
  6
Continuous
 62
     7
370
    25
100
AcDbCircle
 10
6029.0187553361
 20
4788.8261428893
 30
0.0
 40
20.00000000000091
100
AcDbArc
 50
90.0
 51
180.0
  0
ARC
  5
24D
330
1F
100
AcDbEntity
  8
0
  6
Continuous
 62
     7
370
    25
100
AcDbCircle
 10
6519.0187553361
 20
4788.8261428893
 30
0.0
 40
20.00000000000091
100
AcDbArc
 50
0.0
 51
90.0
  0
LINE
  5
24E
330
1F
100
AcDbEntity
  8
0
  6
Continuous
 62
     7
370
    25
100
AcDbLine
 10
6539.0187620211
 20
4493.826058319
 30
0.0
 11
6539.0187620211
 21
4788.8261346129
 31
0.0
  0
ARC
  5
24F
330
1F
100
AcDbEntity
  8
0
  6
Continuous
 62
     7
370
    25
100
AcDbCircle
 10
6519.0187553361
 20
4493.8261428893
 30
0.0
 40
20.0
100
AcDbArc
 50
270.0
 51
0.0
  0
LINE
  5
250
330
1F
100
AcDbEntity
  8
0
  6
Continuous
 62
     7
370
    25
100
AcDbLine
 10
6029.0187566567
 20
4473.8260773924
 30
0.0
 11
6519.0187512923
 21
4473.8260773924
 31
0.0
  0
ARC
  5
251
330
1F
100
AcDbEntity
  8
0
  6
Continuous
 62
     7
370
    25
100
AcDbCircle
 10
6029.0187553361
 20
4493.8261428893
 30
0.0
 40
20.0
100
AcDbArc
 50
180.0
 51
270.0
  0
SPLINE
  5
252
330
1F
100
AcDbEntity
  8
0
  6
Continuous
 62
     7
370
    25
100
AcDbSpline
210
0.0
220
0.0
230
1.0
 70
    11
 71
     3
 72
    68
 73
    64
 74
     0
 42
0.000000001
 43
0.00000001
 40
0.0
 40
0.0
 40
0.0
 40
0.0
 40
0.0016782757049012
 40
0.0040877490256249
 40
0.0065056526970526
 40
0.0091978648101539
 40
0.0119165562658729
 40
0.0146367346363875
 40
0.0464310414204315
 40
0.0888237494190931
 40
0.1312164812255577
 40
0.1736084624032033
 40
0.2371970822506938
 40
0.2689913421404632
 40
0.3007856167910921
 40
0.3028011660054585
 40
0.3048307541184148
 40
0.3068294159656497
 40
0.3088023952653171
 40
0.311191614782208
 40
0.3135826824302739
 40
0.315926743917149
 40
0.3185742682912067
 40
0.3212395221017978
 40
0.3239057469221473
 40
0.3553347561733958
 40
0.386763883987554
 40
0.4181926861935499
 40
0.4496216834728204
 40
0.4653361643375047
 40
0.4810073212078557
 40
0.4888439330820058
 40
0.4966789646567442
 40
0.4990755202045015
 40
0.501473357550829
 40
0.5038425878612646
 40
0.506218233681892
 40
0.5089008249160726
 40
0.5115975815271584
 40
0.5143106176360401
 40
0.5170155327842225
 40
0.5593476750357697
 40
0.7070248242252303
 40
0.7808634083263197
 40
0.7993230520396268
 40
0.8016609316486893
 40
0.8040157023405237
 40
0.8063339816386407
 40
0.8086216239028088
 40
0.810502754646213
 40
0.8129106415093328
 40
0.8153053079017463
 40
0.817991266510561
 40
0.820714516544422
 40
0.8234401445449749
 40
0.8549350564943777
 40
0.8864303396379842
 40
0.9179253356664406
 40
0.980915285518133
 40
0.996662793989935
 40
0.9979155997003685
 40
0.9991665681233993
 40
0.9999999999999999
 40
0.9999999999999999
 40
0.9999999999999999
 40
0.9999999999999999
 10
6528.628748564743
 20
4489.223626067977
 30
0.0
 10
6528.176554662384
 20
4488.423962441792
 30
0.0
 10
6527.075153278593
 20
4486.476234664276
 30
0.0
 10
6524.314168420264
 20
4484.096985987464
 30
0.0
 10
6520.448169745279
 20
4482.557034387833
 30
0.0
 10
6516.157166753269
 20
4482.187325721631
 30
0.0
 10
6511.730127558541
 20
4482.360728184937
 30
0.0
 10
6491.436530062849
 20
4483.032038345828
 30
0.0
 10
6449.493773068621
 20
4482.371919824945
 30
0.0
 10
6385.935741434725
 20
4483.265429150832
 30
0.0
 10
6316.594046770701
 20
4483.774519434462
 30
0.0
 10
6235.694217071346
 20
4483.969918366884
 30
0.0
 10
6160.572442178912
 20
4483.57549561698
 30
0.0
 10
6091.23407453415
 20
4483.01954227417
 30
0.0
 10
6055.455785329474
 20
4483.531500399241
 30
0.0
 10
6035.921198780812
 20
4483.014346945673
 30
0.0
 10
6032.628536101673
 20
4482.867956857673
 30
0.0
 10
6029.3510633726
 20
4483.031472999641
 30
0.0
 10
6025.946877737414
 20
4483.848378687081
 30
0.0
 10
6022.729184534163
 20
4485.783179218491
 30
0.0
 10
6020.195419470729
 20
4488.837767975239
 30
0.0
 10
6018.868609113005
 20
4492.714332904085
 30
0.0
 10
6018.62633771941
 20
4496.906114564951
 30
0.0
 10
6018.788394879893
 20
4501.251222276416
 30
0.0
 10
6019.39452828915
 20
4521.2883679133
 30
0.0
 10
6018.892952725076
 20
4557.02220537435
 30
0.0
 10
6019.426492874161
 20
4608.428064028643
 30
0.0
 10
6019.419734361535
 20
4659.839072318928
 30
0.0
 10
6019.053080582457
 20
4702.678390003446
 30
0.0
 10
6018.777531657385
 20
4736.927345339838
 30
0.0
 10
6018.603895433856
 20
4758.310711412445
 30
0.0
 10
6018.584107512993
 20
4775.404004994978
 30
0.0
 10
6018.037312283868
 20
4785.243358201905
 30
0.0
 10
6019.012815118175
 20
4792.147696700138
 30
0.0
 10
6021.080153892425
 20
4795.578211726459
 30
0.0
 10
6024.095802672063
 20
4798.154766210629
 30
0.0
 10
6027.970449943918
 20
4799.559567303246
 30
0.0
 10
6032.198998538182
 20
4799.952854850011
 30
0.0
 10
6036.612680161303
 20
4799.962549735413
 30
0.0
 10
6041.030917312904
 20
4799.699652525634
 30
0.0
 10
6067.060867668621
 20
4799.093421775667
 30
0.0
 10
6172.149202155767
 20
4800.523403249415
 30
0.0
 10
6316.00813965609
 20
4799.137625896086
 30
0.0
 10
6446.842794642097
 20
4800.204764406814
 30
0.0
 10
6498.453143491934
 20
4799.41769779791
 30
0.0
 10
6511.071567317921
 20
4799.808701134782
 30
0.0
 10
6514.888372795058
 20
4800.037570921757
 30
0.0
 10
6518.690574390399
 20
4799.91631173017
 30
0.0
 10
6522.18339748024
 20
4799.152048983114
 30
0.0
 10
6525.383755299678
 20
4797.449005269917
 30
0.0
 10
6527.997855441798
 20
4794.800700005883
 30
0.0
 10
6529.735262452148
 20
4791.021329623831
 30
0.0
 10
6530.238250309116
 20
4786.749928899249
 30
0.0
 10
6530.059052310482
 20
4782.31864913991
 30
0.0
 10
6529.323877605945
 20
4762.187438304692
 30
0.0
 10
6529.958536126495
 20
4726.342749949451
 30
0.0
 10
6529.358587734476
 20
4674.830791472597
 30
0.0
 10
6529.517737212826
 20
4606.140145805142
 30
0.0
 10
6529.033500410589
 20
4546.029575524489
 30
0.0
 10
6530.120690052658
 20
4502.425727222609
 30
0.0
 10
6529.688993872376
 20
4492.469741946243
 30
0.0
 10
6529.263634987889
 20
4490.683591143236
 30
0.0
 10
6528.810093669983
 20
4489.6406416326
 30
0.0
 10
6528.628748564743
 20
4489.223626067977
 30
0.0
  0
LINE
  5
253
330
1F
100
AcDbEntity
  8
0
  6
Continuous
 62
     7
370
    25
100
AcDbLine
 10
6009.018760829
 20
4788.8261346129
 30
0.0
 11
6009.018760829
 21
4493.826058319
 31
0.0
  0
LINE
  5
254
330
1F
100
AcDbEntity
  8
0
  6
Continuous
 62
     7
370
    25
100
AcDbLine
 10
6519.0187512923
 20
4808.8261155394
 30
0.0
 11
6029.0187566567
 21
4808.8261155394
 31
0.0
  0
SPLINE
  5
255
330
1F
100
AcDbEntity
  8
0
  6
Continuous
 62
     7
370
    25
100
AcDbSpline
210
0.0
220
0.0
230
1.0
 70
     8
 71
     3
 72
    14
 73
    10
 74
     0
 42
0.000000001
 43
0.00000001
 40
0.0
 40
0.0
 40
0.0
 40
0.0
 40
0.0000374390179461
 40
0.1771576771586086
 40
0.3886653205977584
 40
0.6009811106936924
 40
0.8138227119272916
 40
0.9999953201227567
 40
1.0
 40
1.0
 40
1.0
 40
1.0
 10
6526.116025357269
 20
4787.883427551132
 30
0.0
 10
6526.116025358002
 20
4787.883586496862
 30
0.0
 10
6526.116028823964
 20
4788.635701746713
 30
0.0
 10
6526.008091930446
 20
4790.284217553432
 30
0.0
 10
6524.938051699509
 20
4792.673563798685
 30
0.0
 10
6523.008238846131
 20
4794.638605606109
 30
0.0
 10
6520.59530173688
 20
4795.768741921038
 30
0.0
 10
6518.901459589611
 20
4795.892861794185
 30
0.0
 10
6518.111052025181
 20
4795.892861297481
 30
0.0
 10
6518.111032156967
 20
4795.89286129747
 30
0.0
  0
SPLINE
  5
256
330
1F
100
AcDbEntity
  8
0
  6
Continuous
 62
     7
370
    25
100
AcDbSpline
210
0.0
220
0.0
230
1.0
 70
     8
 71
     3
 72
    18
 73
    14
 74
     0
 42
0.000000001
 43
0.00000001
 40
0.0
 40
0.0
 40
0.0
 40
0.0
 40
0.0000001221870103
 40
0.0155582553055305
 40
0.0777908488827126
 40
0.3267209791724743
 40
0.5756511287623105
 40
0.6140425365846336
 40
0.7559904187309656
 40
0.8269653880876885
 40
0.9689157464820529
 40
0.9999998778129897
 40
1.0
 40
1.0
 40
1.0
 40
1.0
 10
6518.111032156967
 20
4795.89286129747
 30
0.0
 10
6518.111012288752
 20
4795.89286129747
 30
0.0
 10
6515.581162679012
 20
4795.892861268811
 30
0.0
 10
6502.93198418276
 20
4795.89283165744
 30
0.0
 10
6449.805549349682
 20
4795.893953979952
 30
0.0
 10
6358.731670245837
 20
4795.897024626846
 30
0.0
 10
6271.534467719312
 20
4795.910789081857
 30
0.0
 10
6201.733143649289
 20
4795.884858496239
 30
0.0
 10
6160.868216375141
 20
4795.864757205938
 30
0.0
 10
6103.164083127254
 20
4795.845033856303
 30
0.0
 10
6063.486934802442
 20
4795.836531630518
 30
0.0
 10
6035.350647527725
 20
4795.834210345628
 30
0.0
 10
6030.296193469388
 20
4795.834210327011
 30
0.0
 10
6030.296173601173
 20
4795.834210327011
 30
0.0
  0
ARC
  5
257
330
1F
100
AcDbEntity
  8
0
  6
Continuous
 62
     7
370
    25
100
AcDbCircle
 10
6029.6912954274
 20
4788.3089360435
 30
0.0
 40
7.549545062281332
100
AcDbArc
 50
85.4044709733
 51
183.1367889047
  0
LWPOLYLINE
  5
258
330
1F
100
AcDbEntity
  8
0
  6
Continuous
 62
     7
370
    25
100
AcDbPolyline
 90
       11
 70
   128
 43
0.0
 10
6022.1530615378
 20
4787.8958253172
 10
6022.1530615378
 20
4787.8958253172
 10
6022.202905922
 20
4762.6029519347
 10
6022.2836404133
 20
4736.9767693785
 10
6022.3732261944
 20
4711.2752465514
 10
6022.5065170813
 20
4659.8512200621
 10
6022.5029706049
 20
4608.42767041
 10
6022.4188833523
 20
4557.0045975951
 10
6022.3432003546
 20
4505.6034592894
 10
6022.3351686287
 20
4494.6843652037
 10
6022.3351686287
 20
4494.6843652037
  0
SPLINE
  5
259
330
1F
100
AcDbEntity
  8
0
  6
Continuous
 62
     7
370
    25
100
AcDbSpline
210
0.0
220
0.0
230
1.0
 70
     8
 71
     3
 72
    15
 73
    11
 74
     0
 42
0.000000001
 43
0.00000001
 40
0.0
 40
0.0
 40
0.0
 40
0.0
 40
0.0000011389297425
 40
0.1155942502234116
 40
0.3237805452017558
 40
0.535948474909519
 40
0.7483724491080578
 40
0.9347217503964782
 40
0.99999544428103
 40
1.0
 40
1.0
 40
1.0
 40
1.0
 10
6022.335168628715
 20
4494.68436520372
 30
0.0
 10
6022.335163661634
 20
4494.684365203749
 30
0.0
 10
6021.831036012715
 20
4494.684367941784
 30
0.0
 10
6022.756261752237
 20
4492.340481769669
 30
0.0
 10
6022.970735957836
 20
4490.6391080526
 30
0.0
 10
6024.986263892639
 20
4488.299694664133
 30
0.0
 10
6027.343264667521
 20
4487.111656591352
 30
0.0
 10
6029.376303451574
 20
4486.749872415339
 30
0.0
 10
6030.432601274976
 20
4486.845639739126
 30
0.0
 10
6030.717290350602
 20
4486.845639160058
 30
0.0
 10
6030.717310218834
 20
4486.845639160018
 30
0.0
  0
SPLINE
  5
25A
330
1F
100
AcDbEntity
  8
0
  6
Continuous
 62
     7
370
    25
100
AcDbSpline
210
0.0
220
0.0
230
1.0
 70
     8
 71
     3
 72
    18
 73
    14
 74
     0
 42
0.000000001
 43
0.00000001
 40
0.0
 40
0.0
 40
0.0
 40
0.0
 40
0.0000001223622279
 40
0.0174566926344176
 40
0.1242055867134439
 40
0.2309610848622433
 40
0.4445092509251238
 40
0.5868814082832643
 40
0.7292565484886714
 40
0.8716316891971755
 40
0.9783702423023255
 40
0.9999998776377721
 40
1.0
 40
1.0
 40
1.0
 40
1.0
 10
6030.717310218834
 20
4486.845639160018
 30
0.0
 10
6030.717330087048
 20
4486.845639160018
 30
0.0
 10
6033.551810359341
 20
4486.845639169785
 30
0.0
 10
6053.719324419601
 20
4486.861859060991
 30
0.0
 10
6091.220860590329
 20
4486.91170145175
 30
0.0
 10
6160.561528080155
 20
4487.074293385143
 30
0.0
 10
6235.685902165743
 20
4487.317078445789
 30
0.0
 10
6316.595973202177
 20
4487.213213682909
 30
0.0
 10
6385.945500641897
 20
4486.889972452712
 30
0.0
 10
6449.509615280183
 20
4486.570166542365
 30
0.0
 10
6493.470515612525
 20
4486.451741414181
 30
0.0
 10
6514.31391316205
 20
4486.419823583547
 30
0.0
 10
6517.825982877436
 20
4486.419823577743
 30
0.0
 10
6517.826002745651
 20
4486.419823577743
 30
0.0
  0
SPLINE
  5
25B
330
1F
100
AcDbEntity
  8
0
  6
Continuous
 62
     7
370
    25
100
AcDbSpline
210
0.0
220
0.0
230
1.0
 70
     8
 71
     3
 72
    12
 73
     8
 74
     0
 42
0.000000001
 43
0.00000001
 40
0.0
 40
0.0
 40
0.0
 40
0.0
 40
0.0000064993932518
 40
0.2063327813692542
 40
0.5018656790136576
 40
0.7954874814355877
 40
1.0
 40
1.0
 40
1.0
 40
1.0
 10
6517.826002745651
 20
4486.419823577743
 30
0.0
 10
6517.826022613868
 20
4486.419823577733
 30
0.0
 10
6518.456768352315
 20
4486.419823220009
 30
0.0
 10
6519.971286761209
 20
4486.503335054294
 30
0.0
 10
6522.281669350484
 20
4487.373510478535
 30
0.0
 10
6524.213172435259
 20
4488.942688913752
 30
0.0
 10
6524.972686830069
 20
4490.271615695092
 30
0.0
 10
6525.28451076033
 20
4490.817215850692
 30
0.0
  0
SPLINE
  5
25C
330
1F
100
AcDbEntity
  8
0
  6
Continuous
 62
     7
370
    25
100
AcDbSpline
210
0.0
220
0.0
230
1.0
 70
     8
 71
     3
 72
    10
 73
     6
 74
     0
 42
0.000000001
 43
0.00000001
 40
0.0
 40
0.0
 40
0.0
 40
0.0
 40
0.2604266127946923
 40
0.9998672283010994
 40
1.0
 40
1.0
 40
1.0
 40
1.0
 10
6525.28451076033
 20
4490.817215850692
 30
0.0
 10
6525.408801793526
 20
4491.103595966722
 30
0.0
 10
6525.885997766435
 20
4492.203107609488
 30
0.0
 10
6526.024270127839
 20
4493.424043719026
 30
0.0
 10
6526.024264007736
 20
4494.309412251842
 30
0.0
 10
6526.024264006637
 20
4494.309571197372
 30
0.0
  0
LWPOLYLINE
  5
25D
330
1F
100
AcDbEntity
  8
0
  6
Continuous
 62
     7
370
    25
100
AcDbPolyline
 90
       10
 70
   128
 43
0.0
 10
6526.0242640066
 20
4494.3095711974
 10
6526.0242640066
 20
4494.3095711974
 10
6526.0191380072
 20
4501.8989114073
 10
6525.9984551954
 20
4520.2690629271
 10
6525.8235751677
 20
4623.3064202574
 10
6525.854390769
 20
4674.8358277587
 10
6525.981587081
 20
4726.3652352599
 10
6526.1045514631
 20
4777.8722314147
 10
6526.1160253573
 20
4787.8834275511
 10
6526.1160253573
 20
4787.8834275511
  0
LINE
  5
25E
330
1F
100
AcDbEntity
  8
0
  6
Continuous
 62
     7
370
    25
100
AcDbLine
 10
6299.0187524843
 20
4788.217690399
 30
0.0
 11
6249.0187554646
 21
4788.1666688231
 31
0.0
  0
LINE
  5
25F
330
1F
100
AcDbEntity
  8
0
  6
Continuous
 62
     7
370
    25
100
AcDbLine
 10
6249.0187554646
 20
4788.1666688231
 30
0.0
 11
6249.0187554646
 21
4785.8621148375
 31
0.0
  0
LINE
  5
260
330
1F
100
AcDbEntity
  8
0
  6
Continuous
 62
     7
370
    25
100
AcDbLine
 10
6249.0187554646
 20
4785.8621148375
 30
0.0
 11
6299.0187524843
 21
4785.9288720397
 31
0.0
  0
LINE
  5
261
330
1F
100
AcDbEntity
  8
0
  6
Continuous
 62
     7
370
    25
100
AcDbLine
 10
6299.0187524843
 20
4785.9288720397
 30
0.0
 11
6299.0187524843
 21
4788.217690399
 31
0.0
  0
LINE
  5
262
330
1F
100
AcDbEntity
  8
0
  6
Continuous
 62
     7
370
    25
100
AcDbLine
 10
6201.9534983698
 20
4600.4444627074
 30
0.0
 11
6201.7704804453
 21
4602.110054901
 31
0.0
  0
LINE
  5
263
330
1F
100
AcDbEntity
  8
0
  6
Continuous
 62
     7
370
    25
100
AcDbLine
 10
6202.3093846652
 20
4599.2962388304
 30
0.0
 11
6201.9534983698
 21
4600.4444627074
 31
0.0
  0
SPLINE
  5
264
330
1F
100
AcDbEntity
  8
0
  6
Continuous
 62
     7
370
    25
100
AcDbSpline
210
0.0
220
0.0
230
1.0
 70
     8
 71
     3
 72
    11
 73
     7
 74
     0
 42
0.000000001
 43
0.00000001
 40
0.0
 40
0.0
 40
0.0
 40
0.0
 40
0.0000098421797521
 40
0.3884705457197041
 40
0.8316664738505594
 40
1.0
 40
1.0
 40
1.0
 40
1.0
 10
6206.226820780657
 20
4595.302250793319
 30
0.0
 10
6206.226801998956
 20
4595.302250793193
 30
0.0
 10
6205.485488800091
 20
4595.30224577533
 30
0.0
 10
6204.192447195173
 20
4596.578050847776
 30
0.0
 10
6202.916138421038
 20
4597.924283474217
 30
0.0
 10
6202.44035254263
 20
4599.000102087662
 30
0.0
 10
6202.309384665214
 20
4599.296238830429
 30
0.0
  0
SPLINE
  5
265
330
1F
100
AcDbEntity
  8
0
  6
Continuous
 62
     7
370
    25
100
AcDbSpline
210
0.0
220
0.0
230
1.0
 70
     8
 71
     3
 72
    10
 73
     6
 74
     0
 42
0.000000001
 43
0.00000001
 40
0.0
 40
0.0
 40
0.0
 40
0.0
 40
0.1897821083563361
 40
0.9998357783420946
 40
1.0
 40
1.0
 40
1.0
 40
1.0
 10
6206.539267862909
 20
4595.174935272079
 30
0.0
 10
6206.519283835572
 20
4595.182201440755
 30
0.0
 10
6206.414001279169
 20
4595.220482053587
 30
0.0
 10
6206.317971383764
 20
4595.302255270378
 30
0.0
 10
6206.226839252072
 20
4595.302250794227
 30
0.0
 10
6206.226820780657
 20
4595.302250793319
 30
0.0
  0
LINE
  5
266
330
1F
100
AcDbEntity
  8
0
  6
Continuous
 62
     7
370
    25
100
AcDbLine
 10
6209.3016732975
 20
4594.6671036986
 30
0.0
 11
6206.5392678629
 21
4595.1749352721
 31
0.0
  0
SPLINE
  5
267
330
1F
100
AcDbEntity
  8
0
  6
Continuous
 62
     7
370
    25
100
AcDbSpline
210
0.0
220
0.0
230
1.0
 70
     8
 71
     3
 72
    12
 73
     8
 74
     0
 42
0.000000001
 43
0.00000001
 40
0.0
 40
0.0
 40
0.0
 40
0.0
 40
0.2670898490987689
 40
0.5342726289766601
 40
0.7671340078778062
 40
0.883567540575256
 40
1.0
 40
1.0
 40
1.0
 40
1.0
 10
6338.739585785888
 20
4594.538834503036
 30
0.0
 10
6327.215786539628
 20
4594.572239114607
 30
0.0
 10
6304.164178476371
 20
4594.639059960492
 30
0.0
 10
6271.065390716993
 20
4594.679763888523
 30
0.0
 10
6244.466813627491
 20
4594.674649405336
 30
0.0
 10
6224.372519484688
 20
4594.672503935395
 30
0.0
 10
6214.325273257427
 20
4594.668903771997
 30
0.0
 10
6209.301673297532
 20
4594.667103698593
 30
0.0
  0
LINE
  5
268
330
1F
100
AcDbEntity
  8
0
  6
Continuous
 62
     7
370
    25
100
AcDbLine
 10
6341.5339409399
 20
4595.0404671935
 30
0.0
 11
6338.7395857859
 21
4594.538834503
 31
0.0
  0
LINE
  5
269
330
1F
100
AcDbEntity
  8
0
  6
Continuous
 62
     7
370
    25
100
AcDbLine
 10
6342.6016836453
 20
4595.5554513243
 30
0.0
 11
6341.5339409399
 21
4595.0404671935
 31
0.0
  0
SPLINE
  5
26A
330
1F
100
AcDbEntity
  8
0
  6
Continuous
 62
     7
370
    25
100
AcDbSpline
210
0.0
220
0.0
230
1.0
 70
     8
 71
     3
 72
     9
 73
     5
 74
     0
 42
0.000000001
 43
0.00000001
 40
0.0
 40
0.0
 40
0.0
 40
0.0
 40
0.6717272303517053
 40
1.0
 40
1.0
 40
1.0
 40
1.0
 10
6345.278796463035
 20
4598.224308898788
 30
0.0
 10
6344.775265578926
 20
4597.521786476806
 30
0.0
 10
6344.025659397493
 20
4596.475941690054
 30
0.0
 10
6342.953608697696
 20
4595.782943695394
 30
0.0
 10
6342.601683645271
 20
4595.555451324325
 30
0.0
  0
LINE
  5
26B
330
1F
100
AcDbEntity
  8
0
  6
Continuous
 62
     7
370
    25
100
AcDbLine
 10
6345.7962988901
 20
4599.2728738097
 30
0.0
 11
6345.278796463
 21
4598.2243088988
 31
0.0
  0
LINE
  5
26C
330
1F
100
AcDbEntity
  8
0
  6
Continuous
 62
     7
370
    25
100
AcDbLine
 10
6346.1566387701
 20
4600.4339722899
 30
0.0
 11
6345.7962988901
 21
4599.2728738097
 31
0.0
  0
LINE
  5
26D
330
1F
100
AcDbEntity
  8
0
  6
Continuous
 62
     7
370
    25
100
AcDbLine
 10
6346.3378666926
 20
4602.1048096922
 30
0.0
 11
6346.1566387701
 21
4600.4339722899
 31
0.0
  0
SPLINE
  5
26E
330
1F
100
AcDbEntity
  8
0
  6
Continuous
 62
     7
370
    25
100
AcDbSpline
210
0.0
220
0.0
230
1.0
 70
     8
 71
     3
 72
    11
 73
     7
 74
     0
 42
0.000000001
 43
0.00000001
 40
0.0
 40
0.0
 40
0.0
 40
0.0
 40
0.4999896949081221
 40
0.7501249797293014
 40
0.8126167620945142
 40
1.0
 40
1.0
 40
1.0
 40
1.0
 10
6346.290734319709
 20
4680.545952728134
 30
0.0
 10
6346.249316314809
 20
4667.472672401605
 30
0.0
 10
6346.187177673949
 20
4647.85907988199
 30
0.0
 10
6346.246943413223
 20
4626.611471243368
 30
0.0
 10
6346.303620575727
 20
4613.537808424191
 30
0.0
 10
6346.323190815921
 20
4607.004322237296
 30
0.0
 10
6346.337866692566
 20
4602.104809692245
 30
0.0
  0
LINE
  5
26F
330
1F
100
AcDbEntity
  8
0
  6
Continuous
 62
     7
370
    25
100
AcDbLine
 10
6346.1101769495
 20
4682.2124985961
 30
0.0
 11
6346.2907343197
 21
4680.5459527281
 31
0.0
  0
LINE
  5
270
330
1F
100
AcDbEntity
  8
0
  6
Continuous
 62
     7
370
    25
100
AcDbLine
 10
6345.7539199877
 20
4683.3673981932
 30
0.0
 11
6346.1101769495
 21
4682.2124985961
 31
0.0
  0
LINE
  5
271
330
1F
100
AcDbEntity
  8
0
  6
Continuous
 62
     7
370
    25
100
AcDbLine
 10
6345.2421396065
 20
4684.4054726866
 30
0.0
 11
6345.7539199877
 21
4683.3673981932
 31
0.0
  0
SPLINE
  5
272
330
1F
100
AcDbEntity
  8
0
  6
Continuous
 62
     7
370
    25
100
AcDbSpline
210
0.0
220
0.0
230
1.0
 70
     8
 71
     3
 72
     9
 73
     5
 74
     0
 42
0.000000001
 43
0.00000001
 40
0.0
 40
0.0
 40
0.0
 40
0.0
 40
0.6740159137058911
 40
1.0
 40
1.0
 40
1.0
 40
1.0
 10
6342.593547611259
 20
4687.039521148544
 30
0.0
 10
6343.292680742432
 20
4686.543496496141
 30
0.0
 10
6344.32994576386
 20
4685.807572251158
 30
0.0
 10
6345.017883011425
 20
4684.750169240804
 30
0.0
 10
6345.242139606498
 20
4684.40547268663
 30
0.0
  0
SPLINE
  5
273
330
1F
100
AcDbEntity
  8
0
  6
Continuous
 62
     7
370
    25
100
AcDbSpline
210
0.0
220
0.0
230
1.0
 70
     8
 71
     3
 72
     9
 73
     5
 74
     0
 42
0.000000001
 43
0.00000001
 40
0.0
 40
0.0
 40
0.0
 40
0.0
 40
0.0143007632217919
 40
1.0
 40
1.0
 40
1.0
 40
1.0
 10
6341.528174190544
 20
4687.543538024765
 30
0.0
 10
6341.533460632922
 20
4687.541634268808
 30
0.0
 10
6341.903122188484
 20
4687.40851158671
 30
0.0
 10
6342.25082107963
 20
4687.222687655607
 30
0.0
 10
6342.593547611259
 20
4687.039521148544
 30
0.0
  0
SPLINE
  5
274
330
1F
100
AcDbEntity
  8
0
  6
Continuous
 62
     7
370
    25
100
AcDbSpline
210
0.0
220
0.0
230
1.0
 70
     8
 71
     3
 72
     9
 73
     5
 74
     0
 42
0.000000001
 43
0.00000001
 40
0.0
 40
0.0
 40
0.0
 40
0.0
 40
0.0150543177703955
 40
1.0
 40
1.0
 40
1.0
 40
1.0
 10
6341.498476176284
 20
4687.554505279403
 30
0.0
 10
6341.498495057435
 20
4687.554345539575
 30
0.0
 10
6341.499749259125
 20
4687.543734641741
 30
0.0
 10
6341.514069515681
 20
4687.543635587657
 30
0.0
 10
6341.528174190544
 20
4687.543538024765
 30
0.0
  0
SPLINE
  5
275
330
1F
100
AcDbEntity
  8
0
  6
Continuous
 62
     7
370
    25
100
AcDbSpline
210
0.0
220
0.0
230
1.0
 70
     8
 71
     3
 72
     9
 73
     5
 74
     0
 42
0.000000001
 43
0.00000001
 40
0.0
 40
0.0
 40
0.0
 40
0.0
 40
0.9999788024968178
 40
1.0
 40
1.0
 40
1.0
 40
1.0
 10
6338.732939867996
 20
4688.062813690048
 30
0.0
 10
6339.647043148951
 20
4687.808661287163
 30
0.0
 10
6340.561165807022
 20
4687.554503496767
 30
0.0
 10
6341.498456308066
 20
4687.554505279365
 30
0.0
 10
6341.498476176284
 20
4687.554505279403
 30
0.0
  0
SPLINE
  5
276
330
1F
100
AcDbEntity
  8
0
  6
Continuous
 62
     7
370
    25
100
AcDbSpline
210
0.0
220
0.0
230
1.0
 70
     8
 71
     3
 72
    14
 73
    10
 74
     0
 42
0.000000001
 43
0.00000001
 40
0.0
 40
0.0
 40
0.0
 40
0.0
 40
0.1141180542478926
 40
0.2282143534208363
 40
0.4563759370526559
 40
0.6845140128621466
 40
0.7986014081037133
 40
0.8556519838214459
 40
1.0
 40
1.0
 40
1.0
 40
1.0
 10
6209.304426985555
 20
4688.056614806991
 30
0.0
 10
6214.227801771125
 20
4688.067454199327
 30
0.0
 10
6224.073612766963
 20
4688.08913091761
 30
0.0
 10
6243.762915163139
 20
4688.143174155756
 30
0.0
 10
6268.371448922363
 20
4688.187829490878
 30
0.0
 10
6292.979648097205
 20
4688.162916857989
 30
0.0
 10
6310.205516703193
 20
4688.123588935256
 30
0.0
 10
6323.816449267539
 20
4688.091182813053
 30
0.0
 10
6332.505356498455
 20
4688.07465770104
 30
0.0
 10
6338.732939867996
 20
4688.062813690048
 30
0.0
  0
LINE
  5
277
330
1F
100
AcDbEntity
  8
0
  6
Continuous
 62
     7
370
    25
100
AcDbLine
 10
6206.5009062204
 20
4687.5483063963
 30
0.0
 11
6209.3044269856
 21
4688.056614807
 31
0.0
  0
SPLINE
  5
278
330
1F
100
AcDbEntity
  8
0
  6
Continuous
 62
     7
370
    25
100
AcDbSpline
210
0.0
220
0.0
230
1.0
 70
     8
 71
     3
 72
     9
 73
     5
 74
     0
 42
0.000000001
 43
0.00000001
 40
0.0
 40
0.0
 40
0.0
 40
0.0
 40
0.0002319762335988
 40
1.0
 40
1.0
 40
1.0
 40
1.0
 10
6206.276574826561
 20
4687.460568359237
 30
0.0
 10
6206.276593453161
 20
4687.46056835845
 30
0.0
 10
6206.356888747619
 20
4687.460564964625
 30
0.0
 10
6206.428905837136
 20
4687.504440769557
 30
0.0
 10
6206.500906220399
 20
4687.548306396347
 30
0.0
  0
SPLINE
  5
279
330
1F
100
AcDbEntity
  8
0
  6
Continuous
 62
     7
370
    25
100
AcDbSpline
210
0.0
220
0.0
230
1.0
 70
     8
 71
     3
 72
    11
 73
     7
 74
     0
 42
0.000000001
 43
0.00000001
 40
0.0
 40
0.0
 40
0.0
 40
0.0
 40
0.3600009244722841
 40
0.7201120651184483
 40
0.9999921581027954
 40
1.0
 40
1.0
 40
1.0
 40
1.0
 10
6201.906445159339
 20
4682.212021758895
 30
0.0
 10
6202.17183316548
 20
4683.038700087282
 30
0.0
 10
6202.702690427695
 20
4684.692309835968
 30
0.0
 10
6204.385689082781
 20
4686.28382736749
 30
0.0
 10
6205.617291968309
 20
4687.46057316038
 30
0.0
 10
6206.276556355298
 20
4687.460568359372
 30
0.0
 10
6206.276574826561
 20
4687.460568359237
 30
0.0
  0
LINE
  5
27A
330
1F
100
AcDbEntity
  8
0
  6
Continuous
 62
     7
370
    25
100
AcDbLine
 10
6201.7243334118
 20
4680.5440453795
 30
0.0
 11
6201.9064451593
 21
4682.2120217589
 31
0.0
  0
SPLINE
  5
27B
330
1F
100
AcDbEntity
  8
0
  6
Continuous
 62
     7
370
    25
100
AcDbSpline
210
0.0
220
0.0
230
1.0
 70
     8
 71
     3
 72
    11
 73
     7
 74
     0
 42
0.000000001
 43
0.00000001
 40
0.0
 40
0.0
 40
0.0
 40
0.0
 40
0.4999878770630427
 40
0.7500243181690518
 40
0.8125212869233746
 40
1.0
 40
1.0
 40
1.0
 40
1.0
 10
6201.770480445348
 20
4602.110054900985
 30
0.0
 10
6201.759735189602
 20
4615.182067181257
 30
0.0
 10
6201.743616392559
 20
4634.79119681696
 30
0.0
 10
6201.739317667449
 20
4656.034299871857
 30
0.0
 10
6201.729842475072
 20
4669.106945955381
 30
0.0
 10
6201.726694416967
 20
4675.642476881563
 30
0.0
 10
6201.724333411776
 20
4680.544045379501
 30
0.0
  0
LINE
  5
27C
330
1F
100
AcDbEntity
  8
0
  6
Continuous
 62
     7
370
    25
100
AcDbLine
 10
6249.0187554646
 20
4786.9702843932
 30
0.0
 11
6299.0187524843
 21
4787.0351342467
 31
0.0
  0
ARC
  5
27D
330
1F
100
AcDbEntity
  8
0
  6
Continuous
 62
     7
370
    25
100
AcDbCircle
 10
6015.7827447865
 20
4816.3318689393
 30
0.0
 40
350.2806288640615
100
AcDbArc
 50
337.8042127084
 51
338.4278935719
  0
LINE
  5
27E
330
1F
100
AcDbEntity
  8
0
  6
Continuous
 62
     7
370
    25
100
AcDbLine
 10
6340.107005744
 20
4684.0054063109
 30
0.0
 11
6338.7357412863
 21
4684.2690972594
 31
0.0
  0
LWPOLYLINE
  5
27F
330
1F
100
AcDbEntity
  8
0
  6
Continuous
 62
     7
370
    25
100
AcDbPolyline
 90
        9
 70
   128
 43
0.0
 10
6338.7357412863
 20
4684.2690972594
 10
6338.7352644491
 20
4684.4855813292
 10
6338.7348174143
 20
4684.7969559935
 10
6338.7343852806
 20
4685.1955918578
 10
6338.7339829493
 20
4685.6700448302
 10
6338.7336253214
 20
4686.208870819
 10
6338.7333272982
 20
4686.7972878722
 10
6338.7331037808
 20
4687.4209908751
 10
6338.732939868
 20
4688.06281369
  0
ARC
  5
280
330
1F
100
AcDbEntity
  8
0
  6
Continuous
 62
     7
370
    25
100
AcDbCircle
 10
6318.621434733
 20
4551.6164865513
 30
0.0
 40
120.2487030501479
100
AcDbArc
 50
156.9853905125
 51
158.7623997055
  0
LINE
  5
281
330
1F
100
AcDbEntity
  8
0
  6
Continuous
 62
     7
370
    25
100
AcDbLine
 10
6207.9439039368
 20
4598.6296204833
 30
0.0
 11
6209.3017741132
 21
4598.3687905577
 31
0.0
  0
LWPOLYLINE
  5
282
330
1F
100
AcDbEntity
  8
0
  6
Continuous
 62
     7
370
    25
100
AcDbPolyline
 90
        9
 70
   128
 43
0.0
 10
6209.3016732975
 20
4594.6671036986
 10
6209.301679584
 20
4595.2965287474
 10
6209.3016881987
 20
4595.9054497984
 10
6209.3016989089
 20
4596.4795617369
 10
6209.3017117146
 20
4597.0040826109
 10
6209.3017259173
 20
4597.4656609801
 10
6209.3017412841
 20
4597.8533295897
 10
6209.3017575822
 20
4598.1565980223
 10
6209.3017741132
 20
4598.3687905577
  0
LINE
  5
283
330
1F
100
AcDbEntity
  8
0
  6
Continuous
 62
     7
370
    25
100
AcDbLine
 10
6209.3017741132
 20
4684.2633752135
 30
0.0
 11
6207.927606723
 21
4683.9987305907
 31
0.0
  0
ARC
  5
284
330
1F
100
AcDbEntity
  8
0
  6
Continuous
 62
     7
370
    25
100
AcDbCircle
 10
6644.7758365096
 20
4861.6450480372
 30
0.0
 40
471.5873089576944
100
AcDbArc
 50
201.6645498908
 51
202.1293406921
  0
LWPOLYLINE
  5
285
330
1F
100
AcDbEntity
  8
0
  6
Continuous
 62
     7
370
    25
100
AcDbPolyline
 90
        9
 70
   128
 43
0.0
 10
6209.3017741132
 20
4684.2633752135
 10
6209.3022176556
 20
4684.4803361205
 10
6209.3026497893
 20
4684.7917107848
 10
6209.3030591055
 20
4685.1898698119
 10
6209.3034348942
 20
4685.6643227843
 10
6209.3037676092
 20
4686.2031487731
 10
6209.3040484029
 20
4686.7915658263
 10
6209.3042700577
 20
4687.414791992
 10
6209.3044269856
 20
4688.056614807
  0
LWPOLYLINE
  5
286
330
1F
100
AcDbEntity
  8
0
  6
Continuous
 62
     7
370
    25
100
AcDbPolyline
 90
        9
 70
   128
 43
0.0
 10
6202.3093846652
 20
4599.2962388304
 10
6202.9068476546
 20
4599.5365647582
 10
6203.4873317021
 20
4599.7697381285
 10
6204.0356562498
 20
4599.9905137328
 10
6204.5374789301
 20
4600.1926926879
 10
6204.9796755451
 20
4600.3705529479
 10
6205.3506813969
 20
4600.5198029784
 10
6205.6407925698
 20
4600.6366280821
 10
6205.8424215789
 20
4600.7181672362
  0
SPLINE
  5
287
330
1F
100
AcDbEntity
  8
0
  6
Continuous
 62
     7
370
    25
100
AcDbSpline
210
0.0
220
0.0
230
1.0
 70
     8
 71
     3
 72
    10
 73
     6
 74
     0
 42
0.000000001
 43
0.00000001
 40
0.0
 40
0.0
 40
0.0
 40
0.0
 40
0.1575833298642308
 40
0.5736139815543746
 40
1.0
 40
1.0
 40
1.0
 40
1.0
 10
6205.842421578936
 20
4600.71816723619
 30
0.0
 10
6205.907809233763
 20
4600.573008071452
 30
0.0
 10
6206.145824720945
 20
4600.044618891474
 30
0.0
 10
6206.796419993711
 20
4599.225483603513
 30
0.0
 10
6207.558287548882
 20
4598.829862574225
 30
0.0
 10
6207.943903936766
 20
4598.629620483261
 30
0.0
  0
LWPOLYLINE
  5
288
330
1F
100
AcDbEntity
  8
0
  6
Continuous
 62
     7
370
    25
100
AcDbPolyline
 90
        9
 70
   128
 43
0.0
 10
6338.7395857859
 20
4594.538834503
 10
6338.7393622685
 20
4595.189717224
 10
6338.7390493441
 20
4595.8229569701
 10
6338.7386470127
 20
4596.4218644408
 10
6338.7381701756
 20
4596.9702271727
 10
6338.7376188326
 20
4597.4542168883
 10
6338.7370227862
 20
4597.8600053099
 10
6338.7363820362
 20
4598.1771020201
 10
6338.7357412863
 20
4598.3969239501
  0
LINE
  5
289
330
1F
100
AcDbEntity
  8
0
  6
Continuous
 62
     7
370
    25
100
AcDbLine
 10
6338.7357412863
 20
4598.3969239501
 30
0.0
 11
6340.1060967732
 21
4598.6591843871
 31
0.0
  0
LWPOLYLINE
  5
28A
330
1F
100
AcDbEntity
  8
0
  6
Continuous
 62
     7
370
    25
100
AcDbPolyline
 90
        9
 70
   128
 43
0.0
 10
6341.5339409399
 20
4595.0404671935
 10
6341.2925421286
 20
4595.6498650816
 10
6341.0576253224
 20
4596.2430505065
 10
6340.8355086136
 20
4596.8047646788
 10
6340.6321971703
 20
4597.3197488097
 10
6340.4531746197
 20
4597.7736977843
 10
6340.3032689381
 20
4598.1546906737
 10
6340.1865183401
 20
4598.4527138976
 10
6340.1060967732
 20
4598.6591843871
  0
SPLINE
  5
28B
330
1F
100
AcDbEntity
  8
0
  6
Continuous
 62
     7
370
    25
100
AcDbSpline
210
0.0
220
0.0
230
1.0
 70
     8
 71
     3
 72
     9
 73
     5
 74
     0
 42
0.000000001
 43
0.00000001
 40
0.0
 40
0.0
 40
0.0
 40
0.0
 40
0.3256852339263298
 40
1.0
 40
1.0
 40
1.0
 40
1.0
 10
6341.936808733963
 20
4682.442810943466
 30
0.0
 10
6341.826336221035
 20
4682.612684412496
 30
0.0
 10
6341.487135970548
 20
4683.134272287333
 30
0.0
 10
6340.977396940228
 20
4683.499636448179
 30
0.0
 10
6340.633672385238
 20
4683.746006896835
 30
0.0
  0
LWPOLYLINE
  5
28C
330
1F
100
AcDbEntity
  8
0
  6
Continuous
 62
     7
370
    25
100
AcDbPolyline
 90
        9
 70
   128
 43
0.0
 10
6340.6336723852
 20
4683.7460068968
 10
6340.7461761523
 20
4683.9334039
 10
6340.9076898384
 20
4684.2037705687
 10
6341.1139666128
 20
4684.5494775084
 10
6341.3595526505
 20
4684.9619416503
 10
6341.6379659462
 20
4685.4301957396
 10
6341.9418602276
 20
4685.9413651732
 10
6342.2632186699
 20
4686.4825753478
 10
6342.5935476113
 20
4687.0395211485
  0
LWPOLYLINE
  5
28D
330
1F
100
AcDbEntity
  8
0
  6
Continuous
 62
     7
370
    25
100
AcDbPolyline
 90
        9
 70
   128
 43
0.0
 10
6341.936808734
 20
4682.4428109435
 10
6342.1252935219
 20
4682.5548676756
 10
6342.3968671847
 20
4682.7160386351
 10
6342.7443324614
 20
4682.9225091246
 10
6343.1584804344
 20
4683.1685570983
 10
6343.628328948
 20
4683.4475068358
 10
6344.1414206314
 20
4683.7522057799
 10
6344.6841507244
 20
4684.0740708617
 10
6345.2421396065
 20
4684.4054726866
  0
SPLINE
  5
28E
330
1F
100
AcDbEntity
  8
0
  6
Continuous
 62
     7
370
    25
100
AcDbSpline
210
0.0
220
0.0
230
1.0
 70
     8
 71
     3
 72
    10
 73
     6
 74
     0
 42
0.000000001
 43
0.00000001
 40
0.0
 40
0.0
 40
0.0
 40
0.0
 40
0.3051973050323787
 40
0.6527493032637891
 40
0.9999999999999999
 40
0.9999999999999999
 40
0.9999999999999999
 40
0.9999999999999999
 10
6207.927606723033
 20
4683.998730590682
 30
0.0
 10
6207.600110234107
 20
4683.833038243751
 30
0.0
 10
6206.899667925336
 20
4683.478659085633
 30
0.0
 10
6206.072553938974
 20
4682.552962836629
 30
0.0
 10
6205.807406420507
 20
4681.758435608956
 30
0.0
 10
6205.67489015194
 20
4681.361344268661
 30
0.0
  0
LWPOLYLINE
  5
28F
330
1F
100
AcDbEntity
  8
0
  6
Continuous
 62
     7
370
    25
100
AcDbPolyline
 90
        9
 70
   128
 43
0.0
 10
6205.6748901519
 20
4681.3613442687
 10
6205.4600838597
 20
4681.4099816588
 10
6205.1503487888
 20
4681.4800767211
 10
6204.753957412
 20
4681.5692452696
 10
6204.2814984012
 20
4681.6760567931
 10
6203.7455893147
 20
4681.7971734313
 10
6203.1605436492
 20
4681.9292573241
 10
6202.5419889975
 20
4682.0689706114
 10
6201.9064451593
 20
4682.2120217589
  0
LWPOLYLINE
  5
290
330
1F
100
AcDbEntity
  8
0
  6
Continuous
 62
     7
370
    25
100
AcDbPolyline
 90
        9
 70
   128
 43
0.0
 10
6342.6016836453
 20
4595.5554513243
 10
6342.2681807566
 20
4596.1205033568
 10
6341.9434546519
 20
4596.6707734374
 10
6341.6362672138
 20
4597.1919564513
 10
6341.3549183893
 20
4597.6697472838
 10
6341.107052474
 20
4598.0912713316
 10
6340.899330287
 20
4598.445084503
 10
6340.7373993683
 20
4598.7216500548
 10
6340.6256406594
 20
4598.9133385924
  0
SPLINE
  5
291
330
1F
100
AcDbEntity
  8
0
  6
Continuous
 62
     7
370
    25
100
AcDbSpline
210
0.0
220
0.0
230
1.0
 70
     8
 71
     3
 72
     9
 73
     5
 74
     0
 42
0.000000001
 43
0.00000001
 40
0.0
 40
0.0
 40
0.0
 40
0.0
 40
0.3281152358630108
 40
1.0
 40
1.0
 40
1.0
 40
1.0
 10
6340.625640659355
 20
4598.913338592391
 30
0.0
 10
6340.796877671197
 20
4599.024173406381
 30
0.0
 10
6341.318758379943
 20
4599.361965748445
 30
0.0
 10
6341.68401936702
 20
4599.871110251384
 30
0.0
 10
6341.929432659172
 20
4600.213196685653
 30
0.0
  0
LWPOLYLINE
  5
292
330
1F
100
AcDbEntity
  8
0
  6
Continuous
 62
     7
370
    25
100
AcDbPolyline
 90
        9
 70
   128
 43
0.0
 10
6345.278796463
 20
4598.2243088988
 10
6344.714802413
 20
4598.559525421
 10
6344.165322094
 20
4598.8856820372
 10
6343.6452268648
 20
4599.1941956786
 10
6343.1685685206
 20
4599.4774369505
 10
6342.7482365656
 20
4599.7268227843
 10
6342.395600586
 20
4599.9366311339
 10
6342.1201824236
 20
4600.1001862792
 10
6341.9294326592
 20
4600.2131966857
  0
LINE
  5
293
330
1F
100
AcDbEntity
  8
0
  6
Continuous
 62
     7
370
    25
100
AcDbLine
 10
6340.6336723852
 20
4683.7460068968
 30
0.0
 11
6340.107005744
 21
4684.0054063109
 31
0.0
  0
LWPOLYLINE
  5
294
330
1F
100
AcDbEntity
  8
0
  6
Continuous
 62
     7
370
    25
100
AcDbPolyline
 90
        9
 70
   128
 43
0.0
 10
6201.7704804453
 20
4602.110054901
 10
6202.4135633397
 20
4602.110054901
 10
6203.0382600638
 20
4602.110054901
 10
6203.62827061
 20
4602.110054901
 10
6204.1682039413
 20
4602.110054901
 10
6204.6439738038
 20
4602.1095780638
 10
6205.0431675303
 20
4602.1095780638
 10
6205.355372003
 20
4602.1091012267
 10
6205.5724414091
 20
4602.1091012267
  0
LINE
  5
295
330
1F
100
AcDbEntity
  8
0
  6
Continuous
 62
     7
370
    25
100
AcDbLine
 10
6205.5724414091
 20
4602.1091012267
 30
0.0
 11
6205.6645263943
 21
4601.2879876402
 31
0.0
  0
LWPOLYLINE
  5
296
330
1F
100
AcDbEntity
  8
0
  6
Continuous
 62
     7
370
    25
100
AcDbPolyline
 90
        9
 70
   128
 43
0.0
 10
6201.9534983698
 20
4600.4444627074
 10
6202.5812172356
 20
4600.5865601805
 10
6203.1910267684
 20
4600.7248429564
 10
6203.7669957641
 20
4600.8554963378
 10
6204.2940777752
 20
4600.9751824645
 10
6204.7585004035
 20
4601.0805634764
 10
6205.1481331724
 20
4601.169732025
 10
6205.4527943979
 20
4601.2393502501
 10
6205.6645263943
 20
4601.2879876402
  0
LINE
  5
297
330
1F
100
AcDbEntity
  8
0
  6
Continuous
 62
     7
370
    25
100
AcDbLine
 10
6342.4591391373
 20
4680.5430917052
 30
0.0
 11
6342.3672734785
 21
4681.362297943
 31
0.0
  0
LWPOLYLINE
  5
298
330
1F
100
AcDbEntity
  8
0
  6
Continuous
 62
     7
370
    25
100
AcDbPolyline
 90
        9
 70
   128
 43
0.0
 10
6342.3672734785
 20
4681.362297943
 10
6342.5806432057
 20
4681.4114121703
 10
6342.8880690623
 20
4681.4815072325
 10
6343.2814299155
 20
4681.5711526183
 10
6343.7502949524
 20
4681.6779641417
 10
6344.2822962094
 20
4681.7986039427
 10
6344.8633371878
 20
4681.9302109984
 10
6345.4780547905
 20
4682.0694474486
 10
6346.1101769495
 20
4682.2124985961
  0
LWPOLYLINE
  5
299
330
1F
100
AcDbEntity
  8
0
  6
Continuous
 62
     7
370
    25
100
AcDbPolyline
 90
        9
 70
   128
 43
0.0
 10
6342.4591391373
 20
4680.5430917052
 10
6342.6777242708
 20
4680.5435685423
 10
6342.9925113011
 20
4680.5440453795
 10
6343.3951704788
 20
4680.5445222167
 10
6343.8750772763
 20
4680.5449990538
 10
6344.4195806074
 20
4680.545475891
 10
6345.0143008518
 20
4680.545475891
 10
6345.6435619879
 20
4680.5459527281
 10
6346.2907343197
 20
4680.5459527281
  0
LINE
  5
29A
330
1F
100
AcDbEntity
  8
0
  6
Continuous
 62
     7
370
    25
100
AcDbLine
 10
6205.6748901519
 20
4681.3613442687
 30
0.0
 11
6205.5836140204
 21
4680.5430917052
 31
0.0
  0
LWPOLYLINE
  5
29B
330
1F
100
AcDbEntity
  8
0
  6
Continuous
 62
     7
370
    25
100
AcDbPolyline
 90
        9
 70
   128
 43
0.0
 10
6201.7243334118
 20
4680.5440453795
 10
6202.3753101963
 20
4680.5440453795
 10
6203.0088088501
 20
4680.5440453795
 10
6203.6079351816
 20
4680.5440453795
 10
6204.1567104894
 20
4680.5435685423
 10
6204.640500902
 20
4680.5435685423
 10
6205.0464038763
 20
4680.5435685423
 10
6205.3635941844
 20
4680.5430917052
 10
6205.5836140204
 20
4680.5430917052
  0
LINE
  5
29C
330
1F
100
AcDbEntity
  8
0
  6
Continuous
 62
     7
370
    25
100
AcDbLine
 10
6342.3582433748
 20
4601.290371826
 30
0.0
 11
6342.4496768999
 21
4602.1091012267
 31
0.0
  0
LWPOLYLINE
  5
29D
330
1F
100
AcDbEntity
  8
0
  6
Continuous
 62
     7
370
    25
100
AcDbPolyline
 90
        9
 70
   128
 43
0.0
 10
6342.4496768999
 20
4602.1091012267
 10
6342.6711975622
 20
4602.1081475524
 10
6342.9909168768
 20
4602.1076707152
 10
6343.4002070713
 20
4602.1067170409
 10
6343.8880710888
 20
4602.1062402037
 10
6344.4413065005
 20
4602.1057633666
 10
6345.0450270462
 20
4602.1052865294
 10
6345.6829457569
 20
4602.1048096922
 10
6346.3378666926
 20
4602.1048096922
  0
LWPOLYLINE
  5
29E
330
1F
100
AcDbEntity
  8
0
  6
Continuous
 62
     7
370
    25
100
AcDbPolyline
 90
        9
 70
   128
 43
0.0
 10
6342.3582433748
 20
4601.290371826
 10
6342.5746529389
 20
4601.2417344359
 10
6342.8870408821
 20
4601.1716393736
 10
6343.2869880486
 20
4601.0815171507
 10
6343.763661294
 20
4600.9742287901
 10
6344.3041860152
 20
4600.8521584776
 10
6344.893959074
 20
4600.7191209105
 10
6345.5170660305
 20
4600.5784539488
 10
6346.1566387701
 20
4600.4339722899
  0
SPLINE
  5
29F
330
1F
100
AcDbEntity
  8
0
  6
Continuous
 62
     7
370
    25
100
AcDbSpline
210
0.0
220
0.0
230
1.0
 70
     8
 71
     3
 72
    11
 73
     7
 74
     0
 42
0.000000001
 43
0.00000001
 40
0.0
 40
0.0
 40
0.0
 40
0.0
 40
0.1875032464969169
 40
0.2500004130314377
 40
0.5000004547708257
 40
0.9999999999999999
 40
0.9999999999999999
 40
0.9999999999999999
 40
0.9999999999999999
 10
6342.449676899932
 20
4602.109101226669
 30
0.0
 10
6342.452358604199
 20
4607.011309789279
 30
0.0
 10
6342.455934153885
 20
4613.547485499918
 30
0.0
 10
6342.467593949399
 20
4626.619777243823
 30
0.0
 10
6342.47979898083
 20
4647.862258855014
 30
0.0
 10
6342.467403072927
 20
4667.470761379589
 30
0.0
 10
6342.459139137291
 20
4680.543091705184
 30
0.0
  0
LINE
  5
2A0
330
1F
100
AcDbEntity
  8
0
  6
Continuous
 62
     7
370
    25
100
AcDbLine
 10
6205.6645263943
 20
4601.2879876402
 30
0.0
 11
6205.8424215789
 21
4600.7181672362
 31
0.0
  0
LINE
  5
2A1
330
1F
100
AcDbEntity
  8
0
  6
Continuous
 62
     7
370
    25
100
AcDbLine
 10
6209.3017741132
 20
4598.3687905577
 30
0.0
 11
6338.7357412863
 21
4598.3969239501
 31
0.0
  0
LINE
  5
2A2
330
1F
100
AcDbEntity
  8
0
  6
Continuous
 62
     7
370
    25
100
AcDbLine
 10
6342.3672734785
 20
4681.362297943
 30
0.0
 11
6342.189547329
 21
4681.9316415099
 31
0.0
  0
LWPOLYLINE
  5
2A3
330
1F
100
AcDbEntity
  8
0
  6
Continuous
 62
     7
370
    25
100
AcDbPolyline
 90
        9
 70
   128
 43
0.0
 10
6342.189547329
 20
4681.9316415099
 10
6342.3927544642
 20
4682.0136575011
 10
6342.6855473805
 20
4682.1319131163
 10
6343.0602072764
 20
4682.2830704955
 10
6343.5067801762
 20
4682.4628381041
 10
6344.0134494591
 20
4682.6669244078
 10
6344.5667742777
 20
4682.8896073607
 10
6345.1521067906
 20
4683.1251649169
 10
6345.7539199877
 20
4683.3673981932
  0
LINE
  5
2A4
330
1F
100
AcDbEntity
  8
0
  6
Continuous
 62
     7
370
    25
100
AcDbLine
 10
6342.189547329
 20
4681.9316415099
 30
0.0
 11
6341.936808734
 21
4682.4428109435
 31
0.0
  0
LINE
  5
2A5
330
1F
100
AcDbEntity
  8
0
  6
Continuous
 62
     7
370
    25
100
AcDbLine
 10
6340.1060967732
 20
4598.6591843871
 30
0.0
 11
6340.6256406594
 21
4598.9133385924
 31
0.0
  0
LINE
  5
2A6
330
1F
100
AcDbEntity
  8
0
  6
Continuous
 62
     7
370
    25
100
AcDbLine
 10
6342.1819030333
 20
4600.7243661192
 30
0.0
 11
6342.3582433748
 21
4601.290371826
 31
0.0
  0
LWPOLYLINE
  5
2A7
330
1F
100
AcDbEntity
  8
0
  6
Continuous
 62
     7
370
    25
100
AcDbPolyline
 90
        9
 70
   128
 43
0.0
 10
6345.7962988901
 20
4599.2728738097
 10
6345.187735467
 20
4599.5174912718
 10
6344.5948182631
 20
4599.7554330138
 10
6344.0336107302
 20
4599.9809769896
 10
6343.5192524481
 20
4600.1874474791
 10
6343.0656462002
 20
4600.3695992735
 10
6342.6850854445
 20
4600.5226640013
 10
6342.3878221798
 20
4600.6418732909
 10
6342.1819030333
 20
4600.7243661192
  0
SPLINE
  5
2A8
330
1F
100
AcDbEntity
  8
0
  6
Continuous
 62
     7
370
    25
100
AcDbSpline
210
0.0
220
0.0
230
1.0
 70
     8
 71
     3
 72
    14
 73
    10
 74
     0
 42
0.000000001
 43
0.00000001
 40
0.0
 40
0.0
 40
0.0
 40
0.0
 40
0.1443099494060778
 40
0.2013559422116181
 40
0.3154479049830648
 40
0.543631992820587
 40
0.7718160075744321
 40
0.8859079983603528
 40
1.0
 40
1.0
 40
1.0
 40
1.0
 10
6338.7357412863
 20
4684.269097259384
 30
0.0
 10
6332.50953763103
 20
4684.267249557614
 30
0.0
 10
6323.822104030173
 20
4684.264671455881
 30
0.0
 10
6310.212228021973
 20
4684.257178081357
 30
0.0
 10
6292.983633089848
 20
4684.249238948558
 30
0.0
 10
6268.37130321741
 20
4684.244255044514
 30
0.0
 10
6243.758988259903
 20
4684.251425480953
 30
0.0
 10
6224.069157838449
 20
4684.26009853501
 30
0.0
 10
6214.224235511043
 20
4684.262282987292
 30
0.0
 10
6209.301774113201
 20
4684.263375213485
 30
0.0
  0
SPLINE
  5
2A9
330
1F
100
AcDbEntity
  8
0
  6
Continuous
 62
     7
370
    25
100
AcDbSpline
210
0.0
220
0.0
230
1.0
 70
     8
 71
     3
 72
    11
 73
     7
 74
     0
 42
0.000000001
 43
0.00000001
 40
0.0
 40
0.0
 40
0.0
 40
0.0
 40
0.1874969567790313
 40
0.2500000024241725
 40
0.4999999895417338
 40
1.0
 40
1.0
 40
1.0
 40
1.0
 10
6205.58361402037
 20
4680.543091705184
 30
0.0
 10
6205.583053120421
 20
4675.641046530759
 30
0.0
 10
6205.582305241675
 20
4669.104880149489
 30
0.0
 10
6205.579701084018
 20
4656.032550372573
 30
0.0
 10
6205.578219116462
 20
4634.789928514676
 30
0.0
 10
6205.574752492081
 20
4615.181432331279
 30
0.0
 10
6205.572441409104
 20
4602.109101226669
 30
0.0
  0
LINE
  5
2AA
330
1F
100
AcDbEntity
  8
0
  6
Continuous
 62
     7
370
    25
100
AcDbLine
 10
6341.9294326592
 20
4600.2131966857
 30
0.0
 11
6342.1819030333
 21
4600.7243661192
 31
0.0
  0
LINE
  5
2AB
330
1F
100
AcDbEntity
  8
0
  6
Continuous
 62
     7
370
    25
100
AcDbLine
 10
6206.1352806191
 20
4602.1091012267
 30
0.0
 11
6205.5724414091
 21
4602.1091012267
 31
0.0
  0
SPLINE
  5
2AC
330
1F
100
AcDbEntity
  8
0
  6
Continuous
 62
     7
370
    25
100
AcDbSpline
210
0.0
220
0.0
230
1.0
 70
     8
 71
     3
 72
    11
 73
     7
 74
     0
 42
0.000000001
 43
0.00000001
 40
0.0
 40
0.0
 40
0.0
 40
0.0
 40
0.2500676895888406
 40
0.4999824267949268
 40
0.7499190928013483
 40
1.0
 40
1.0
 40
1.0
 40
1.0
 10
6209.301774113201
 20
4598.9429024962
 30
0.0
 10
6208.902379692225
 20
4599.010561571044
 30
0.0
 10
6208.103835137442
 20
4599.145838337468
 30
0.0
 10
6207.074136839343
 20
4599.881456670719
 30
0.0
 10
6206.338552496945
 20
4600.911157170493
 30
0.0
 10
6206.20305094122
 20
4601.709709754525
 30
0.0
 10
6206.135280619137
 20
4602.109101226669
 30
0.0
  0
LINE
  5
2AD
330
1F
100
AcDbEntity
  8
0
  6
Continuous
 62
     7
370
    25
100
AcDbLine
 10
6209.3017741132
 20
4598.9429024962
 30
0.0
 11
6209.3017741132
 21
4598.3687905577
 31
0.0
  0
LINE
  5
2AE
330
1F
100
AcDbEntity
  8
0
  6
Continuous
 62
     7
370
    25
100
AcDbLine
 10
6341.9022231388
 20
4680.5430917052
 30
0.0
 11
6342.4591391373
 21
4680.5430917052
 31
0.0
  0
SPLINE
  5
2AF
330
1F
100
AcDbEntity
  8
0
  6
Continuous
 62
     7
370
    25
100
AcDbSpline
210
0.0
220
0.0
230
1.0
 70
     8
 71
     3
 72
    11
 73
     7
 74
     0
 42
0.000000001
 43
0.00000001
 40
0.0
 40
0.0
 40
0.0
 40
0.0
 40
0.2500851847494436
 40
0.4999936675210376
 40
0.7499249105414159
 40
1.0
 40
1.0
 40
1.0
 40
1.0
 10
6338.7357412863
 20
4683.709767272811
 30
0.0
 10
6339.135127407183
 20
4683.641913353585
 30
0.0
 10
6339.933617455832
 20
4683.506253458482
 30
0.0
 10
6340.963381286204
 20
4682.770767557608
 30
0.0
 10
6341.698957919244
 20
4681.74102866339
 30
0.0
 10
6341.834455071946
 20
4680.94248060248
 30
0.0
 10
6341.902223138832
 20
4680.543091705184
 30
0.0
  0
LINE
  5
2B0
330
1F
100
AcDbEntity
  8
0
  6
Continuous
 62
     7
370
    25
100
AcDbLine
 10
6338.7357412863
 20
4683.7097672728
 30
0.0
 11
6338.7357412863
 21
4684.2690972594
 31
0.0
  0
LINE
  5
2B1
330
1F
100
AcDbEntity
  8
0
  6
Continuous
 62
     7
370
    25
100
AcDbLine
 10
6209.3017741132
 20
4683.7097672728
 30
0.0
 11
6209.3017741132
 21
4684.2633752135
 31
0.0
  0
SPLINE
  5
2B2
330
1F
100
AcDbEntity
  8
0
  6
Continuous
 62
     7
370
    25
100
AcDbSpline
210
0.0
220
0.0
230
1.0
 70
     8
 71
     3
 72
    11
 73
     7
 74
     0
 42
0.000000001
 43
0.00000001
 40
0.0
 40
0.0
 40
0.0
 40
0.0
 40
0.2500751391017969
 40
0.5000060403382753
 40
0.7499150132802047
 40
1.0
 40
1.0
 40
1.0
 40
1.0
 10
6206.135280619137
 20
4680.543091705184
 30
0.0
 10
6206.203051614375
 20
4680.942480401955
 30
0.0
 10
6206.338554516024
 20
4681.741027436842
 30
0.0
 10
6207.074128768758
 20
4682.770769535592
 30
0.0
 10
6208.103897079448
 20
4683.506252413496
 30
0.0
 10
6208.90238807054
 20
4683.641913067416
 30
0.0
 10
6209.301774113201
 20
4683.709767272811
 30
0.0
  0
LINE
  5
2B3
330
1F
100
AcDbEntity
  8
0
  6
Continuous
 62
     7
370
    25
100
AcDbLine
 10
6206.1352806191
 20
4680.5430917052
 30
0.0
 11
6205.5836140204
 21
4680.5430917052
 31
0.0
  0
LINE
  5
2B4
330
1F
100
AcDbEntity
  8
0
  6
Continuous
 62
     7
370
    25
100
AcDbLine
 10
6338.7357412863
 20
4598.9429024962
 30
0.0
 11
6338.7357412863
 21
4598.3969239501
 31
0.0
  0
SPLINE
  5
2B5
330
1F
100
AcDbEntity
  8
0
  6
Continuous
 62
     7
370
    25
100
AcDbSpline
210
0.0
220
0.0
230
1.0
 70
     8
 71
     3
 72
    11
 73
     7
 74
     0
 42
0.000000001
 43
0.00000001
 40
0.0
 40
0.0
 40
0.0
 40
0.0
 40
0.2500808575630246
 40
0.5000178653699547
 40
0.7499321124031242
 40
1.0
 40
1.0
 40
1.0
 40
1.0
 10
6341.902223138832
 20
4602.109101226669
 30
0.0
 10
6341.834455745101
 20
4601.709709554005
 30
0.0
 10
6341.698959938324
 20
4600.911155943949
 30
0.0
 10
6340.963373215612
 20
4599.881458648698
 30
0.0
 10
6339.933679397694
 20
4599.145837292966
 30
0.0
 10
6339.135135785481
 20
4599.010561284872
 30
0.0
 10
6338.7357412863
 20
4598.9429024962
 30
0.0
  0
LINE
  5
2B6
330
1F
100
AcDbEntity
  8
0
  6
Continuous
 62
     7
370
    25
100
AcDbLine
 10
6341.9022231388
 20
4602.1091012267
 30
0.0
 11
6342.4496768999
 21
4602.1091012267
 31
0.0
  0
LINE
  5
2B7
330
1F
100
AcDbEntity
  8
0
  6
Continuous
 62
     7
370
    25
100
AcDbLine
 10
6338.7357412863
 20
4598.9429024962
 30
0.0
 11
6209.3017741132
 21
4598.9429024962
 31
0.0
  0
LINE
  5
2B8
330
1F
100
AcDbEntity
  8
0
  6
Continuous
 62
     7
370
    25
100
AcDbLine
 10
6341.9022231388
 20
4680.5430917052
 30
0.0
 11
6341.9022231388
 21
4602.1091012267
 31
0.0
  0
LINE
  5
2B9
330
1F
100
AcDbEntity
  8
0
  6
Continuous
 62
     7
370
    25
100
AcDbLine
 10
6206.1352806191
 20
4602.1091012267
 30
0.0
 11
6206.1352806191
 21
4680.5430917052
 31
0.0
  0
LINE
  5
2BA
330
1F
100
AcDbEntity
  8
0
  6
Continuous
 62
     7
370
    25
100
AcDbLine
 10
6209.3017741132
 20
4683.7097672728
 30
0.0
 11
6338.7357412863
 21
4683.7097672728
 31
0.0
  0
SPLINE
  5
2BB
330
1F
100
AcDbEntity
  8
0
  6
Continuous
 62
     7
370
    25
100
AcDbSpline
210
0.0
220
0.0
230
1.0
 70
     8
 71
     3
 72
    11
 73
     7
 74
     0
 42
0.000000001
 43
0.00000001
 40
0.0
 40
0.0
 40
0.0
 40
0.0
 40
0.2514610475578123
 40
0.5022398314895817
 40
0.7517129800994435
 40
1.0
 40
1.0
 40
1.0
 40
1.0
 10
6209.998983845808
 20
4679.845955779891
 30
0.0
 10
6209.920209504517
 20
4680.282365479632
 30
0.0
 10
6209.762874552323
 20
4681.154000813162
 30
0.0
 10
6209.553101145382
 20
4682.317233977161
 30
0.0
 10
6209.384941312028
 20
4683.248753682262
 30
0.0
 10
6209.329452437401
 20
4683.556340395386
 30
0.0
 10
6209.301774113201
 20
4683.709767272811
 30
0.0
  0
SPLINE
  5
2BC
330
1F
100
AcDbEntity
  8
0
  6
Continuous
 62
     7
370
    25
100
AcDbSpline
210
0.0
220
0.0
230
1.0
 70
     8
 71
     3
 72
    11
 73
     7
 74
     0
 42
0.000000001
 43
0.00000001
 40
0.0
 40
0.0
 40
0.0
 40
0.0
 40
0.2482870227451763
 40
0.4977602229587825
 40
0.7485391279341431
 40
1.0
 40
1.0
 40
1.0
 40
1.0
 10
6338.7357412863
 20
4683.709767272811
 30
0.0
 10
6338.708063049981
 20
4683.556340395466
 30
0.0
 10
6338.652574346107
 20
4683.24875365238
 30
0.0
 10
6338.484413138417
 20
4682.317233692444
 30
0.0
 10
6338.27463236622
 20
4681.154001709663
 30
0.0
 10
6338.117302569048
 20
4680.282365607311
 30
0.0
 10
6338.038530855201
 20
4679.845955779891
 30
0.0
  0
SPLINE
  5
2BD
330
1F
100
AcDbEntity
  8
0
  6
Continuous
 62
     7
370
    25
100
AcDbSpline
210
0.0
220
0.0
230
1.0
 70
     8
 71
     3
 72
    11
 73
     7
 74
     0
 42
0.000000001
 43
0.00000001
 40
0.0
 40
0.0
 40
0.0
 40
0.0
 40
0.2482907121531337
 40
0.4977811894968337
 40
0.7485070436611561
 40
1.0
 40
1.0
 40
1.0
 40
1.0
 10
6341.902223138832
 20
4602.109101226669
 30
0.0
 10
6341.748829658587
 20
4602.136885731785
 30
0.0
 10
6341.441301485683
 20
4602.192588999482
 30
0.0
 10
6340.509677890604
 20
4602.360487260334
 30
0.0
 10
6339.34668296909
 20
4602.570544083762
 30
0.0
 10
6338.475025357392
 20
4602.727592835768
 30
0.0
 10
6338.038530855201
 20
4602.806237151962
 30
0.0
  0
SPLINE
  5
2BE
330
1F
100
AcDbEntity
  8
0
  6
Continuous
 62
     7
370
    25
100
AcDbSpline
210
0.0
220
0.0
230
1.0
 70
     8
 71
     3
 72
    11
 73
     7
 74
     0
 42
0.000000001
 43
0.00000001
 40
0.0
 40
0.0
 40
0.0
 40
0.0
 40
0.248282897623383
 40
0.4977833872847183
 40
0.7485081442335778
 40
0.9999999999999999
 40
0.9999999999999999
 40
0.9999999999999999
 40
0.9999999999999999
 10
6341.902223138832
 20
4680.543091705184
 30
0.0
 10
6341.748822278154
 20
4680.515560793017
 30
0.0
 10
6341.441268271126
 20
4680.460363955678
 30
0.0
 10
6340.509708721857
 20
4680.291505442174
 30
0.0
 10
6339.346679537023
 20
4680.081699966619
 30
0.0
 10
6338.475024212205
 20
4679.924617152938
 30
0.0
 10
6338.038530855201
 20
4679.845955779891
 30
0.0
  0
SPLINE
  5
2BF
330
1F
100
AcDbEntity
  8
0
  6
Continuous
 62
     7
370
    25
100
AcDbSpline
210
0.0
220
0.0
230
1.0
 70
     8
 71
     3
 72
    11
 73
     7
 74
     0
 42
0.000000001
 43
0.00000001
 40
0.0
 40
0.0
 40
0.0
 40
0.0
 40
0.2514947876614537
 40
0.5022188270284307
 40
0.7517086119643072
 40
1.0
 40
1.0
 40
1.0
 40
1.0
 10
6209.998983845808
 20
4602.806237151962
 30
0.0
 10
6209.562485220237
 20
4602.727593122383
 30
0.0
 10
6208.690825692929
 20
4602.570546081149
 30
0.0
 10
6207.527832672681
 20
4602.360486519355
 30
0.0
 10
6206.596216164504
 20
4602.192588718942
 30
0.0
 10
6206.288679004677
 20
4602.136885689501
 30
0.0
 10
6206.135280619137
 20
4602.109101226669
 30
0.0
  0
SPLINE
  5
2C0
330
1F
100
AcDbEntity
  8
0
  6
Continuous
 62
     7
370
    25
100
AcDbSpline
210
0.0
220
0.0
230
1.0
 70
     8
 71
     3
 72
    11
 73
     7
 74
     0
 42
0.000000001
 43
0.00000001
 40
0.0
 40
0.0
 40
0.0
 40
0.0
 40
0.2514936870710632
 40
0.502216629220595
 40
0.7517164264738464
 40
1.0
 40
1.0
 40
1.0
 40
1.0
 10
6209.998983845808
 20
4679.845955779891
 30
0.0
 10
6209.562486365442
 20
4679.924616866537
 30
0.0
 10
6208.690829125033
 20
4680.081697969627
 30
0.0
 10
6207.527801841494
 20
4680.291506184695
 30
0.0
 10
6206.596249379302
 20
4680.460364236511
 30
0.0
 10
6206.288686385109
 20
4680.51556083586
 30
0.0
 10
6206.135280619137
 20
4680.543091705184
 30
0.0
  0
SPLINE
  5
2C1
330
1F
100
AcDbEntity
  8
0
  6
Continuous
 62
     7
370
    25
100
AcDbSpline
210
0.0
220
0.0
230
1.0
 70
     8
 71
     3
 72
    11
 73
     7
 74
     0
 42
0.000000001
 43
0.00000001
 40
0.0
 40
0.0
 40
0.0
 40
0.0
 40
0.251474807877377
 40
0.5021883985433808
 40
0.7517366735533098
 40
0.9999999999999999
 40
0.9999999999999999
 40
0.9999999999999999
 40
0.9999999999999999
 10
6209.998983845808
 20
4602.806237151962
 30
0.0
 10
6209.920217767436
 20
4602.369801798101
 30
0.0
 10
6209.762924036543
 20
4601.498252185344
 30
0.0
 10
6209.553028178652
 20
4600.33540654363
 30
0.0
 10
6209.384980564613
 20
4599.403325584999
 30
0.0
 10
6209.329461828787
 20
4599.096112533587
 30
0.0
 10
6209.301774113201
 20
4598.9429024962
 30
0.0
  0
SPLINE
  5
2C2
330
1F
100
AcDbEntity
  8
0
  6
Continuous
 62
     7
370
    25
100
AcDbSpline
210
0.0
220
0.0
230
1.0
 70
     8
 71
     3
 72
    11
 73
     7
 74
     0
 42
0.000000001
 43
0.00000001
 40
0.0
 40
0.0
 40
0.0
 40
0.0
 40
0.2482633292849407
 40
0.4978116558840039
 40
0.7485253676303583
 40
1.0
 40
1.0
 40
1.0
 40
1.0
 10
6338.7357412863
 20
4598.9429024962
 30
0.0
 10
6338.708053658465
 20
4599.096112533498
 30
0.0
 10
6338.65253509316
 20
4599.40332561481
 30
0.0
 10
6338.484486106388
 20
4600.335406828695
 30
0.0
 10
6338.274582882107
 20
4601.498251288832
 30
0.0
 10
6338.117294305893
 20
4602.369801670403
 30
0.0
 10
6338.038530855201
 20
4602.806237151962
 30
0.0
  0
LINE
  5
2C3
330
1F
100
AcDbEntity
  8
0
  6
Continuous
 62
     8
370
    25
100
AcDbLine
 10
6248.2494271386
 20
4812.3575715331
 30
0.0
 11
6248.2505037475
 21
4808.8261155394
 31
0.0
  0
LINE
  5
2C4
330
1F
100
AcDbEntity
  8
0
  6
Continuous
 62
     8
370
    25
100
AcDbLine
 10
6298.2494204331
 20
4812.3728303221
 30
0.0
 11
6298.2505082178
 21
4808.8261155394
 31
0.0
  0
LINE
  5
2C5
330
1F
100
AcDbEntity
  8
0
  6
Continuous
 62
     8
370
    25
100
AcDbLine
 10
6338.0385308552
 20
4679.8459557799
 30
0.0
 11
6337.3236476469
 21
4679.8459557799
 31
0.0
  0
LINE
  5
2C6
330
1F
100
AcDbEntity
  8
0
  6
Continuous
 62
     8
370
    25
100
AcDbLine
 10
6210.7138600692
 20
4679.8459557799
 30
0.0
 11
6209.9989838458
 21
4679.8459557799
 31
0.0
  0
LINE
  5
2C7
330
1F
100
AcDbEntity
  8
0
  6
Continuous
 62
     8
370
    25
100
AcDbLine
 10
6338.0385308552
 20
4602.806237152
 30
0.0
 11
6338.0385308552
 21
4603.4475831297
 31
0.0
  0
LINE
  5
2C8
330
1F
100
AcDbEntity
  8
0
  6
Continuous
 62
     8
370
    25
100
AcDbLine
 10
6338.0385308552
 20
4679.2050866393
 30
0.0
 11
6338.0385308552
 21
4679.8459557799
 31
0.0
  0
LINE
  5
2C9
330
1F
100
AcDbEntity
  8
0
  6
Continuous
 62
     8
370
    25
100
AcDbLine
 10
6209.9989838458
 20
4679.8459557799
 30
0.0
 11
6209.9989838458
 21
4679.2050866393
 31
0.0
  0
LINE
  5
2CA
330
1F
100
AcDbEntity
  8
0
  6
Continuous
 62
     8
370
    25
100
AcDbLine
 10
6209.9989838458
 20
4603.4475831297
 30
0.0
 11
6209.9989838458
 21
4602.806237152
 31
0.0
  0
LINE
  5
2CB
330
1F
100
AcDbEntity
  8
0
  6
Continuous
 62
     8
370
    25
100
AcDbLine
 10
6209.9989838458
 20
4602.806237152
 30
0.0
 11
6210.7138600692
 21
4602.806237152
 31
0.0
  0
LINE
  5
2CC
330
1F
100
AcDbEntity
  8
0
  6
Continuous
 62
     8
370
    25
100
AcDbLine
 10
6337.3236476469
 20
4602.806237152
 30
0.0
 11
6338.0385308552
 21
4602.806237152
 31
0.0
  0
ENDSEC
  0
SECTION
  2
OBJECTS
  0
DICTIONARY
  5
C
330
0
100
AcDbDictionary
281
     1
  3
ACAD_GROUP
350
D
  3
ACAD_LAYOUT
350
1A
  3
ACAD_MLINESTYLE
350
17
  3
ACAD_PLOTSETTINGS
350
19
  3
ACAD_PLOTSTYLENAME
350
E
  3
ACAD_SCALELIST
350
47
  0
DICTIONARY
  5
D
102
{ACAD_REACTORS
330
C
102
}
330
C
100
AcDbDictionary
281
     1
  0
DICTIONARY
  5
1A
102
{ACAD_REACTORS
330
C
102
}
330
C
100
AcDbDictionary
281
     1
  3
Layout1
350
1E
  3
Layout2
350
26
  3
Model
350
22
  0
DICTIONARY
  5
17
102
{ACAD_REACTORS
330
C
102
}
330
C
100
AcDbDictionary
281
     1
  3
Standard
350
18
  0
DICTIONARY
  5
19
102
{ACAD_REACTORS
330
C
102
}
330
C
100
AcDbDictionary
281
     1
  0
ACDBDICTIONARYWDFLT
  5
E
102
{ACAD_REACTORS
330
C
102
}
330
C
100
AcDbDictionary
281
     1
  3
Normal
350
F
100
AcDbDictionaryWithDefault
340
F
  0
DICTIONARY
  5
47
102
{ACAD_REACTORS
330
C
102
}
330
C
100
AcDbDictionary
281
     1
  3
A0
350
48
  3
A1
350
49
  3
A2
350
4A
  3
A3
350
4B
  3
A4
350
4C
  3
A5
350
4D
  3
A6
350
4E
  3
A7
350
4F
  3
A8
350
50
  3
A9
350
51
  3
B0
350
52
  3
B1
350
53
  3
B2
350
54
  3
B3
350
55
  3
B4
350
56
  3
B5
350
57
  3
B6
350
58
  3
B7
350
59
  3
B8
350
5A
  3
B9
350
5B
  3
C0
350
5C
  3
C1
350
5D
  3
C2
350
5E
  3
C3
350
5F
  3
C4
350
60
  3
C5
350
61
  3
C6
350
62
  3
C7
350
63
  3
C8
350
64
  3
C9
350
65
  3
D0
350
66
  3
D1
350
67
  3
D2
350
68
  0
LAYOUT
  5
1E
102
{ACAD_REACTORS
330
1A
102
}
330
1A
100
AcDbPlotSettings
  1

  2
none_device
  4

  6

 40
0.0
 41
0.0
 42
0.0
 43
0.0
 44
0.0
 45
0.0
 46
0.0
 47
0.0
 48
0.0
 49
0.0
140
0.0
141
0.0
142
1.0
143
1.0
 70
   688
 72
     1
 73
     0
 74
     5
  7

 75
    16
147
1.0
148
0.0
149
0.0
100
AcDbLayout
  1
Layout1
 70
     1
 71
     1
 10
0.0
 20
0.0
 11
420.0
 21
297.0
 12
0.0
 22
0.0
 32
0.0
 14
1.0000000000E+20
 24
1.0000000000E+20
 34
1.0000000000E+20
 15
-1.0000000000E+20
 25
-1.0000000000E+20
 35
-1.0000000000E+20
146
0.0
 13
0.0
 23
0.0
 33
0.0
 16
1.0
 26
0.0
 36
0.0
 17
0.0
 27
1.0
 37
0.0
 76
     0
330
1B
  0
LAYOUT
  5
26
102
{ACAD_REACTORS
330
1A
102
}
330
1A
100
AcDbPlotSettings
  1

  2
none_device
  4

  6

 40
0.0
 41
0.0
 42
0.0
 43
0.0
 44
0.0
 45
0.0
 46
0.0
 47
0.0
 48
0.0
 49
0.0
140
0.0
141
0.0
142
1.0
143
1.0
 70
   688
 72
     1
 73
     0
 74
     5
  7

 75
    16
147
1.0
148
0.0
149
0.0
100
AcDbLayout
  1
Layout2
 70
     1
 71
     2
 10
0.0
 20
0.0
 11
0.0
 21
0.0
 12
0.0
 22
0.0
 32
0.0
 14
0.0
 24
0.0
 34
0.0
 15
0.0
 25
0.0
 35
0.0
146
0.0
 13
0.0
 23
0.0
 33
0.0
 16
1.0
 26
0.0
 36
0.0
 17
0.0
 27
1.0
 37
0.0
 76
     0
330
23
  0
LAYOUT
  5
22
102
{ACAD_REACTORS
330
1A
102
}
330
1A
100
AcDbPlotSettings
  1

  2
none_device
  4
Letter_(8.50_x_11.00_Inches)
  6

 40
6.35
 41
6.35
 42
6.35000508
 43
6.35000508
 44
215.9
 45
279.4
 46
0.0
 47
0.0
 48
0.0
 49
0.0
140
0.0
141
0.0
142
1.0
143
1.0
 70
  1712
 72
     1
 73
     0
 74
     0
  7

 75
     0
147
1.0
148
0.0
149
0.0
100
AcDbLayout
  1
Model
 70
     1
 71
     0
 10
0.0
 20
0.0
 11
20000.0
 21
10000.0
 12
0.0
 22
0.0
 32
0.0
 14
0.0
 24
0.0
 34
0.0
 15
20000.0
 25
10000.0
 35
0.0
146
0.0
 13
0.0
 23
0.0
 33
0.0
 16
1.0
 26
0.0
 36
0.0
 17
0.0
 27
1.0
 37
0.0
 76
     0
330
1F
331
29
  0
MLINESTYLE
  5
18
102
{ACAD_REACTORS
330
17
102
}
330
17
100
AcDbMlineStyle
  2
Standard
 70
     0
  3

 62
   256
 51
90.0
 52
90.0
 71
     2
 49
0.5
 62
   256
  6
BYLAYER
 49
-0.5
 62
   256
  6
BYLAYER
  0
ACDBPLACEHOLDER
  5
F
102
{ACAD_REACTORS
330
E
102
}
330
E
  0
SCALE
  5
48
102
{ACAD_REACTORS
330
47
102
}
330
47
100
AcDbScale
 70
     0
300
1:1
140
1.0
141
1.0
290
     1
  0
SCALE
  5
49
102
{ACAD_REACTORS
330
47
102
}
330
47
100
AcDbScale
 70
     0
300
1:2
140
1.0
141
2.0
290
     0
  0
SCALE
  5
4A
102
{ACAD_REACTORS
330
47
102
}
330
47
100
AcDbScale
 70
     0
300
1:4
140
1.0
141
4.0
290
     0
  0
SCALE
  5
4B
102
{ACAD_REACTORS
330
47
102
}
330
47
100
AcDbScale
 70
     0
300
1:5
140
1.0
141
5.0
290
     0
  0
SCALE
  5
4C
102
{ACAD_REACTORS
330
47
102
}
330
47
100
AcDbScale
 70
     0
300
1:8
140
1.0
141
8.0
290
     0
  0
SCALE
  5
4D
102
{ACAD_REACTORS
330
47
102
}
330
47
100
AcDbScale
 70
     0
300
1:10
140
1.0
141
10.0
290
     0
  0
SCALE
  5
4E
102
{ACAD_REACTORS
330
47
102
}
330
47
100
AcDbScale
 70
     0
300
1:16
140
1.0
141
16.0
290
     0
  0
SCALE
  5
4F
102
{ACAD_REACTORS
330
47
102
}
330
47
100
AcDbScale
 70
     0
300
1:20
140
1.0
141
20.0
290
     0
  0
SCALE
  5
50
102
{ACAD_REACTORS
330
47
102
}
330
47
100
AcDbScale
 70
     0
300
1:30
140
1.0
141
30.0
290
     0
  0
SCALE
  5
51
102
{ACAD_REACTORS
330
47
102
}
330
47
100
AcDbScale
 70
     0
300
1:40
140
1.0
141
40.0
290
     0
  0
SCALE
  5
52
102
{ACAD_REACTORS
330
47
102
}
330
47
100
AcDbScale
 70
     0
300
1:50
140
1.0
141
50.0
290
     0
  0
SCALE
  5
53
102
{ACAD_REACTORS
330
47
102
}
330
47
100
AcDbScale
 70
     0
300
1:100
140
1.0
141
100.0
290
     0
  0
SCALE
  5
54
102
{ACAD_REACTORS
330
47
102
}
330
47
100
AcDbScale
 70
     0
300
2:1
140
2.0
141
1.0
290
     0
  0
SCALE
  5
55
102
{ACAD_REACTORS
330
47
102
}
330
47
100
AcDbScale
 70
     0
300
4:1
140
4.0
141
1.0
290
     0
  0
SCALE
  5
56
102
{ACAD_REACTORS
330
47
102
}
330
47
100
AcDbScale
 70
     0
300
8:1
140
8.0
141
1.0
290
     0
  0
SCALE
  5
57
102
{ACAD_REACTORS
330
47
102
}
330
47
100
AcDbScale
 70
     0
300
10:1
140
10.0
141
1.0
290
     0
  0
SCALE
  5
58
102
{ACAD_REACTORS
330
47
102
}
330
47
100
AcDbScale
 70
     0
300
100:1
140
100.0
141
1.0
290
     0
  0
SCALE
  5
59
102
{ACAD_REACTORS
330
47
102
}
330
47
100
AcDbScale
 70
     0
300
1/128" = 1'-0"
140
0.0078125
141
12.0
290
     0
  0
SCALE
  5
5A
102
{ACAD_REACTORS
330
47
102
}
330
47
100
AcDbScale
 70
     0
300
1/64" = 1'-0"
140
0.015625
141
12.0
290
     0
  0
SCALE
  5
5B
102
{ACAD_REACTORS
330
47
102
}
330
47
100
AcDbScale
 70
     0
300
1/32" = 1'-0"
140
0.03125
141
12.0
290
     0
  0
SCALE
  5
5C
102
{ACAD_REACTORS
330
47
102
}
330
47
100
AcDbScale
 70
     0
300
1/16" = 1'-0"
140
0.0625
141
12.0
290
     0
  0
SCALE
  5
5D
102
{ACAD_REACTORS
330
47
102
}
330
47
100
AcDbScale
 70
     0
300
3/32" = 1'-0"
140
0.09375
141
12.0
290
     0
  0
SCALE
  5
5E
102
{ACAD_REACTORS
330
47
102
}
330
47
100
AcDbScale
 70
     0
300
1/8" = 1'-0"
140
0.125
141
12.0
290
     0
  0
SCALE
  5
5F
102
{ACAD_REACTORS
330
47
102
}
330
47
100
AcDbScale
 70
     0
300
3/16" = 1'-0"
140
0.1875
141
12.0
290
     0
  0
SCALE
  5
60
102
{ACAD_REACTORS
330
47
102
}
330
47
100
AcDbScale
 70
     0
300
1/4" = 1'-0"
140
0.25
141
12.0
290
     0
  0
SCALE
  5
61
102
{ACAD_REACTORS
330
47
102
}
330
47
100
AcDbScale
 70
     0
300
3/8" = 1'-0"
140
0.375
141
12.0
290
     0
  0
SCALE
  5
62
102
{ACAD_REACTORS
330
47
102
}
330
47
100
AcDbScale
 70
     0
300
1/2" = 1'-0"
140
0.5
141
12.0
290
     0
  0
SCALE
  5
63
102
{ACAD_REACTORS
330
47
102
}
330
47
100
AcDbScale
 70
     0
300
3/4" = 1'-0"
140
0.75
141
12.0
290
     0
  0
SCALE
  5
64
102
{ACAD_REACTORS
330
47
102
}
330
47
100
AcDbScale
 70
     0
300
1" = 1'-0"
140
1.0
141
12.0
290
     0
  0
SCALE
  5
65
102
{ACAD_REACTORS
330
47
102
}
330
47
100
AcDbScale
 70
     0
300
1-1/2" = 1'-0"
140
1.5
141
12.0
290
     0
  0
SCALE
  5
66
102
{ACAD_REACTORS
330
47
102
}
330
47
100
AcDbScale
 70
     0
300
3" = 1'-0"
140
3.0
141
12.0
290
     0
  0
SCALE
  5
67
102
{ACAD_REACTORS
330
47
102
}
330
47
100
AcDbScale
 70
     0
300
6" = 1'-0"
140
6.0
141
12.0
290
     0
  0
SCALE
  5
68
102
{ACAD_REACTORS
330
47
102
}
330
47
100
AcDbScale
 70
     0
300
1'-0" = 1'-0"
140
12.0
141
12.0
290
     0
  0
ENDSEC
  0
EOF
