  0
SECTION
  2
HEADER
  9
$ACADVER
  1
AC1015
  9
$ACADMAINTVER
 70
     6
  9
$DWGCODEPAGE
  3
ANSI_1250
  9
$INSBASE
 10
0.0
 20
0.0
 30
0.0
  9
$EXTMIN
 10
0.0
 20
0.0
 30
0.0
  9
$EXTMAX
 10
20000.0
 20
10000.0
 30
0.0
  9
$LIMMIN
 10
0.0
 20
0.0
  9
$LIMMAX
 10
20000.0
 20
10000.0
  9
$ORTHOMODE
 70
     0
  9
$REGENMODE
 70
     1
  9
$FILLMODE
 70
     1
  9
$QTEXTMODE
 70
     0
  9
$MIRRTEXT
 70
     1
  9
$LTSCALE
 40
1.0
  9
$ATTMODE
 70
     1
  9
$TEXTSIZE
 40
2.0
  9
$TRACEWID
 40
1.0
  9
$TEXTSTYLE
  7
Standard
  9
$CLAYER
  8
0
  9
$CELTYPE
  6
ByLayer
  9
$CECOLOR
 62
   256
  9
$CELTSCALE
 40
1.0
  9
$DISPSILH
 70
     0
  9
$DIMSCALE
 40
1.0
  9
$DIMASZ
 40
2.0
  9
$DIMEXO
 40
1.0
  9
$DIMDLI
 40
3.75
  9
$DIMRND
 40
0.0
  9
$DIMDLE
 40
0.0
  9
$DIMEXE
 40
1.0
  9
$DIMTP
 40
0.0
  9
$DIMTM
 40
0.0
  9
$DIMTXT
 40
2.0
  9
$DIMCEN
 40
2.5
  9
$DIMTSZ
 40
0.0
  9
$DIMTOL
 70
     0
  9
$DIMLIM
 70
     0
  9
$DIMTIH
 70
     1
  9
$DIMTOH
 70
     1
  9
$DIMSE1
 70
     0
  9
$DIMSE2
 70
     0
  9
$DIMTAD
 70
     1
  9
$DIMZIN
 70
     0
  9
$DIMBLK
  1

  9
$DIMASO
 70
     1
  9
$DIMSHO
 70
     1
  9
$DIMPOST
  1

  9
$DIMAPOST
  1

  9
$DIMALT
 70
     0
  9
$DIMALTD
 70
     3
  9
$DIMALTF
 40
0.0393700787
  9
$DIMLFAC
 40
1.0
  9
$DIMTOFL
 70
     1
  9
$DIMTVP
 40
0.0
  9
$DIMTIX
 70
     0
  9
$DIMSOXD
 70
     0
  9
$DIMSAH
 70
     0
  9
$DIMBLK1
  1

  9
$DIMBLK2
  1

  9
$DIMSTYLE
  2
ISO-25
  9
$DIMCLRD
 70
     0
  9
$DIMCLRE
 70
     0
  9
$DIMCLRT
 70
     0
  9
$DIMTFAC
 40
1.0
  9
$DIMGAP
 40
1.524
  9
$DIMJUST
 70
     0
  9
$DIMSD1
 70
     0
  9
$DIMSD2
 70
     0
  9
$DIMTOLJ
 70
     0
  9
$DIMTZIN
 70
     0
  9
$DIMALTZ
 70
     0
  9
$DIMALTTZ
 70
     0
  9
$DIMUPT
 70
     0
  9
$DIMDEC
 70
     2
  9
$DIMTDEC
 70
     0
  9
$DIMALTU
 70
     2
  9
$DIMALTTD
 70
     3
  9
$DIMTXSTY
  7
Standard
  9
$DIMAUNIT
 70
     0
  9
$DIMADEC
 70
     2
  9
$DIMALTRND
 40
0.0
  9
$DIMAZIN
 70
     0
  9
$DIMDSEP
 70
    44
  9
$DIMATFIT
 70
     3
  9
$DIMFRAC
 70
     0
  9
$DIMLDRBLK
  1

  9
$DIMLUNIT
 70
     2
  9
$DIMLWD
 70
    -2
  9
$DIMLWE
 70
    -2
  9
$DIMTMOVE
 70
     0
  9
$LUNITS
 70
     2
  9
$LUPREC
 70
     3
  9
$SKETCHINC
 40
1.0
  9
$FILLETRAD
 40
10.0
  9
$AUNITS
 70
     0
  9
$AUPREC
 70
     2
  9
$MENU
  1
.
  9
$ELEVATION
 40
0.0
  9
$PELEVATION
 40
0.0
  9
$THICKNESS
 40
0.0
  9
$LIMCHECK
 70
     0
  9
$CHAMFERA
 40
0.0
  9
$CHAMFERB
 40
0.0
  9
$CHAMFERC
 40
0.0
  9
$CHAMFERD
 40
0.0
  9
$SKPOLY
 70
     0
  9
$TDCREATE
 40
2458691.569011887
  9
$TDUCREATE
 40
2458691.485678553
  9
$TDUPDATE
 40
2458691.569013761
  9
$TDUUPDATE
 40
2458691.485680428
  9
$TDINDWG
 40
0.0000000116
  9
$TDUSRTIMER
 40
0.0000000116
  9
$USRTIMER
 70
     1
  9
$ANGBASE
 50
0.0
  9
$ANGDIR
 70
     0
  9
$PDMODE
 70
     0
  9
$PDSIZE
 40
-1.0
  9
$PLINEWID
 40
0.0
  9
$SPLFRAME
 70
     0
  9
$SPLINETYPE
 70
     6
  9
$SPLINESEGS
 70
     8
  9
$HANDSEED
  5
46F
  9
$SURFTAB1
 70
     6
  9
$SURFTAB2
 70
     6
  9
$SURFTYPE
 70
     6
  9
$SURFU
 70
     6
  9
$SURFV
 70
     6
  9
$UCSBASE
  2

  9
$UCSNAME
  2

  9
$UCSORG
 10
0.0
 20
0.0
 30
0.0
  9
$UCSXDIR
 10
1.0
 20
0.0
 30
0.0
  9
$UCSYDIR
 10
0.0
 20
1.0
 30
0.0
  9
$UCSORTHOREF
  2

  9
$UCSORTHOVIEW
 70
     0
  9
$UCSORGTOP
 10
0.0
 20
0.0
 30
0.0
  9
$UCSORGBOTTOM
 10
0.0
 20
0.0
 30
0.0
  9
$UCSORGLEFT
 10
0.0
 20
0.0
 30
0.0
  9
$UCSORGRIGHT
 10
0.0
 20
0.0
 30
0.0
  9
$UCSORGFRONT
 10
0.0
 20
0.0
 30
0.0
  9
$UCSORGBACK
 10
0.0
 20
0.0
 30
0.0
  9
$PUCSBASE
  2

  9
$PUCSNAME
  2

  9
$PUCSORG
 10
0.0
 20
0.0
 30
0.0
  9
$PUCSXDIR
 10
1.0
 20
0.0
 30
0.0
  9
$PUCSYDIR
 10
0.0
 20
1.0
 30
0.0
  9
$PUCSORTHOREF
  2

  9
$PUCSORTHOVIEW
 70
     0
  9
$PUCSORGTOP
 10
0.0
 20
0.0
 30
0.0
  9
$PUCSORGBOTTOM
 10
0.0
 20
0.0
 30
0.0
  9
$PUCSORGLEFT
 10
0.0
 20
0.0
 30
0.0
  9
$PUCSORGRIGHT
 10
0.0
 20
0.0
 30
0.0
  9
$PUCSORGFRONT
 10
0.0
 20
0.0
 30
0.0
  9
$PUCSORGBACK
 10
0.0
 20
0.0
 30
0.0
  9
$USERI1
 70
     0
  9
$USERI2
 70
     0
  9
$USERI3
 70
     0
  9
$USERI4
 70
     0
  9
$USERI5
 70
     0
  9
$USERR1
 40
0.0
  9
$USERR2
 40
0.0
  9
$USERR3
 40
0.0
  9
$USERR4
 40
0.0
  9
$USERR5
 40
0.0
  9
$WORLDVIEW
 70
     1
  9
$SHADEDGE
 70
     3
  9
$SHADEDIF
 70
    70
  9
$TILEMODE
 70
     1
  9
$MAXACTVP
 70
    64
  9
$PINSBASE
 10
0.0
 20
0.0
 30
0.0
  9
$PLIMCHECK
 70
     0
  9
$PEXTMIN
 10
1.0000000000E+20
 20
1.0000000000E+20
 30
1.0000000000E+20
  9
$PEXTMAX
 10
-1.0000000000E+20
 20
-1.0000000000E+20
 30
-1.0000000000E+20
  9
$PLIMMIN
 10
0.0
 20
0.0
  9
$PLIMMAX
 10
420.0
 20
297.0
  9
$UNITMODE
 70
     0
  9
$VISRETAIN
 70
     1
  9
$PLINEGEN
 70
     0
  9
$PSLTSCALE
 70
     1
  9
$TREEDEPTH
 70
  3020
  9
$CMLSTYLE
  2
Standard
  9
$CMLJUST
 70
     0
  9
$CMLSCALE
 40
20.0
  9
$PROXYGRAPHICS
 70
     1
  9
$MEASUREMENT
 70
     1
  9
$CELWEIGHT
370
    -1
  9
$ENDCAPS
280
     0
  9
$JOINSTYLE
280
     0
  9
$LWDISPLAY
290
     1
  9
$INSUNITS
 70
     4
  9
$HYPERLINKBASE
  1

  9
$STYLESHEET
  1

  9
$XEDIT
290
     1
  9
$CEPSNTYPE
380
     0
  9
$PSTYLEMODE
290
     1
  9
$FINGERPRINTGUID
  2
{4AFBBD17-E99D-45F8-AF82-2E856DDEC415}
  9
$VERSIONGUID
  2
{FAEB1C32-E019-11D5-929B-00C0DF256EC4}
  9
$EXTNAMES
290
     1
  9
$PSVPSCALE
 40
0.0
  9
$OLESTARTUP
290
     0
  0
ENDSEC
  0
SECTION
  2
CLASSES
  0
CLASS
  1
ACDBDICTIONARYWDFLT
  2
AcDbDictionaryWithDefault
  3
ObjectDBX Classes
 90
        0
280
     0
281
     0
  0
CLASS
  1
VISUALSTYLE
  2
AcDbVisualStyle
  3
ObjectDBX Classes
 90
     4095
280
     0
281
     0
  0
CLASS
  1
MATERIAL
  2
AcDbMaterial
  3
ObjectDBX Classes
 90
     1153
280
     0
281
     0
  0
CLASS
  1
SCALE
  2
AcDbScale
  3
ObjectDBX Classes
 90
     1153
280
     0
281
     0
  0
CLASS
  1
TABLESTYLE
  2
AcDbTableStyle
  3
ObjectDBX Classes
 90
     4095
280
     0
281
     0
  0
CLASS
  1
MLEADERSTYLE
  2
AcDbMLeaderStyle
  3
ACDB_MLEADERSTYLE_CLASS
 90
     4095
280
     0
281
     0
  0
CLASS
  1
SUN
  2
AcDbSun
  3
SCENEOE
 90
     1153
280
     0
281
     0
  0
CLASS
  1
ACDBPLACEHOLDER
  2
AcDbPlaceHolder
  3
ObjectDBX Classes
 90
        0
280
     0
281
     0
  0
CLASS
  1
LAYOUT
  2
AcDbLayout
  3
ObjectDBX Classes
 90
        0
280
     0
281
     0
  0
ENDSEC
  0
SECTION
  2
TABLES
  0
TABLE
  2
VPORT
  5
8
330
0
100
AcDbSymbolTable
 70
     1
  0
VPORT
  5
29
330
8
100
AcDbSymbolTableRecord
100
AcDbViewportTableRecord
  2
*Active
 70
     0
 10
0.0
 20
0.0
 11
1.0
 21
1.0
 12
10000.0
 22
5000.0
 13
0.0
 23
0.0
 14
10.0
 24
10.0
 15
10.0
 25
10.0
 16
0.0
 26
0.0
 36
1.0
 17
0.0
 27
0.0
 37
0.0
 40
10000.0
 41
2.0
 42
50.0
 43
0.0
 44
0.0
 50
0.0
 51
0.0
 71
     0
 72
  2000
 73
     1
 74
     3
 75
     0
 76
     0
 77
     0
 78
     0
281
     0
 65
     1
110
0.0
120
0.0
130
0.0
111
1.0
121
0.0
131
0.0
112
0.0
122
1.0
132
0.0
 79
     0
146
0.0
  0
ENDTAB
  0
TABLE
  2
LTYPE
  5
5
330
0
100
AcDbSymbolTable
 70
     6
  0
LTYPE
  5
14
330
5
100
AcDbSymbolTableRecord
100
AcDbLinetypeTableRecord
  2
ByBlock
 70
     0
  3

 72
    65
 73
     0
 40
0.0
  0
LTYPE
  5
15
330
5
100
AcDbSymbolTableRecord
100
AcDbLinetypeTableRecord
  2
ByLayer
 70
     0
  3

 72
    65
 73
     0
 40
0.0
  0
LTYPE
  5
16
330
5
100
AcDbSymbolTableRecord
100
AcDbLinetypeTableRecord
  2
Continuous
 70
     0
  3
Solid line
 72
    65
 73
     0
 40
0.0
  0
LTYPE
  5
6E
330
5
100
AcDbSymbolTableRecord
100
AcDbLinetypeTableRecord
  2
HIDDEN
 70
     0
  3
Hidden __ __ __ __ __ __ __ __ __ __ __ __ __ __
 72
    65
 73
     2
 40
1.905
 49
1.27
 74
     0
 49
-0.635
 74
     0
  0
LTYPE
  5
6F
330
5
100
AcDbSymbolTableRecord
100
AcDbLinetypeTableRecord
  2
PHANTOM
 70
     0
  3
Phantom ______  __  __  ______  __  __  ______
 72
    65
 73
     6
 40
12.7
 49
6.35
 74
     0
 49
-1.27
 74
     0
 49
1.27
 74
     0
 49
-1.27
 74
     0
 49
1.27
 74
     0
 49
-1.27
 74
     0
  0
LTYPE
  5
70
330
5
100
AcDbSymbolTableRecord
100
AcDbLinetypeTableRecord
  2
CENTER
 70
     0
  3
Center ____ _ ____ _ ____ _ ____ _ ____ _ ____
 72
    65
 73
     4
 40
10.16
 49
6.35
 74
     0
 49
-1.27
 74
     0
 49
1.27
 74
     0
 49
-1.27
 74
     0
  0
LTYPE
  5
71
330
5
100
AcDbSymbolTableRecord
100
AcDbLinetypeTableRecord
  2
CENTERX2
 70
     0
  3
Center (2x) ________  __  ________  __  _____
 72
    65
 73
     4
 40
20.32
 49
12.7
 74
     0
 49
-2.54
 74
     0
 49
2.54
 74
     0
 49
-2.54
 74
     0
  0
LTYPE
  5
72
330
5
100
AcDbSymbolTableRecord
100
AcDbLinetypeTableRecord
  2
DOT2
 70
     0
  3
Dot (.5x) ........................................
 72
    65
 73
     2
 40
0.635
 49
0.0
 74
     0
 49
-0.635
 74
     0
  0
ENDTAB
  0
TABLE
  2
LAYER
  5
2
330
0
100
AcDbSymbolTable
 70
    13
  0
LAYER
  5
10
330
2
100
AcDbSymbolTableRecord
100
AcDbLayerTableRecord
  2
0
 70
     0
 62
     7
  6
Continuous
370
    -3
390
F
  0
LAYER
  5
73
330
2
100
AcDbSymbolTableRecord
100
AcDbLayerTableRecord
  2
FORMAT
 70
     0
 62
     7
  6
Continuous
370
    -3
390
F
  0
LAYER
  5
74
330
2
100
AcDbSymbolTableRecord
100
AcDbLayerTableRecord
  2
OSA
 70
     0
 62
     7
  6
CENTER
370
    -3
390
F
  0
LAYER
  5
75
330
2
100
AcDbSymbolTableRecord
100
AcDbLayerTableRecord
  2
0_35
 70
     0
 62
     7
  6
Continuous
370
    35
390
F
  0
LAYER
  5
76
330
2
100
AcDbSymbolTableRecord
100
AcDbLayerTableRecord
  2
0_5
 70
     0
 62
     7
  6
Continuous
370
    50
390
F
  0
LAYER
  5
77
330
2
100
AcDbSymbolTableRecord
100
AcDbLayerTableRecord
  2
0_25
 70
     0
 62
     7
  6
Continuous
370
    25
390
F
  0
LAYER
  5
78
330
2
100
AcDbSymbolTableRecord
100
AcDbLayerTableRecord
  2
0_18
 70
     0
 62
     7
  6
Continuous
370
    -3
390
F
  0
LAYER
  5
79
330
2
100
AcDbSymbolTableRecord
100
AcDbLayerTableRecord
  2
SLD-0
 70
     0
 62
   179
  6
Continuous
370
    -3
390
F
  0
LAYER
  5
7A
330
2
100
AcDbSymbolTableRecord
100
AcDbLayerTableRecord
  2
KOTY
 70
     0
 62
     7
  6
Continuous
370
    -3
390
F
  0
LAYER
  5
7B
330
2
100
AcDbSymbolTableRecord
100
AcDbLayerTableRecord
  2
SILNA
 70
     0
 62
   179
  6
Continuous
370
    -3
390
F
  0
LAYER
  5
7C
330
2
100
AcDbSymbolTableRecord
100
AcDbLayerTableRecord
  2
0_18_1
 70
     0
 62
   179
  6
Continuous
370
    -3
390
F
  0
LAYER
  5
7D
330
2
100
AcDbSymbolTableRecord
100
AcDbLayerTableRecord
  2
0_35_1
 70
     0
 62
   179
  6
Continuous
370
    35
390
F
  0
LAYER
  5
7E
330
2
100
AcDbSymbolTableRecord
100
AcDbLayerTableRecord
  2
0_5_1
 70
     0
 62
   179
  6
Continuous
370
    50
390
F
  0
ENDTAB
  0
TABLE
  2
STYLE
  5
3
330
0
100
AcDbSymbolTable
 70
     1
  0
STYLE
  5
11
330
3
100
AcDbSymbolTableRecord
100
AcDbTextStyleTableRecord
  2
Standard
 70
     0
 40
0.0
 41
1.0
 50
0.0
 71
     0
 42
2.0
  3
txt
  4

  0
ENDTAB
  0
TABLE
  2
VIEW
  5
6
330
0
100
AcDbSymbolTable
 70
     0
  0
ENDTAB
  0
TABLE
  2
UCS
  5
7
330
0
100
AcDbSymbolTable
 70
     0
  0
ENDTAB
  0
TABLE
  2
APPID
  5
9
330
0
100
AcDbSymbolTable
 70
     1
  0
APPID
  5
12
330
9
100
AcDbSymbolTableRecord
100
AcDbRegAppTableRecord
  2
ACAD
 70
     0
  0
ENDTAB
  0
TABLE
  2
DIMSTYLE
  5
A
330
0
100
AcDbSymbolTable
 70
     1
100
AcDbDimStyleTable
  0
DIMSTYLE
105
27
330
A
100
AcDbSymbolTableRecord
100
AcDbDimStyleTableRecord
  2
ISO-25
 70
     0
 41
2.5
 42
0.625
 43
3.75
 44
1.25
 73
     0
 74
     0
 77
     1
 78
     8
140
2.5
141
2.5
143
0.0393700787
147
0.625
171
     3
172
     1
178
     0
271
     2
272
     2
274
     3
278
    44
283
     0
284
     8
340
11
  0
ENDTAB
  0
TABLE
  2
BLOCK_RECORD
  5
1
330
0
100
AcDbSymbolTable
 70
     1
  0
BLOCK_RECORD
  5
1F
330
1
100
AcDbSymbolTableRecord
100
AcDbBlockTableRecord
  2
*Model_Space
340
22
  0
BLOCK_RECORD
  5
1B
330
1
100
AcDbSymbolTableRecord
100
AcDbBlockTableRecord
  2
*Paper_Space
340
1E
  0
BLOCK_RECORD
  5
23
330
1
100
AcDbSymbolTableRecord
100
AcDbBlockTableRecord
  2
*Paper_Space0
340
26
  0
ENDTAB
  0
ENDSEC
  0
SECTION
  2
BLOCKS
  0
BLOCK
  5
20
330
1F
100
AcDbEntity
  8
0
100
AcDbBlockBegin
  2
*Model_Space
 70
     0
 10
0.0
 20
0.0
 30
0.0
  3
*Model_Space
  1

  0
ENDBLK
  5
21
330
1F
100
AcDbEntity
  8
0
100
AcDbBlockEnd
  0
BLOCK
  5
1C
330
1B
100
AcDbEntity
 67
     1
  8
0
100
AcDbBlockBegin
  2
*Paper_Space
 70
     0
 10
0.0
 20
0.0
 30
0.0
  3
*Paper_Space
  1

  0
ENDBLK
  5
1D
330
1B
100
AcDbEntity
 67
     1
  8
0
100
AcDbBlockEnd
  0
BLOCK
  5
24
330
23
100
AcDbEntity
  8
0
100
AcDbBlockBegin
  2
*Paper_Space0
 70
     0
 10
0.0
 20
0.0
 30
0.0
  3
*Paper_Space0
  1

  0
ENDBLK
  5
25
330
23
100
AcDbEntity
  8
0
100
AcDbBlockEnd
  0
ENDSEC
  0
SECTION
  2
ENTITIES
  0
LINE
  5
7F
330
1F
100
AcDbEntity
  8
0
  6
Continuous
 62
     7
370
    25
100
AcDbLine
 10
6660.0155703962
 20
5278.4462869857
 30
0.0
 11
6661.5155808866
 21
5276.9462872055
 31
0.0
  0
LINE
  5
80
330
1F
100
AcDbEntity
  8
0
  6
Continuous
 62
     7
370
    25
100
AcDbLine
 10
6686.515676254
 20
5276.9462872055
 30
0.0
 11
6688.0155675351
 21
5278.4462869857
 31
0.0
  0
LINE
  5
81
330
1F
100
AcDbEntity
  8
0
  6
Continuous
 62
     7
370
    25
100
AcDbLine
 10
6660.0155703962
 20
5278.7462871746
 30
0.0
 11
6660.0155703962
 21
5278.4462869857
 31
0.0
  0
LINE
  5
82
330
1F
100
AcDbEntity
  8
0
  6
Continuous
 62
     7
370
    25
100
AcDbLine
 10
6688.0155675351
 20
5278.4462869857
 30
0.0
 11
6688.0155675351
 21
5278.7462871746
 31
0.0
  0
LINE
  5
83
330
1F
100
AcDbEntity
  8
0
  6
Continuous
 62
     7
370
    25
100
AcDbLine
 10
6060.0155465543
 20
5278.7462871746
 30
0.0
 11
6060.0155465543
 21
5278.4462869857
 31
0.0
  0
LINE
  5
84
330
1F
100
AcDbEntity
  8
0
  6
Continuous
 62
     7
370
    25
100
AcDbLine
 10
6088.0156629026
 20
5278.4462869857
 30
0.0
 11
6088.0156629026
 21
5278.7462871746
 31
0.0
  0
LINE
  5
85
330
1F
100
AcDbEntity
  8
0
  6
Continuous
 62
     7
370
    25
100
AcDbLine
 10
6060.0155465543
 20
5278.4462869857
 30
0.0
 11
6061.515676254
 21
5276.9462872055
 31
0.0
  0
LINE
  5
86
330
1F
100
AcDbEntity
  8
0
  6
Continuous
 62
     7
370
    25
100
AcDbLine
 10
6086.5155332029
 20
5276.9462872055
 30
0.0
 11
6088.0156629026
 21
5278.4462869857
 31
0.0
  0
LINE
  5
87
330
1F
100
AcDbEntity
  8
0
  6
Continuous
 62
     7
370
    25
100
AcDbLine
 10
5798.8260857999
 20
5080.997934634
 30
0.0
 11
5798.8427751004
 21
5080.997934634
 31
0.0
  0
LINE
  5
88
330
1F
100
AcDbEntity
  8
0
  6
Continuous
 62
     7
370
    25
100
AcDbLine
 10
5798.8427751004
 20
5091.4979335611
 30
0.0
 11
5798.8260857999
 21
5091.4979335611
 31
0.0
  0
LINE
  5
89
330
1F
100
AcDbEntity
  8
0
  6
Continuous
 62
     7
370
    25
100
AcDbLine
 10
5821.0996262967
 20
5328.7491929476
 30
0.0
 11
5821.0996262967
 21
5338.6498187427
 31
0.0
  0
LINE
  5
8A
330
1F
100
AcDbEntity
  8
0
  6
Continuous
 62
     7
370
    25
100
AcDbLine
 10
5781.0996644437
 20
5338.6498187427
 30
0.0
 11
5781.0996644437
 21
5328.7491929476
 31
0.0
  0
LINE
  5
8B
330
1F
100
AcDbEntity
  8
0
  6
Continuous
 62
     7
370
    25
100
AcDbLine
 10
5962.6155965268
 20
5275.7462869157
 30
0.0
 11
5962.6155965268
 21
5272.7462873553
 31
0.0
  0
LINE
  5
8C
330
1F
100
AcDbEntity
  8
0
  6
Continuous
 62
     7
370
    25
100
AcDbLine
 10
5985.4155652463
 20
5272.7462873553
 30
0.0
 11
5985.4155652463
 21
5275.7462869157
 31
0.0
  0
LINE
  5
8D
330
1F
100
AcDbEntity
  8
0
  6
Continuous
 62
     7
370
    25
100
AcDbLine
 10
6562.6156203687
 20
5275.7462869157
 30
0.0
 11
6562.6156203687
 21
5272.7462873553
 31
0.0
  0
LINE
  5
8E
330
1F
100
AcDbEntity
  8
0
  6
Continuous
 62
     7
370
    25
100
AcDbLine
 10
6585.4155890882
 20
5272.7462873553
 30
0.0
 11
6585.4155890882
 21
5275.7462869157
 31
0.0
  0
LINE
  5
8F
330
1F
100
AcDbEntity
  8
0
  6
Continuous
 62
     7
370
    25
100
AcDbLine
 10
6604.0155761182
 20
5276.2462869977
 30
0.0
 11
6604.0155761182
 21
5278.7462871746
 31
0.0
  0
LINE
  5
90
330
1F
100
AcDbEntity
  8
0
  6
Continuous
 62
     7
370
    25
100
AcDbLine
 10
6544.0156333387
 20
5278.7462871746
 30
0.0
 11
6544.0156333387
 21
5276.2462869977
 31
0.0
  0
LINE
  5
91
330
1F
100
AcDbEntity
  8
0
  6
Continuous
 62
     7
370
    25
100
AcDbLine
 10
6544.0156333387
 20
5276.2462869977
 30
0.0
 11
6544.515597099
 21
5275.7462869157
 31
0.0
  0
LINE
  5
92
330
1F
100
AcDbEntity
  8
0
  6
Continuous
 62
     7
370
    25
100
AcDbLine
 10
6603.5156123578
 20
5275.7462869157
 30
0.0
 11
6604.0155761182
 21
5276.2462869977
 31
0.0
  0
LINE
  5
93
330
1F
100
AcDbEntity
  8
0
  6
Continuous
 62
     7
370
    25
100
AcDbLine
 10
6004.0155522763
 20
5276.2462869977
 30
0.0
 11
6004.0155522763
 21
5278.7462871746
 31
0.0
  0
LINE
  5
94
330
1F
100
AcDbEntity
  8
0
  6
Continuous
 62
     7
370
    25
100
AcDbLine
 10
5944.0156094968
 20
5278.7462871746
 30
0.0
 11
5944.0156094968
 21
5276.2462869977
 31
0.0
  0
LINE
  5
95
330
1F
100
AcDbEntity
  8
0
  6
Continuous
 62
     7
370
    25
100
AcDbLine
 10
5944.0156094968
 20
5276.2462869977
 30
0.0
 11
5944.5155732572
 21
5275.7462869157
 31
0.0
  0
LINE
  5
96
330
1F
100
AcDbEntity
  8
0
  6
Continuous
 62
     7
370
    25
100
AcDbLine
 10
6003.515588516
 20
5275.7462869157
 30
0.0
 11
6004.0155522763
 21
5276.2462869977
 31
0.0
  0
LINE
  5
97
330
1F
100
AcDbEntity
  8
0
  6
Continuous
 62
     7
370
    25
100
AcDbLine
 10
6560.0156657636
 20
5272.7462873553
 30
0.0
 11
6560.0156657636
 21
5107.7462938373
 31
0.0
  0
LINE
  5
98
330
1F
100
AcDbEntity
  8
0
  6
Continuous
 62
     7
370
    25
100
AcDbLine
 10
6588.0156629026
 20
5107.7462938373
 30
0.0
 11
6588.0156629026
 21
5272.7462873553
 31
0.0
  0
LINE
  5
99
330
1F
100
AcDbEntity
  8
0
  6
Continuous
 62
     7
370
    25
100
AcDbLine
 10
6560.0156657636
 20
5107.7462938373
 30
0.0
 11
6561.0155932843
 21
5106.7462918107
 31
0.0
  0
LINE
  5
9A
330
1F
100
AcDbEntity
  8
0
  6
Continuous
 62
     7
370
    25
100
AcDbLine
 10
6587.0156161725
 20
5106.7462918107
 30
0.0
 11
6588.0156629026
 21
5107.7462938373
 31
0.0
  0
LINE
  5
9B
330
1F
100
AcDbEntity
  8
0
  6
Continuous
 62
     7
370
    25
100
AcDbLine
 10
5960.0156419217
 20
5272.7462873553
 30
0.0
 11
5960.0156419217
 21
5107.7462938373
 31
0.0
  0
LINE
  5
9C
330
1F
100
AcDbEntity
  8
0
  6
Continuous
 62
     7
370
    25
100
AcDbLine
 10
5988.0155198514
 20
5107.7462938373
 30
0.0
 11
5988.0155198514
 21
5272.7462873553
 31
0.0
  0
LINE
  5
9D
330
1F
100
AcDbEntity
  8
0
  6
Continuous
 62
     7
370
    25
100
AcDbLine
 10
5960.0156419217
 20
5107.7462938373
 30
0.0
 11
5961.0155694425
 21
5106.7462918107
 31
0.0
  0
LINE
  5
9E
330
1F
100
AcDbEntity
  8
0
  6
Continuous
 62
     7
370
    25
100
AcDbLine
 10
5987.0155923307
 20
5106.7462918107
 30
0.0
 11
5988.0155198514
 21
5107.7462938373
 31
0.0
  0
LINE
  5
9F
330
1F
100
AcDbEntity
  8
0
  6
Continuous
 62
     7
370
    25
100
AcDbLine
 10
6686.515676254
 20
5276.9462872055
 30
0.0
 11
6661.5155808866
 21
5276.9462872055
 31
0.0
  0
LINE
  5
A0
330
1F
100
AcDbEntity
  8
0
  6
Continuous
 62
     7
370
    25
100
AcDbLine
 10
6660.0155703962
 20
5278.4462869857
 30
0.0
 11
6688.0155675351
 21
5278.4462869857
 31
0.0
  0
LINE
  5
A1
330
1F
100
AcDbEntity
  8
0
  6
Continuous
 62
     7
370
    25
100
AcDbLine
 10
6060.0155465543
 20
5278.4462869857
 30
0.0
 11
6088.0156629026
 21
5278.4462869857
 31
0.0
  0
LINE
  5
A2
330
1F
100
AcDbEntity
  8
0
  6
Continuous
 62
     7
370
    25
100
AcDbLine
 10
6086.5155332029
 20
5276.9462872055
 30
0.0
 11
6061.515676254
 21
5276.9462872055
 31
0.0
  0
ARC
  5
A3
330
1F
100
AcDbEntity
  8
0
  6
Continuous
 62
     7
370
    25
100
AcDbCircle
 10
5798.8251188139
 20
5086.2476922192
 30
0.0
 40
5.249894182759244
100
AcDbArc
 50
301.9583362662
 51
105.5147116203
  0
ARC
  5
A4
330
1F
100
AcDbEntity
  8
0
  6
Continuous
 62
     7
370
    25
100
AcDbCircle
 10
6112.7925694412
 20
5224.3085431386
 30
0.0
 40
342.2702483721047
100
AcDbArc
 50
202.8666949538
 51
204.6063529327
  0
ARC
  5
A5
330
1F
100
AcDbEntity
  8
0
  6
Continuous
 62
     7
370
    25
100
AcDbCircle
 10
5798.8267612183
 20
5086.2480759871
 30
0.0
 40
5.249812054598982
100
AcDbArc
 50
121.9551449112
 51
285.5155624433
  0
ARC
  5
A6
330
1F
100
AcDbEntity
  8
0
  6
Continuous
 62
     7
370
    25
100
AcDbCircle
 10
6111.7244896303
 20
5223.830911516
 30
0.0
 40
342.5998979798179
100
AcDbArc
 50
202.8663708679
 51
204.6043364866
  0
LINE
  5
A7
330
1F
100
AcDbEntity
  8
0
  6
Continuous
 62
     7
370
    25
100
AcDbLine
 10
5796.0482709348
 20
5090.7023456638
 30
0.0
 11
5800.2310864865
 21
5081.1895784681
 31
0.0
  0
ARC
  5
A8
330
1F
100
AcDbEntity
  8
0
  6
Continuous
 62
     7
370
    25
100
AcDbCircle
 10
5798.8416702539
 20
5086.2479340975
 30
0.0
 40
5.249999579814003
100
AcDbArc
 50
270.0120577235
 51
89.9879422765
  0
ARC
  5
A9
330
1F
100
AcDbEntity
  8
0
  6
Continuous
 62
     7
370
    25
100
AcDbCircle
 10
5798.8256082558
 20
5086.2520170263
 30
0.0
 40
5.245858135383104
100
AcDbArc
 50
105.5324975159
 51
121.9672418976
  0
ARC
  5
AA
330
1F
100
AcDbEntity
  8
0
  6
Continuous
 62
     7
370
    25
100
AcDbCircle
 10
5798.8249247543
 20
5086.2482402384
 30
0.0
 40
5.250461858169083
100
AcDbArc
 50
285.5343931139
 51
301.9569676033
  0
CIRCLE
  5
AB
330
1F
100
AcDbEntity
  8
0
  6
Continuous
 62
     7
370
    25
100
AcDbCircle
 10
5798.4960865306
 20
5086.2409334037
 30
0.0
 40
34.99298814502193
  0
CIRCLE
  5
AC
330
1F
100
AcDbEntity
  8
0
  6
Continuous
 62
     7
370
    25
100
AcDbCircle
 10
5798.5123146531
 20
5086.2409109548
 30
0.0
 40
35.16218675740191
  0
CIRCLE
  5
AD
330
1F
100
AcDbEntity
  8
0
  6
Continuous
 62
     7
370
    25
100
AcDbCircle
 10
5798.5558512657
 20
5086.2430314071
 30
0.0
 40
24.96021326704448
  0
CIRCLE
  5
AE
330
1F
100
AcDbEntity
  8
0
  6
Continuous
 62
     7
370
    25
100
AcDbCircle
 10
5798.6310635032
 20
5086.2436802866
 30
0.0
 40
21.99574059834939
  0
CIRCLE
  5
AF
330
1F
100
AcDbEntity
  8
0
  6
Continuous
 62
     7
370
    25
100
AcDbCircle
 10
5798.8229391319
 20
5086.2440991306
 30
0.0
 40
20.49615580624007
  0
CIRCLE
  5
B0
330
1F
100
AcDbEntity
  8
0
  6
Continuous
 62
     7
370
    25
100
AcDbCircle
 10
5798.842421006
 20
5086.244004486
 30
0.0
 40
19.48307306725994
  0
CIRCLE
  5
B1
330
1F
100
AcDbEntity
  8
0
  6
Continuous
 62
     7
370
    25
100
AcDbCircle
 10
5798.842389693
 20
5086.2468550668
 30
0.0
 40
5.698914769385289
  0
CIRCLE
  5
B2
330
1F
100
AcDbEntity
  8
0
  6
Continuous
 62
     7
370
    25
100
AcDbCircle
 10
5798.5081985717
 20
5100.2429876605
 30
0.0
 40
4.999038347308104
  0
CIRCLE
  5
B3
330
1F
100
AcDbEntity
  8
0
  6
Continuous
 62
     7
370
    25
100
AcDbCircle
 10
5810.7926608838
 20
5093.5344856249
 30
0.0
 40
4.99902549343417
  0
CIRCLE
  5
B4
330
1F
100
AcDbEntity
  8
0
  6
Continuous
 62
     7
370
    25
100
AcDbCircle
 10
5811.1267548007
 20
5079.5384225028
 30
0.0
 40
4.99898637073439
  0
CIRCLE
  5
B5
330
1F
100
AcDbEntity
  8
0
  6
Continuous
 62
     7
370
    25
100
AcDbCircle
 10
5799.176430052
 20
5072.2509561274
 30
0.0
 40
4.999018265868288
  0
CIRCLE
  5
B6
330
1F
100
AcDbEntity
  8
0
  6
Continuous
 62
     7
370
    25
100
AcDbCircle
 10
5786.8919128532
 20
5078.9594447851
 30
0.0
 40
4.999019052924323
  0
CIRCLE
  5
B7
330
1F
100
AcDbEntity
  8
0
  6
Continuous
 62
     7
370
    25
100
AcDbCircle
 10
5786.5577127283
 20
5092.9553469298
 30
0.0
 40
4.998920357688731
  0
ARC
  5
B8
330
1F
100
AcDbEntity
  8
0
  6
Continuous
 62
     7
370
    25
100
AcDbCircle
 10
5811.1443184365
 20
5079.5394387786
 30
0.0
 40
4.99999534229957
100
AcDbArc
 50
90.0120550786
 51
269.9879449214
  0
ARC
  5
B9
330
1F
100
AcDbEntity
  8
0
  6
Continuous
 62
     7
370
    25
100
AcDbCircle
 10
5810.8102325159
 20
5093.5354512875
 30
0.0
 40
5.000002780320317
100
AcDbArc
 50
90.0113504225
 51
269.9886495775
  0
ARC
  5
BA
330
1F
100
AcDbEntity
  8
0
  6
Continuous
 62
     7
370
    25
100
AcDbCircle
 10
5799.1939960909
 20
5072.2519290392
 30
0.0
 40
5.000002779053792
100
AcDbArc
 50
90.0112769229
 51
269.9887230771
  0
ARC
  5
BB
330
1F
100
AcDbEntity
  8
0
  6
Continuous
 62
     7
370
    25
100
AcDbCircle
 10
5798.5255563048
 20
5100.2439391558
 30
0.0
 40
5.000002796700552
100
AcDbArc
 50
90.0122613757
 51
269.9877386243
  0
ARC
  5
BC
330
1F
100
AcDbEntity
  8
0
  6
Continuous
 62
     7
370
    25
100
AcDbCircle
 10
5786.9094852167
 20
5078.9604169075
 30
0.0
 40
5.000002780320317
100
AcDbArc
 50
90.0113504225
 51
269.9886495775
  0
ARC
  5
BD
330
1F
100
AcDbEntity
  8
0
  6
Continuous
 62
     7
370
    25
100
AcDbCircle
 10
5786.5753018645
 20
5092.9564219658
 30
0.0
 40
5.000002796700552
100
AcDbArc
 50
90.0122613757
 51
269.9877386243
  0
LINE
  5
BE
330
1F
100
AcDbEntity
  8
0
  6
Continuous
 62
     7
370
    25
100
AcDbLine
 10
5821.0996262967
 20
5338.6498187427
 30
0.0
 11
5781.0996644437
 21
5338.6498187427
 31
0.0
  0
LWPOLYLINE
  5
BF
330
1F
100
AcDbEntity
  8
0
  6
Continuous
 62
     7
370
    25
100
AcDbPolyline
 90
        3
 70
   128
 43
0.0
 10
5787.2489564359
 20
5077.8929200713
 10
5788.7657754361
 20
5076.0760512893
 10
5789.9457089841
 20
5075.0021991079
  0
ARC
  5
C0
330
1F
100
AcDbEntity
  8
0
  6
Continuous
 62
     7
370
    25
100
AcDbCircle
 10
5799.0965343202
 20
5086.2349828409
 30
0.0
 40
14.48732811266805
100
AcDbArc
 50
250.2729561996
 51
290.4492369697
  0
LWPOLYLINE
  5
C1
330
1F
100
AcDbEntity
  8
0
  6
Continuous
 62
     7
370
    25
100
AcDbPolyline
 90
        3
 70
   128
 43
0.0
 10
5808.5564248502
 20
5075.2611514871
 10
5809.9008672178
 20
5076.5810069387
 10
5811.3292329251
 20
5078.468253905
  0
ARC
  5
C2
330
1F
100
AcDbEntity
  8
0
  6
Continuous
 62
     7
370
    25
100
AcDbCircle
 10
5798.9693061966
 20
5086.2665826259
 30
0.0
 40
16.37918437024967
100
AcDbArc
 50
328.0031442944
 51
334.7575756691
  0
LINE
  5
C3
330
1F
100
AcDbEntity
  8
0
  6
Continuous
 62
     7
370
    25
100
AcDbLine
 10
5813.7844674527
 20
5079.2816933935
 30
0.0
 11
5812.2538201749
 21
5080.1622477119
 31
0.0
  0
LWPOLYLINE
  5
C4
330
1F
100
AcDbEntity
  8
0
  6
Continuous
 62
     7
370
    25
100
AcDbPolyline
 90
        3
 70
   128
 43
0.0
 10
5812.2538201749
 20
5080.1622477119
 10
5813.0684964597
 20
5082.3847410028
 10
5813.4146802365
 20
5083.9848425929
  0
ARC
  5
C5
330
1F
100
AcDbEntity
  8
0
  6
Continuous
 62
     7
370
    25
100
AcDbCircle
 10
5799.0948101374
 20
5086.2510388413
 30
0.0
 40
14.49704579345152
100
AcDbArc
 50
11.7499459469
 51
52.033973954
  0
LWPOLYLINE
  5
C6
330
1F
100
AcDbEntity
  8
0
  6
Continuous
 62
     7
370
    25
100
AcDbPolyline
 90
        3
 70
   128
 43
0.0
 10
5803.5031430661
 20
5100.061705405
 10
5802.0638101041
 20
5100.440910155
 10
5799.7156255185
 20
5100.7347014491
  0
LWPOLYLINE
  5
C7
330
1F
100
AcDbEntity
  8
0
  6
Continuous
 62
     7
370
    25
100
AcDbPolyline
 90
        3
 70
   128
 43
0.0
 10
5799.7156255185
 20
5100.7347014491
 10
5799.6481530606
 20
5101.7196384017
 10
5799.5899789273
 20
5102.5718209092
  0
ARC
  5
C8
330
1F
100
AcDbEntity
  8
0
  6
Continuous
 62
     7
370
    25
100
AcDbCircle
 10
5799.0146656727
 20
5086.2533586928
 30
0.0
 40
16.32860050497322
100
AcDbArc
 50
87.9808529685
 51
94.7555960762
  0
LWPOLYLINE
  5
C9
330
1F
100
AcDbEntity
  8
0
  6
Continuous
 62
     7
370
    25
100
AcDbPolyline
 90
        3
 70
   128
 43
0.0
 10
5797.786580795
 20
5100.6886121576
 10
5795.45508551
 20
5100.283017451
 10
5793.5615651548
 20
5099.6492859666
  0
ARC
  5
CA
330
1F
100
AcDbEntity
  8
0
  6
Continuous
 62
     7
370
    25
100
AcDbCircle
 10
5799.1024396474
 20
5086.2486171981
 30
0.0
 40
14.50163341253736
100
AcDbArc
 50
131.8515360131
 51
171.857701493
  0
LWPOLYLINE
  5
CB
330
1F
100
AcDbEntity
  8
0
  6
Continuous
 62
     7
370
    25
100
AcDbPolyline
 90
        3
 70
   128
 43
0.0
 10
5784.8592870176
 20
5083.5209545438
 10
5785.3249185025
 20
5081.7218926494
 10
5786.2444989621
 20
5079.5408394878
  0
ARC
  5
CC
330
1F
100
AcDbEntity
  8
0
  6
Continuous
 62
     7
370
    25
100
AcDbCircle
 10
5799.0494441544
 20
5086.2652112272
 30
0.0
 40
16.36923549476152
100
AcDbArc
 50
207.9843277931
 51
214.7433127537
  0
LINE
  5
CD
330
1F
100
AcDbEntity
  8
0
  6
Continuous
 62
     7
370
    25
100
AcDbLine
 10
5785.5986230313
 20
5076.9363698308
 30
0.0
 11
5787.2489564359
 21
5077.8929200713
 31
0.0
  0
LINE
  5
CE
330
1F
100
AcDbEntity
  8
0
  6
Continuous
 62
     7
370
    25
100
AcDbLine
 10
5797.6609342038
 20
5102.5257465188
 30
0.0
 11
5797.8337876737
 21
5095.2919182126
 31
0.0
  0
LINE
  5
CF
330
1F
100
AcDbEntity
  8
0
  6
Continuous
 62
     7
370
    25
100
AcDbLine
 10
5799.7611634671
 20
5095.4036471193
 30
0.0
 11
5799.5899789273
 21
5102.5718209092
 31
0.0
  0
LINE
  5
D0
330
1F
100
AcDbEntity
  8
0
  6
Continuous
 62
     7
370
    25
100
AcDbLine
 10
5813.7844674527
 20
5079.2816933935
 30
0.0
 11
5807.3500268399
 21
5082.7955660169
 31
0.0
  0
LINE
  5
D1
330
1F
100
AcDbEntity
  8
0
  6
Continuous
 62
     7
370
    25
100
AcDbLine
 10
5806.3996903836
 20
5081.1156538074
 30
0.0
 11
5812.8601186216
 21
5077.5876995866
 31
0.0
  0
LINE
  5
D2
330
1F
100
AcDbEntity
  8
0
  6
Continuous
 62
     7
370
    25
100
AcDbLine
 10
5785.5986230313
 20
5076.9363698308
 30
0.0
 11
5791.6124932706
 21
5080.6037989204
 31
0.0
  0
LINE
  5
D3
330
1F
100
AcDbEntity
  8
0
  6
Continuous
 62
     7
370
    25
100
AcDbLine
 10
5790.638553375
 20
5082.2701212709
 30
0.0
 11
5784.5941655576
 21
5078.5842743461
 31
0.0
  0
LINE
  5
D4
330
1F
100
AcDbEntity
  8
0
  6
Continuous
 62
     7
370
    25
100
AcDbLine
 10
5812.3112790525
 20
5080.3642925565
 30
0.0
 11
5807.4554078519
 21
5082.9059389179
 31
0.0
  0
SPLINE
  5
D5
330
1F
100
AcDbEntity
  8
0
  6
Continuous
 62
     7
370
    25
100
AcDbSpline
210
0.0
220
0.0
230
1.0
 70
     8
 71
     3
 72
     9
 73
     5
 74
     0
 42
0.000000001
 43
0.00000001
 40
0.0
 40
0.0
 40
0.0
 40
0.0
 40
0.7671886641411542
 40
1.0
 40
1.0
 40
1.0
 40
1.0
 10
5800.086127990456
 20
5095.578154618008
 30
0.0
 10
5800.104835574332
 20
5096.898353187849
 30
0.0
 10
5800.129220168047
 20
5098.619179669716
 30
0.0
 10
5800.153444399886
 20
5100.335193886886
 30
0.0
 10
5800.159084075661
 20
5100.734701449139
 30
0.0
  0
LINE
  5
D6
330
1F
100
AcDbEntity
  8
0
  6
Continuous
 62
     7
370
    25
100
AcDbLine
 10
5787.6926534116
 20
5077.8929200713
 30
0.0
 11
5791.5845982969
 21
5080.3770628517
 31
0.0
  0
LINE
  5
D7
330
1F
100
AcDbEntity
  8
0
  6
Continuous
 62
     7
370
    25
100
AcDbLine
 10
5787.2489564359
 20
5077.8929200713
 30
0.0
 11
5787.6926534116
 21
5077.8929200713
 31
0.0
  0
ARC
  5
D8
330
1F
100
AcDbEntity
  8
0
  6
Continuous
 62
     7
370
    25
100
AcDbCircle
 10
5801.0863692128
 20
5086.2522979037
 30
0.0
 40
14.51933253272048
100
AcDbArc
 50
189.092254682
 51
203.2992534934
  0
LWPOLYLINE
  5
D9
330
1F
100
AcDbEntity
  8
0
  6
Continuous
 62
     7
370
    25
100
AcDbPolyline
 90
        3
 70
   128
 43
0.0
 10
5788.7586228788
 20
5078.5827693288
 10
5789.543020004
 20
5077.4473604505
 10
5790.8724420011
 20
5075.936248595
  0
ARC
  5
DA
330
1F
100
AcDbEntity
  8
0
  6
Continuous
 62
     7
370
    25
100
AcDbCircle
 10
5801.0631216876
 20
5086.2385216467
 30
0.0
 40
14.49057226054582
100
AcDbArc
 50
242.310964732
 51
266.1094636439
  0
ARC
  5
DB
330
1F
100
AcDbEntity
  8
0
  6
Continuous
 62
     7
370
    25
100
AcDbCircle
 10
5801.062482828
 20
5086.2581676019
 30
0.0
 40
14.4895689165755
100
AcDbArc
 50
103.3660444979
 51
120.3132573483
  0
ARC
  5
DC
330
1F
100
AcDbEntity
  8
0
  6
Continuous
 62
     7
370
    25
100
AcDbCircle
 10
5801.0633229163
 20
5086.2515971816
 30
0.0
 40
14.4951891237207
100
AcDbArc
 50
137.1485790958
 51
173.2407174005
  0
ARC
  5
DD
330
1F
100
AcDbEntity
  8
0
  6
Continuous
 62
     7
370
    25
100
AcDbCircle
 10
5802.9621448007
 20
5086.2557881468
 30
0.0
 40
14.99218648379357
100
AcDbArc
 50
110.4904891332
 51
126.9631397813
  0
ARC
  5
DE
330
1F
100
AcDbEntity
  8
0
  6
Continuous
 62
     7
370
    25
100
AcDbCircle
 10
5802.9671593896
 20
5086.2491984076
 30
0.0
 40
15.00066363343563
100
AcDbArc
 50
143.007410383
 51
172.5338759988
  0
LWPOLYLINE
  5
DF
330
1F
100
AcDbEntity
  8
0
  6
Continuous
 62
     7
370
    25
100
AcDbPolyline
 90
        3
 70
   128
 43
0.0
 10
5788.1682984769
 20
5083.7946143691
 10
5788.5023229062
 20
5082.2732058112
 10
5788.8487451017
 20
5081.1786708181
  0
LWPOLYLINE
  5
E0
330
1F
100
AcDbEntity
  8
0
  6
Continuous
 62
     7
370
    25
100
AcDbPolyline
 90
        3
 70
   128
 43
0.0
 10
5789.7206418454
 20
5079.2078581397
 10
5790.3751008451
 20
5078.094413573
 10
5791.3678758084
 20
5076.7349210327
  0
ARC
  5
E1
330
1F
100
AcDbEntity
  8
0
  6
Continuous
 62
     7
370
    25
100
AcDbCircle
 10
5802.964885892
 20
5086.2460020491
 30
0.0
 40
14.99866526761938
100
AcDbArc
 50
235.4962894165
 51
251.1961655052
  0
LINE
  5
E2
330
1F
100
AcDbEntity
  8
0
  6
Continuous
 62
     7
370
    25
100
AcDbLine
 10
6544.0156333387
 20
5276.2462869977
 30
0.0
 11
6604.0155761182
 21
5276.2462869977
 31
0.0
  0
LINE
  5
E3
330
1F
100
AcDbEntity
  8
0
  6
Continuous
 62
     7
370
    25
100
AcDbLine
 10
6603.5156123578
 20
5275.7462869157
 30
0.0
 11
6544.515597099
 21
5275.7462869157
 31
0.0
  0
LINE
  5
E4
330
1F
100
AcDbEntity
  8
0
  6
Continuous
 62
     7
370
    25
100
AcDbLine
 10
5944.0156094968
 20
5276.2462869977
 30
0.0
 11
6004.0155522763
 21
5276.2462869977
 31
0.0
  0
LINE
  5
E5
330
1F
100
AcDbEntity
  8
0
  6
Continuous
 62
     7
370
    25
100
AcDbLine
 10
6003.515588516
 20
5275.7462869157
 30
0.0
 11
5944.5155732572
 21
5275.7462869157
 31
0.0
  0
LINE
  5
E6
330
1F
100
AcDbEntity
  8
0
  6
Continuous
 62
     7
370
    25
100
AcDbLine
 10
6588.0156629026
 20
5272.7462873553
 30
0.0
 11
6560.0156657636
 21
5272.7462873553
 31
0.0
  0
LINE
  5
E7
330
1F
100
AcDbEntity
  8
0
  6
Continuous
 62
     7
370
    25
100
AcDbLine
 10
6560.0156657636
 20
5107.7462938373
 30
0.0
 11
6588.0156629026
 21
5107.7462938373
 31
0.0
  0
LINE
  5
E8
330
1F
100
AcDbEntity
  8
0
  6
Continuous
 62
     7
370
    25
100
AcDbLine
 10
6587.0156161725
 20
5106.7462918107
 30
0.0
 11
6561.0155932843
 21
5106.7462918107
 31
0.0
  0
LINE
  5
E9
330
1F
100
AcDbEntity
  8
0
  6
Continuous
 62
     7
370
    25
100
AcDbLine
 10
5988.0155198514
 20
5272.7462873553
 30
0.0
 11
5960.0156419217
 21
5272.7462873553
 31
0.0
  0
LINE
  5
EA
330
1F
100
AcDbEntity
  8
0
  6
Continuous
 62
     7
370
    25
100
AcDbLine
 10
5960.0156419217
 20
5107.7462938373
 30
0.0
 11
5988.0155198514
 21
5107.7462938373
 31
0.0
  0
LINE
  5
EB
330
1F
100
AcDbEntity
  8
0
  6
Continuous
 62
     7
370
    25
100
AcDbLine
 10
5987.0155923307
 20
5106.7462918107
 30
0.0
 11
5961.0155694425
 21
5106.7462918107
 31
0.0
  0
LINE
  5
EC
330
1F
100
AcDbEntity
  8
0
  6
Continuous
 62
     7
370
    25
100
AcDbLine
 10
5651.0187261045
 20
4848.7491962259
 30
0.0
 11
5651.0187261045
 21
4848.7495836561
 31
0.0
  0
LINE
  5
ED
330
1F
100
AcDbEntity
  8
0
  6
Continuous
 62
     7
370
    25
100
AcDbLine
 10
5651.0184876859
 20
4848.7491962259
 30
0.0
 11
5651.0187261045
 21
4848.7491962259
 31
0.0
  0
LINE
  5
EE
330
1F
100
AcDbEntity
  8
0
  6
Continuous
 62
     7
370
    25
100
AcDbLine
 10
5651.0184876859
 20
5278.7462871746
 30
0.0
 11
5651.0184876859
 21
4848.7491962259
 31
0.0
  0
LINE
  5
EF
330
1F
100
AcDbEntity
  8
0
  6
Continuous
 62
     7
370
    25
100
AcDbLine
 10
5651.0156266629
 20
5280.0561381263
 30
0.0
 11
5651.0156266629
 21
5278.7491924354
 31
0.0
  0
LINE
  5
F0
330
1F
100
AcDbEntity
  8
0
  6
Continuous
 62
     7
370
    25
100
AcDbLine
 10
5651.0156266629
 20
5326.7561365609
 30
0.0
 11
5651.0156266629
 21
5280.0561381263
 31
0.0
  0
LINE
  5
F1
330
1F
100
AcDbEntity
  8
0
  6
Continuous
 62
     7
370
    25
100
AcDbLine
 10
5651.0156266629
 20
5328.7491929476
 30
0.0
 11
5651.0156266629
 21
5326.7561365609
 31
0.0
  0
LINE
  5
F2
330
1F
100
AcDbEntity
  8
0
  6
Continuous
 62
     7
370
    25
100
AcDbLine
 10
5651.0156266629
 20
5326.7561365609
 30
0.0
 11
5649.0155332029
 21
5326.7561365609
 31
0.0
  0
LINE
  5
F3
330
1F
100
AcDbEntity
  8
0
  6
Continuous
 62
     7
370
    25
100
AcDbLine
 10
5649.0155332029
 20
5328.7491929476
 30
0.0
 11
5649.0155332029
 21
5326.7561365609
 31
0.0
  0
LINE
  5
F4
330
1F
100
AcDbEntity
  8
0
  6
Continuous
 62
     7
370
    25
100
AcDbLine
 10
5651.0156266629
 20
5328.7491929476
 30
0.0
 11
5649.0155332029
 21
5328.7491929476
 31
0.0
  0
LINE
  5
F5
330
1F
100
AcDbEntity
  8
0
  6
Continuous
 62
     7
370
    25
100
AcDbLine
 10
5651.0156266629
 20
5280.0561381263
 30
0.0
 11
5649.0157716214
 21
5280.0561381263
 31
0.0
  0
LINE
  5
F6
330
1F
100
AcDbEntity
  8
0
  6
Continuous
 62
     7
370
    25
100
AcDbLine
 10
5649.0155332029
 20
5326.7561365609
 30
0.0
 11
5649.0157716214
 21
5280.0561381263
 31
0.0
  0
LINE
  5
F7
330
1F
100
AcDbEntity
  8
0
  6
Continuous
 62
     7
370
    25
100
AcDbLine
 10
5651.0156266629
 20
5278.7491924354
 30
0.0
 11
5649.0157716214
 21
5278.7491924354
 31
0.0
  0
LINE
  5
F8
330
1F
100
AcDbEntity
  8
0
  6
Continuous
 62
     7
370
    25
100
AcDbLine
 10
5649.0157716214
 20
5280.0561381263
 30
0.0
 11
5649.0157716214
 21
5278.7491924354
 31
0.0
  0
LINE
  5
F9
330
1F
100
AcDbEntity
  8
0
  6
Continuous
 62
     7
370
    25
100
AcDbLine
 10
5651.0184876859
 20
4848.7491962259
 30
0.0
 11
5649.0183942258
 21
4848.7491962259
 31
0.0
  0
LINE
  5
FA
330
1F
100
AcDbEntity
  8
0
  6
Continuous
 62
     7
370
    25
100
AcDbLine
 10
5649.0183942258
 20
5278.7491924354
 30
0.0
 11
5649.0183942258
 21
4848.7491962259
 31
0.0
  0
LINE
  5
FB
330
1F
100
AcDbEntity
  8
0
  6
Continuous
 62
     7
370
    25
100
AcDbLine
 10
5652.1185510099
 20
4848.7491962259
 30
0.0
 11
5690.9185521543
 21
4848.7491962259
 31
0.0
  0
LINE
  5
FC
330
1F
100
AcDbEntity
  8
0
  6
Continuous
 62
     7
370
    25
100
AcDbLine
 10
5690.9218900144
 20
4848.7491962259
 30
0.0
 11
5690.9185521543
 21
4848.7491962259
 31
0.0
  0
LINE
  5
FD
330
1F
100
AcDbEntity
  8
0
  6
Continuous
 62
     7
370
    25
100
AcDbLine
 10
6899.0157716214
 20
5325.6491926257
 30
0.0
 11
6899.0218512952
 21
5325.6491926257
 31
0.0
  0
LINE
  5
FE
330
1F
100
AcDbEntity
  8
0
  6
Continuous
 62
     7
370
    25
100
AcDbLine
 10
6899.0218512952
 20
5325.6491926257
 30
0.0
 11
6899.0218512952
 21
4851.8492039983
 31
0.0
  0
LINE
  5
FF
330
1F
100
AcDbEntity
  8
0
  6
Continuous
 62
     7
370
    25
100
AcDbLine
 10
6899.0186326444
 20
4851.8492039983
 30
0.0
 11
6899.0218512952
 21
4851.8492039983
 31
0.0
  0
LINE
  5
100
330
1F
100
AcDbEntity
  8
0
  6
Continuous
 62
     7
370
    25
100
AcDbLine
 10
6899.0186326444
 20
4851.8492039983
 30
0.0
 11
6899.0186326444
 21
4851.8591877763
 31
0.0
  0
LINE
  5
101
330
1F
100
AcDbEntity
  8
0
  6
Continuous
 62
     7
370
    25
100
AcDbLine
 10
6899.0186326444
 20
4851.8591877763
 30
0.0
 11
6899.0186326444
 21
4848.7491962259
 31
0.0
  0
LINE
  5
102
330
1F
100
AcDbEntity
  8
0
  6
Continuous
 62
     7
370
    25
100
AcDbLine
 10
6899.0186326444
 20
4848.7491962259
 30
0.0
 11
6899.0185134351
 21
4848.7491962259
 31
0.0
  0
LINE
  5
103
330
1F
100
AcDbEntity
  8
0
  6
Continuous
 62
     7
370
    25
100
AcDbLine
 10
6899.0185134351
 20
4848.7491962259
 30
0.0
 11
6899.0185134351
 21
5278.7491924354
 31
0.0
  0
LINE
  5
104
330
1F
100
AcDbEntity
  8
0
  6
Continuous
 62
     7
370
    25
100
AcDbLine
 10
6899.0185134351
 20
5278.7491924354
 30
0.0
 11
6899.0156524121
 21
5278.7491924354
 31
0.0
  0
LINE
  5
105
330
1F
100
AcDbEntity
  8
0
  6
Continuous
 62
     7
370
    25
100
AcDbLine
 10
6899.0156524121
 20
5278.7491924354
 30
0.0
 11
6899.0156524121
 21
5280.0561381263
 31
0.0
  0
LINE
  5
106
330
1F
100
AcDbEntity
  8
0
  6
Continuous
 62
     7
370
    25
100
AcDbLine
 10
6899.0156524121
 20
5280.0561381263
 30
0.0
 11
6899.0156524121
 21
5326.7561365609
 31
0.0
  0
LINE
  5
107
330
1F
100
AcDbEntity
  8
0
  6
Continuous
 62
     7
370
    25
100
AcDbLine
 10
6899.0156524121
 20
5326.7561365609
 30
0.0
 11
6899.0156524121
 21
5328.7491929476
 31
0.0
  0
LINE
  5
108
330
1F
100
AcDbEntity
  8
0
  6
Continuous
 62
     7
370
    25
100
AcDbLine
 10
6899.0156524121
 20
5328.7491929476
 30
0.0
 11
6899.0157716214
 21
5328.7491929476
 31
0.0
  0
LINE
  5
109
330
1F
100
AcDbEntity
  8
0
  6
Continuous
 62
     7
370
    25
100
AcDbLine
 10
6899.0157716214
 20
5328.7491929476
 30
0.0
 11
6899.0157716214
 21
5325.6391939466
 31
0.0
  0
LINE
  5
10A
330
1F
100
AcDbEntity
  8
0
  6
Continuous
 62
     7
370
    25
100
AcDbLine
 10
6899.0157716214
 20
5325.6391939466
 30
0.0
 11
6899.0157716214
 21
5325.6491926257
 31
0.0
  0
LINE
  5
10B
330
1F
100
AcDbEntity
  8
0
  6
Continuous
 62
     7
370
    25
100
AcDbLine
 10
6897.0156781614
 20
5326.7561365609
 30
0.0
 11
6899.0156524121
 21
5326.7561365609
 31
0.0
  0
LINE
  5
10C
330
1F
100
AcDbEntity
  8
0
  6
Continuous
 62
     7
370
    25
100
AcDbLine
 10
6897.0156781614
 20
5326.7561365609
 30
0.0
 11
6897.0156781614
 21
5328.7491929476
 31
0.0
  0
LINE
  5
10D
330
1F
100
AcDbEntity
  8
0
  6
Continuous
 62
     7
370
    25
100
AcDbLine
 10
6897.0156781614
 20
5328.7491929476
 30
0.0
 11
6899.0156524121
 21
5328.7491929476
 31
0.0
  0
LINE
  5
10E
330
1F
100
AcDbEntity
  8
0
  6
Continuous
 62
     7
370
    25
100
AcDbLine
 10
6897.0156781614
 20
5280.0561381263
 30
0.0
 11
6899.0156524121
 21
5280.0561381263
 31
0.0
  0
LINE
  5
10F
330
1F
100
AcDbEntity
  8
0
  6
Continuous
 62
     7
370
    25
100
AcDbLine
 10
6897.0156781614
 20
5280.0561381263
 30
0.0
 11
6897.0156781614
 21
5326.7561365609
 31
0.0
  0
LINE
  5
110
330
1F
100
AcDbEntity
  8
0
  6
Continuous
 62
     7
370
    25
100
AcDbLine
 10
6897.0156781614
 20
5278.7491924354
 30
0.0
 11
6899.0156524121
 21
5278.7491924354
 31
0.0
  0
LINE
  5
111
330
1F
100
AcDbEntity
  8
0
  6
Continuous
 62
     7
370
    25
100
AcDbLine
 10
6897.0156781614
 20
5278.7491924354
 30
0.0
 11
6897.0156781614
 21
5280.0561381263
 31
0.0
  0
LINE
  5
112
330
1F
100
AcDbEntity
  8
0
  6
Continuous
 62
     7
370
    25
100
AcDbLine
 10
6899.0157716214
 20
5325.8434925918
 30
0.0
 11
6899.0218512952
 21
5325.6491926257
 31
0.0
  0
LINE
  5
113
330
1F
100
AcDbEntity
  8
0
  6
Continuous
 62
     7
370
    25
100
AcDbLine
 10
6897.0185391843
 20
4848.7491962259
 30
0.0
 11
6899.0185134351
 21
4848.7491962259
 31
0.0
  0
LINE
  5
114
330
1F
100
AcDbEntity
  8
0
  6
Continuous
 62
     7
370
    25
100
AcDbLine
 10
6897.0185391843
 20
4848.7491962259
 30
0.0
 11
6897.0185391843
 21
5278.7491924354
 31
0.0
  0
LINE
  5
115
330
1F
100
AcDbEntity
  8
0
  6
Continuous
 62
     7
370
    25
100
AcDbLine
 10
6857.1187131345
 20
4848.7491962259
 30
0.0
 11
6895.9187142789
 21
4848.7491962259
 31
0.0
  0
LINE
  5
116
330
1F
100
AcDbEntity
  8
0
  6
Continuous
 62
     7
370
    25
100
AcDbLine
 10
6899.0218512952
 20
4851.8492039983
 30
0.0
 11
6899.0186326444
 21
4851.707642967
 31
0.0
  0
LINE
  5
117
330
1F
100
AcDbEntity
  8
0
  6
Continuous
 62
     7
370
    25
100
AcDbLine
 10
6895.9187142789
 20
4848.7491962259
 30
0.0
 11
6895.9219329297
 21
4848.7491962259
 31
0.0
  0
LINE
  5
118
330
1F
100
AcDbEntity
  8
0
  6
Continuous
 62
     7
370
    25
100
AcDbLine
 10
5651.0156266629
 20
5328.7491929476
 30
0.0
 11
6897.0156781614
 21
5328.7491929476
 31
0.0
  0
LINE
  5
119
330
1F
100
AcDbEntity
  8
0
  6
Continuous
 62
     7
370
    25
100
AcDbLine
 10
5651.0156266629
 20
5326.7561365609
 30
0.0
 11
6897.0156781614
 21
5326.7561365609
 31
0.0
  0
LINE
  5
11A
330
1F
100
AcDbEntity
  8
0
  6
Continuous
 62
     7
370
    25
100
AcDbLine
 10
6897.0185391843
 20
4892.099564964
 30
0.0
 11
6897.0185391843
 21
4850.3995892351
 31
0.0
  0
LINE
  5
11B
330
1F
100
AcDbEntity
  8
0
  6
Continuous
 62
     7
370
    25
100
AcDbLine
 10
6897.0185391843
 20
4893.749570543
 30
0.0
 11
6897.0185391843
 21
4892.099564964
 31
0.0
  0
LINE
  5
11C
330
1F
100
AcDbEntity
  8
0
  6
Continuous
 62
     7
370
    25
100
AcDbLine
 10
6897.0185391843
 20
5278.7462871746
 30
0.0
 11
6897.0156781614
 21
5278.7462871746
 31
0.0
  0
ELLIPSE
  5
11D
330
1F
100
AcDbEntity
  8
0
  6
Continuous
 62
     7
370
    25
100
AcDbEllipse
 10
6897.01570165
 20
5280.3962871035
 30
0.0
 11
0.0
 21
1.650000000000545
 31
0.0
210
0.0
220
0.0
230
1.0
 40
0.0000068066
 41
1.780235837117968
 42
3.141592653571801
  0
LINE
  5
11E
330
1F
100
AcDbEntity
  8
0
  6
Continuous
 62
     7
370
    25
100
AcDbLine
 10
6897.0156781614
 20
5280.0561381263
 30
0.0
 11
6897.0156781614
 21
5280.0532328655
 31
0.0
  0
LINE
  5
11F
330
1F
100
AcDbEntity
  8
0
  6
Continuous
 62
     7
370
    25
100
AcDbLine
 10
6897.0157973706
 20
5328.7491929476
 30
0.0
 11
6897.0156781614
 21
5328.7491929476
 31
0.0
  0
LINE
  5
120
330
1F
100
AcDbEntity
  8
0
  6
Continuous
 62
     7
370
    25
100
AcDbLine
 10
6897.0185391843
 20
4850.3995892351
 30
0.0
 11
6897.0185391843
 21
4848.7495836561
 31
0.0
  0
LINE
  5
121
330
1F
100
AcDbEntity
  8
0
  6
Continuous
 62
     7
370
    25
100
AcDbLine
 10
6897.0156781614
 20
5280.0532328655
 30
0.0
 11
5651.0156266629
 21
5280.0532328655
 31
0.0
  0
LINE
  5
122
330
1F
100
AcDbEntity
  8
0
  6
Continuous
 62
     7
370
    25
100
AcDbLine
 10
6897.0156781614
 20
5278.7462871746
 30
0.0
 11
5651.0156266629
 21
5278.7462871746
 31
0.0
  0
ELLIPSE
  5
123
330
1F
100
AcDbEntity
  8
0
  6
Continuous
 62
     7
370
    25
100
AcDbEllipse
 10
5651.0157016503
 20
5280.396287104
 30
0.0
 11
0.0
 21
1.649999999999636
 31
0.0
210
0.0
220
0.0
230
1.0
 40
0.0000068066
 41
1.780235837635765
 42
3.141592653571801
  0
LINE
  5
124
330
1F
100
AcDbEntity
  8
0
  6
Continuous
 62
     7
370
    25
100
AcDbLine
 10
5651.0184876859
 20
4893.749570543
 30
0.0
 11
6897.0185391843
 21
4893.749570543
 31
0.0
  0
LINE
  5
125
330
1F
100
AcDbEntity
  8
0
  6
Continuous
 62
     7
370
    25
100
AcDbLine
 10
5651.0184876859
 20
4892.099564964
 30
0.0
 11
6897.0185391843
 21
4892.099564964
 31
0.0
  0
LINE
  5
126
330
1F
100
AcDbEntity
  8
0
  6
Continuous
 62
     7
370
    25
100
AcDbLine
 10
5651.0184876859
 20
4850.3995892351
 30
0.0
 11
6897.0185391843
 21
4850.3995892351
 31
0.0
  0
LINE
  5
127
330
1F
100
AcDbEntity
  8
0
  6
Continuous
 62
     7
370
    25
100
AcDbLine
 10
5651.0184876859
 20
4848.7495836561
 30
0.0
 11
6897.0185391843
 21
4848.7495836561
 31
0.0
  0
LINE
  5
128
330
1F
100
AcDbEntity
  8
0
  6
Continuous
 62
     7
370
    25
100
AcDbLine
 10
5651.0184876859
 20
4850.3995892351
 30
0.0
 11
5651.0184876859
 21
4892.099564964
 31
0.0
  0
LINE
  5
129
330
1F
100
AcDbEntity
  8
0
  6
Continuous
 62
     7
370
    25
100
AcDbLine
 10
5651.0192029416
 20
5278.5915137027
 30
0.0
 11
5651.0192029416
 21
5278.7462871746
 31
0.0
  0
LINE
  5
12A
330
1F
100
AcDbEntity
  8
0
  6
Continuous
 62
     7
370
    25
100
AcDbLine
 10
5651.0192029416
 20
4893.9043638055
 30
0.0
 11
5651.0192029416
 21
4893.749570543
 31
0.0
  0
LINE
  5
12B
330
1F
100
AcDbEntity
  8
0
  6
Continuous
 62
     7
370
    25
100
AcDbLine
 10
5651.0192029416
 20
4893.9043638055
 30
0.0
 11
5651.0199181974
 21
5019.2851182763
 31
0.0
  0
LINE
  5
12C
330
1F
100
AcDbEntity
  8
0
  6
Continuous
 62
     7
370
    25
100
AcDbLine
 10
5651.0199181974
 20
5153.2107499187
 30
0.0
 11
5651.0192029416
 21
5278.5915137027
 31
0.0
  0
LINE
  5
12D
330
1F
100
AcDbEntity
  8
0
  6
Continuous
 62
     7
370
    25
100
AcDbLine
 10
5651.0199181974
 20
5019.5803400819
 30
0.0
 11
5651.0199181974
 21
5019.2851182763
 31
0.0
  0
LINE
  5
12E
330
1F
100
AcDbEntity
  8
0
  6
Continuous
 62
     7
370
    25
100
AcDbLine
 10
5651.0199181974
 20
5153.2107499187
 30
0.0
 11
5651.0199181974
 21
5152.9155281131
 31
0.0
  0
LINE
  5
12F
330
1F
100
AcDbEntity
  8
0
  6
Continuous
 62
     7
370
    25
100
AcDbLine
 10
5651.0199181974
 20
5019.5803400819
 30
0.0
 11
5651.0199181974
 21
5152.9155281131
 31
0.0
  0
LINE
  5
130
330
1F
100
AcDbEntity
  8
0
  6
Continuous
 62
     8
370
    25
100
AcDbLine
 10
5651.0192029416
 20
5278.5915137027
 30
0.0
 11
5944.0156094968
 21
5278.5915137027
 31
0.0
  0
LINE
  5
131
330
1F
100
AcDbEntity
  8
0
  6
Continuous
 62
     8
370
    25
100
AcDbLine
 10
6004.0155522763
 20
5278.5915137027
 30
0.0
 11
6060.0155465543
 21
5278.5915137027
 31
0.0
  0
LINE
  5
132
330
1F
100
AcDbEntity
  8
0
  6
Continuous
 62
     8
370
    25
100
AcDbLine
 10
6088.0156629026
 20
5278.5915137027
 30
0.0
 11
6544.0156333387
 21
5278.5915137027
 31
0.0
  0
LINE
  5
133
330
1F
100
AcDbEntity
  8
0
  6
Continuous
 62
     8
370
    25
100
AcDbLine
 10
6604.0155761182
 20
5278.5915137027
 30
0.0
 11
6660.0155703962
 21
5278.5915137027
 31
0.0
  0
LINE
  5
134
330
1F
100
AcDbEntity
  8
0
  6
Continuous
 62
     8
370
    25
100
AcDbLine
 10
6688.0155675351
 20
5278.5915137027
 30
0.0
 11
6897.0185391843
 21
5278.5915137027
 31
0.0
  0
LINE
  5
135
330
1F
100
AcDbEntity
  8
0
  6
Continuous
 62
     8
370
    25
100
AcDbLine
 10
5651.0192029416
 20
4893.9043638055
 30
0.0
 11
6897.0185391843
 21
4893.9043638055
 31
0.0
  0
LINE
  5
136
330
1F
100
AcDbEntity
  8
0
  6
Continuous
 62
     8
370
    25
100
AcDbLine
 10
6897.0185391843
 20
5019.2851182763
 30
0.0
 11
5651.0199181974
 21
5019.2851182763
 31
0.0
  0
LINE
  5
137
330
1F
100
AcDbEntity
  8
0
  6
Continuous
 62
     8
370
    25
100
AcDbLine
 10
5651.0199181974
 20
5153.2107499187
 30
0.0
 11
5960.0156419217
 21
5153.2107499187
 31
0.0
  0
LINE
  5
138
330
1F
100
AcDbEntity
  8
0
  6
Continuous
 62
     8
370
    25
100
AcDbLine
 10
5988.0155198514
 20
5153.2107499187
 30
0.0
 11
6560.0156657636
 21
5153.2107499187
 31
0.0
  0
LINE
  5
139
330
1F
100
AcDbEntity
  8
0
  6
Continuous
 62
     8
370
    25
100
AcDbLine
 10
6588.0156629026
 20
5153.2107499187
 30
0.0
 11
6897.0185391843
 21
5153.2107499187
 31
0.0
  0
LINE
  5
13A
330
1F
100
AcDbEntity
  8
0
  6
Continuous
 62
     8
370
    25
100
AcDbLine
 10
5651.0199181974
 20
5019.5803400819
 30
0.0
 11
6897.0185391843
 21
5019.5803400819
 31
0.0
  0
LINE
  5
13B
330
1F
100
AcDbEntity
  8
0
  6
Continuous
 62
     8
370
    25
100
AcDbLine
 10
6897.0185391843
 20
5152.9155281131
 30
0.0
 11
6588.0156629026
 21
5152.9155281131
 31
0.0
  0
LINE
  5
13C
330
1F
100
AcDbEntity
  8
0
  6
Continuous
 62
     8
370
    25
100
AcDbLine
 10
6560.0156657636
 20
5152.9155281131
 30
0.0
 11
5988.0155198514
 21
5152.9155281131
 31
0.0
  0
LINE
  5
13D
330
1F
100
AcDbEntity
  8
0
  6
Continuous
 62
     8
370
    25
100
AcDbLine
 10
5960.0156419217
 20
5152.9155281131
 30
0.0
 11
5651.0199181974
 21
5152.9155281131
 31
0.0
  0
SPLINE
  5
13E
330
1F
100
AcDbEntity
  8
0
  6
Continuous
 62
     7
370
    25
100
AcDbSpline
210
0.0
220
0.0
230
1.0
 70
     8
 71
     3
 72
     9
 73
     5
 74
     0
 42
0.000000001
 43
0.00000001
 40
0.0
 40
0.0
 40
0.0
 40
0.0
 40
0.5599783645914567
 40
1.0
 40
1.0
 40
1.0
 40
1.0
 10
5943.336116546364
 20
6068.107499966667
 30
0.0
 10
5944.144463980835
 20
6068.383492152415
 30
0.0
 10
5945.587997312808
 20
6068.876354382815
 30
0.0
 10
5946.930890892122
 20
6069.598046652958
 30
0.0
 10
5947.521793121071
 20
6069.915606865929
 30
0.0
  0
SPLINE
  5
13F
330
1F
100
AcDbEntity
  8
0
  6
Continuous
 62
     7
370
    25
100
AcDbSpline
210
0.0
220
0.0
230
1.0
 70
     8
 71
     3
 72
     9
 73
     5
 74
     0
 42
0.000000001
 43
0.00000001
 40
0.0
 40
0.0
 40
0.0
 40
0.0
 40
0.5600210261748463
 40
1.0
 40
1.0
 40
1.0
 40
1.0
 10
5937.821971648903
 20
6069.915547261284
 30
0.0
 10
5938.577092240917
 20
6069.516182790352
 30
0.0
 10
5939.925471242278
 20
6068.803058724886
 30
0.0
 10
5941.371448592769
 20
6068.320024756431
 30
0.0
 10
5942.00764822361
 20
6068.107499966667
 30
0.0
  0
SPLINE
  5
140
330
1F
100
AcDbEntity
  8
0
  6
Continuous
 62
     7
370
    25
100
AcDbSpline
210
0.0
220
0.0
230
1.0
 70
     8
 71
     3
 72
     9
 73
     5
 74
     0
 42
0.000000001
 43
0.00000001
 40
0.0
 40
0.0
 40
0.0
 40
0.0
 40
0.5599543069816502
 40
1.0
 40
1.0
 40
1.0
 40
1.0
 10
5713.336097472878
 20
6068.105890641258
 30
0.0
 10
5714.144436922753
 20
6068.381919818326
 30
0.0
 10
5715.588018014633
 20
6068.874869285141
 30
0.0
 10
5716.93102710171
 20
6069.596504622868
 30
0.0
 10
5717.522012466164
 20
6069.914057145164
 30
0.0
  0
SPLINE
  5
141
330
1F
100
AcDbEntity
  8
0
  6
Continuous
 62
     7
370
    25
100
AcDbSpline
210
0.0
220
0.0
230
1.0
 70
     8
 71
     3
 72
     9
 73
     5
 74
     0
 42
0.000000001
 43
0.00000001
 40
0.0
 40
0.0
 40
0.0
 40
0.0
 40
0.5600185441332168
 40
1.0
 40
1.0
 40
1.0
 40
1.0
 10
5707.821952575417
 20
6069.91399754052
 30
0.0
 10
5708.577075474107
 20
6069.514639440968
 30
0.0
 10
5709.925464570507
 20
6068.801523591976
 30
0.0
 10
5711.371430816207
 20
6068.318438932875
 30
0.0
 10
5712.007629150124
 20
6068.105890641258
 30
0.0
  0
LINE
  5
142
330
1F
100
AcDbEntity
  8
0
  6
Continuous
 62
     7
370
    25
100
AcDbLine
 10
6575.6655805051
 20
6867.4109273053
 30
0.0
 11
6575.6655805051
 21
6867.4133710957
 31
0.0
  0
LINE
  5
143
330
1F
100
AcDbEntity
  8
0
  6
Continuous
 62
     7
370
    25
100
AcDbLine
 10
5975.6656758725
 20
6867.4109273053
 30
0.0
 11
5975.6656758725
 21
6867.4133710957
 31
0.0
  0
LINE
  5
144
330
1F
100
AcDbEntity
  8
0
  6
Continuous
 62
     7
370
    25
100
AcDbLine
 10
6872.0232121885
 20
5730.1218651629
 30
0.0
 11
6871.6268413007
 21
5729.7256134844
 31
0.0
  0
LINE
  5
145
330
1F
100
AcDbEntity
  8
0
  6
Continuous
 62
     7
370
    25
100
AcDbLine
 10
6882.0232026517
 20
5730.1219843722
 30
0.0
 11
6882.0232026517
 21
5733.122005353
 31
0.0
  0
LINE
  5
146
330
1F
100
AcDbEntity
  8
0
  6
Continuous
 62
     7
370
    25
100
AcDbLine
 10
6872.0232121885
 20
5733.1218861437
 30
0.0
 11
6872.0232121885
 21
5730.1218651629
 31
0.0
  0
LINE
  5
147
330
1F
100
AcDbEntity
  8
0
  6
Continuous
 62
     7
370
    25
100
AcDbLine
 10
5666.024314636
 20
5730.1136397219
 30
0.0
 11
5665.6278245389
 21
5729.7173880434
 31
0.0
  0
LINE
  5
148
330
1F
100
AcDbEntity
  8
0
  6
Continuous
 62
     7
370
    25
100
AcDbLine
 10
5676.0243050992
 20
5730.1137589312
 30
0.0
 11
5676.0243050992
 21
5733.113779912
 31
0.0
  0
LINE
  5
149
330
1F
100
AcDbEntity
  8
0
  6
Continuous
 62
     7
370
    25
100
AcDbLine
 10
5666.0240762174
 20
5733.1136607028
 30
0.0
 11
5666.024314636
 21
5730.1136397219
 31
0.0
  0
LINE
  5
14A
330
1F
100
AcDbEntity
  8
0
  6
Continuous
 62
     7
370
    25
100
AcDbLine
 10
5651.0156266629
 20
6991.926017443
 30
0.0
 11
5649.0155332029
 21
6991.9260025418
 31
0.0
  0
LINE
  5
14B
330
1F
100
AcDbEntity
  8
0
  6
Continuous
 62
     7
370
    25
100
AcDbLine
 10
6899.0156524121
 20
6991.9345111049
 30
0.0
 11
6897.0156781614
 21
6991.9344962037
 31
0.0
  0
LINE
  5
14C
330
1F
100
AcDbEntity
  8
0
  6
Continuous
 62
     7
370
    25
100
AcDbLine
 10
6897.0156781614
 20
6991.8357760108
 30
0.0
 11
5651.0156266629
 21
6991.8357760108
 31
0.0
  0
SPLINE
  5
14D
330
1F
100
AcDbEntity
  8
0
  6
Continuous
 62
     7
370
    25
100
AcDbSpline
210
0.0
220
0.0
230
1.0
 70
    24
 71
     3
 72
    10
 73
     6
 74
     0
 42
0.000000001
 43
0.00000001
 40
0.0
 40
0.0
 40
0.0
 40
0.0
 40
0.4947968073670928
 40
0.9997496996828659
 40
1.0
 40
1.0
 40
1.0
 40
1.0
 10
5943.42194723484
 20
6069.115593323753
 30
0.0
 10
5943.421947234848
 20
6068.914677659465
 30
0.0
 10
5943.421947234864
 20
6068.508722382386
 30
0.0
 10
5943.421947234787
 20
6068.054087175075
 30
0.0
 10
5943.42194723484
 20
6068.134341899671
 30
0.0
 10
5943.42194723484
 20
6068.134381661461
 30
0.0
  0
LINE
  5
14E
330
1F
100
AcDbEntity
  8
0
  6
Continuous
 62
     7
370
    25
100
AcDbLine
 10
5943.4219472348
 20
6069.1155933238
 30
0.0
 11
5941.9218175351
 21
6069.1155933238
 31
0.0
  0
SPLINE
  5
14F
330
1F
100
AcDbEntity
  8
0
  6
Continuous
 62
     7
370
    25
100
AcDbSpline
210
0.0
220
0.0
230
1.0
 70
    24
 71
     3
 72
    10
 73
     6
 74
     0
 42
0.000000001
 43
0.00000001
 40
0.0
 40
0.0
 40
0.0
 40
0.0
 40
0.0326243604697614
 40
0.5073482571232472
 40
0.9999999999999999
 40
0.9999999999999999
 40
0.9999999999999999
 40
0.9999999999999999
 10
5941.921817535133
 20
6068.153157124565
 30
0.0
 10
5941.921817535133
 20
6068.147235673709
 30
0.0
 10
5941.921817535135
 20
6068.055149952236
 30
0.0
 10
5941.921817535133
 20
6068.528156305673
 30
0.0
 10
5941.921817535133
 20
6068.917376581879
 30
0.0
 10
5941.921817535133
 20
6069.115593323753
 30
0.0
  0
SPLINE
  5
150
330
1F
100
AcDbEntity
  8
0
  6
Continuous
 62
     7
370
    25
100
AcDbSpline
210
0.0
220
0.0
230
1.0
 70
    24
 71
     3
 72
    10
 73
     6
 74
     0
 42
0.000000001
 43
0.00000001
 40
0.0
 40
0.0
 40
0.0
 40
0.0
 40
0.4947933803419613
 40
0.9997465919980816
 40
1.0
 40
1.0
 40
1.0
 40
1.0
 10
5713.421928161354
 20
6069.114043602989
 30
0.0
 10
5713.42192816135
 20
6068.918489693998
 30
0.0
 10
5713.421928161342
 20
6068.523366473207
 30
0.0
 10
5713.421928161386
 20
6068.013878646811
 30
0.0
 10
5713.421928161354
 20
6068.132772304493
 30
0.0
 10
5713.421928161354
 20
6068.132831940697
 30
0.0
  0
LWPOLYLINE
  5
151
330
1F
100
AcDbEntity
  8
0
  6
Continuous
 62
     7
370
    25
100
AcDbPolyline
 90
        9
 70
   128
 43
0.0
 10
5713.4219281614
 20
6069.114043603
 10
5713.2366769254
 20
6069.114043603
 10
5713.0492799222
 20
6069.114043603
 10
5712.8609292447
 20
6069.114043603
 10
5712.6718633115
 20
6069.114043603
 10
5712.4827973783
 20
6069.114043603
 10
5712.2944467008
 20
6069.114043603
 10
5712.1072881162
 20
6069.1139839983
 10
5711.9217984616
 20
6069.1139839983
  0
SPLINE
  5
152
330
1F
100
AcDbEntity
  8
0
  6
Continuous
 62
     7
370
    25
100
AcDbSpline
210
0.0
220
0.0
230
1.0
 70
    24
 71
     3
 72
    10
 73
     6
 74
     0
 42
0.000000001
 43
0.00000001
 40
0.0
 40
0.0
 40
0.0
 40
0.0
 40
0.0326244927642627
 40
0.5073462593793615
 40
1.0
 40
1.0
 40
1.0
 40
1.0
 10
5711.921798461647
 20
6068.151607403801
 30
0.0
 10
5711.921798461647
 20
6068.145686007897
 30
0.0
 10
5711.92179846164
 20
6068.053601877013
 30
0.0
 10
5711.921798461651
 20
6068.526524182316
 30
0.0
 10
5711.921798461647
 20
6068.915759013293
 30
0.0
 10
5711.921798461647
 20
6069.113983998344
 30
0.0
  0
CIRCLE
  5
153
330
1F
100
AcDbEntity
  8
0
  6
Continuous
 62
     7
370
    25
100
AcDbCircle
 10
6674.0156230953
 20
6881.3157954633
 30
0.0
 40
12.5
  0
CIRCLE
  5
154
330
1F
100
AcDbEntity
  8
0
  6
Continuous
 62
     7
370
    25
100
AcDbCircle
 10
6674.0156230953
 20
6881.3157954633
 30
0.0
 40
14.0
  0
LINE
  5
155
330
1F
100
AcDbEntity
  8
0
  6
Continuous
 62
     7
370
    25
100
AcDbLine
 10
6673.6256949842
 20
6886.5121893979
 30
0.0
 11
6673.6256949842
 21
6890.0579095281
 31
0.0
  0
ARC
  5
156
330
1F
100
AcDbEntity
  8
0
  6
Continuous
 62
     7
370
    25
100
AcDbCircle
 10
6672.0086539646
 20
6890.0579089208
 30
0.0
 40
1.617042895244595
100
AcDbArc
 50
0.0
 51
180.0
  0
LINE
  5
157
330
1F
100
AcDbEntity
  8
0
  6
Continuous
 62
     7
370
    25
100
AcDbLine
 10
6670.3916661679
 20
6890.0579095281
 30
0.0
 11
6670.3916661679
 21
6882.5194605089
 31
0.0
  0
ARC
  5
158
330
1F
100
AcDbEntity
  8
0
  6
Continuous
 62
     7
370
    25
100
AcDbCircle
 10
6668.5465608062
 20
6880.7318285331
 30
0.0
 40
2.56901288587116
100
AcDbArc
 50
44.0944057145
 51
105.4941474424
  0
LINE
  5
159
330
1F
100
AcDbEntity
  8
0
  6
Continuous
 62
     7
370
    25
100
AcDbLine
 10
6667.8602569043
 20
6883.2074769235
 30
0.0
 11
6667.8602569043
 21
6877.7863599754
 31
0.0
  0
ARC
  5
15A
330
1F
100
AcDbEntity
  8
0
  6
Continuous
 62
     7
370
    25
100
AcDbCircle
 10
6674.1828051773
 20
6877.7863631337
 30
0.0
 40
6.322530327734057
100
AcDbArc
 50
180.0
 51
270.0
  0
LINE
  5
15B
330
1F
100
AcDbEntity
  8
0
  6
Continuous
 62
     7
370
    25
100
AcDbLine
 10
6674.1827599942
 20
6871.4638345337
 30
0.0
 11
6676.5500180661
 21
6871.4638345337
 31
0.0
  0
ARC
  5
15C
330
1F
100
AcDbEntity
  8
0
  6
Continuous
 62
     7
370
    25
100
AcDbCircle
 10
6676.5500295843
 20
6876.0194333566
 30
0.0
 40
4.555600550638701
100
AcDbArc
 50
270.0
 51
0.0
  0
LINE
  5
15D
330
1F
100
AcDbEntity
  8
0
  6
Continuous
 62
     7
370
    25
100
AcDbLine
 10
6681.1056010663
 20
6876.0194324351
 30
0.0
 11
6681.1056010663
 21
6883.8562064267
 31
0.0
  0
ARC
  5
15E
330
1F
100
AcDbEntity
  8
0
  6
Continuous
 62
     7
370
    25
100
AcDbCircle
 10
6679.7520188887
 20
6883.8562038849
 30
0.0
 40
1.353611246209766
100
AcDbArc
 50
0.0
 51
90.0
  0
LINE
  5
15F
330
1F
100
AcDbEntity
  8
0
  6
Continuous
 62
     7
370
    25
100
AcDbLine
 10
6679.7519795835
 20
6885.2098130084
 30
0.0
 11
6679.257737869
 21
6885.2098130084
 31
0.0
  0
ARC
  5
160
330
1F
100
AcDbEntity
  8
0
  6
Continuous
 62
     7
370
    25
100
AcDbCircle
 10
6679.257793424
 20
6883.8562038849
 30
0.0
 40
1.353611246210064
100
AcDbArc
 50
90.0
 51
118.7365577358
  0
ARC
  5
161
330
1F
100
AcDbEntity
  8
0
  6
Continuous
 62
     7
370
    25
100
AcDbCircle
 10
6677.2745335543
 20
6884.8047838083
 30
0.0
 40
1.353611246207947
100
AcDbArc
 50
10.1404867648
 51
90.0
  0
LINE
  5
162
330
1F
100
AcDbEntity
  8
0
  6
Continuous
 62
     7
370
    25
100
AcDbLine
 10
6677.274572128
 20
6886.1583985782
 30
0.0
 11
6676.6952149808
 21
6886.1583985782
 31
0.0
  0
ARC
  5
163
330
1F
100
AcDbEntity
  8
0
  6
Continuous
 62
     7
370
    25
100
AcDbCircle
 10
6676.6952162722
 20
6884.8047838083
 30
0.0
 40
1.353611246207947
100
AcDbArc
 50
90.0
 51
124.7440022271
  0
ARC
  5
164
330
1F
100
AcDbEntity
  8
0
  6
Continuous
 62
     7
370
    25
100
AcDbCircle
 10
6674.7119564025
 20
6885.3139380435
 30
0.0
 40
1.353611246207038
100
AcDbArc
 50
26.4592691592
 51
90.0
  0
LINE
  5
165
330
1F
100
AcDbEntity
  8
0
  6
Continuous
 62
     7
370
    25
100
AcDbLine
 10
6674.7119300306
 20
6886.6675489045
 30
0.0
 11
6674.2553584516
 21
6886.6675489045
 31
0.0
  0
ARC
  5
166
330
1F
100
AcDbEntity
  8
0
  6
Continuous
 62
     7
370
    25
100
AcDbCircle
 10
6674.2553454834
 20
6885.3139380435
 30
0.0
 40
1.353611246208857
100
AcDbArc
 50
90.0
 51
117.7207121261
  0
ARC
  5
167
330
1F
100
AcDbEntity
  8
0
  6
Continuous
 62
     7
370
    25
100
AcDbCircle
 10
6673.2637155485
 20
6882.3870686467
 30
0.0
 40
0.6676186886570576
100
AcDbArc
 50
180.0
 51
0.0
  0
LINE
  5
168
330
1F
100
AcDbEntity
  8
0
  6
Continuous
 62
     7
370
    25
100
AcDbLine
 10
6673.9313476026
 20
6885.3280984259
 30
0.0
 11
6673.9313476026
 21
6882.3870711422
 31
0.0
  0
ARC
  5
169
330
1F
100
AcDbEntity
  8
0
  6
Continuous
 62
     7
370
    25
100
AcDbCircle
 10
6674.1714443535
 20
6885.3281001813
 30
0.0
 40
0.2401101162877239
100
AcDbArc
 50
90.0
 51
180.0
  0
LINE
  5
16A
330
1F
100
AcDbEntity
  8
0
  6
Continuous
 62
     7
370
    25
100
AcDbLine
 10
6674.7958533704
 20
6885.5682082868
 30
0.0
 11
6674.1714351117
 21
6885.5682082868
 31
0.0
  0
ARC
  5
16B
330
1F
100
AcDbEntity
  8
0
  6
Continuous
 62
     7
370
    25
100
AcDbCircle
 10
6674.7958575324
 20
6885.3281001813
 30
0.0
 40
0.2401101162877239
100
AcDbArc
 50
0.0
 51
90.0
  0
LINE
  5
16C
330
1F
100
AcDbEntity
  8
0
  6
Continuous
 62
     7
370
    25
100
AcDbLine
 10
6675.0359408796
 20
6882.3870711422
 30
0.0
 11
6675.0359408796
 21
6885.3280984259
 31
0.0
  0
ARC
  5
16D
330
1F
100
AcDbEntity
  8
0
  6
Continuous
 62
     7
370
    25
100
AcDbCircle
 10
6675.7035863373
 20
6882.3870686467
 30
0.0
 40
0.6676186886570576
100
AcDbArc
 50
180.0
 51
0.0
  0
LINE
  5
16E
330
1F
100
AcDbEntity
  8
0
  6
Continuous
 62
     7
370
    25
100
AcDbLine
 10
6676.3712041318
 20
6884.8189480997
 30
0.0
 11
6676.3712041318
 21
6882.3870711422
 31
0.0
  0
ARC
  5
16F
330
1F
100
AcDbEntity
  8
0
  6
Continuous
 62
     7
370
    25
100
AcDbCircle
 10
6676.6113151423
 20
6884.8189459461
 30
0.0
 40
0.2401101162877239
100
AcDbArc
 50
90.0
 51
180.0
  0
LINE
  5
170
330
1F
100
AcDbEntity
  8
0
  6
Continuous
 62
     7
370
    25
100
AcDbLine
 10
6677.3583762586
 20
6885.0590579606
 30
0.0
 11
6676.611291641
 21
6885.0590579606
 31
0.0
  0
ARC
  5
171
330
1F
100
AcDbEntity
  8
0
  6
Continuous
 62
     7
370
    25
100
AcDbCircle
 10
6677.3584346842
 20
6884.8189459461
 30
0.0
 40
0.2401101162886334
100
AcDbArc
 50
0.0
 51
90.0
  0
LINE
  5
172
330
1F
100
AcDbEntity
  8
0
  6
Continuous
 62
     7
370
    25
100
AcDbLine
 10
6677.598582977
 20
6882.3870711422
 30
0.0
 11
6677.598582977
 21
6884.8189480997
 31
0.0
  0
ARC
  5
173
330
1F
100
AcDbEntity
  8
0
  6
Continuous
 62
     7
370
    25
100
AcDbCircle
 10
6678.2661634891
 20
6882.3870686467
 30
0.0
 40
0.6676186886561482
100
AcDbArc
 50
180.0
 51
0.0
  0
LINE
  5
174
330
1F
100
AcDbEntity
  8
0
  6
Continuous
 62
     7
370
    25
100
AcDbLine
 10
6678.93372702
 20
6883.9025937415
 30
0.0
 11
6678.93372702
 21
6882.3870711422
 31
0.0
  0
ARC
  5
175
330
1F
100
AcDbEntity
  8
0
  6
Continuous
 62
     7
370
    25
100
AcDbCircle
 10
6679.1738922941
 20
6883.9025956374
 30
0.0
 40
0.2401101162877239
100
AcDbArc
 50
90.0
 51
180.0
  0
LINE
  5
176
330
1F
100
AcDbEntity
  8
0
  6
Continuous
 62
     7
370
    25
100
AcDbLine
 10
6679.8359029233
 20
6884.1427036024
 30
0.0
 11
6679.1739337384
 21
6884.1427036024
 31
0.0
  0
ARC
  5
177
330
1F
100
AcDbEntity
  8
0
  6
Continuous
 62
     7
370
    25
100
AcDbCircle
 10
6679.8359200186
 20
6883.9025956374
 30
0.0
 40
0.2401101162877239
100
AcDbArc
 50
0.0
 51
90.0
  0
LINE
  5
178
330
1F
100
AcDbEntity
  8
0
  6
Continuous
 62
     7
370
    25
100
AcDbLine
 10
6680.0759904325
 20
6876.0194324351
 30
0.0
 11
6680.0759904325
 21
6883.9025937415
 31
0.0
  0
ARC
  5
179
330
1F
100
AcDbEntity
  8
0
  6
Continuous
 62
     7
370
    25
100
AcDbCircle
 10
6676.5500295843
 20
6876.0194333566
 30
0.0
 40
3.526000550637946
100
AcDbArc
 50
270.0
 51
0.0
  0
LINE
  5
17A
330
1F
100
AcDbEntity
  8
0
  6
Continuous
 62
     7
370
    25
100
AcDbLine
 10
6674.1827599942
 20
6872.4934302664
 30
0.0
 11
6676.5500180661
 21
6872.4934302664
 31
0.0
  0
ARC
  5
17B
330
1F
100
AcDbEntity
  8
0
  6
Continuous
 62
     7
370
    25
100
AcDbCircle
 10
6674.1828051773
 20
6877.7863631337
 30
0.0
 40
5.292930327734211
100
AcDbArc
 50
180.0
 51
270.0
  0
LINE
  5
17C
330
1F
100
AcDbEntity
  8
0
  6
Continuous
 62
     7
370
    25
100
AcDbLine
 10
6668.8898675382
 20
6882.2324715949
 30
0.0
 11
6668.8898675382
 21
6877.7863599754
 31
0.0
  0
ARC
  5
17D
330
1F
100
AcDbEntity
  8
0
  6
Continuous
 62
     7
370
    25
100
AcDbCircle
 10
6668.5465608062
 20
6880.7318285331
 30
0.0
 40
1.539412885870661
100
AcDbArc
 50
0.0
 51
77.1137478469
  0
LINE
  5
17E
330
1F
100
AcDbEntity
  8
0
  6
Continuous
 62
     7
370
    25
100
AcDbLine
 10
6670.0860135495
 20
6878.7774064041
 30
0.0
 11
6670.0860135495
 21
6880.7318278051
 31
0.0
  0
ARC
  5
17F
330
1F
100
AcDbEntity
  8
0
  6
Continuous
 62
     7
370
    25
100
AcDbCircle
 10
6670.7535923807
 20
6878.777407651
 30
0.0
 40
0.6676186886570576
100
AcDbArc
 50
180.0
 51
0.0
  0
LINE
  5
180
330
1F
100
AcDbEntity
  8
0
  6
Continuous
 62
     7
370
    25
100
AcDbLine
 10
6671.4211575925
 20
6890.0579095281
 30
0.0
 11
6671.4211575925
 21
6878.7774064041
 31
0.0
  0
ARC
  5
181
330
1F
100
AcDbEntity
  8
0
  6
Continuous
 62
     7
370
    25
100
AcDbCircle
 10
6672.0086539646
 20
6890.0579089208
 30
0.0
 40
0.5874428952447488
100
AcDbArc
 50
0.0
 51
180.0
  0
LINE
  5
182
330
1F
100
AcDbEntity
  8
0
  6
Continuous
 62
     7
370
    25
100
AcDbLine
 10
6672.5960843503
 20
6882.3870711422
 30
0.0
 11
6672.5960843503
 21
6890.0579095281
 31
0.0
  0
CIRCLE
  5
183
330
1F
100
AcDbEntity
  8
0
  6
Continuous
 62
     7
370
    25
100
AcDbCircle
 10
6074.0156230953
 20
6881.3157954633
 30
0.0
 40
12.49999999999909
  0
CIRCLE
  5
184
330
1F
100
AcDbEntity
  8
0
  6
Continuous
 62
     7
370
    25
100
AcDbCircle
 10
6074.0156230953
 20
6881.3157954633
 30
0.0
 40
13.99999999999909
  0
LINE
  5
185
330
1F
100
AcDbEntity
  8
0
  6
Continuous
 62
     7
370
    25
100
AcDbLine
 10
6073.6256711423
 20
6886.5121893979
 30
0.0
 11
6073.6256711423
 21
6890.0579095281
 31
0.0
  0
ARC
  5
186
330
1F
100
AcDbEntity
  8
0
  6
Continuous
 62
     7
370
    25
100
AcDbCircle
 10
6072.0086539646
 20
6890.0579089208
 30
0.0
 40
1.617042895245504
100
AcDbArc
 50
0.0
 51
180.0
  0
LINE
  5
187
330
1F
100
AcDbEntity
  8
0
  6
Continuous
 62
     7
370
    25
100
AcDbLine
 10
6070.3915231168
 20
6890.0579095281
 30
0.0
 11
6070.3915231168
 21
6882.5194605089
 31
0.0
  0
ARC
  5
188
330
1F
100
AcDbEntity
  8
0
  6
Continuous
 62
     7
370
    25
100
AcDbCircle
 10
6068.5465608062
 20
6880.7318285331
 30
0.0
 40
2.569012885871793
100
AcDbArc
 50
44.0944057146
 51
105.4941474424
  0
LINE
  5
189
330
1F
100
AcDbEntity
  8
0
  6
Continuous
 62
     7
370
    25
100
AcDbLine
 10
6067.8602330625
 20
6883.2074769235
 30
0.0
 11
6067.8602330625
 21
6877.7863599754
 31
0.0
  0
ARC
  5
18A
330
1F
100
AcDbEntity
  8
0
  6
Continuous
 62
     7
370
    25
100
AcDbCircle
 10
6074.1828051773
 20
6877.7863631337
 30
0.0
 40
6.322530327733148
100
AcDbArc
 50
180.0
 51
270.0
  0
LINE
  5
18B
330
1F
100
AcDbEntity
  8
0
  6
Continuous
 62
     7
370
    25
100
AcDbLine
 10
6074.1828553617
 20
6871.4638345337
 30
0.0
 11
6076.5501134336
 21
6871.4638345337
 31
0.0
  0
ARC
  5
18C
330
1F
100
AcDbEntity
  8
0
  6
Continuous
 62
     7
370
    25
100
AcDbCircle
 10
6076.5500295843
 20
6876.0194333566
 30
0.0
 40
4.555600550638701
100
AcDbArc
 50
270.0
 51
0.0
  0
LINE
  5
18D
330
1F
100
AcDbEntity
  8
0
  6
Continuous
 62
     7
370
    25
100
AcDbLine
 10
6081.1055772245
 20
6876.0194324351
 30
0.0
 11
6081.1055772245
 21
6883.8562064267
 31
0.0
  0
ARC
  5
18E
330
1F
100
AcDbEntity
  8
0
  6
Continuous
 62
     7
370
    25
100
AcDbCircle
 10
6079.7520188887
 20
6883.8562038849
 30
0.0
 40
1.353611246209766
100
AcDbArc
 50
0.0
 51
90.0
  0
LINE
  5
18F
330
1F
100
AcDbEntity
  8
0
  6
Continuous
 62
     7
370
    25
100
AcDbLine
 10
6079.7520749509
 20
6885.2098130084
 30
0.0
 11
6079.2578332364
 21
6885.2098130084
 31
0.0
  0
ARC
  5
190
330
1F
100
AcDbEntity
  8
0
  6
Continuous
 62
     7
370
    25
100
AcDbCircle
 10
6079.257793424
 20
6883.8562038849
 30
0.0
 40
1.353611246209766
100
AcDbArc
 50
90.0
 51
118.7365577357
  0
ARC
  5
191
330
1F
100
AcDbEntity
  8
0
  6
Continuous
 62
     7
370
    25
100
AcDbCircle
 10
6077.2745335543
 20
6884.8047838083
 30
0.0
 40
1.353611246208857
100
AcDbArc
 50
10.1404867648
 51
90.0
  0
LINE
  5
192
330
1F
100
AcDbEntity
  8
0
  6
Continuous
 62
     7
370
    25
100
AcDbLine
 10
6077.2744290769
 20
6886.1583985782
 30
0.0
 11
6076.6953103482
 21
6886.1583985782
 31
0.0
  0
ARC
  5
193
330
1F
100
AcDbEntity
  8
0
  6
Continuous
 62
     7
370
    25
100
AcDbCircle
 10
6076.6952162722
 20
6884.8047838083
 30
0.0
 40
1.353611246208857
100
AcDbArc
 50
90.0
 51
124.744002227
  0
ARC
  5
194
330
1F
100
AcDbEntity
  8
0
  6
Continuous
 62
     7
370
    25
100
AcDbCircle
 10
6074.7119564025
 20
6885.3139380435
 30
0.0
 40
1.353611246208188
100
AcDbArc
 50
26.4592691592
 51
90.0
  0
LINE
  5
195
330
1F
100
AcDbEntity
  8
0
  6
Continuous
 62
     7
370
    25
100
AcDbLine
 10
6074.7119061887
 20
6886.6675489045
 30
0.0
 11
6074.2553346097
 21
6886.6675489045
 31
0.0
  0
ARC
  5
196
330
1F
100
AcDbEntity
  8
0
  6
Continuous
 62
     7
370
    25
100
AcDbCircle
 10
6074.2553454834
 20
6885.3139380435
 30
0.0
 40
1.353611246207992
100
AcDbArc
 50
90.0
 51
117.7207121261
  0
ARC
  5
197
330
1F
100
AcDbEntity
  8
0
  6
Continuous
 62
     7
370
    25
100
AcDbCircle
 10
6073.2637155485
 20
6882.3870686467
 30
0.0
 40
0.6676186886570576
100
AcDbArc
 50
180.0
 51
0.0
  0
LINE
  5
198
330
1F
100
AcDbEntity
  8
0
  6
Continuous
 62
     7
370
    25
100
AcDbLine
 10
6073.9313237607
 20
6885.3280984259
 30
0.0
 11
6073.9313237607
 21
6882.3870711422
 31
0.0
  0
ARC
  5
199
330
1F
100
AcDbEntity
  8
0
  6
Continuous
 62
     7
370
    25
100
AcDbCircle
 10
6074.1714443535
 20
6885.3281001813
 30
0.0
 40
0.2401101162877239
100
AcDbArc
 50
90.0
 51
180.0
  0
LINE
  5
19A
330
1F
100
AcDbEntity
  8
0
  6
Continuous
 62
     7
370
    25
100
AcDbLine
 10
6074.7958295285
 20
6885.5682082868
 30
0.0
 11
6074.1714112699
 21
6885.5682082868
 31
0.0
  0
ARC
  5
19B
330
1F
100
AcDbEntity
  8
0
  6
Continuous
 62
     7
370
    25
100
AcDbCircle
 10
6074.7958575324
 20
6885.3281001813
 30
0.0
 40
0.2401101162877239
100
AcDbArc
 50
0.0
 51
90.0
  0
LINE
  5
19C
330
1F
100
AcDbEntity
  8
0
  6
Continuous
 62
     7
370
    25
100
AcDbLine
 10
6075.0359170377
 20
6882.3870711422
 30
0.0
 11
6075.0359170377
 21
6885.3280984259
 31
0.0
  0
ARC
  5
19D
330
1F
100
AcDbEntity
  8
0
  6
Continuous
 62
     7
370
    25
100
AcDbCircle
 10
6075.7035863373
 20
6882.3870686467
 30
0.0
 40
0.6676186886579671
100
AcDbArc
 50
180.0
 51
0.0
  0
LINE
  5
19E
330
1F
100
AcDbEntity
  8
0
  6
Continuous
 62
     7
370
    25
100
AcDbLine
 10
6076.3712994992
 20
6884.8189480997
 30
0.0
 11
6076.3712994992
 21
6882.3870711422
 31
0.0
  0
ARC
  5
19F
330
1F
100
AcDbEntity
  8
0
  6
Continuous
 62
     7
370
    25
100
AcDbCircle
 10
6076.6113151423
 20
6884.8189459461
 30
0.0
 40
0.2401101162877239
100
AcDbArc
 50
90.0
 51
180.0
  0
LINE
  5
1A0
330
1F
100
AcDbEntity
  8
0
  6
Continuous
 62
     7
370
    25
100
AcDbLine
 10
6077.3583524167
 20
6885.0590579606
 30
0.0
 11
6076.6113870084
 21
6885.0590579606
 31
0.0
  0
ARC
  5
1A1
330
1F
100
AcDbEntity
  8
0
  6
Continuous
 62
     7
370
    25
100
AcDbCircle
 10
6077.3584346842
 20
6884.8189459461
 30
0.0
 40
0.2401101162877239
100
AcDbArc
 50
0.0
 51
90.0
  0
LINE
  5
1A2
330
1F
100
AcDbEntity
  8
0
  6
Continuous
 62
     7
370
    25
100
AcDbLine
 10
6077.5984399259
 20
6882.3870711422
 30
0.0
 11
6077.5984399259
 21
6884.8189480997
 31
0.0
  0
ARC
  5
1A3
330
1F
100
AcDbEntity
  8
0
  6
Continuous
 62
     7
370
    25
100
AcDbCircle
 10
6078.2661634891
 20
6882.3870686467
 30
0.0
 40
0.6676186886579671
100
AcDbArc
 50
180.0
 51
0.0
  0
LINE
  5
1A4
330
1F
100
AcDbEntity
  8
0
  6
Continuous
 62
     7
370
    25
100
AcDbLine
 10
6078.9338223874
 20
6883.9025937415
 30
0.0
 11
6078.9338223874
 21
6882.3870711422
 31
0.0
  0
ARC
  5
1A5
330
1F
100
AcDbEntity
  8
0
  6
Continuous
 62
     7
370
    25
100
AcDbCircle
 10
6079.1738922941
 20
6883.9025956374
 30
0.0
 40
0.2401101162877239
100
AcDbArc
 50
90.0
 51
180.0
  0
LINE
  5
1A6
330
1F
100
AcDbEntity
  8
0
  6
Continuous
 62
     7
370
    25
100
AcDbLine
 10
6079.8359982907
 20
6884.1427036024
 30
0.0
 11
6079.1739098966
 21
6884.1427036024
 31
0.0
  0
ARC
  5
1A7
330
1F
100
AcDbEntity
  8
0
  6
Continuous
 62
     7
370
    25
100
AcDbCircle
 10
6079.8359200186
 20
6883.9025956374
 30
0.0
 40
0.2401101162886334
100
AcDbArc
 50
0.0
 51
90.0
  0
LINE
  5
1A8
330
1F
100
AcDbEntity
  8
0
  6
Continuous
 62
     7
370
    25
100
AcDbLine
 10
6080.0760857999
 20
6876.0194324351
 30
0.0
 11
6080.0760857999
 21
6883.9025937415
 31
0.0
  0
ARC
  5
1A9
330
1F
100
AcDbEntity
  8
0
  6
Continuous
 62
     7
370
    25
100
AcDbCircle
 10
6076.5500295843
 20
6876.0194333566
 30
0.0
 40
3.526000550638855
100
AcDbArc
 50
270.0
 51
0.0
  0
LINE
  5
1AA
330
1F
100
AcDbEntity
  8
0
  6
Continuous
 62
     7
370
    25
100
AcDbLine
 10
6074.1828553617
 20
6872.4934302664
 30
0.0
 11
6076.5501134336
 21
6872.4934302664
 31
0.0
  0
LINE
  5
1AB
330
1F
100
AcDbEntity
  8
0
  6
Continuous
 62
     7
370
    25
100
AcDbLine
 10
6068.8899629056
 20
6882.2324715949
 30
0.0
 11
6068.8899629056
 21
6877.7863599754
 31
0.0
  0
ARC
  5
1AC
330
1F
100
AcDbEntity
  8
0
  6
Continuous
 62
     7
370
    25
100
AcDbCircle
 10
6068.5465608062
 20
6880.7318285331
 30
0.0
 40
1.539412885871721
100
AcDbArc
 50
0.0
 51
77.1137478469
  0
LINE
  5
1AD
330
1F
100
AcDbEntity
  8
0
  6
Continuous
 62
     7
370
    25
100
AcDbLine
 10
6070.0858704984
 20
6878.7774064041
 30
0.0
 11
6070.0858704984
 21
6880.7318278051
 31
0.0
  0
ARC
  5
1AE
330
1F
100
AcDbEntity
  8
0
  6
Continuous
 62
     7
370
    25
100
AcDbCircle
 10
6070.7535923807
 20
6878.777407651
 30
0.0
 40
0.6676186886561482
100
AcDbArc
 50
180.0
 51
0.0
  0
LINE
  5
1AF
330
1F
100
AcDbEntity
  8
0
  6
Continuous
 62
     7
370
    25
100
AcDbLine
 10
6071.4212529599
 20
6890.0579095281
 30
0.0
 11
6071.4212529599
 21
6878.7774064041
 31
0.0
  0
ARC
  5
1B0
330
1F
100
AcDbEntity
  8
0
  6
Continuous
 62
     7
370
    25
100
AcDbCircle
 10
6072.0086539646
 20
6890.0579089208
 30
0.0
 40
0.5874428952456583
100
AcDbArc
 50
0.0
 51
180.0
  0
LINE
  5
1B1
330
1F
100
AcDbEntity
  8
0
  6
Continuous
 62
     7
370
    25
100
AcDbLine
 10
6072.5961797178
 20
6882.3870711422
 30
0.0
 11
6072.5961797178
 21
6890.0579095281
 31
0.0
  0
ARC
  5
1B2
330
1F
100
AcDbEntity
  8
0
  6
Continuous
 62
     7
370
    25
100
AcDbCircle
 10
6074.1828051773
 20
6877.7863631337
 30
0.0
 40
5.292930327734211
100
AcDbArc
 50
180.0
 51
270.0
  0
CIRCLE
  5
1B3
330
1F
100
AcDbEntity
  8
0
  6
Continuous
 62
     7
370
    25
100
AcDbCircle
 10
6574.0156230953
 20
6881.3157954633
 30
0.0
 40
29.49999999999997
  0
CIRCLE
  5
1B4
330
1F
100
AcDbEntity
  8
0
  6
Continuous
 62
     7
370
    25
100
AcDbCircle
 10
6574.0156230953
 20
6881.3157954633
 30
0.0
 40
29.99999999999988
  0
CIRCLE
  5
1B5
330
1F
100
AcDbEntity
  8
0
  6
Continuous
 62
     7
370
    25
100
AcDbCircle
 10
5974.0156230953
 20
6881.3157954633
 30
0.0
 40
29.49999999999997
  0
CIRCLE
  5
1B6
330
1F
100
AcDbEntity
  8
0
  6
Continuous
 62
     7
370
    25
100
AcDbCircle
 10
5974.0156230953
 20
6881.3157954633
 30
0.0
 40
30.00000000000018
  0
LINE
  5
1B7
330
1F
100
AcDbEntity
  8
0
  6
Continuous
 62
     7
370
    25
100
AcDbLine
 10
6561.8649594724
 20
6876.6940154529
 30
0.0
 11
6586.1662499845
 21
6876.6940154529
 31
0.0
  0
LINE
  5
1B8
330
1F
100
AcDbEntity
  8
0
  6
Continuous
 62
     7
370
    25
100
AcDbLine
 10
6587.133990997
 20
6876.4260702229
 30
0.0
 11
6586.1662499845
 21
6876.6940154529
 31
0.0
  0
ARC
  5
1B9
330
1F
100
AcDbEntity
  8
0
  6
Continuous
 62
     7
370
    25
100
AcDbCircle
 10
6574.0156230953
 20
6881.3157954633
 30
0.0
 40
13.99999999999974
100
AcDbArc
 50
200.4424420745
 51
339.5575579255
  0
LINE
  5
1BA
330
1F
100
AcDbEntity
  8
0
  6
Continuous
 62
     7
370
    25
100
AcDbLine
 10
6561.8649594724
 20
6876.6940154529
 30
0.0
 11
6560.8973376691
 21
6876.4260702229
 31
0.0
  0
LWPOLYLINE
  5
1BB
330
1F
100
AcDbEntity
  8
0
  6
Continuous
 62
     7
370
    25
100
AcDbPolyline
 90
       34
 70
   128
 43
0.0
 10
6574.0156047284
 20
6875.1087479687
 10
6575.8844487607
 20
6875.0625618196
 10
6577.6858203351
 20
6874.9256723023
 10
6579.354392761
 20
6874.7030191517
 10
6580.8302037656
 20
6874.4026564455
 10
6582.0596091687
 20
6874.0354471302
 10
6582.9982631147
 20
6873.6146457887
 10
6583.6123101651
 20
6873.1554739571
 10
6583.879458183
 20
6872.6745240784
 10
6583.7900512159
 20
6872.1891783572
 10
6583.347546333
 20
6871.7169829107
 10
6582.5676791608
 20
6871.2749921179
 10
6581.4787023008
 20
6870.8791949249
 10
6580.1199548185
 20
6870.5438889957
 10
6578.5405509412
 20
6870.281196425
 10
6576.797711128
 20
6870.1006018019
 10
6574.9542586744
 20
6870.0086467362
 10
6573.0769507825
 20
6870.0086467362
 10
6571.2334983289
 20
6870.1006018019
 10
6569.4906585157
 20
6870.281196425
 10
6567.9112546384
 20
6870.5438889957
 10
6566.5526263654
 20
6870.8791949249
 10
6565.4636495053
 20
6871.2749921179
 10
6564.6837823331
 20
6871.7169829107
 10
6564.241158241
 20
6872.1891783572
 10
6564.1517512738
 20
6872.6745240784
 10
6564.419018501
 20
6873.1554739571
 10
6565.0330655515
 20
6873.6146457887
 10
6565.9717194974
 20
6874.0354471302
 10
6567.2011249006
 20
6874.4026564455
 10
6568.6768166959
 20
6874.7030191517
 10
6570.345508331
 20
6874.9256723023
 10
6572.1467606961
 20
6875.0625618196
 10
6574.0156047284
 20
6875.1087479687
  0
ARC
  5
1BC
330
1F
100
AcDbEntity
  8
0
  6
Continuous
 62
     7
370
    25
100
AcDbCircle
 10
6574.0156230953
 20
6881.3157954633
 30
0.0
 40
13.99999999999974
100
AcDbArc
 50
339.5575579255
 51
200.4424420745
  0
ARC
  5
1BD
330
1F
100
AcDbEntity
  8
0
  6
Continuous
 62
     7
370
    25
100
AcDbCircle
 10
6574.0156230953
 20
6881.3157954633
 30
0.0
 40
13.00000000000028
100
AcDbArc
 50
339.1745965348
 51
200.8254034652
  0
LWPOLYLINE
  5
1BE
330
1F
100
AcDbEntity
  8
0
  6
Continuous
 62
     7
370
    25
100
AcDbPolyline
 90
       19
 70
   128
 43
0.0
 10
6583.245026344
 20
6873.4618939853
 10
6583.3905808866
 20
6873.0358772374
 10
6583.2104556501
 20
6872.5625045991
 10
6582.6769940793
 20
6872.1073188282
 10
6581.8107001722
 20
6871.6878213382
 10
6580.6447141111
 20
6871.3201277352
 10
6579.2240970075
 20
6871.0183717704
 10
6577.6033275068
 20
6870.7941465474
 10
6575.844632858
 20
6870.6560723877
 10
6574.0156047284
 20
6870.6094466544
 10
6572.1866958081
 20
6870.6560723877
 10
6570.4280011594
 20
6870.7941465474
 10
6568.8071124494
 20
6871.0183717704
 10
6567.3864953458
 20
6871.3201277352
 10
6566.220628494
 20
6871.6878213382
 10
6565.3542153775
 20
6872.1073188282
 10
6564.8207538068
 20
6872.5625045991
 10
6564.6406285703
 20
6873.0358772374
 10
6564.7863023221
 20
6873.4618939853
  0
ARC
  5
1BF
330
1F
100
AcDbEntity
  8
0
  6
Continuous
 62
     7
370
    25
100
AcDbCircle
 10
6574.0156643331
 20
6902.0406962249
 30
0.0
 40
28.58874559978955
100
AcDbArc
 50
255.6927879965
 51
284.3072120035
  0
ARC
  5
1C0
330
1F
100
AcDbEntity
  8
0
  6
Continuous
 62
     7
370
    25
100
AcDbCircle
 10
6574.0156047284
 20
6901.6803926268
 30
0.0
 40
28.19548190646842
100
AcDbArc
 50
255.6738533456
 51
284.3261466544
  0
ARC
  5
1C1
330
1F
100
AcDbEntity
  8
0
  6
Continuous
 62
     7
370
    25
100
AcDbCircle
 10
6574.0156643331
 20
6903.4481734873
 30
0.0
 40
29.31252997181902
100
AcDbArc
 50
259.0801684031
 51
280.9198315969
  0
LINE
  5
1C2
330
1F
100
AcDbEntity
  8
0
  6
Continuous
 62
     7
370
    25
100
AcDbLine
 10
5961.8650548398
 20
6876.6940154529
 30
0.0
 11
5986.1663453519
 21
6876.6940154529
 31
0.0
  0
LINE
  5
1C3
330
1F
100
AcDbEntity
  8
0
  6
Continuous
 62
     7
370
    25
100
AcDbLine
 10
5987.1338479459
 20
6876.4260702229
 30
0.0
 11
5986.1663453519
 21
6876.6940154529
 31
0.0
  0
ARC
  5
1C4
330
1F
100
AcDbEntity
  8
0
  6
Continuous
 62
     7
370
    25
100
AcDbCircle
 10
5974.0156230953
 20
6881.3157954633
 30
0.0
 40
13.99999999999974
100
AcDbArc
 50
200.4424420745
 51
339.5575579255
  0
LINE
  5
1C5
330
1F
100
AcDbEntity
  8
0
  6
Continuous
 62
     7
370
    25
100
AcDbLine
 10
5961.8650548398
 20
6876.6940154529
 30
0.0
 11
5960.8973138272
 21
6876.4260702229
 31
0.0
  0
LWPOLYLINE
  5
1C6
330
1F
100
AcDbEntity
  8
0
  6
Continuous
 62
     7
370
    25
100
AcDbPolyline
 90
       34
 70
   128
 43
0.0
 10
5974.0155808866
 20
6875.1087479687
 10
5975.8845441282
 20
6875.0625618196
 10
5977.6857964933
 20
6874.9256723023
 10
5979.3544881284
 20
6874.7030191517
 10
5980.8300607145
 20
6874.4026564455
 10
5982.0595853269
 20
6874.0354471302
 10
5982.9982392728
 20
6873.6146457887
 10
5983.612167114
 20
6873.1554739571
 10
5983.8794343412
 20
6872.6745240784
 10
5983.790027374
 20
6872.1891783572
 10
5983.3475224912
 20
6871.7169829107
 10
5982.5676553189
 20
6871.2749921179
 10
5981.4785592496
 20
6870.8791949249
 10
5980.1200501859
 20
6870.5438889957
 10
5978.5405270993
 20
6870.281196425
 10
5976.7976872861
 20
6870.1006018019
 10
5974.9542348325
 20
6870.0086467362
 10
5973.0769269407
 20
6870.0086467362
 10
5971.233474487
 20
6870.1006018019
 10
5969.4906346738
 20
6870.281196425
 10
5967.9113500058
 20
6870.5438889957
 10
5966.5526025235
 20
6870.8791949249
 10
5965.4635064542
 20
6871.2749921179
 10
5964.683639282
 20
6871.7169829107
 10
5964.2411343991
 20
6872.1891783572
 10
5964.151727432
 20
6872.6745240784
 10
5964.4189946592
 20
6873.1554739571
 10
5965.0329225003
 20
6873.6146457887
 10
5965.9715764463
 20
6874.0354471302
 10
5967.2011010587
 20
6874.4026564455
 10
5968.6769120633
 20
6874.7030191517
 10
5970.3453652799
 20
6874.9256723023
 10
5972.1468560636
 20
6875.0625618196
 10
5974.0155808866
 20
6875.1087479687
  0
ARC
  5
1C7
330
1F
100
AcDbEntity
  8
0
  6
Continuous
 62
     7
370
    25
100
AcDbCircle
 10
5974.0156230953
 20
6881.3157954633
 30
0.0
 40
13.00000000000028
100
AcDbArc
 50
339.1745965348
 51
200.8254034652
  0
ARC
  5
1C8
330
1F
100
AcDbEntity
  8
0
  6
Continuous
 62
     7
370
    25
100
AcDbCircle
 10
5974.0156230953
 20
6881.3157954633
 30
0.0
 40
13.99999999999974
100
AcDbArc
 50
339.5575579255
 51
200.4424420745
  0
LWPOLYLINE
  5
1C9
330
1F
100
AcDbEntity
  8
0
  6
Continuous
 62
     7
370
    25
100
AcDbPolyline
 90
       19
 70
   128
 43
0.0
 10
5983.2450025022
 20
6873.4618939853
 10
5983.390676254
 20
6873.0358772374
 10
5983.2104318082
 20
6872.5625045991
 10
5982.6770894468
 20
6872.1073188282
 10
5981.8106763303
 20
6871.6878213382
 10
5980.6448094785
 20
6871.3201277352
 10
5979.2240731656
 20
6871.0183717704
 10
5977.6033036649
 20
6870.7941465474
 10
5975.8444898069
 20
6870.6560723877
 10
5974.0155808866
 20
6870.6094466544
 10
5972.1866719663
 20
6870.6560723877
 10
5970.4278581083
 20
6870.7941465474
 10
5968.8070886075
 20
6871.0183717704
 10
5967.3865907132
 20
6871.3201277352
 10
5966.2204854428
 20
6871.6878213382
 10
5965.354310745
 20
6872.1073188282
 10
5964.8207299649
 20
6872.5625045991
 10
5964.6407239377
 20
6873.0358772374
 10
5964.786159271
 20
6873.4618939853
  0
ARC
  5
1CA
330
1F
100
AcDbEntity
  8
0
  6
Continuous
 62
     7
370
    25
100
AcDbCircle
 10
5974.0155808866
 20
6902.0398629355
 30
0.0
 40
28.58792342593296
100
AcDbArc
 50
255.6924910403
 51
284.3075089597
  0
ARC
  5
1CB
330
1F
100
AcDbEntity
  8
0
  6
Continuous
 62
     7
370
    25
100
AcDbCircle
 10
5974.0157000959
 20
6901.6803926239
 30
0.0
 40
28.1954819036785
100
AcDbArc
 50
255.6738533441
 51
284.3261466559
  0
ARC
  5
1CC
330
1F
100
AcDbEntity
  8
0
  6
Continuous
 62
     7
370
    25
100
AcDbCircle
 10
5974.0155808866
 20
6903.4482146842
 30
0.0
 40
29.31255913160183
100
AcDbArc
 50
259.0802980541
 51
280.9197019459
  0
LINE
  5
1CD
330
1F
100
AcDbEntity
  8
0
  6
Continuous
 62
     7
370
    25
100
AcDbLine
 10
5946.6718308866
 20
6069.9156068659
 30
0.0
 11
5708.6719148099
 21
6069.9139975405
 31
0.0
  0
LINE
  5
1CE
330
1F
100
AcDbEntity
  8
0
  6
Continuous
 62
     7
370
    25
100
AcDbLine
 10
5708.6719148099
 20
6071.1140178538
 30
0.0
 11
5708.6719148099
 21
6069.9139975405
 31
0.0
  0
LINE
  5
1CF
330
1F
100
AcDbEntity
  8
0
  6
Continuous
 62
     7
370
    25
100
AcDbLine
 10
5946.6718308866
 20
6071.1156271792
 30
0.0
 11
5946.6718308866
 21
6069.9156068659
 31
0.0
  0
LINE
  5
1D0
330
1F
100
AcDbEntity
  8
0
  6
Continuous
 62
     7
370
    25
100
AcDbLine
 10
5702.6718728482
 20
6069.9139379359
 30
0.0
 11
5708.6719148099
 21
6069.9139975405
 31
0.0
  0
LINE
  5
1D1
330
1F
100
AcDbEntity
  8
0
  6
Continuous
 62
     7
370
    25
100
AcDbLine
 10
5702.6718728482
 20
6069.9139379359
 30
0.0
 11
5702.6718728482
 21
6071.1139582491
 31
0.0
  0
LINE
  5
1D2
330
1F
100
AcDbEntity
  8
0
  6
Continuous
 62
     7
370
    25
100
AcDbLine
 10
5952.6718728482
 20
6071.1156271792
 30
0.0
 11
5952.6718728482
 21
6069.9156664706
 31
0.0
  0
LINE
  5
1D3
330
1F
100
AcDbEntity
  8
0
  6
Continuous
 62
     7
370
    25
100
AcDbLine
 10
5952.6718728482
 20
6069.9156664706
 30
0.0
 11
5946.6718308866
 21
6069.9156068659
 31
0.0
  0
LINE
  5
1D4
330
1F
100
AcDbEntity
  8
0
  6
Continuous
 62
     7
370
    25
100
AcDbLine
 10
6857.0208423078
 20
6071.1218260622
 30
0.0
 11
6853.1218640744
 21
6071.1217664576
 31
0.0
  0
LINE
  5
1D5
330
1F
100
AcDbEntity
  8
0
  6
Continuous
 62
     7
370
    25
100
AcDbLine
 10
5694.921838516
 20
6071.1138986445
 30
0.0
 11
5691.021787399
 21
6071.1138986445
 31
0.0
  0
LINE
  5
1D6
330
1F
100
AcDbEntity
  8
0
  6
Continuous
 62
     7
370
    25
100
AcDbLine
 10
6857.0222728193
 20
5876.1217736102
 30
0.0
 11
5691.0232179105
 21
5876.1139057971
 31
0.0
  0
LINE
  5
1D7
330
1F
100
AcDbEntity
  8
0
  6
Continuous
 62
     7
370
    25
100
AcDbLine
 10
6857.0219151914
 20
5916.1218546725
 30
0.0
 11
5691.0229794919
 21
5916.1138676501
 31
0.0
  0
LWPOLYLINE
  5
1D8
330
1F
100
AcDbEntity
  8
0
  6
Continuous
 62
     7
370
    25
100
AcDbPolyline
 90
       11
 70
   128
 43
0.0
 10
6872.0232121885
 20
5730.1218651629
 10
6872.0698230207
 20
5730.1218651629
 10
6872.4371068418
 20
5730.1218651629
 10
6873.1446139753
 20
5730.1218651629
 10
6874.1397731244
 20
5730.1218651629
 10
6875.3487937391
 20
5730.1219843722
 10
6876.6820304334
 20
5730.1219843722
 10
6878.0405394971
 20
5730.1219843722
 10
6879.3235890805
 20
5730.1219843722
 10
6880.4359309613
 20
5730.1219843722
 10
6881.1389081418
 20
5730.1219843722
  0
LWPOLYLINE
  5
1D9
330
1F
100
AcDbEntity
  8
0
  6
Continuous
 62
     7
370
    25
100
AcDbPolyline
 90
       11
 70
   128
 43
0.0
 10
5666.024314636
 20
5730.1136397219
 10
5666.0708062589
 20
5730.1137589312
 10
5666.4382092893
 20
5730.1137589312
 10
5667.1455972135
 20
5730.1137589312
 10
5668.1407563626
 20
5730.1137589312
 10
5669.3497769773
 20
5730.1137589312
 10
5670.6830136716
 20
5730.1137589312
 10
5672.0415227353
 20
5730.1137589312
 10
5673.3244531095
 20
5730.1137589312
 10
5674.4369141996
 20
5730.1137589312
 10
5675.1400105893
 20
5730.1137589312
  0
LINE
  5
1DA
330
1F
100
AcDbEntity
  8
0
  6
Continuous
 62
     7
370
    25
100
AcDbLine
 10
5671.0241906583
 20
5729.1137122012
 30
0.0
 11
5671.0241906583
 21
5721.1136959887
 31
0.0
  0
LINE
  5
1DB
330
1F
100
AcDbEntity
  8
0
  6
Continuous
 62
     7
370
    25
100
AcDbLine
 10
5686.0242955625
 20
5729.1138314105
 30
0.0
 11
5686.0242955625
 21
5721.113815198
 31
0.0
  0
LINE
  5
1DC
330
1F
100
AcDbEntity
  8
0
  6
Continuous
 62
     7
370
    25
100
AcDbLine
 10
5671.0241906583
 20
5721.1136959887
 30
0.0
 11
5686.0242955625
 21
5721.113815198
 31
0.0
  0
LINE
  5
1DD
330
1F
100
AcDbEntity
  8
0
  6
Continuous
 62
     7
370
    25
100
AcDbLine
 10
5671.0241906583
 20
5729.1137122012
 30
0.0
 11
5686.0242955625
 21
5729.1138314105
 31
0.0
  0
LINE
  5
1DE
330
1F
100
AcDbEntity
  8
0
  6
Continuous
 62
     7
370
    25
100
AcDbLine
 10
5656.0243241727
 20
5729.1135929919
 30
0.0
 11
5656.0243241727
 21
5721.1135767794
 31
0.0
  0
LINE
  5
1DF
330
1F
100
AcDbEntity
  8
0
  6
Continuous
 62
     7
370
    25
100
AcDbLine
 10
5656.0243241727
 20
5721.1135767794
 30
0.0
 11
5671.0241906583
 21
5721.1136959887
 31
0.0
  0
LINE
  5
1E0
330
1F
100
AcDbEntity
  8
0
  6
Continuous
 62
     7
370
    25
100
AcDbLine
 10
5656.0243241727
 20
5729.1135929919
 30
0.0
 11
5671.0241906583
 21
5729.1137122012
 31
0.0
  0
LINE
  5
1E1
330
1F
100
AcDbEntity
  8
0
  6
Continuous
 62
     7
370
    25
100
AcDbLine
 10
5672.524320358
 20
5729.1137122012
 30
0.0
 11
5669.5242993772
 21
5730.1137589312
 31
0.0
  0
LINE
  5
1E2
330
1F
100
AcDbEntity
  8
0
  6
Continuous
 62
     7
370
    25
100
AcDbLine
 10
5669.5242993772
 20
5730.1137589312
 30
0.0
 11
5669.5242993772
 21
5729.1137122012
 31
0.0
  0
LINE
  5
1E3
330
1F
100
AcDbEntity
  8
0
  6
Continuous
 62
     7
370
    25
100
AcDbLine
 10
5664.0800111234
 20
5729.1137122012
 30
0.0
 11
5661.9588010251
 21
5730.1136397219
 31
0.0
  0
LINE
  5
1E4
330
1F
100
AcDbEntity
  8
0
  6
Continuous
 62
     7
370
    25
100
AcDbLine
 10
5664.787160629
 20
5730.1136397219
 30
0.0
 11
5661.9588010251
 21
5730.1136397219
 31
0.0
  0
LINE
  5
1E5
330
1F
100
AcDbEntity
  8
0
  6
Continuous
 62
     7
370
    25
100
AcDbLine
 10
5666.9086091459
 20
5729.1137122012
 30
0.0
 11
5664.787160629
 21
5730.1136397219
 31
0.0
  0
LINE
  5
1E6
330
1F
100
AcDbEntity
  8
0
  6
Continuous
 62
     7
370
    25
100
AcDbLine
 10
5661.9588010251
 20
5730.1136397219
 30
0.0
 11
5661.9588010251
 21
5729.1137122012
 31
0.0
  0
LINE
  5
1E7
330
1F
100
AcDbEntity
  8
0
  6
Continuous
 62
     7
370
    25
100
AcDbLine
 10
5675.1400105893
 20
5729.1137122012
 30
0.0
 11
5675.1400105893
 21
5730.1137589312
 31
0.0
  0
LINE
  5
1E8
330
1F
100
AcDbEntity
  8
0
  6
Continuous
 62
     7
370
    25
100
AcDbLine
 10
5677.9683701932
 20
5730.1137589312
 30
0.0
 11
5677.9683701932
 21
5729.1138314105
 31
0.0
  0
LINE
  5
1E9
330
1F
100
AcDbEntity
  8
0
  6
Continuous
 62
     7
370
    25
100
AcDbLine
 10
5675.1400105893
 20
5730.1137589312
 30
0.0
 11
5677.9683701932
 21
5730.1137589312
 31
0.0
  0
LINE
  5
1EA
330
1F
100
AcDbEntity
  8
0
  6
Continuous
 62
     7
370
    25
100
AcDbLine
 10
5680.0895802915
 20
5729.1138314105
 30
0.0
 11
5677.9683701932
 21
5730.1137589312
 31
0.0
  0
LINE
  5
1EB
330
1F
100
AcDbEntity
  8
0
  6
Continuous
 62
     7
370
    25
100
AcDbLine
 10
5678.3448331296
 20
5730.1137589312
 30
0.0
 11
5682.3447816312
 21
5730.1137589312
 31
0.0
  0
LINE
  5
1EC
330
1F
100
AcDbEntity
  8
0
  6
Continuous
 62
     7
370
    25
100
AcDbLine
 10
5678.3448331296
 20
5729.9363755084
 30
0.0
 11
5678.3448331296
 21
5730.1137589312
 31
0.0
  0
LINE
  5
1ED
330
1F
100
AcDbEntity
  8
0
  6
Continuous
 62
     7
370
    25
100
AcDbLine
 10
5682.3447816312
 20
5730.1137589312
 30
0.0
 11
5682.3447816312
 21
5729.1138314105
 31
0.0
  0
LINE
  5
1EE
330
1F
100
AcDbEntity
  8
0
  6
Continuous
 62
     7
370
    25
100
AcDbLine
 10
5661.9588010251
 20
5730.1136397219
 30
0.0
 11
5659.7035996854
 21
5730.1136397219
 31
0.0
  0
LINE
  5
1EF
330
1F
100
AcDbEntity
  8
0
  6
Continuous
 62
     7
370
    25
100
AcDbLine
 10
5659.7035996854
 20
5729.1137122012
 30
0.0
 11
5659.7035996854
 21
5730.1136397219
 31
0.0
  0
LINE
  5
1F0
330
1F
100
AcDbEntity
  8
0
  6
Continuous
 62
     7
370
    25
100
AcDbLine
 10
5666.024314636
 20
5730.1136397219
 30
0.0
 11
5664.787160629
 21
5730.1136397219
 31
0.0
  0
LINE
  5
1F1
330
1F
100
AcDbEntity
  8
0
  6
Continuous
 62
     7
370
    25
100
AcDbLine
 10
5677.9683701932
 20
5730.1137589312
 30
0.0
 11
5678.3448331296
 21
5730.1137589312
 31
0.0
  0
LINE
  5
1F2
330
1F
100
AcDbEntity
  8
0
  6
Continuous
 62
     7
370
    25
100
AcDbLine
 10
6862.0232217252
 20
5729.1218184329
 30
0.0
 11
6862.0232217252
 21
5721.1218022204
 31
0.0
  0
LINE
  5
1F3
330
1F
100
AcDbEntity
  8
0
  6
Continuous
 62
     7
370
    25
100
AcDbLine
 10
6862.0232217252
 20
5729.1218184329
 30
0.0
 11
6877.0232074201
 21
5729.1219376421
 31
0.0
  0
LINE
  5
1F4
330
1F
100
AcDbEntity
  8
0
  6
Continuous
 62
     7
370
    25
100
AcDbLine
 10
6877.0232074201
 20
5729.1219376421
 30
0.0
 11
6877.0233266294
 21
5721.1219214297
 31
0.0
  0
LINE
  5
1F5
330
1F
100
AcDbEntity
  8
0
  6
Continuous
 62
     7
370
    25
100
AcDbLine
 10
6862.0232217252
 20
5721.1218022204
 30
0.0
 11
6877.0233266294
 21
5721.1219214297
 31
0.0
  0
LINE
  5
1F6
330
1F
100
AcDbEntity
  8
0
  6
Continuous
 62
     7
370
    25
100
AcDbLine
 10
6892.023193115
 20
5729.1220568514
 30
0.0
 11
6892.0233123243
 21
5721.122040639
 31
0.0
  0
LINE
  5
1F7
330
1F
100
AcDbEntity
  8
0
  6
Continuous
 62
     7
370
    25
100
AcDbLine
 10
6877.0233266294
 20
5721.1219214297
 30
0.0
 11
6892.0233123243
 21
5721.122040639
 31
0.0
  0
LINE
  5
1F8
330
1F
100
AcDbEntity
  8
0
  6
Continuous
 62
     7
370
    25
100
AcDbLine
 10
6877.0232074201
 20
5729.1219376421
 30
0.0
 11
6892.023193115
 21
5729.1220568514
 31
0.0
  0
LINE
  5
1F9
330
1F
100
AcDbEntity
  8
0
  6
Continuous
 62
     7
370
    25
100
AcDbLine
 10
6878.5232179105
 20
5729.1219376421
 30
0.0
 11
6875.5231969297
 21
5730.1219843722
 31
0.0
  0
LINE
  5
1FA
330
1F
100
AcDbEntity
  8
0
  6
Continuous
 62
     7
370
    25
100
AcDbLine
 10
6875.5231969297
 20
5730.1219843722
 30
0.0
 11
6875.5231969297
 21
5729.1219376421
 31
0.0
  0
LINE
  5
1FB
330
1F
100
AcDbEntity
  8
0
  6
Continuous
 62
     7
370
    25
100
AcDbLine
 10
6886.0887162626
 20
5729.1220568514
 30
0.0
 11
6883.967386955
 21
5730.1219843722
 31
0.0
  0
LINE
  5
1FC
330
1F
100
AcDbEntity
  8
0
  6
Continuous
 62
     7
370
    25
100
AcDbLine
 10
6883.967386955
 20
5730.1219843722
 30
0.0
 11
6883.967386955
 21
5729.1219376421
 31
0.0
  0
LINE
  5
1FD
330
1F
100
AcDbEntity
  8
0
  6
Continuous
 62
     7
370
    25
100
AcDbLine
 10
6881.1389081418
 20
5729.1219376421
 30
0.0
 11
6881.1389081418
 21
5730.1219843722
 31
0.0
  0
LINE
  5
1FE
330
1F
100
AcDbEntity
  8
0
  6
Continuous
 62
     7
370
    25
100
AcDbLine
 10
6881.1389081418
 20
5730.1219843722
 30
0.0
 11
6883.967386955
 21
5730.1219843722
 31
0.0
  0
LINE
  5
1FF
330
1F
100
AcDbEntity
  8
0
  6
Continuous
 62
     7
370
    25
100
AcDbLine
 10
6870.0790278852
 20
5729.1219376421
 30
0.0
 11
6867.9576985776
 21
5730.1218651629
 31
0.0
  0
LINE
  5
200
330
1F
100
AcDbEntity
  8
0
  6
Continuous
 62
     7
370
    25
100
AcDbLine
 10
6870.7861773908
 20
5730.1218651629
 30
0.0
 11
6867.9576985776
 21
5730.1218651629
 31
0.0
  0
LINE
  5
201
330
1F
100
AcDbEntity
  8
0
  6
Continuous
 62
     7
370
    25
100
AcDbLine
 10
6872.9075066983
 20
5729.1219376421
 30
0.0
 11
6870.7861773908
 21
5730.1218651629
 31
0.0
  0
LINE
  5
202
330
1F
100
AcDbEntity
  8
0
  6
Continuous
 62
     7
370
    25
100
AcDbLine
 10
6867.9576985776
 20
5730.1218651629
 30
0.0
 11
6867.9576985776
 21
5729.1219376421
 31
0.0
  0
LINE
  5
203
330
1F
100
AcDbEntity
  8
0
  6
Continuous
 62
     7
370
    25
100
AcDbLine
 10
6884.3437306821
 20
5729.9446009493
 30
0.0
 11
6884.3437306821
 21
5730.1219843722
 31
0.0
  0
LINE
  5
204
330
1F
100
AcDbEntity
  8
0
  6
Continuous
 62
     7
370
    25
100
AcDbLine
 10
6884.3437306821
 20
5730.1219843722
 30
0.0
 11
6888.3436791837
 21
5730.1219843722
 31
0.0
  0
LINE
  5
205
330
1F
100
AcDbEntity
  8
0
  6
Continuous
 62
     7
370
    25
100
AcDbLine
 10
6888.3436791837
 20
5730.1219843722
 30
0.0
 11
6888.3436791837
 21
5729.1220568514
 31
0.0
  0
LINE
  5
206
330
1F
100
AcDbEntity
  8
0
  6
Continuous
 62
     7
370
    25
100
AcDbLine
 10
6865.7027356565
 20
5729.1218184329
 30
0.0
 11
6865.7027356565
 21
5730.1218651629
 31
0.0
  0
LINE
  5
207
330
1F
100
AcDbEntity
  8
0
  6
Continuous
 62
     7
370
    25
100
AcDbLine
 10
6867.9576985776
 20
5730.1218651629
 30
0.0
 11
6865.7027356565
 21
5730.1218651629
 31
0.0
  0
LINE
  5
208
330
1F
100
AcDbEntity
  8
0
  6
Continuous
 62
     7
370
    25
100
AcDbLine
 10
6883.967386955
 20
5730.1219843722
 30
0.0
 11
6884.3437306821
 21
5730.1219843722
 31
0.0
  0
LINE
  5
209
330
1F
100
AcDbEntity
  8
0
  6
Continuous
 62
     7
370
    25
100
AcDbLine
 10
6872.0232121885
 20
5730.1218651629
 30
0.0
 11
6870.7861773908
 21
5730.1218651629
 31
0.0
  0
ARC
  5
20A
330
1F
100
AcDbEntity
  8
0
  6
Continuous
 62
     7
370
    25
100
AcDbCircle
 10
5656.0241564591
 20
5738.1136309947
 30
0.0
 40
5.00000000000032
100
AcDbArc
 50
180.0003899905
 51
270.0003899905
  0
LINE
  5
20B
330
1F
100
AcDbEntity
  8
0
  6
Continuous
 62
     7
370
    25
100
AcDbLine
 10
5651.0242097318
 20
5738.1136559344
 30
0.0
 11
5691.0241715848
 21
5738.113894353
 31
0.0
  0
ARC
  5
20C
330
1F
100
AcDbEntity
  8
0
  6
Continuous
 62
     7
370
    25
100
AcDbCircle
 10
5686.0241564584
 20
5738.1138351933
 30
0.0
 40
5.00000000000032
100
AcDbArc
 50
270.0003899905
 51
0.0003899905
  0
LINE
  5
20D
330
1F
100
AcDbEntity
  8
0
  6
Continuous
 62
     7
370
    25
100
AcDbLine
 10
5656.0240857541
 20
5733.1136607028
 30
0.0
 11
5686.0242955625
 21
5733.113779912
 31
0.0
  0
LINE
  5
20E
330
1F
100
AcDbEntity
  8
0
  6
Continuous
 62
     7
370
    25
100
AcDbLine
 10
5659.5240704953
 20
5747.6136826373
 30
0.0
 11
5682.5240724027
 21
5747.6138018465
 31
0.0
  0
LINE
  5
20F
330
1F
100
AcDbEntity
  8
0
  6
Continuous
 62
     7
370
    25
100
AcDbLine
 10
5682.5240724027
 20
5747.6138018465
 30
0.0
 11
5682.5240724027
 21
5747.1138380862
 31
0.0
  0
LINE
  5
210
330
1F
100
AcDbEntity
  8
0
  6
Continuous
 62
     7
370
    25
100
AcDbLine
 10
5682.5240724027
 20
5747.1138380862
 30
0.0
 11
5659.5240704953
 21
5747.1135996676
 31
0.0
  0
LINE
  5
211
330
1F
100
AcDbEntity
  8
0
  6
Continuous
 62
     7
370
    25
100
AcDbLine
 10
5659.5240704953
 20
5747.1135996676
 30
0.0
 11
5659.5240704953
 21
5747.6136826373
 31
0.0
  0
LINE
  5
212
330
1F
100
AcDbEntity
  8
0
  6
Continuous
 62
     7
370
    25
100
AcDbLine
 10
5659.5240704953
 20
5743.6136149264
 30
0.0
 11
5682.5240724027
 21
5743.613853345
 31
0.0
  0
LINE
  5
213
330
1F
100
AcDbEntity
  8
0
  6
Continuous
 62
     7
370
    25
100
AcDbLine
 10
5682.5240724027
 20
5743.613853345
 30
0.0
 11
5682.5240724027
 21
5743.1137703753
 31
0.0
  0
LINE
  5
214
330
1F
100
AcDbEntity
  8
0
  6
Continuous
 62
     7
370
    25
100
AcDbLine
 10
5651.0242097318
 20
5741.1135577059
 30
0.0
 11
5651.0242097318
 21
5738.1136559344
 31
0.0
  0
LINE
  5
215
330
1F
100
AcDbEntity
  8
0
  6
Continuous
 62
     7
370
    25
100
AcDbLine
 10
5651.0242097318
 20
5741.1135577059
 30
0.0
 11
5691.0241715848
 21
5741.1139153338
 31
0.0
  0
LINE
  5
216
330
1F
100
AcDbEntity
  8
0
  6
Continuous
 62
     7
370
    25
100
AcDbLine
 10
5691.0241715848
 20
5738.113894353
 30
0.0
 11
5691.0241715848
 21
5741.1139153338
 31
0.0
  0
LINE
  5
217
330
1F
100
AcDbEntity
  8
0
  6
Continuous
 62
     7
370
    25
100
AcDbLine
 10
5659.5240704953
 20
5743.113651166
 30
0.0
 11
5659.5240704953
 21
5743.6136149264
 31
0.0
  0
LINE
  5
218
330
1F
100
AcDbEntity
  8
0
  6
Continuous
 62
     7
370
    25
100
AcDbLine
 10
5682.5240724027
 20
5743.1137703753
 30
0.0
 11
5659.5240704953
 21
5743.113651166
 31
0.0
  0
LINE
  5
219
330
1F
100
AcDbEntity
  8
0
  6
Continuous
 62
     7
370
    25
100
AcDbLine
 10
5659.5240704953
 20
5751.6136311388
 30
0.0
 11
5682.5240724027
 21
5751.6138695574
 31
0.0
  0
LINE
  5
21A
330
1F
100
AcDbEntity
  8
0
  6
Continuous
 62
     7
370
    25
100
AcDbLine
 10
5659.5240704953
 20
5751.1136673785
 30
0.0
 11
5659.5240704953
 21
5751.6136311388
 31
0.0
  0
LINE
  5
21B
330
1F
100
AcDbEntity
  8
0
  6
Continuous
 62
     7
370
    25
100
AcDbLine
 10
5682.5240724027
 20
5751.6138695574
 30
0.0
 11
5682.5240724027
 21
5751.1137865878
 31
0.0
  0
LINE
  5
21C
330
1F
100
AcDbEntity
  8
0
  6
Continuous
 62
     7
370
    25
100
AcDbLine
 10
5682.5240724027
 20
5751.1137865878
 30
0.0
 11
5659.5240704953
 21
5751.1136673785
 31
0.0
  0
LINE
  5
21D
330
1F
100
AcDbEntity
  8
0
  6
Continuous
 62
     7
370
    25
100
AcDbLine
 10
6857.0231072843
 20
5738.1217621661
 30
0.0
 11
6897.0231883466
 21
5738.1221197939
 31
0.0
  0
LINE
  5
21E
330
1F
100
AcDbEntity
  8
0
  6
Continuous
 62
     7
370
    25
100
AcDbLine
 10
6862.0232217252
 20
5733.1218861437
 30
0.0
 11
6892.023193115
 21
5733.122005353
 31
0.0
  0
ARC
  5
21F
330
1F
100
AcDbEntity
  8
0
  6
Continuous
 62
     7
370
    25
100
AcDbCircle
 10
6892.0231564304
 20
5738.1220439691
 30
0.0
 40
5.00000000000032
100
AcDbArc
 50
270.0003899905
 51
0.0003899905
  0
ARC
  5
220
330
1F
100
AcDbEntity
  8
0
  6
Continuous
 62
     7
370
    25
100
AcDbCircle
 10
6862.0231564311
 20
5738.1218397705
 30
0.0
 40
5.00000000000032
100
AcDbArc
 50
180.0003899906
 51
270.0003899905
  0
LINE
  5
221
330
1F
100
AcDbEntity
  8
0
  6
Continuous
 62
     7
370
    25
100
AcDbLine
 10
6865.5230872571
 20
5747.6219080782
 30
0.0
 11
6888.5230891645
 21
5747.6220272875
 31
0.0
  0
LINE
  5
222
330
1F
100
AcDbEntity
  8
0
  6
Continuous
 62
     7
370
    25
100
AcDbLine
 10
6888.5230891645
 20
5747.6220272875
 30
0.0
 11
6888.5230891645
 21
5747.1220635272
 31
0.0
  0
LINE
  5
223
330
1F
100
AcDbEntity
  8
0
  6
Continuous
 62
     7
370
    25
100
AcDbLine
 10
6865.5230872571
 20
5747.1218251086
 30
0.0
 11
6865.5230872571
 21
5747.6219080782
 31
0.0
  0
LINE
  5
224
330
1F
100
AcDbEntity
  8
0
  6
Continuous
 62
     7
370
    25
100
AcDbLine
 10
6888.5230891645
 20
5747.1220635272
 30
0.0
 11
6865.5230872571
 21
5747.1218251086
 31
0.0
  0
LINE
  5
225
330
1F
100
AcDbEntity
  8
0
  6
Continuous
 62
     7
370
    25
100
AcDbLine
 10
6865.5230872571
 20
5743.6218403674
 30
0.0
 11
6888.5230891645
 21
5743.6220787859
 31
0.0
  0
LINE
  5
226
330
1F
100
AcDbEntity
  8
0
  6
Continuous
 62
     7
370
    25
100
AcDbLine
 10
6865.5230872571
 20
5743.121876607
 30
0.0
 11
6865.5230872571
 21
5743.6218403674
 31
0.0
  0
LINE
  5
227
330
1F
100
AcDbEntity
  8
0
  6
Continuous
 62
     7
370
    25
100
AcDbLine
 10
6888.5230891645
 20
5743.6220787859
 30
0.0
 11
6888.5230891645
 21
5743.1219958163
 31
0.0
  0
LINE
  5
228
330
1F
100
AcDbEntity
  8
0
  6
Continuous
 62
     7
370
    25
100
AcDbLine
 10
6888.5230891645
 20
5743.1219958163
 30
0.0
 11
6865.5230872571
 21
5743.121876607
 31
0.0
  0
LINE
  5
229
330
1F
100
AcDbEntity
  8
0
  6
Continuous
 62
     7
370
    25
100
AcDbLine
 10
6897.0231883466
 20
5738.1221197939
 30
0.0
 11
6897.0231883466
 21
5741.1220215655
 31
0.0
  0
LINE
  5
22A
330
1F
100
AcDbEntity
  8
0
  6
Continuous
 62
     7
370
    25
100
AcDbLine
 10
6857.0231072843
 20
5741.1217831469
 30
0.0
 11
6897.0231883466
 21
5741.1220215655
 31
0.0
  0
LINE
  5
22B
330
1F
100
AcDbEntity
  8
0
  6
Continuous
 62
     7
370
    25
100
AcDbLine
 10
6857.0231072843
 20
5741.1217831469
 30
0.0
 11
6857.0231072843
 21
5738.1217621661
 31
0.0
  0
LINE
  5
22C
330
1F
100
AcDbEntity
  8
0
  6
Continuous
 62
     7
370
    25
100
AcDbLine
 10
6865.5230872571
 20
5751.6218565798
 30
0.0
 11
6888.5230891645
 21
5751.6219757891
 31
0.0
  0
LINE
  5
22D
330
1F
100
AcDbEntity
  8
0
  6
Continuous
 62
     7
370
    25
100
AcDbLine
 10
6865.5230872571
 20
5751.1218928195
 30
0.0
 11
6865.5230872571
 21
5751.6218565798
 31
0.0
  0
LINE
  5
22E
330
1F
100
AcDbEntity
  8
0
  6
Continuous
 62
     7
370
    25
100
AcDbLine
 10
6888.5230891645
 20
5751.6219757891
 30
0.0
 11
6888.5230891645
 21
5751.1220120287
 31
0.0
  0
LINE
  5
22F
330
1F
100
AcDbEntity
  8
0
  6
Continuous
 62
     7
370
    25
100
AcDbLine
 10
6888.5230891645
 20
5751.1220120287
 30
0.0
 11
6865.5230872571
 21
5751.1218928195
 31
0.0
  0
LINE
  5
230
330
1F
100
AcDbEntity
  8
0
  6
Continuous
 62
     7
370
    25
100
AcDbLine
 10
5694.8219411313
 20
6072.013869176
 30
0.0
 11
5694.0218083799
 21
6072.013869176
 31
0.0
  0
SPLINE
  5
231
330
1F
100
AcDbEntity
  8
0
  6
Continuous
 62
     7
370
    25
100
AcDbSpline
210
0.0
220
0.0
230
1.0
 70
     8
 71
     3
 72
    11
 73
     7
 74
     0
 42
0.000000001
 43
0.00000001
 40
0.0
 40
0.0
 40
0.0
 40
0.0
 40
0.2500190999660038
 40
0.5000004075617034
 40
0.7500392852486601
 40
0.9999999999999999
 40
0.9999999999999999
 40
0.9999999999999999
 40
0.9999999999999999
 10
5694.02180837986
 20
6072.013869175957
 30
0.0
 10
5694.050414449202
 20
6072.097216094411
 30
0.0
 10
5694.107622263852
 20
6072.263897332773
 30
0.0
 10
5694.546814429721
 20
6072.513936459107
 30
0.0
 10
5695.174983234084
 20
6072.76380774067
 30
0.0
 10
5695.672864379763
 20
6072.930555206543
 30
0.0
 10
5695.92176603672
 20
6073.013915905998
 30
0.0
  0
SPLINE
  5
232
330
1F
100
AcDbEntity
  8
0
  6
Continuous
 62
     7
370
    25
100
AcDbSpline
210
0.0
220
0.0
230
1.0
 70
     8
 71
     3
 72
    11
 73
     7
 74
     0
 42
0.000000001
 43
0.00000001
 40
0.0
 40
0.0
 40
0.0
 40
0.0
 40
0.24995725088363
 40
0.499978473466487
 40
0.7499817168580962
 40
1.0
 40
1.0
 40
1.0
 40
1.0
 10
5695.92176603672
 20
6073.013915905998
 30
0.0
 10
5695.777683064122
 20
6072.930557550255
 30
0.0
 10
5695.489480243689
 20
6072.76381950482
 30
0.0
 10
5695.125827543943
 20
6072.513909315281
 30
0.0
 10
5694.871493102371
 20
6072.263914093117
 30
0.0
 10
5694.838458786212
 20
6072.097219152972
 30
0.0
 10
5694.821941131325
 20
6072.013869175957
 30
0.0
  0
LINE
  5
233
330
1F
100
AcDbEntity
  8
0
  6
Continuous
 62
     7
370
    25
100
AcDbLine
 10
5694.921838516
 20
6071.9139121867
 30
0.0
 11
5694.921838516
 21
6071.1138986445
 31
0.0
  0
SPLINE
  5
234
330
1F
100
AcDbEntity
  8
0
  6
Continuous
 62
     7
370
    25
100
AcDbSpline
210
0.0
220
0.0
230
1.0
 70
     8
 71
     3
 72
    11
 73
     7
 74
     0
 42
0.000000001
 43
0.00000001
 40
0.0
 40
0.0
 40
0.0
 40
0.0
 40
0.250031042978308
 40
0.4999966947173729
 40
0.7500191667237265
 40
1.0
 40
1.0
 40
1.0
 40
1.0
 10
5694.921838515968
 20
6071.913912186668
 30
0.0
 10
5695.005226494948
 20
6071.930446189112
 30
0.0
 10
5695.171980644243
 20
6071.963509869819
 30
0.0
 10
5695.421742915721
 20
6072.217915112633
 30
0.0
 10
5695.671958258778
 20
6072.581402910208
 30
0.0
 10
5695.838501400472
 20
6072.8697529117
 30
0.0
 10
5695.92176603672
 20
6073.013915905998
 30
0.0
  0
SPLINE
  5
235
330
1F
100
AcDbEntity
  8
0
  6
Continuous
 62
     7
370
    25
100
AcDbSpline
210
0.0
220
0.0
230
1.0
 70
     8
 71
     3
 72
    11
 73
     7
 74
     0
 42
0.000000001
 43
0.00000001
 40
0.0
 40
0.0
 40
0.0
 40
0.0
 40
0.2499895785549277
 40
0.5000046318005924
 40
0.7499878392365528
 40
1.0
 40
1.0
 40
1.0
 40
1.0
 10
5695.92176603672
 20
6073.013915905998
 30
0.0
 10
5695.838503656048
 20
6072.764933630942
 30
0.0
 10
5695.671970410019
 20
6072.266943708788
 30
0.0
 10
5695.421723697363
 20
6071.638965531304
 30
0.0
 10
5695.172004620274
 20
6071.19952015366
 30
0.0
 10
5695.005230436546
 20
6071.142440249327
 30
0.0
 10
5694.921838515968
 20
6071.113898644493
 30
0.0
  0
LINE
  5
236
330
1F
100
AcDbEntity
  8
0
  6
Continuous
 62
     7
370
    25
100
AcDbLine
 10
6853.1218640744
 20
6071.1217664576
 30
0.0
 11
6853.1218640744
 21
6071.9217799998
 31
0.0
  0
SPLINE
  5
237
330
1F
100
AcDbEntity
  8
0
  6
Continuous
 62
     7
370
    25
100
AcDbSpline
210
0.0
220
0.0
230
1.0
 70
     8
 71
     3
 72
    11
 73
     7
 74
     0
 42
0.000000001
 43
0.00000001
 40
0.0
 40
0.0
 40
0.0
 40
0.0
 40
0.250003338177309
 40
0.4999985449193558
 40
0.7499862486537188
 40
1.0
 40
1.0
 40
1.0
 40
1.0
 10
6853.12186407444
 20
6071.121766457603
 30
0.0
 10
6853.038537882888
 20
6071.150338304247
 30
0.0
 10
6852.871888209995
 20
6071.207481068226
 30
0.0
 10
6852.621897724267
 20
6071.646846531385
 30
0.0
 10
6852.371934312048
 20
6072.274882635235
 30
0.0
 10
6852.205192562423
 20
6072.772808044664
 30
0.0
 10
6852.121817344399
 20
6073.021783719108
 30
0.0
  0
SPLINE
  5
238
330
1F
100
AcDbEntity
  8
0
  6
Continuous
 62
     7
370
    25
100
AcDbSpline
210
0.0
220
0.0
230
1.0
 70
     8
 71
     3
 72
    11
 73
     7
 74
     0
 42
0.000000001
 43
0.00000001
 40
0.0
 40
0.0
 40
0.0
 40
0.0
 40
0.2500336805598916
 40
0.5000184042243958
 40
0.7500067045867141
 40
1.0
 40
1.0
 40
1.0
 40
1.0
 10
6852.121817344399
 20
6073.021783719108
 30
0.0
 10
6852.205190591935
 20
6072.877633748308
 30
0.0
 10
6852.371920762423
 20
6072.589362031445
 30
0.0
 10
6852.621897154768
 20
6072.22572496303
 30
0.0
 10
6852.871886195835
 20
6071.971408473272
 30
0.0
 10
6853.038537559931
 20
6071.938322934457
 30
0.0
 10
6853.12186407444
 20
6071.921779999779
 30
0.0
  0
LINE
  5
239
330
1F
100
AcDbEntity
  8
0
  6
Continuous
 62
     7
370
    25
100
AcDbLine
 10
6854.0218942105
 20
6072.0217965937
 30
0.0
 11
6853.2218806684
 21
6072.0217965937
 31
0.0
  0
SPLINE
  5
23A
330
1F
100
AcDbEntity
  8
0
  6
Continuous
 62
     7
370
    25
100
AcDbSpline
210
0.0
220
0.0
230
1.0
 70
     8
 71
     3
 72
    11
 73
     7
 74
     0
 42
0.000000001
 43
0.00000001
 40
0.0
 40
0.0
 40
0.0
 40
0.0
 40
0.249985108425385
 40
0.4999990838125736
 40
0.7499742253603795
 40
1.0
 40
1.0
 40
1.0
 40
1.0
 10
6853.221880668373
 20
6072.021796593712
 30
0.0
 10
6853.20537399502
 20
6072.10512946394
 30
0.0
 10
6853.172358742211
 20
6072.271804827238
 30
0.0
 10
6852.917831065023
 20
6072.521709346976
 30
0.0
 10
6852.554342414846
 20
6072.771855793419
 30
0.0
 10
6852.266002100904
 20
6072.938468786468
 30
0.0
 10
6852.121817344399
 20
6073.021783719108
 30
0.0
  0
SPLINE
  5
23B
330
1F
100
AcDbEntity
  8
0
  6
Continuous
 62
     7
370
    25
100
AcDbSpline
210
0.0
220
0.0
230
1.0
 70
     8
 71
     3
 72
    11
 73
     7
 74
     0
 42
0.000000001
 43
0.00000001
 40
0.0
 40
0.0
 40
0.0
 40
0.0
 40
0.2500135036795499
 40
0.5000165250153196
 40
0.7500059572988294
 40
0.9999999999999999
 40
0.9999999999999999
 40
0.9999999999999999
 40
0.9999999999999999
 10
6852.121817344399
 20
6073.021783719108
 30
0.0
 10
6852.370816111355
 20
6072.938463752026
 30
0.0
 10
6852.868803205471
 20
6072.771827311227
 30
0.0
 10
6853.496855256449
 20
6072.521747060614
 30
0.0
 10
6853.93625348052
 20
6072.27178024035
 30
0.0
 10
6853.99334712505
 20
6072.105124988175
 30
0.0
 10
6854.021894210548
 20
6072.021796593712
 30
0.0
  0
LINE
  5
23C
330
1F
100
AcDbEntity
  8
0
  6
Continuous
 62
     7
370
    25
100
AcDbLine
 10
6853.1218640744
 20
6071.1217664576
 30
0.0
 11
5694.921838516
 21
6071.1138986445
 31
0.0
  0
LINE
  5
23D
330
1F
100
AcDbEntity
  8
0
  6
Continuous
 62
     7
370
    25
100
AcDbLine
 10
6852.1218173444
 20
6073.0217837191
 30
0.0
 11
5695.9217660367
 21
6073.013915906
 31
0.0
  0
LINE
  5
23E
330
1F
100
AcDbEntity
  8
0
  6
Continuous
 62
     7
370
    25
100
AcDbLine
 10
5694.921838516
 20
6071.9139121867
 30
0.0
 11
5694.921838516
 21
6072.2768448687
 31
0.0
  0
LINE
  5
23F
330
1F
100
AcDbEntity
  8
0
  6
Continuous
 62
     7
370
    25
100
AcDbLine
 10
6853.1218640744
 20
6072.2817920542
 30
0.0
 11
6853.1218640744
 21
6071.9217799998
 31
0.0
  0
LINE
  5
240
330
1F
100
AcDbEntity
  8
0
  6
Continuous
 62
     7
370
    25
100
AcDbLine
 10
6857.0231072843
 20
5741.1217831469
 30
0.0
 11
6857.0208423078
 21
6071.3217996455
 31
0.0
  0
LINE
  5
241
330
1F
100
AcDbEntity
  8
0
  6
Continuous
 62
     7
370
    25
100
AcDbLine
 10
6895.0230948865
 20
5741.1220215655
 30
0.0
 11
6859.0230815351
 21
5741.1217831469
 31
0.0
  0
LINE
  5
242
330
1F
100
AcDbEntity
  8
0
  6
Continuous
 62
     7
370
    25
100
AcDbLine
 10
6897.0231883466
 20
5741.1220215655
 30
0.0
 11
6897.0209233701
 21
6071.3220976687
 31
0.0
  0
LINE
  5
243
330
1F
100
AcDbEntity
  8
0
  6
Continuous
 62
     7
370
    25
100
AcDbLine
 10
5689.0240781247
 20
5741.1137961245
 30
0.0
 11
5653.0240647733
 21
5741.1135577059
 31
0.0
  0
LINE
  5
244
330
1F
100
AcDbEntity
  8
0
  6
Continuous
 62
     7
370
    25
100
AcDbLine
 10
5691.0241715848
 20
5741.1139153338
 30
0.0
 11
5691.021787399
 21
6071.3138722277
 31
0.0
  0
LINE
  5
245
330
1F
100
AcDbEntity
  8
0
  6
Continuous
 62
     7
370
    25
100
AcDbLine
 10
5651.0242097318
 20
5741.1135577059
 30
0.0
 11
5651.021825546
 21
6071.3135742045
 31
0.0
  0
LINE
  5
246
330
1F
100
AcDbEntity
  8
0
  6
Continuous
 62
     7
370
    25
100
AcDbLine
 10
5651.0184876859
 20
6571.3136040068
 30
0.0
 11
5651.0187261045
 21
6546.3236116267
 31
0.0
  0
LINE
  5
247
330
1F
100
AcDbEntity
  8
0
  6
Continuous
 62
     7
370
    25
100
AcDbLine
 10
5651.0187261045
 20
6546.3236116267
 30
0.0
 11
5649.0186326444
 21
6546.3235818243
 31
0.0
  0
LINE
  5
248
330
1F
100
AcDbEntity
  8
0
  6
Continuous
 62
     7
370
    25
100
AcDbLine
 10
5651.0184876859
 20
6571.3136040068
 30
0.0
 11
5649.0183942258
 21
6571.3135742045
 31
0.0
  0
LINE
  5
249
330
1F
100
AcDbEntity
  8
0
  6
Continuous
 62
     7
370
    25
100
AcDbLine
 10
5649.0183942258
 20
6571.3135742045
 30
0.0
 11
5649.0186326444
 21
6546.3235818243
 31
0.0
  0
LINE
  5
24A
330
1F
100
AcDbEntity
  8
0
  6
Continuous
 62
     7
370
    25
100
AcDbLine
 10
5694.0218083799
 20
6071.3138722277
 30
0.0
 11
5694.0187089383
 21
6546.3138960696
 31
0.0
  0
LINE
  5
24B
330
1F
100
AcDbEntity
  8
0
  6
Continuous
 62
     7
370
    25
100
AcDbLine
 10
5690.9218900144
 20
6071.3138722277
 30
0.0
 11
5690.9185521543
 21
6546.3138662672
 31
0.0
  0
LINE
  5
24C
330
1F
100
AcDbEntity
  8
0
  6
Continuous
 62
     7
370
    25
100
AcDbLine
 10
5694.0218083799
 20
6071.3138722277
 30
0.0
 11
5690.9218900144
 21
6071.3138722277
 31
0.0
  0
LINE
  5
24D
330
1F
100
AcDbEntity
  8
0
  6
Continuous
 62
     7
370
    25
100
AcDbLine
 10
5652.1185510099
 20
6546.3135980463
 30
0.0
 11
5690.9185521543
 21
6546.3138662672
 31
0.0
  0
LINE
  5
24E
330
1F
100
AcDbEntity
  8
0
  6
Continuous
 62
     7
370
    25
100
AcDbLine
 10
5652.12188887
 20
6071.3136338091
 30
0.0
 11
5652.1185510099
 21
6546.3135980463
 31
0.0
  0
LINE
  5
24F
330
1F
100
AcDbEntity
  8
0
  6
Continuous
 62
     7
370
    25
100
AcDbLine
 10
5690.9218900144
 20
6071.3138722277
 30
0.0
 11
5652.12188887
 21
6071.3136338091
 31
0.0
  0
LINE
  5
250
330
1F
100
AcDbEntity
  8
0
  6
Continuous
 62
     7
370
    25
100
AcDbLine
 10
5649.0186326444
 20
6546.3135980463
 30
0.0
 11
5651.0187261045
 21
6546.3135980463
 31
0.0
  0
LWPOLYLINE
  5
251
330
1F
100
AcDbEntity
  8
0
  6
Continuous
 62
     7
370
    25
100
AcDbPolyline
 90
        9
 70
   128
 43
0.0
 10
5652.12188887
 20
6071.3136338091
 10
5651.5170209348
 20
6071.3135742045
 10
5650.9355180204
 20
6071.3135742045
 10
5650.3995530545
 20
6071.3135742045
 10
5649.9298684537
 20
6071.3135742045
 10
5649.5443456113
 20
6071.3135742045
 10
5649.2577664792
 20
6071.3135742045
 10
5649.0813367307
 20
6071.3135742045
 10
5649.0219705045
 20
6071.3135742045
  0
LINE
  5
252
330
1F
100
AcDbEntity
  8
0
  6
Continuous
 62
     7
370
    25
100
AcDbLine
 10
5649.0219705045
 20
6071.3135742045
 30
0.0
 11
5649.0186326444
 21
6546.3135980463
 31
0.0
  0
LINE
  5
253
330
1F
100
AcDbEntity
  8
0
  6
Continuous
 62
     7
370
    25
100
AcDbLine
 10
5649.0186326444
 20
6546.3135980463
 30
0.0
 11
5649.0186326444
 21
6546.3235818243
 31
0.0
  0
LINE
  5
254
330
1F
100
AcDbEntity
  8
0
  6
Continuous
 62
     7
370
    25
100
AcDbLine
 10
5651.0156266629
 20
6980.3496256865
 30
0.0
 11
5649.0157716214
 21
6980.3496107853
 31
0.0
  0
LINE
  5
255
330
1F
100
AcDbEntity
  8
0
  6
Continuous
 62
     7
370
    25
100
AcDbLine
 10
5651.0156266629
 20
6980.3496256865
 30
0.0
 11
5651.0156266629
 21
6980.2587658561
 31
0.0
  0
LINE
  5
256
330
1F
100
AcDbEntity
  8
0
  6
Continuous
 62
     7
370
    25
100
AcDbLine
 10
5649.0157716214
 20
6980.3496107853
 30
0.0
 11
5649.0183942258
 21
6571.3135742045
 31
0.0
  0
LINE
  5
257
330
1F
100
AcDbEntity
  8
0
  6
Continuous
 62
     7
370
    25
100
AcDbLine
 10
5651.0156266629
 20
6981.9635704554
 30
0.0
 11
5649.0157716214
 21
6981.9635555542
 31
0.0
  0
LINE
  5
258
330
1F
100
AcDbEntity
  8
0
  6
Continuous
 62
     7
370
    25
100
AcDbLine
 10
5651.0156266629
 20
6981.9635704554
 30
0.0
 11
5651.0156266629
 21
6980.3496256865
 31
0.0
  0
LINE
  5
259
330
1F
100
AcDbEntity
  8
0
  6
Continuous
 62
     7
370
    25
100
AcDbLine
 10
5649.0157716214
 20
6981.9635555542
 30
0.0
 11
5649.0157716214
 21
6980.3496107853
 31
0.0
  0
LINE
  5
25A
330
1F
100
AcDbEntity
  8
0
  6
Continuous
 62
     7
370
    25
100
AcDbLine
 10
5651.0156266629
 20
6991.8899603582
 30
0.0
 11
5649.0155332029
 21
6991.889945457
 31
0.0
  0
LINE
  5
25B
330
1F
100
AcDbEntity
  8
0
  6
Continuous
 62
     7
370
    25
100
AcDbLine
 10
5651.0156266629
 20
6991.8899603582
 30
0.0
 11
5651.0156266629
 21
6981.9635704554
 31
0.0
  0
LINE
  5
25C
330
1F
100
AcDbEntity
  8
0
  6
Continuous
 62
     7
370
    25
100
AcDbLine
 10
5649.0155332029
 20
6991.889945457
 30
0.0
 11
5649.0157716214
 21
6981.9635555542
 31
0.0
  0
LINE
  5
25D
330
1F
100
AcDbEntity
  8
0
  6
Continuous
 62
     7
370
    25
100
AcDbLine
 10
5651.0156266629
 20
6991.926017443
 30
0.0
 11
5651.0156266629
 21
6991.8899603582
 31
0.0
  0
LINE
  5
25E
330
1F
100
AcDbEntity
  8
0
  6
Continuous
 62
     7
370
    25
100
AcDbLine
 10
5649.0155332029
 20
6991.9260025418
 30
0.0
 11
5649.0155332029
 21
6991.889945457
 31
0.0
  0
LINE
  5
25F
330
1F
100
AcDbEntity
  8
0
  6
Continuous
 62
     7
370
    25
100
AcDbLine
 10
6897.0186583936
 20
6546.3320754862
 30
0.0
 11
6899.0186326444
 21
6546.3321052886
 31
0.0
  0
LINE
  5
260
330
1F
100
AcDbEntity
  8
0
  6
Continuous
 62
     7
370
    25
100
AcDbLine
 10
6897.0185391843
 20
6571.3220678664
 30
0.0
 11
6899.0185134351
 21
6571.3220976687
 31
0.0
  0
LINE
  5
261
330
1F
100
AcDbEntity
  8
0
  6
Continuous
 62
     7
370
    25
100
AcDbLine
 10
6899.0186326444
 20
6546.3321052886
 30
0.0
 11
6899.0185134351
 21
6571.3220976687
 31
0.0
  0
LINE
  5
262
330
1F
100
AcDbEntity
  8
0
  6
Continuous
 62
     7
370
    25
100
AcDbLine
 10
6897.0186583936
 20
6546.3320754862
 30
0.0
 11
6897.0185391843
 21
6571.3220678664
 31
0.0
  0
LINE
  5
263
330
1F
100
AcDbEntity
  8
0
  6
Continuous
 62
     7
370
    25
100
AcDbLine
 10
6895.9187142789
 20
6546.3220619059
 30
0.0
 11
6895.9219329297
 21
6071.3220976687
 31
0.0
  0
LINE
  5
264
330
1F
100
AcDbEntity
  8
0
  6
Continuous
 62
     7
370
    25
100
AcDbLine
 10
6897.0186583936
 20
6546.3220917082
 30
0.0
 11
6899.0186326444
 21
6546.3220917082
 31
0.0
  0
LINE
  5
265
330
1F
100
AcDbEntity
  8
0
  6
Continuous
 62
     7
370
    25
100
AcDbLine
 10
6899.0218512952
 20
6071.3220976687
 30
0.0
 11
6895.9219329297
 21
6071.3220976687
 31
0.0
  0
LINE
  5
266
330
1F
100
AcDbEntity
  8
0
  6
Continuous
 62
     7
370
    25
100
AcDbLine
 10
6899.0186326444
 20
6546.3220917082
 30
0.0
 11
6899.0218512952
 21
6071.3220976687
 31
0.0
  0
LINE
  5
267
330
1F
100
AcDbEntity
  8
0
  6
Continuous
 62
     7
370
    25
100
AcDbLine
 10
6857.1187131345
 20
6546.321793685
 30
0.0
 11
6857.1219317853
 21
6071.3217996455
 31
0.0
  0
LINE
  5
268
330
1F
100
AcDbEntity
  8
0
  6
Continuous
 62
     7
370
    25
100
AcDbLine
 10
6857.1187131345
 20
6546.321793685
 30
0.0
 11
6895.9187142789
 21
6546.3220619059
 31
0.0
  0
LINE
  5
269
330
1F
100
AcDbEntity
  8
0
  6
Continuous
 62
     7
370
    25
100
AcDbLine
 10
6895.9219329297
 20
6071.3220976687
 30
0.0
 11
6857.1219317853
 21
6071.3217996455
 31
0.0
  0
LINE
  5
26A
330
1F
100
AcDbEntity
  8
0
  6
Continuous
 62
     7
370
    25
100
AcDbLine
 10
6854.0186755597
 20
6546.321793685
 30
0.0
 11
6854.0218942105
 21
6071.3217996455
 31
0.0
  0
LINE
  5
26B
330
1F
100
AcDbEntity
  8
0
  6
Continuous
 62
     7
370
    25
100
AcDbLine
 10
6857.1219317853
 20
6071.3217996455
 30
0.0
 11
6854.0218942105
 21
6071.3217996455
 31
0.0
  0
LINE
  5
26C
330
1F
100
AcDbEntity
  8
0
  6
Continuous
 62
     7
370
    25
100
AcDbLine
 10
6899.0186326444
 20
6546.3321052886
 30
0.0
 11
6899.0186326444
 21
6546.3220917082
 31
0.0
  0
LINE
  5
26D
330
1F
100
AcDbEntity
  8
0
  6
Continuous
 62
     7
370
    25
100
AcDbLine
 10
6897.0156781614
 20
6980.3581063098
 30
0.0
 11
6899.0156524121
 21
6980.3581193483
 31
0.0
  0
LINE
  5
26E
330
1F
100
AcDbEntity
  8
0
  6
Continuous
 62
     7
370
    25
100
AcDbLine
 10
6899.0185134351
 20
6571.3220976687
 30
0.0
 11
6899.0156524121
 21
6980.3581193483
 31
0.0
  0
LINE
  5
26F
330
1F
100
AcDbEntity
  8
0
  6
Continuous
 62
     7
370
    25
100
AcDbLine
 10
6897.0156781614
 20
6980.3566385454
 30
0.0
 11
6897.0156781614
 21
6980.3581063098
 31
0.0
  0
LINE
  5
270
330
1F
100
AcDbEntity
  8
0
  6
Continuous
 62
     7
370
    25
100
AcDbLine
 10
6897.0156781614
 20
6981.9720492161
 30
0.0
 11
6899.0156524121
 21
6981.9720641172
 31
0.0
  0
LINE
  5
271
330
1F
100
AcDbEntity
  8
0
  6
Continuous
 62
     7
370
    25
100
AcDbLine
 10
6899.0156524121
 20
6980.3581193483
 30
0.0
 11
6899.0156524121
 21
6981.9720641172
 31
0.0
  0
LINE
  5
272
330
1F
100
AcDbEntity
  8
0
  6
Continuous
 62
     7
370
    25
100
AcDbLine
 10
6897.0156781614
 20
6980.3581063098
 30
0.0
 11
6897.0156781614
 21
6981.9720492161
 31
0.0
  0
LINE
  5
273
330
1F
100
AcDbEntity
  8
0
  6
Continuous
 62
     7
370
    25
100
AcDbLine
 10
6897.0156781614
 20
6991.8984428442
 30
0.0
 11
6899.0156524121
 21
6991.8984540201
 31
0.0
  0
LINE
  5
274
330
1F
100
AcDbEntity
  8
0
  6
Continuous
 62
     7
370
    25
100
AcDbLine
 10
6899.0156524121
 20
6981.9720641172
 30
0.0
 11
6899.0156524121
 21
6991.8984540201
 31
0.0
  0
LINE
  5
275
330
1F
100
AcDbEntity
  8
0
  6
Continuous
 62
     7
370
    25
100
AcDbLine
 10
6897.0156781614
 20
6981.9720492161
 30
0.0
 11
6897.0156781614
 21
6991.8984428442
 31
0.0
  0
LINE
  5
276
330
1F
100
AcDbEntity
  8
0
  6
Continuous
 62
     7
370
    25
100
AcDbLine
 10
6899.0156524121
 20
6991.8984540201
 30
0.0
 11
6899.0156524121
 21
6991.9345111049
 31
0.0
  0
LINE
  5
277
330
1F
100
AcDbEntity
  8
0
  6
Continuous
 62
     7
370
    25
100
AcDbLine
 10
6897.0156781614
 20
6991.8984428442
 30
0.0
 11
6897.0156781614
 21
6991.9344962037
 31
0.0
  0
LINE
  5
278
330
1F
100
AcDbEntity
  8
0
  6
Continuous
 62
     7
370
    25
100
AcDbLine
 10
5651.0184876859
 20
6571.3136040068
 30
0.0
 11
6897.0185391843
 21
6571.3220678664
 31
0.0
  0
LINE
  5
279
330
1F
100
AcDbEntity
  8
0
  6
Continuous
 62
     7
370
    25
100
AcDbLine
 10
6897.0185391843
 20
6571.3220678664
 30
0.0
 11
6897.0185391843
 21
6569.6720920897
 31
0.0
  0
LINE
  5
27A
330
1F
100
AcDbEntity
  8
0
  6
Continuous
 62
     7
370
    25
100
AcDbLine
 10
5651.0184876859
 20
6569.6635984278
 30
0.0
 11
6897.0185391843
 21
6569.6720920897
 31
0.0
  0
LINE
  5
27B
330
1F
100
AcDbEntity
  8
0
  6
Continuous
 62
     7
370
    25
100
AcDbLine
 10
5651.0184876859
 20
6569.6635984278
 30
0.0
 11
5651.0184876859
 21
6571.3136040068
 31
0.0
  0
LINE
  5
27C
330
1F
100
AcDbEntity
  8
0
  6
Continuous
 62
     7
370
    25
100
AcDbLine
 10
5651.0187261045
 20
6546.3135980463
 30
0.0
 11
5652.1185510099
 21
6546.3135980463
 31
0.0
  0
LINE
  5
27D
330
1F
100
AcDbEntity
  8
0
  6
Continuous
 62
     7
370
    25
100
AcDbLine
 10
5690.9185521543
 20
6546.3138662672
 30
0.0
 11
6857.1187131345
 21
6546.321793685
 31
0.0
  0
LINE
  5
27E
330
1F
100
AcDbEntity
  8
0
  6
Continuous
 62
     7
370
    25
100
AcDbLine
 10
6895.9187142789
 20
6546.3220619059
 30
0.0
 11
6897.0186583936
 21
6546.3220917082
 31
0.0
  0
LINE
  5
27F
330
1F
100
AcDbEntity
  8
0
  6
Continuous
 62
     7
370
    25
100
AcDbLine
 10
6897.0186583936
 20
6546.3320754862
 30
0.0
 11
6897.0186583936
 21
6546.3220917082
 31
0.0
  0
LINE
  5
280
330
1F
100
AcDbEntity
  8
0
  6
Continuous
 62
     7
370
    25
100
AcDbLine
 10
5651.0187261045
 20
6546.3135980463
 30
0.0
 11
5651.0187261045
 21
6546.3236116267
 31
0.0
  0
LINE
  5
281
330
1F
100
AcDbEntity
  8
0
  6
Continuous
 62
     7
370
    25
100
AcDbLine
 10
6897.0156781614
 20
6981.872710625
 30
0.0
 11
5651.0156266629
 21
6981.872710625
 31
0.0
  0
LINE
  5
282
330
1F
100
AcDbEntity
  8
0
  6
Continuous
 62
     7
370
    25
100
AcDbLine
 10
6897.0156781614
 20
6980.2587658561
 30
0.0
 11
5651.0156266629
 21
6980.2587658561
 31
0.0
  0
LINE
  5
283
330
1F
100
AcDbEntity
  8
0
  6
Continuous
 62
     7
370
    25
100
AcDbLine
 10
6897.0156781614
 20
6981.872710625
 30
0.0
 11
6897.0156781614
 21
6980.2587658561
 31
0.0
  0
LINE
  5
284
330
1F
100
AcDbEntity
  8
0
  6
Continuous
 62
     7
370
    25
100
AcDbLine
 10
6897.0185391843
 20
6571.3220678664
 30
0.0
 11
6897.0156781614
 21
6980.2587658561
 31
0.0
  0
LINE
  5
285
330
1F
100
AcDbEntity
  8
0
  6
Continuous
 62
     7
370
    25
100
AcDbLine
 10
5651.0156266629
 20
6980.2587658561
 30
0.0
 11
5651.0184876859
 21
6571.3136040068
 31
0.0
  0
LINE
  5
286
330
1F
100
AcDbEntity
  8
0
  6
Continuous
 62
     7
370
    25
100
AcDbLine
 10
5651.0156266629
 20
6991.799718926
 30
0.0
 11
6897.0156781614
 21
6991.799718926
 31
0.0
  0
LINE
  5
287
330
1F
100
AcDbEntity
  8
0
  6
Continuous
 62
     8
370
    25
100
AcDbLine
 10
5691.0232179105
 20
5878.1138800478
 30
0.0
 11
6857.02215361
 21
5878.121747861
 31
0.0
  0
LINE
  5
288
330
1F
100
AcDbEntity
  8
0
  6
Continuous
 62
     8
370
    25
100
AcDbLine
 10
6857.0219151914
 20
5914.1217612124
 30
0.0
 11
5691.0229794919
 21
5914.1138933993
 31
0.0
  0
LINE
  5
289
330
1F
100
AcDbEntity
  8
0
  6
Continuous
 62
     8
370
    25
100
AcDbLine
 10
6852.1218173444
 20
6073.0217837191
 30
0.0
 11
6852.1185986936
 21
6546.3217638827
 31
0.0
  0
LINE
  5
28A
330
1F
100
AcDbEntity
  8
0
  6
Continuous
 62
     8
370
    25
100
AcDbLine
 10
5695.9186665952
 20
6546.3138960696
 30
0.0
 11
5695.9217660367
 21
6073.013915906
 31
0.0
  0
LINE
  5
28B
330
1F
100
AcDbEntity
  8
0
  6
Continuous
 62
     8
370
    25
100
AcDbLine
 10
6859.0230815351
 20
5741.1217831469
 30
0.0
 11
6859.0209357679
 21
6071.3217996455
 31
0.0
  0
LINE
  5
28C
330
1F
100
AcDbEntity
  8
0
  6
Continuous
 62
     8
370
    25
100
AcDbLine
 10
6895.0230948865
 20
5741.1220215655
 30
0.0
 11
6895.02082991
 21
6071.322038064
 31
0.0
  0
LINE
  5
28D
330
1F
100
AcDbEntity
  8
0
  6
Continuous
 62
     8
370
    25
100
AcDbLine
 10
5653.0240647733
 20
5741.1135577059
 30
0.0
 11
5653.0219190061
 21
6071.3136338091
 31
0.0
  0
LINE
  5
28E
330
1F
100
AcDbEntity
  8
0
  6
Continuous
 62
     8
370
    25
100
AcDbLine
 10
5689.0240781247
 20
5741.1137961245
 30
0.0
 11
5689.0219323575
 21
6071.3138722277
 31
0.0
  0
LINE
  5
28F
330
1F
100
AcDbEntity
  8
0
  6
Continuous
 62
     7
370
    25
100
AcDbLine
 10
7439.3292736393
 20
6069.097771535
 30
0.0
 11
7440.9397538882
 21
6069.9139975405
 31
0.0
  0
LINE
  5
290
330
1F
100
AcDbEntity
  8
0
  6
Continuous
 62
     7
370
    25
100
AcDbLine
 10
7431.2397536021
 20
6069.9139975405
 30
0.0
 11
7432.8609254342
 21
6069.1189907885
 31
0.0
  0
LINE
  5
291
330
1F
100
AcDbEntity
  8
0
  6
Continuous
 62
     7
370
    25
100
AcDbLine
 10
7669.3292778116
 20
6069.097771535
 30
0.0
 11
7670.9397655111
 21
6069.9139975405
 31
0.0
  0
LINE
  5
292
330
1F
100
AcDbEntity
  8
0
  6
Continuous
 62
     7
370
    25
100
AcDbLine
 10
7661.239765225
 20
6069.9139975405
 30
0.0
 11
7662.8609221559
 21
6069.1189907885
 31
0.0
  0
LINE
  5
293
330
1F
100
AcDbEntity
  8
0
  6
Continuous
 62
     7
370
    25
100
AcDbLine
 10
7294.2901399117
 20
6270.2891372538
 30
0.0
 11
7284.3895141166
 21
6270.2891372538
 31
0.0
  0
LINE
  5
294
330
1F
100
AcDbEntity
  8
0
  6
Continuous
 62
     7
370
    25
100
AcDbLine
 10
7284.3895141166
 20
6230.2891754008
 30
0.0
 11
7294.2901399117
 21
6230.2891754008
 31
0.0
  0
LINE
  5
295
330
1F
100
AcDbEntity
  8
0
  6
Continuous
 62
     7
370
    25
100
AcDbLine
 10
7347.2930459436
 20
6869.9157976008
 30
0.0
 11
7350.293045504
 21
6869.9157976008
 31
0.0
  0
LINE
  5
296
330
1F
100
AcDbEntity
  8
0
  6
Continuous
 62
     7
370
    25
100
AcDbLine
 10
7350.293045504
 20
6892.7157961226
 30
0.0
 11
7347.2930459436
 21
6892.7157961226
 31
0.0
  0
LINE
  5
297
330
1F
100
AcDbEntity
  8
0
  6
Continuous
 62
     7
370
    25
100
AcDbLine
 10
7346.7930458617
 20
6911.3157943285
 30
0.0
 11
7344.2930456847
 21
6911.3157943285
 31
0.0
  0
LINE
  5
298
330
1F
100
AcDbEntity
  8
0
  6
Continuous
 62
     7
370
    25
100
AcDbLine
 10
7344.2930456847
 20
6851.3157956696
 30
0.0
 11
7346.7930458617
 21
6851.3157956696
 31
0.0
  0
LINE
  5
299
330
1F
100
AcDbEntity
  8
0
  6
Continuous
 62
     7
370
    25
100
AcDbLine
 10
7346.7930458617
 20
6851.3157956696
 30
0.0
 11
7347.2930459436
 21
6851.8157966829
 31
0.0
  0
LINE
  5
29A
330
1F
100
AcDbEntity
  8
0
  6
Continuous
 62
     7
370
    25
100
AcDbLine
 10
7347.2930459436
 20
6910.8157970405
 30
0.0
 11
7346.7930458617
 21
6911.3157943285
 31
0.0
  0
LINE
  5
29B
330
1F
100
AcDbEntity
  8
0
  6
Continuous
 62
     7
370
    25
100
AcDbLine
 10
7358.9430466425
 20
6867.3157982922
 30
0.0
 11
7481.2930446249
 21
6867.3157982922
 31
0.0
  0
LINE
  5
29C
330
1F
100
AcDbEntity
  8
0
  6
Continuous
 62
     7
370
    25
100
AcDbLine
 10
7350.293045504
 20
6867.3157982922
 30
0.0
 11
7355.66373506
 21
6867.3157982922
 31
0.0
  0
LINE
  5
29D
330
1F
100
AcDbEntity
  8
0
  6
Continuous
 62
     7
370
    25
100
AcDbLine
 10
7515.293039022
 20
6895.3157954312
 30
0.0
 11
7350.293045504
 21
6895.3157954312
 31
0.0
  0
LINE
  5
29E
330
1F
100
AcDbEntity
  8
0
  6
Continuous
 62
     7
370
    25
100
AcDbLine
 10
7516.2930410486
 20
6894.3157971299
 30
0.0
 11
7515.293039022
 21
6895.3157954312
 31
0.0
  0
ARC
  5
29F
330
1F
100
AcDbEntity
  8
0
  6
Continuous
 62
     7
370
    25
100
AcDbCircle
 10
7329.0647551299
 20
5991.1219418639
 30
0.0
 40
17.22500000000036
100
AcDbArc
 50
0.0
 51
35.4893432501
  0
ARC
  5
2A0
330
1F
100
AcDbEntity
  8
0
  6
Continuous
 62
     7
370
    25
100
AcDbCircle
 10
7329.0647551299
 20
5991.1137330882
 30
0.0
 40
17.22499999999945
100
AcDbArc
 50
324.5106567499
 51
0.0
  0
ARC
  5
2A1
330
1F
100
AcDbEntity
  8
0
  6
Continuous
 62
     7
370
    25
100
AcDbCircle
 10
7329.0647551299
 20
5991.1137330882
 30
0.0
 40
17.2249999999997
100
AcDbArc
 50
0.0
 51
35.4893432501
  0
LINE
  5
2A2
330
1F
100
AcDbEntity
  8
0
  6
Continuous
 62
     7
370
    25
100
AcDbLine
 10
7356.3076384496
 20
5801.1150502062
 30
0.0
 11
7355.9897547718
 21
5800.5587004519
 31
0.0
  0
LINE
  5
2A3
330
1F
100
AcDbEntity
  8
0
  6
Continuous
 62
     7
370
    25
100
AcDbLine
 10
7355.9897547718
 20
5791.6687868929
 30
0.0
 11
7356.3076384496
 21
5791.1124371386
 31
0.0
  0
LINE
  5
2A4
330
1F
100
AcDbEntity
  8
0
  6
Continuous
 62
     7
370
    25
100
AcDbLine
 10
7360.8718715739
 20
5791.1124371386
 30
0.0
 11
7361.1897543203
 21
5791.6687868929
 31
0.0
  0
LINE
  5
2A5
330
1F
100
AcDbEntity
  8
0
  6
Continuous
 62
     7
370
    25
100
AcDbLine
 10
7361.1897543203
 20
5800.5587004519
 30
0.0
 11
7360.8718715739
 21
5801.1150502062
 31
0.0
  0
LINE
  5
2A6
330
1F
100
AcDbEntity
  8
0
  6
Continuous
 62
     7
370
    25
100
AcDbLine
 10
7356.3076384496
 20
5801.1232756472
 30
0.0
 11
7355.9897547718
 21
5800.5669258929
 31
0.0
  0
LINE
  5
2A7
330
1F
100
AcDbEntity
  8
0
  6
Continuous
 62
     7
370
    25
100
AcDbLine
 10
7361.1897543203
 20
5800.5669258929
 30
0.0
 11
7360.8718715739
 21
5801.1232756472
 31
0.0
  0
LINE
  5
2A8
330
1F
100
AcDbEntity
  8
0
  6
Continuous
 62
     7
370
    25
100
AcDbLine
 10
7352.3897552993
 20
5801.6137026644
 30
0.0
 11
7351.6897555571
 21
5801.6137026644
 31
0.0
  0
LINE
  5
2A9
330
1F
100
AcDbEntity
  8
0
  6
Continuous
 62
     7
370
    25
100
AcDbLine
 10
7351.6897555571
 20
5790.6137846804
 30
0.0
 11
7352.3897552993
 21
5790.6137846804
 31
0.0
  0
LINE
  5
2AA
330
1F
100
AcDbEntity
  8
0
  6
Continuous
 62
     7
370
    25
100
AcDbLine
 10
7352.3897552993
 20
5801.6219281054
 30
0.0
 11
7351.6897555571
 21
5801.6219281054
 31
0.0
  0
LINE
  5
2AB
330
1F
100
AcDbEntity
  8
0
  6
Continuous
 62
     7
370
    25
100
AcDbLine
 10
7354.3897546958
 20
5790.1137017107
 30
0.0
 11
7355.5897554513
 21
5790.1137017107
 31
0.0
  0
LINE
  5
2AC
330
1F
100
AcDbEntity
  8
0
  6
Continuous
 62
     7
370
    25
100
AcDbLine
 10
7355.5897554513
 20
5802.1137856341
 30
0.0
 11
7354.3897546958
 21
5802.1137856341
 31
0.0
  0
LINE
  5
2AD
330
1F
100
AcDbEntity
  8
0
  6
Continuous
 62
     7
370
    25
100
AcDbLine
 10
7355.5897554513
 20
5790.1137017107
 30
0.0
 11
7355.9897547718
 21
5790.5137680865
 31
0.0
  0
LINE
  5
2AE
330
1F
100
AcDbEntity
  8
0
  6
Continuous
 62
     7
370
    25
100
AcDbLine
 10
7355.9897547718
 20
5801.7137192584
 30
0.0
 11
7355.5897554513
 21
5802.1137856341
 31
0.0
  0
LINE
  5
2AF
330
1F
100
AcDbEntity
  8
0
  6
Continuous
 62
     7
370
    25
100
AcDbLine
 10
7355.9897547718
 20
5801.7219446993
 30
0.0
 11
7355.5897554513
 21
5802.1218918658
 31
0.0
  0
LINE
  5
2B0
330
1F
100
AcDbEntity
  8
0
  6
Continuous
 62
     7
370
    25
100
AcDbLine
 10
7355.5897554513
 20
5802.1218918658
 30
0.0
 11
7354.3897546958
 21
5802.1218918658
 31
0.0
  0
LINE
  5
2B1
330
1F
100
AcDbEntity
  8
0
  6
Continuous
 62
     7
370
    25
100
AcDbLine
 10
7348.4897554051
 20
5802.1218918658
 30
0.0
 11
7348.0897551533
 21
5801.7219446993
 31
0.0
  0
LINE
  5
2B2
330
1F
100
AcDbEntity
  8
0
  6
Continuous
 62
     7
370
    25
100
AcDbLine
 10
7349.6897552293
 20
5802.1218918658
 30
0.0
 11
7348.4897554051
 21
5802.1218918658
 31
0.0
  0
LINE
  5
2B3
330
1F
100
AcDbEntity
  8
0
  6
Continuous
 62
     7
370
    25
100
AcDbLine
 10
7348.4897554051
 20
5802.1137856341
 30
0.0
 11
7348.0897551533
 21
5801.7137192584
 31
0.0
  0
LINE
  5
2B4
330
1F
100
AcDbEntity
  8
0
  6
Continuous
 62
     7
370
    25
100
AcDbLine
 10
7348.0897551533
 20
5790.5137680865
 30
0.0
 11
7348.4897554051
 21
5790.1137017107
 31
0.0
  0
LINE
  5
2B5
330
1F
100
AcDbEntity
  8
0
  6
Continuous
 62
     7
370
    25
100
AcDbLine
 10
7349.6897552293
 20
5802.1137856341
 30
0.0
 11
7348.4897554051
 21
5802.1137856341
 31
0.0
  0
LINE
  5
2B6
330
1F
100
AcDbEntity
  8
0
  6
Continuous
 62
     7
370
    25
100
AcDbLine
 10
7348.4897554051
 20
5790.1137017107
 30
0.0
 11
7349.6897552293
 21
5790.1137017107
 31
0.0
  0
LINE
  5
2B7
330
1F
100
AcDbEntity
  8
0
  6
Continuous
 62
     7
370
    25
100
AcDbLine
 10
7343.0933878888
 20
5801.1232756472
 30
0.0
 11
7343.0897550322
 21
5801.1169575549
 31
0.0
  0
LINE
  5
2B8
330
1F
100
AcDbEntity
  8
0
  6
Continuous
 62
     7
370
    25
100
AcDbLine
 10
7347.0897549894
 20
5800.5619191027
 30
0.0
 11
7346.5897549074
 21
5800.5619191027
 31
0.0
  0
LINE
  5
2B9
330
1F
100
AcDbEntity
  8
0
  6
Continuous
 62
     7
370
    25
100
AcDbLine
 10
7363.089754818
 20
5798.5119961596
 30
0.0
 11
7362.4797552955
 21
5799.1219900942
 31
0.0
  0
LINE
  5
2BA
330
1F
100
AcDbEntity
  8
0
  6
Continuous
 62
     7
370
    25
100
AcDbLine
 10
7362.4797552955
 20
5799.1219900942
 30
0.0
 11
7361.1897543203
 21
5799.1219900942
 31
0.0
  0
LINE
  5
2BB
330
1F
100
AcDbEntity
  8
0
  6
Continuous
 62
     7
370
    25
100
AcDbLine
 10
7354.3897546958
 20
5799.1219900942
 30
0.0
 11
7352.3897552993
 21
5799.1219900942
 31
0.0
  0
LINE
  5
2BC
330
1F
100
AcDbEntity
  8
0
  6
Continuous
 62
     7
370
    25
100
AcDbLine
 10
7351.6897555571
 20
5799.1219900942
 30
0.0
 11
7350.3997555133
 21
5799.1219900942
 31
0.0
  0
LINE
  5
2BD
330
1F
100
AcDbEntity
  8
0
  6
Continuous
 62
     7
370
    25
100
AcDbLine
 10
7350.0897554811
 20
5799.1219900942
 30
0.0
 11
7349.6897552293
 21
5799.1219900942
 31
0.0
  0
LINE
  5
2BE
330
1F
100
AcDbEntity
  8
0
  6
Continuous
 62
     7
370
    25
100
AcDbLine
 10
7348.0897551533
 20
5799.1219900942
 30
0.0
 11
7347.0897549894
 21
5799.1219900942
 31
0.0
  0
LINE
  5
2BF
330
1F
100
AcDbEntity
  8
0
  6
Continuous
 62
     7
370
    25
100
AcDbLine
 10
7350.3997555133
 20
5799.1219900942
 30
0.0
 11
7350.0897554811
 21
5798.5819720126
 31
0.0
  0
LINE
  5
2C0
330
1F
100
AcDbEntity
  8
0
  6
Continuous
 62
     7
370
    25
100
AcDbLine
 10
7343.0933878888
 20
5801.1150502062
 30
0.0
 11
7343.0897550322
 21
5801.1087321139
 31
0.0
  0
LINE
  5
2C1
330
1F
100
AcDbEntity
  8
0
  6
Continuous
 62
     7
370
    25
100
AcDbLine
 10
7343.0897550322
 20
5791.1187552309
 30
0.0
 11
7343.0933878888
 21
5791.1124371386
 31
0.0
  0
LINE
  5
2C2
330
1F
100
AcDbEntity
  8
0
  6
Continuous
 62
     7
370
    25
100
AcDbLine
 10
7346.5897549074
 20
5791.6737936831
 30
0.0
 11
7347.0897549894
 21
5791.6737936831
 31
0.0
  0
LINE
  5
2C3
330
1F
100
AcDbEntity
  8
0
  6
Continuous
 62
     7
370
    25
100
AcDbLine
 10
7347.0897549894
 20
5800.5536936617
 30
0.0
 11
7346.5897549074
 21
5800.5536936617
 31
0.0
  0
LINE
  5
2C4
330
1F
100
AcDbEntity
  8
0
  6
Continuous
 62
     7
370
    25
100
AcDbLine
 10
7350.3997555133
 20
5799.1137646533
 30
0.0
 11
7350.0897554811
 21
5798.5737465716
 31
0.0
  0
LINE
  5
2C5
330
1F
100
AcDbEntity
  8
0
  6
Continuous
 62
     7
370
    25
100
AcDbLine
 10
7350.0897554811
 20
5793.6537407732
 30
0.0
 11
7350.3997555133
 21
5793.1137226916
 31
0.0
  0
LINE
  5
2C6
330
1F
100
AcDbEntity
  8
0
  6
Continuous
 62
     7
370
    25
100
AcDbLine
 10
7362.4797552955
 20
5793.1137226916
 30
0.0
 11
7363.089754818
 21
5793.7237166262
 31
0.0
  0
LINE
  5
2C7
330
1F
100
AcDbEntity
  8
0
  6
Continuous
 62
     7
370
    25
100
AcDbLine
 10
7363.089754818
 20
5798.5037707186
 30
0.0
 11
7362.4797552955
 21
5799.1137646533
 31
0.0
  0
LINE
  5
2C8
330
1F
100
AcDbEntity
  8
0
  6
Continuous
 62
     7
370
    25
100
AcDbLine
 10
7347.0897549894
 20
5793.1137226916
 30
0.0
 11
7348.0897551533
 21
5793.1137226916
 31
0.0
  0
LINE
  5
2C9
330
1F
100
AcDbEntity
  8
0
  6
Continuous
 62
     7
370
    25
100
AcDbLine
 10
7349.6897552293
 20
5793.1137226916
 30
0.0
 11
7350.0897554811
 21
5793.1137226916
 31
0.0
  0
LINE
  5
2CA
330
1F
100
AcDbEntity
  8
0
  6
Continuous
 62
     7
370
    25
100
AcDbLine
 10
7350.0897554811
 20
5799.1137646533
 30
0.0
 11
7349.6897552293
 21
5799.1137646533
 31
0.0
  0
LINE
  5
2CB
330
1F
100
AcDbEntity
  8
0
  6
Continuous
 62
     7
370
    25
100
AcDbLine
 10
7348.0897551533
 20
5799.1137646533
 30
0.0
 11
7347.0897549894
 21
5799.1137646533
 31
0.0
  0
LINE
  5
2CC
330
1F
100
AcDbEntity
  8
0
  6
Continuous
 62
     7
370
    25
100
AcDbLine
 10
7350.3997555133
 20
5793.1137226916
 30
0.0
 11
7351.6897555571
 21
5793.1137226916
 31
0.0
  0
LINE
  5
2CD
330
1F
100
AcDbEntity
  8
0
  6
Continuous
 62
     7
370
    25
100
AcDbLine
 10
7352.3897552993
 20
5793.1137226916
 30
0.0
 11
7354.3897546958
 21
5793.1137226916
 31
0.0
  0
LINE
  5
2CE
330
1F
100
AcDbEntity
  8
0
  6
Continuous
 62
     7
370
    25
100
AcDbLine
 10
7361.1897543203
 20
5793.1137226916
 30
0.0
 11
7362.4797552955
 21
5793.1137226916
 31
0.0
  0
LINE
  5
2CF
330
1F
100
AcDbEntity
  8
0
  6
Continuous
 62
     7
370
    25
100
AcDbLine
 10
7362.4797552955
 20
5799.1137646533
 30
0.0
 11
7361.1897543203
 21
5799.1137646533
 31
0.0
  0
LINE
  5
2D0
330
1F
100
AcDbEntity
  8
0
  6
Continuous
 62
     7
370
    25
100
AcDbLine
 10
7354.3897546958
 20
5799.1137646533
 30
0.0
 11
7352.3897552993
 21
5799.1137646533
 31
0.0
  0
LINE
  5
2D1
330
1F
100
AcDbEntity
  8
0
  6
Continuous
 62
     7
370
    25
100
AcDbLine
 10
7351.6897555571
 20
5799.1137646533
 30
0.0
 11
7350.3997555133
 21
5799.1137646533
 31
0.0
  0
LINE
  5
2D2
330
1F
100
AcDbEntity
  8
0
  6
Continuous
 62
     7
370
    25
100
AcDbLine
 10
7758.0898027998
 20
5730.1218651629
 30
0.0
 11
7758.0897431951
 21
5730.1219843722
 31
0.0
  0
LINE
  5
2D3
330
1F
100
AcDbEntity
  8
0
  6
Continuous
 62
     7
370
    25
100
AcDbLine
 10
7748.0897527319
 20
5730.1219843722
 30
0.0
 11
7748.0815868955
 21
5730.1137589312
 31
0.0
  0
LINE
  5
2D4
330
1F
100
AcDbEntity
  8
0
  6
Continuous
 62
     7
370
    25
100
AcDbLine
 10
7328.0898040291
 20
5730.1218651629
 30
0.0
 11
7328.089754669
 21
5730.1219843722
 31
0.0
  0
LINE
  5
2D5
330
1F
100
AcDbEntity
  8
0
  6
Continuous
 62
     7
370
    25
100
AcDbLine
 10
7318.0897548925
 20
5730.1219843722
 30
0.0
 11
7318.0815946441
 21
5730.1137589312
 31
0.0
  0
LINE
  5
2D6
330
1F
100
AcDbEntity
  8
0
  6
Continuous
 62
     7
370
    25
100
AcDbLine
 10
7758.0898027998
 20
5730.1136397219
 30
0.0
 11
7758.0897431951
 21
5730.1137589312
 31
0.0
  0
LINE
  5
2D7
330
1F
100
AcDbEntity
  8
0
  6
Continuous
 62
     7
370
    25
100
AcDbLine
 10
7748.0897527319
 20
5730.1137589312
 30
0.0
 11
7747.6934116464
 21
5729.7173880434
 31
0.0
  0
LINE
  5
2D8
330
1F
100
AcDbEntity
  8
0
  6
Continuous
 62
     7
370
    25
100
AcDbLine
 10
7758.0897431951
 20
5730.1137589312
 30
0.0
 11
7758.0897431951
 21
5733.1136607028
 31
0.0
  0
LINE
  5
2D9
330
1F
100
AcDbEntity
  8
0
  6
Continuous
 62
     7
370
    25
100
AcDbLine
 10
7748.0897527319
 20
5733.1136607028
 30
0.0
 11
7748.0897527319
 21
5730.1137589312
 31
0.0
  0
LINE
  5
2DA
330
1F
100
AcDbEntity
  8
0
  6
Continuous
 62
     7
370
    25
100
AcDbLine
 10
7328.0898040291
 20
5730.1136397219
 30
0.0
 11
7328.089754669
 21
5730.1137589312
 31
0.0
  0
LINE
  5
2DB
330
1F
100
AcDbEntity
  8
0
  6
Continuous
 62
     7
370
    25
100
AcDbLine
 10
7318.0897548925
 20
5730.1137589312
 30
0.0
 11
7317.6934119444
 21
5729.7173880434
 31
0.0
  0
LINE
  5
2DC
330
1F
100
AcDbEntity
  8
0
  6
Continuous
 62
     7
370
    25
100
AcDbLine
 10
7328.089754669
 20
5730.1137589312
 30
0.0
 11
7328.089754669
 21
5733.1136607028
 31
0.0
  0
LINE
  5
2DD
330
1F
100
AcDbEntity
  8
0
  6
Continuous
 62
     7
370
    25
100
AcDbLine
 10
7318.0897548925
 20
5733.1136607028
 30
0.0
 11
7318.0897548925
 21
5730.1137589312
 31
0.0
  0
LWPOLYLINE
  5
2DE
330
1F
100
AcDbEntity
  8
0
  6
Continuous
 62
     7
370
    25
100
AcDbPolyline
 90
        6
 70
   128
 43
0.0
 10
7439.3855702262
 20
6069.114043603
 10
7439.3855702262
 20
6069.114043603
 10
7439.3801462036
 20
6069.114043603
 10
7439.3638815861
 20
6069.114043603
 10
7439.3368434291
 20
6069.1139839983
 10
7439.2991062384
 20
6069.1139839983
  0
SPLINE
  5
2DF
330
1F
100
AcDbEntity
  8
0
  6
Continuous
 62
     7
370
    25
100
AcDbSpline
210
0.0
220
0.0
230
1.0
 70
     8
 71
     3
 72
    11
 73
     7
 74
     0
 42
0.000000001
 43
0.00000001
 40
0.0
 40
0.0
 40
0.0
 40
0.0
 40
0.3408554018675472
 40
0.516300801661507
 40
0.7536677618780723
 40
1.0
 40
1.0
 40
1.0
 40
1.0
 10
7432.880408702431
 20
6069.113983998344
 30
0.0
 10
7433.583622965883
 20
6068.814562880202
 30
0.0
 10
7434.648796309099
 20
6068.361023454147
 30
0.0
 10
7436.343406678665
 20
6068.020045439029
 30
0.0
 10
7437.792115172194
 20
6068.492284586931
 30
0.0
 10
7438.790606927799
 20
6068.904205898657
 30
0.0
 10
7439.299106238423
 20
6069.113983998344
 30
0.0
  0
ARC
  5
2E0
330
1F
100
AcDbEntity
  8
0
  6
Continuous
 62
     7
370
    25
100
AcDbCircle
 10
7432.8209903222
 20
6045.6370182729
 30
0.0
 40
23.47704091695859
100
AcDbArc
 50
89.8549891334
 51
90.0660230735
  0
LINE
  5
2E1
330
1F
100
AcDbEntity
  8
0
  6
Continuous
 62
     7
370
    25
100
AcDbLine
 10
7669.2991178613
 20
6069.1155933238
 30
0.0
 11
7669.3855743986
 21
6069.1155933238
 31
0.0
  0
LINE
  5
2E2
330
1F
100
AcDbEntity
  8
0
  6
Continuous
 62
     7
370
    25
100
AcDbLine
 10
7662.8804128748
 20
6069.1155933238
 30
0.0
 11
7662.7939265352
 21
6069.1155933238
 31
0.0
  0
LWPOLYLINE
  5
2E3
330
1F
100
AcDbEntity
  8
0
  6
Continuous
 62
     7
370
    25
100
AcDbPolyline
 90
        6
 70
   128
 43
0.0
 10
7669.3855743986
 20
6069.114043603
 10
7669.3855743986
 20
6069.114043603
 10
7669.3801503759
 20
6069.114043603
 10
7669.3638783079
 20
6069.114043603
 10
7669.3368476015
 20
6069.1139839983
 10
7669.2991178613
 20
6069.1139839983
  0
SPLINE
  5
2E4
330
1F
100
AcDbEntity
  8
0
  6
Continuous
 62
     7
370
    25
100
AcDbSpline
210
0.0
220
0.0
230
1.0
 70
     8
 71
     3
 72
    11
 73
     7
 74
     0
 42
0.000000001
 43
0.00000001
 40
0.0
 40
0.0
 40
0.0
 40
0.0
 40
0.3408561355192211
 40
0.5162980986269817
 40
0.7536659246855808
 40
1.0
 40
1.0
 40
1.0
 40
1.0
 10
7662.880412874756
 20
6069.113983998344
 30
0.0
 10
7663.583629734696
 20
6068.814563470382
 30
0.0
 10
7664.648799141594
 20
6068.361028288917
 30
0.0
 10
7666.343405306669
 20
6068.020044842001
 30
0.0
 10
7667.792113775691
 20
6068.492286893647
 30
0.0
 10
7668.79061352759
 20
6068.904206417099
 30
0.0
 10
7669.299117861328
 20
6069.113983998344
 30
0.0
  0
ARC
  5
2E5
330
1F
100
AcDbEntity
  8
0
  6
Continuous
 62
     7
370
    25
100
AcDbCircle
 10
7662.8209870439
 20
6045.6329726077
 30
0.0
 40
23.48108658812233
100
AcDbArc
 50
89.854995938
 51
90.0660298781
  0
LINE
  5
2E6
330
1F
100
AcDbEntity
  8
0
  6
Continuous
 62
     7
370
    25
100
AcDbLine
 10
7439.2991062384
 20
6069.1155933238
 30
0.0
 11
7439.3855702262
 21
6069.1155933238
 31
0.0
  0
LINE
  5
2E7
330
1F
100
AcDbEntity
  8
0
  6
Continuous
 62
     7
370
    25
100
AcDbLine
 10
7432.8804087024
 20
6069.1155933238
 30
0.0
 11
7432.793937264
 21
6069.1155933238
 31
0.0
  0
LINE
  5
2E8
330
1F
100
AcDbEntity
  8
0
  6
Continuous
 62
     7
370
    25
100
AcDbLine
 10
7284.3895141166
 20
6250.2891563273
 30
0.0
 11
7284.3895141166
 21
6230.2891754008
 31
0.0
  0
LINE
  5
2E9
330
1F
100
AcDbEntity
  8
0
  6
Continuous
 62
     7
370
    25
100
AcDbLine
 10
7284.3895141166
 20
6270.2891372538
 30
0.0
 11
7284.3895141166
 21
6250.2891563273
 31
0.0
  0
LINE
  5
2EA
330
1F
100
AcDbEntity
  8
0
  6
Continuous
 62
     7
370
    25
100
AcDbLine
 10
7346.7930458617
 20
6851.3157956696
 30
0.0
 11
7346.7930458617
 21
6911.3157943285
 31
0.0
  0
LINE
  5
2EB
330
1F
100
AcDbEntity
  8
0
  6
Continuous
 62
     7
370
    25
100
AcDbLine
 10
7347.2930459436
 20
6910.8157970405
 30
0.0
 11
7347.2930459436
 21
6851.8157966829
 31
0.0
  0
LINE
  5
2EC
330
1F
100
AcDbEntity
  8
0
  6
Continuous
 62
     7
370
    25
100
AcDbLine
 10
7515.293039022
 20
6876.4260702229
 30
0.0
 11
7515.293039022
 21
6895.3157954312
 31
0.0
  0
LWPOLYLINE
  5
2ED
330
1F
100
AcDbEntity
  8
0
  6
Continuous
 62
     7
370
    25
100
AcDbPolyline
 90
       16
 70
   128
 43
0.0
 10
7481.2930446249
 20
6867.3157982922
 10
7481.464080153
 20
6867.3616193629
 10
7481.9760393482
 20
6867.4988069034
 10
7482.8255992513
 20
6867.7264370418
 10
7484.007171927
 20
6868.0430420137
 10
7485.5130385738
 20
6868.4465356565
 10
7487.3333346229
 20
6868.9342879153
 10
7489.4561540466
 20
6869.5030950404
 10
7491.8675791603
 20
6870.1492317415
 10
7494.5518296342
 20
6870.8684735394
 10
7497.4913369995
 20
6871.6561191178
 10
7500.6668638568
 20
6872.5069977737
 10
7504.0576081853
 20
6873.4155439234
 10
7507.641382156
 20
6874.3758120037
 10
7511.3947164398
 20
6875.3815137244
 10
7515.293039022
 20
6876.4260702229
  0
ARC
  5
2EE
330
1F
100
AcDbEntity
  8
0
  6
Continuous
 62
     7
370
    25
100
AcDbCircle
 10
7357.2931223436
 20
6853.3676259038
 30
0.0
 40
14.04541787090577
100
AcDbArc
 50
83.2538513051
 51
96.6617948284
  0
LINE
  5
2EF
330
1F
100
AcDbEntity
  8
0
  6
Continuous
 62
     7
370
    25
100
AcDbLine
 10
7350.293045504
 20
6895.3157954312
 30
0.0
 11
7350.293045504
 21
6867.3157982922
 31
0.0
  0
LINE
  5
2F0
330
1F
100
AcDbEntity
  8
0
  6
Continuous
 62
     7
370
    25
100
AcDbLine
 10
7516.2930410486
 20
6894.3157971299
 30
0.0
 11
7516.2930410486
 21
6876.6940154529
 31
0.0
  0
LINE
  5
2F1
330
1F
100
AcDbEntity
  8
0
  6
Continuous
 62
     7
370
    25
100
AcDbLine
 10
7516.2930410486
 20
6876.6940154529
 30
0.0
 11
7515.293039022
 21
6876.4260702229
 31
0.0
  0
LINE
  5
2F2
330
1F
100
AcDbEntity
  8
0
  6
Continuous
 62
     7
370
    25
100
AcDbLine
 10
7670.089743672
 20
6069.9139379359
 30
0.0
 11
7670.089743672
 21
6071.1136006213
 31
0.0
  0
LINE
  5
2F3
330
1F
100
AcDbEntity
  8
0
  6
Continuous
 62
     7
370
    25
100
AcDbLine
 10
7670.089743672
 20
6069.9139379359
 30
0.0
 11
7432.0897530895
 21
6069.9139379359
 31
0.0
  0
LINE
  5
2F4
330
1F
100
AcDbEntity
  8
0
  6
Continuous
 62
     7
370
    25
100
AcDbLine
 10
7432.0897530895
 20
6071.1136006213
 30
0.0
 11
7432.0897530895
 21
6069.9139379359
 31
0.0
  0
LINE
  5
2F5
330
1F
100
AcDbEntity
  8
0
  6
Continuous
 62
     7
370
    25
100
AcDbLine
 10
7432.0897530895
 20
6069.9139379359
 30
0.0
 11
7426.0897558313
 21
6069.9139975405
 31
0.0
  0
LINE
  5
2F6
330
1F
100
AcDbEntity
  8
0
  6
Continuous
 62
     7
370
    25
100
AcDbLine
 10
7426.0897558313
 20
6071.1136006213
 30
0.0
 11
7426.0897558313
 21
6069.9139975405
 31
0.0
  0
LINE
  5
2F7
330
1F
100
AcDbEntity
  8
0
  6
Continuous
 62
     7
370
    25
100
AcDbLine
 10
7676.0897558313
 20
6071.1136006213
 30
0.0
 11
7676.0897558313
 21
6069.9139975405
 31
0.0
  0
LINE
  5
2F8
330
1F
100
AcDbEntity
  8
0
  6
Continuous
 62
     7
370
    25
100
AcDbLine
 10
7670.089743672
 20
6069.9139379359
 30
0.0
 11
7676.0897558313
 21
6069.9139975405
 31
0.0
  0
LINE
  5
2F9
330
1F
100
AcDbEntity
  8
0
  6
Continuous
 62
     7
370
    25
100
AcDbLine
 10
7733.089767037
 20
6071.1136006213
 30
0.0
 11
7343.0897550322
 21
6071.1136006213
 31
0.0
  0
LINE
  5
2FA
330
1F
100
AcDbEntity
  8
0
  6
Continuous
 62
     7
370
    25
100
AcDbLine
 10
7733.089767037
 20
6071.3220976687
 30
0.0
 11
7733.089767037
 21
6071.1136006213
 31
0.0
  0
LINE
  5
2FB
330
1F
100
AcDbEntity
  8
0
  6
Continuous
 62
     7
370
    25
100
AcDbLine
 10
7343.0897550322
 20
6071.1136006213
 30
0.0
 11
7343.0897550322
 21
6071.3220976687
 31
0.0
  0
LINE
  5
2FC
330
1F
100
AcDbEntity
  8
0
  6
Continuous
 62
     7
370
    25
100
AcDbLine
 10
7360.4297559839
 20
5796.1137436724
 30
0.0
 11
7356.7497559022
 21
5796.1137436724
 31
0.0
  0
SPLINE
  5
2FD
330
1F
100
AcDbEntity
  8
0
  6
Continuous
 62
     7
370
    25
100
AcDbSpline
210
0.0
220
0.0
230
1.0
 70
     8
 71
     3
 72
     9
 73
     5
 74
     0
 42
0.000000001
 43
0.00000001
 40
0.0
 40
0.0
 40
0.0
 40
0.0
 40
0.5341155967873561
 40
1.0
 40
1.0
 40
1.0
 40
1.0
 10
7356.749755902229
 20
5801.11505020623
 30
0.0
 10
7356.519123497525
 20
5800.222517303671
 30
0.0
 10
7356.087321082297
 20
5798.551469111246
 30
0.0
 10
7356.539222213437
 20
5796.888496619358
 30
0.0
 10
7356.749755902229
 20
5796.113743672417
 30
0.0
  0
LINE
  5
2FE
330
1F
100
AcDbEntity
  8
0
  6
Continuous
 62
     7
370
    25
100
AcDbLine
 10
7360.4297559839
 20
5801.1150502062
 30
0.0
 11
7356.7497559022
 21
5801.1150502062
 31
0.0
  0
SPLINE
  5
2FF
330
1F
100
AcDbEntity
  8
0
  6
Continuous
 62
     7
370
    25
100
AcDbSpline
210
0.0
220
0.0
230
1.0
 70
     8
 71
     3
 72
     9
 73
     5
 74
     0
 42
0.000000001
 43
0.00000001
 40
0.0
 40
0.0
 40
0.0
 40
0.0
 40
0.534115603369049
 40
1.0
 40
1.0
 40
1.0
 40
1.0
 10
7360.429755983887
 20
5801.11505020623
 30
0.0
 10
7360.660387414026
 20
5800.22251730994
 30
0.0
 10
7361.092187999299
 20
5798.551469149844
 30
0.0
 10
7360.640288779323
 20
5796.888496624159
 30
0.0
 10
7360.429755983887
 20
5796.113743672417
 30
0.0
  0
LINE
  5
300
330
1F
100
AcDbEntity
  8
0
  6
Continuous
 62
     7
370
    25
100
AcDbLine
 10
7356.7497559022
 20
5791.1124371386
 30
0.0
 11
7356.3372768592
 21
5791.1124371386
 31
0.0
  0
SPLINE
  5
301
330
1F
100
AcDbEntity
  8
0
  6
Continuous
 62
     7
370
    25
100
AcDbSpline
210
0.0
220
0.0
230
1.0
 70
    24
 71
     3
 72
     9
 73
     5
 74
     0
 42
0.000000001
 43
0.00000001
 40
0.0
 40
0.0
 40
0.0
 40
0.0
 40
0.066495153223945
 40
1.0
 40
1.0
 40
1.0
 40
1.0
 10
7356.337276859222
 20
5801.11505020623
 30
0.0
 10
7356.327521716026
 20
5801.11505020623
 30
0.0
 10
7356.180817140988
 20
5801.11505020623
 30
0.0
 10
7356.475069706317
 20
5801.11505020623
 30
0.0
 10
7356.749755902229
 20
5801.11505020623
 30
0.0
  0
SPLINE
  5
302
330
1F
100
AcDbEntity
  8
0
  6
Continuous
 62
     7
370
    25
100
AcDbSpline
210
0.0
220
0.0
230
1.0
 70
     8
 71
     3
 72
     9
 73
     5
 74
     0
 42
0.000000001
 43
0.00000001
 40
0.0
 40
0.0
 40
0.0
 40
0.0
 40
0.534135764352596
 40
0.9999999999999999
 40
0.9999999999999999
 40
0.9999999999999999
 40
0.9999999999999999
 10
7356.749755902229
 20
5796.113743672417
 30
0.0
 10
7356.519116686464
 20
5795.221229981888
 30
0.0
 10
7356.087317823411
 20
5793.550280852296
 30
0.0
 10
7356.539227395054
 20
5791.887204794903
 30
0.0
 10
7356.749755902229
 20
5791.112437138603
 30
0.0
  0
LINE
  5
303
330
1F
100
AcDbEntity
  8
0
  6
Continuous
 62
     7
370
    25
100
AcDbLine
 10
7361.1897543203
 20
5800.5587004519
 30
0.0
 11
7361.1897543203
 21
5791.6687868929
 31
0.0
  0
LINE
  5
304
330
1F
100
AcDbEntity
  8
0
  6
Continuous
 62
     7
370
    25
100
AcDbLine
 10
7360.4297559839
 20
5791.1124371386
 30
0.0
 11
7360.8422331642
 21
5791.1124371386
 31
0.0
  0
SPLINE
  5
305
330
1F
100
AcDbEntity
  8
0
  6
Continuous
 62
     7
370
    25
100
AcDbSpline
210
0.0
220
0.0
230
1.0
 70
     8
 71
     3
 72
     9
 73
     5
 74
     0
 42
0.000000001
 43
0.00000001
 40
0.0
 40
0.0
 40
0.0
 40
0.0
 40
0.5341357709382153
 40
1.0
 40
1.0
 40
1.0
 40
1.0
 10
7360.429755983887
 20
5796.113743672417
 30
0.0
 10
7360.660394225059
 20
5795.221229988161
 30
0.0
 10
7361.092191258173
 20
5793.550280890918
 30
0.0
 10
7360.640283597728
 20
5791.887204799707
 30
0.0
 10
7360.429755983887
 20
5791.112437138603
 30
0.0
  0
SPLINE
  5
306
330
1F
100
AcDbEntity
  8
0
  6
Continuous
 62
     7
370
    25
100
AcDbSpline
210
0.0
220
0.0
230
1.0
 70
    24
 71
     3
 72
     9
 73
     5
 74
     0
 42
0.000000001
 43
0.00000001
 40
0.0
 40
0.0
 40
0.0
 40
0.0
 40
0.06649516008912
 40
1.0
 40
1.0
 40
1.0
 40
1.0
 10
7360.842233164249
 20
5801.11505020623
 30
0.0
 10
7360.85198830608
 20
5801.11505020623
 30
0.0
 10
7360.998692845445
 20
5801.115050206228
 30
0.0
 10
7360.704441261579
 20
5801.115050206229
 30
0.0
 10
7360.429755983887
 20
5801.11505020623
 30
0.0
  0
LINE
  5
307
330
1F
100
AcDbEntity
  8
0
  6
Continuous
 62
     7
370
    25
100
AcDbLine
 10
7360.4297559839
 20
5791.1124371386
 30
0.0
 11
7356.7497559022
 21
5791.1124371386
 31
0.0
  0
SPLINE
  5
308
330
1F
100
AcDbEntity
  8
0
  6
Continuous
 62
     7
370
    25
100
AcDbSpline
210
0.0
220
0.0
230
1.0
 70
    24
 71
     3
 72
     9
 73
     5
 74
     0
 42
0.000000001
 43
0.00000001
 40
0.0
 40
0.0
 40
0.0
 40
0.0
 40
0.066495153223945
 40
1.0
 40
1.0
 40
1.0
 40
1.0
 10
7356.337276859222
 20
5801.123275647209
 30
0.0
 10
7356.327521716026
 20
5801.123275647209
 30
0.0
 10
7356.180817140988
 20
5801.123275647209
 30
0.0
 10
7356.475069706317
 20
5801.123275647209
 30
0.0
 10
7356.749755902229
 20
5801.123275647209
 30
0.0
  0
LINE
  5
309
330
1F
100
AcDbEntity
  8
0
  6
Continuous
 62
     7
370
    25
100
AcDbLine
 10
7361.1897543203
 20
5800.5669258929
 30
0.0
 11
7361.1897543203
 21
5800.5587004519
 31
0.0
  0
SPLINE
  5
30A
330
1F
100
AcDbEntity
  8
0
  6
Continuous
 62
     7
370
    25
100
AcDbSpline
210
0.0
220
0.0
230
1.0
 70
    24
 71
     3
 72
     9
 73
     5
 74
     0
 42
0.000000001
 43
0.00000001
 40
0.0
 40
0.0
 40
0.0
 40
0.0
 40
0.06649516008912
 40
1.0
 40
1.0
 40
1.0
 40
1.0
 10
7360.842233164249
 20
5801.123275647209
 30
0.0
 10
7360.85198830608
 20
5801.123275647209
 30
0.0
 10
7360.998692845445
 20
5801.123275647208
 30
0.0
 10
7360.704441261579
 20
5801.123275647208
 30
0.0
 10
7360.429755983887
 20
5801.123275647209
 30
0.0
  0
LINE
  5
30B
330
1F
100
AcDbEntity
  8
0
  6
Continuous
 62
     7
370
    25
100
AcDbLine
 10
7360.4297559839
 20
5801.1232756472
 30
0.0
 11
7356.7497559022
 21
5801.1232756472
 31
0.0
  0
LINE
  5
30C
330
1F
100
AcDbEntity
  8
0
  6
Continuous
 62
     7
370
    25
100
AcDbLine
 10
7351.6897555571
 20
5797.3966740466
 30
0.0
 11
7352.3897552993
 21
5797.3966740466
 31
0.0
  0
LINE
  5
30D
330
1F
100
AcDbEntity
  8
0
  6
Continuous
 62
     7
370
    25
100
AcDbLine
 10
7351.6897555571
 20
5794.8308132983
 30
0.0
 11
7352.3897552993
 21
5794.8308132983
 31
0.0
  0
LINE
  5
30E
330
1F
100
AcDbEntity
  8
0
  6
Continuous
 62
     7
370
    25
100
AcDbLine
 10
7351.6897555571
 20
5794.8308132983
 30
0.0
 11
7351.6897555571
 21
5797.3966740466
 31
0.0
  0
LINE
  5
30F
330
1F
100
AcDbEntity
  8
0
  6
Continuous
 62
     7
370
    25
100
AcDbLine
 10
7352.3897552993
 20
5794.8308132983
 30
0.0
 11
7352.3897552993
 21
5797.3966740466
 31
0.0
  0
LINE
  5
310
330
1F
100
AcDbEntity
  8
0
  6
Continuous
 62
     7
370
    25
100
AcDbLine
 10
7351.6897555571
 20
5797.676815877
 30
0.0
 11
7352.3897552993
 21
5797.676815877
 31
0.0
  0
LINE
  5
311
330
1F
100
AcDbEntity
  8
0
  6
Continuous
 62
     7
370
    25
100
AcDbLine
 10
7351.6897555571
 20
5797.3966740466
 30
0.0
 11
7351.6897555571
 21
5797.676815877
 31
0.0
  0
LINE
  5
312
330
1F
100
AcDbEntity
  8
0
  6
Continuous
 62
     7
370
    25
100
AcDbLine
 10
7352.3897552993
 20
5797.3966740466
 30
0.0
 11
7352.3897552993
 21
5797.676815877
 31
0.0
  0
LINE
  5
313
330
1F
100
AcDbEntity
  8
0
  6
Continuous
 62
     7
370
    25
100
AcDbLine
 10
7351.6897555571
 20
5794.5506714678
 30
0.0
 11
7352.3897552993
 21
5794.5506714678
 31
0.0
  0
LINE
  5
314
330
1F
100
AcDbEntity
  8
0
  6
Continuous
 62
     7
370
    25
100
AcDbLine
 10
7351.6897555571
 20
5794.5506714678
 30
0.0
 11
7351.6897555571
 21
5794.8308132983
 31
0.0
  0
LINE
  5
315
330
1F
100
AcDbEntity
  8
0
  6
Continuous
 62
     7
370
    25
100
AcDbLine
 10
7352.3897552993
 20
5794.5506714678
 30
0.0
 11
7352.3897552993
 21
5794.8308132983
 31
0.0
  0
LINE
  5
316
330
1F
100
AcDbEntity
  8
0
  6
Continuous
 62
     7
370
    25
100
AcDbLine
 10
7351.6897555571
 20
5799.8989962435
 30
0.0
 11
7352.3897552993
 21
5799.8989962435
 31
0.0
  0
LINE
  5
317
330
1F
100
AcDbEntity
  8
0
  6
Continuous
 62
     7
370
    25
100
AcDbLine
 10
7351.6897555571
 20
5797.676815877
 30
0.0
 11
7351.6897555571
 21
5799.8989962435
 31
0.0
  0
LINE
  5
318
330
1F
100
AcDbEntity
  8
0
  6
Continuous
 62
     7
370
    25
100
AcDbLine
 10
7352.3897552993
 20
5797.676815877
 30
0.0
 11
7352.3897552993
 21
5799.8989962435
 31
0.0
  0
LINE
  5
319
330
1F
100
AcDbEntity
  8
0
  6
Continuous
 62
     7
370
    25
100
AcDbLine
 10
7351.6897555571
 20
5792.3284911013
 30
0.0
 11
7352.3897552993
 21
5792.3284911013
 31
0.0
  0
LINE
  5
31A
330
1F
100
AcDbEntity
  8
0
  6
Continuous
 62
     7
370
    25
100
AcDbLine
 10
7351.6897555571
 20
5792.3284911013
 30
0.0
 11
7351.6897555571
 21
5794.5506714678
 31
0.0
  0
LINE
  5
31B
330
1F
100
AcDbEntity
  8
0
  6
Continuous
 62
     7
370
    25
100
AcDbLine
 10
7352.3897552993
 20
5792.3284911013
 30
0.0
 11
7352.3897552993
 21
5794.5506714678
 31
0.0
  0
LINE
  5
31C
330
1F
100
AcDbEntity
  8
0
  6
Continuous
 62
     7
370
    25
100
AcDbLine
 10
7351.6897555571
 20
5800.1040362215
 30
0.0
 11
7352.3897552993
 21
5800.1040362215
 31
0.0
  0
LINE
  5
31D
330
1F
100
AcDbEntity
  8
0
  6
Continuous
 62
     7
370
    25
100
AcDbLine
 10
7351.6897555571
 20
5799.8989962435
 30
0.0
 11
7351.6897555571
 21
5800.1040362215
 31
0.0
  0
LINE
  5
31E
330
1F
100
AcDbEntity
  8
0
  6
Continuous
 62
     7
370
    25
100
AcDbLine
 10
7352.3897552993
 20
5799.8989962435
 30
0.0
 11
7352.3897552993
 21
5800.1040362215
 31
0.0
  0
LINE
  5
31F
330
1F
100
AcDbEntity
  8
0
  6
Continuous
 62
     7
370
    25
100
AcDbLine
 10
7351.6897555571
 20
5792.1234511233
 30
0.0
 11
7352.3897552993
 21
5792.1234511233
 31
0.0
  0
LINE
  5
320
330
1F
100
AcDbEntity
  8
0
  6
Continuous
 62
     7
370
    25
100
AcDbLine
 10
7351.6897555571
 20
5792.1234511233
 30
0.0
 11
7351.6897555571
 21
5792.3284911013
 31
0.0
  0
LINE
  5
321
330
1F
100
AcDbEntity
  8
0
  6
Continuous
 62
     7
370
    25
100
AcDbLine
 10
7352.3897552993
 20
5792.1234511233
 30
0.0
 11
7352.3897552993
 21
5792.3284911013
 31
0.0
  0
LINE
  5
322
330
1F
100
AcDbEntity
  8
0
  6
Continuous
 62
     7
370
    25
100
AcDbLine
 10
7351.6897555571
 20
5801.3869665957
 30
0.0
 11
7352.3897552993
 21
5801.3869665957
 31
0.0
  0
LINE
  5
323
330
1F
100
AcDbEntity
  8
0
  6
Continuous
 62
     7
370
    25
100
AcDbLine
 10
7351.6897555571
 20
5800.1040362215
 30
0.0
 11
7351.6897555571
 21
5801.3869665957
 31
0.0
  0
LINE
  5
324
330
1F
100
AcDbEntity
  8
0
  6
Continuous
 62
     7
370
    25
100
AcDbLine
 10
7352.3897552993
 20
5800.1040362215
 30
0.0
 11
7352.3897552993
 21
5801.3869665957
 31
0.0
  0
LINE
  5
325
330
1F
100
AcDbEntity
  8
0
  6
Continuous
 62
     7
370
    25
100
AcDbLine
 10
7351.6897555571
 20
5790.8405207491
 30
0.0
 11
7352.3897552993
 21
5790.8405207491
 31
0.0
  0
LINE
  5
326
330
1F
100
AcDbEntity
  8
0
  6
Continuous
 62
     7
370
    25
100
AcDbLine
 10
7351.6897555571
 20
5790.8405207491
 30
0.0
 11
7351.6897555571
 21
5792.1234511233
 31
0.0
  0
LINE
  5
327
330
1F
100
AcDbEntity
  8
0
  6
Continuous
 62
     7
370
    25
100
AcDbLine
 10
7352.3897552993
 20
5790.8405207491
 30
0.0
 11
7352.3897552993
 21
5792.1234511233
 31
0.0
  0
LINE
  5
328
330
1F
100
AcDbEntity
  8
0
  6
Continuous
 62
     7
370
    25
100
AcDbLine
 10
7351.6897555571
 20
5801.4620684481
 30
0.0
 11
7352.3897552993
 21
5801.4620684481
 31
0.0
  0
LINE
  5
329
330
1F
100
AcDbEntity
  8
0
  6
Continuous
 62
     7
370
    25
100
AcDbLine
 10
7351.6897555571
 20
5801.3869665957
 30
0.0
 11
7351.6897555571
 21
5801.4620684481
 31
0.0
  0
LINE
  5
32A
330
1F
100
AcDbEntity
  8
0
  6
Continuous
 62
     7
370
    25
100
AcDbLine
 10
7352.3897552993
 20
5801.3869665957
 30
0.0
 11
7352.3897552993
 21
5801.4620684481
 31
0.0
  0
LINE
  5
32B
330
1F
100
AcDbEntity
  8
0
  6
Continuous
 62
     7
370
    25
100
AcDbLine
 10
7351.6897555571
 20
5790.7654188967
 30
0.0
 11
7352.3897552993
 21
5790.7654188967
 31
0.0
  0
LINE
  5
32C
330
1F
100
AcDbEntity
  8
0
  6
Continuous
 62
     7
370
    25
100
AcDbLine
 10
7351.6897555571
 20
5790.7654188967
 30
0.0
 11
7351.6897555571
 21
5790.8405207491
 31
0.0
  0
LINE
  5
32D
330
1F
100
AcDbEntity
  8
0
  6
Continuous
 62
     7
370
    25
100
AcDbLine
 10
7352.3897552993
 20
5790.7654188967
 30
0.0
 11
7352.3897552993
 21
5790.8405207491
 31
0.0
  0
LINE
  5
32E
330
1F
100
AcDbEntity
  8
0
  6
Continuous
 62
     7
370
    25
100
AcDbLine
 10
7351.6897555571
 20
5801.4620684481
 30
0.0
 11
7351.6897555571
 21
5801.6137026644
 31
0.0
  0
LINE
  5
32F
330
1F
100
AcDbEntity
  8
0
  6
Continuous
 62
     7
370
    25
100
AcDbLine
 10
7352.3897552993
 20
5801.4620684481
 30
0.0
 11
7352.3897552993
 21
5801.6137026644
 31
0.0
  0
LINE
  5
330
330
1F
100
AcDbEntity
  8
0
  6
Continuous
 62
     7
370
    25
100
AcDbLine
 10
7351.6897555571
 20
5790.6137846804
 30
0.0
 11
7351.6897555571
 21
5790.7654188967
 31
0.0
  0
LINE
  5
331
330
1F
100
AcDbEntity
  8
0
  6
Continuous
 62
     7
370
    25
100
AcDbLine
 10
7352.3897552993
 20
5790.6137846804
 30
0.0
 11
7352.3897552993
 21
5790.7654188967
 31
0.0
  0
LINE
  5
332
330
1F
100
AcDbEntity
  8
0
  6
Continuous
 62
     7
370
    25
100
AcDbLine
 10
7352.3897552993
 20
5801.6137026644
 30
0.0
 11
7352.3897552993
 21
5801.6219281054
 31
0.0
  0
LINE
  5
333
330
1F
100
AcDbEntity
  8
0
  6
Continuous
 62
     7
370
    25
100
AcDbLine
 10
7351.6897555571
 20
5801.6137026644
 30
0.0
 11
7351.6897555571
 21
5801.6219281054
 31
0.0
  0
LINE
  5
334
330
1F
100
AcDbEntity
  8
0
  6
Continuous
 62
     7
370
    25
100
AcDbLine
 10
7355.5897554513
 20
5802.1137856341
 30
0.0
 11
7355.5897554513
 21
5790.1137017107
 31
0.0
  0
LINE
  5
335
330
1F
100
AcDbEntity
  8
0
  6
Continuous
 62
     7
370
    25
100
AcDbLine
 10
7354.3897546958
 20
5796.1137436724
 30
0.0
 11
7354.3897546958
 21
5790.1137017107
 31
0.0
  0
LINE
  5
336
330
1F
100
AcDbEntity
  8
0
  6
Continuous
 62
     7
370
    25
100
AcDbLine
 10
7354.3897546958
 20
5802.1137856341
 30
0.0
 11
7354.3897546958
 21
5796.1137436724
 31
0.0
  0
LINE
  5
337
330
1F
100
AcDbEntity
  8
0
  6
Continuous
 62
     7
370
    25
100
AcDbLine
 10
7355.9897547718
 20
5796.1137436724
 30
0.0
 11
7355.9897547718
 21
5801.7137192584
 31
0.0
  0
LINE
  5
338
330
1F
100
AcDbEntity
  8
0
  6
Continuous
 62
     7
370
    25
100
AcDbLine
 10
7355.9897547718
 20
5790.5137680865
 30
0.0
 11
7355.9897547718
 21
5796.1137436724
 31
0.0
  0
LINE
  5
339
330
1F
100
AcDbEntity
  8
0
  6
Continuous
 62
     7
370
    25
100
AcDbLine
 10
7355.5897554513
 20
5802.1218918658
 30
0.0
 11
7355.5897554513
 21
5802.1137856341
 31
0.0
  0
LINE
  5
33A
330
1F
100
AcDbEntity
  8
0
  6
Continuous
 62
     7
370
    25
100
AcDbLine
 10
7355.9897547718
 20
5801.7137192584
 30
0.0
 11
7355.9897547718
 21
5801.7219446993
 31
0.0
  0
LINE
  5
33B
330
1F
100
AcDbEntity
  8
0
  6
Continuous
 62
     7
370
    25
100
AcDbLine
 10
7354.3897546958
 20
5802.1218918658
 30
0.0
 11
7354.3897546958
 21
5802.1137856341
 31
0.0
  0
LINE
  5
33C
330
1F
100
AcDbEntity
  8
0
  6
Continuous
 62
     7
370
    25
100
AcDbLine
 10
7348.4897554051
 20
5802.1137856341
 30
0.0
 11
7348.4897554051
 21
5802.1218918658
 31
0.0
  0
LINE
  5
33D
330
1F
100
AcDbEntity
  8
0
  6
Continuous
 62
     7
370
    25
100
AcDbLine
 10
7348.0897551533
 20
5801.7219446993
 30
0.0
 11
7348.0897551533
 21
5801.7137192584
 31
0.0
  0
LINE
  5
33E
330
1F
100
AcDbEntity
  8
0
  6
Continuous
 62
     7
370
    25
100
AcDbLine
 10
7349.6897552293
 20
5802.1137856341
 30
0.0
 11
7349.6897552293
 21
5802.1218918658
 31
0.0
  0
LINE
  5
33F
330
1F
100
AcDbEntity
  8
0
  6
Continuous
 62
     7
370
    25
100
AcDbLine
 10
7348.4897554051
 20
5790.1137017107
 30
0.0
 11
7348.4897554051
 21
5802.1137856341
 31
0.0
  0
LINE
  5
340
330
1F
100
AcDbEntity
  8
0
  6
Continuous
 62
     7
370
    25
100
AcDbLine
 10
7348.0897551533
 20
5796.1137436724
 30
0.0
 11
7348.0897551533
 21
5790.5137680865
 31
0.0
  0
LINE
  5
341
330
1F
100
AcDbEntity
  8
0
  6
Continuous
 62
     7
370
    25
100
AcDbLine
 10
7348.0897551533
 20
5801.7137192584
 30
0.0
 11
7348.0897551533
 21
5796.1137436724
 31
0.0
  0
LINE
  5
342
330
1F
100
AcDbEntity
  8
0
  6
Continuous
 62
     7
370
    25
100
AcDbLine
 10
7349.6897552293
 20
5796.1137436724
 30
0.0
 11
7349.6897552293
 21
5802.1137856341
 31
0.0
  0
LINE
  5
343
330
1F
100
AcDbEntity
  8
0
  6
Continuous
 62
     7
370
    25
100
AcDbLine
 10
7349.6897552293
 20
5790.1137017107
 30
0.0
 11
7349.6897552293
 21
5796.1137436724
 31
0.0
  0
LINE
  5
344
330
1F
100
AcDbEntity
  8
0
  6
Continuous
 62
     7
370
    25
100
AcDbLine
 10
7343.5397551991
 20
5801.1232756472
 30
0.0
 11
7346.5897549074
 21
5801.1232756472
 31
0.0
  0
LINE
  5
345
330
1F
100
AcDbEntity
  8
0
  6
Continuous
 62
     7
370
    25
100
AcDbLine
 10
7346.5897549074
 20
5801.1232756472
 30
0.0
 11
7346.5897549074
 21
5801.1150502062
 31
0.0
  0
SPLINE
  5
346
330
1F
100
AcDbEntity
  8
0
  6
Continuous
 62
     7
370
    25
100
AcDbSpline
210
0.0
220
0.0
230
1.0
 70
    24
 71
     3
 72
     9
 73
     5
 74
     0
 42
0.000000001
 43
0.00000001
 40
0.0
 40
0.0
 40
0.0
 40
0.0
 40
0.0694151298960079
 40
1.0
 40
1.0
 40
1.0
 40
1.0
 10
7343.124621653942
 20
5801.123275647209
 30
0.0
 10
7343.114302944807
 20
5801.123275647209
 30
0.0
 10
7342.965650782799
 20
5801.123275647209
 30
0.0
 10
7343.263024094487
 20
5801.123275647209
 30
0.0
 10
7343.539755199117
 20
5801.123275647209
 30
0.0
  0
LINE
  5
347
330
1F
100
AcDbEntity
  8
0
  6
Continuous
 62
     7
370
    25
100
AcDbLine
 10
7347.0897549894
 20
5800.5619191027
 30
0.0
 11
7347.0897549894
 21
5800.5536936617
 31
0.0
  0
LINE
  5
348
330
1F
100
AcDbEntity
  8
0
  6
Continuous
 62
     7
370
    25
100
AcDbLine
 10
7362.4797552955
 20
5799.1137646533
 30
0.0
 11
7362.4797552955
 21
5799.1219900942
 31
0.0
  0
LINE
  5
349
330
1F
100
AcDbEntity
  8
0
  6
Continuous
 62
     7
370
    25
100
AcDbLine
 10
7363.089754818
 20
5798.5037707186
 30
0.0
 11
7363.089754818
 21
5798.5119961596
 31
0.0
  0
LINE
  5
34A
330
1F
100
AcDbEntity
  8
0
  6
Continuous
 62
     7
370
    25
100
AcDbLine
 10
7350.3997555133
 20
5799.1137646533
 30
0.0
 11
7350.3997555133
 21
5799.1219900942
 31
0.0
  0
LINE
  5
34B
330
1F
100
AcDbEntity
  8
0
  6
Continuous
 62
     7
370
    25
100
AcDbLine
 10
7350.0897554811
 20
5799.1219900942
 30
0.0
 11
7350.0897554811
 21
5799.1137646533
 31
0.0
  0
LINE
  5
34C
330
1F
100
AcDbEntity
  8
0
  6
Continuous
 62
     7
370
    25
100
AcDbLine
 10
7343.5397551991
 20
5791.1124371386
 30
0.0
 11
7343.1245483123
 21
5791.1124371386
 31
0.0
  0
SPLINE
  5
34D
330
1F
100
AcDbEntity
  8
0
  6
Continuous
 62
     7
370
    25
100
AcDbSpline
210
0.0
220
0.0
230
1.0
 70
    24
 71
     3
 72
     9
 73
     5
 74
     0
 42
0.000000001
 43
0.00000001
 40
0.0
 40
0.0
 40
0.0
 40
0.0
 40
0.0693371630863408
 40
1.0
 40
1.0
 40
1.0
 40
1.0
 10
7343.124621653942
 20
5801.11505020623
 30
0.0
 10
7343.114304211299
 20
5801.11505020623
 30
0.0
 10
7342.965503161695
 20
5801.115050206229
 30
0.0
 10
7343.262940925784
 20
5801.11505020623
 30
0.0
 10
7343.539755199117
 20
5801.11505020623
 30
0.0
  0
SPLINE
  5
34E
330
1F
100
AcDbEntity
  8
0
  6
Continuous
 62
     7
370
    25
100
AcDbSpline
210
0.0
220
0.0
230
1.0
 70
     8
 71
     3
 72
     9
 73
     5
 74
     0
 42
0.000000001
 43
0.00000001
 40
0.0
 40
0.0
 40
0.0
 40
0.0
 40
0.5347160640560917
 40
1.0
 40
1.0
 40
1.0
 40
1.0
 10
7343.539755199117
 20
5801.11505020623
 30
0.0
 10
7343.306743749126
 20
5800.221463851954
 30
0.0
 10
7342.870977057877
 20
5798.550322073462
 30
0.0
 10
7343.327392449348
 20
5796.887450911583
 30
0.0
 10
7343.539755199117
 20
5796.113743672417
 30
0.0
  0
SPLINE
  5
34F
330
1F
100
AcDbEntity
  8
0
  6
Continuous
 62
     7
370
    25
100
AcDbSpline
210
0.0
220
0.0
230
1.0
 70
     8
 71
     3
 72
     9
 73
     5
 74
     0
 42
0.000000001
 43
0.00000001
 40
0.0
 40
0.0
 40
0.0
 40
0.0
 40
0.5347160640560917
 40
1.0
 40
1.0
 40
1.0
 40
1.0
 10
7343.539755199117
 20
5796.113743672417
 30
0.0
 10
7343.306743749126
 20
5795.220157318141
 30
0.0
 10
7342.870977057877
 20
5793.549015539648
 30
0.0
 10
7343.327392449348
 20
5791.88614437777
 30
0.0
 10
7343.539755199117
 20
5791.112437138603
 30
0.0
  0
LINE
  5
350
330
1F
100
AcDbEntity
  8
0
  6
Continuous
 62
     7
370
    25
100
AcDbLine
 10
7343.5397551991
 20
5801.1150502062
 30
0.0
 11
7346.5897549074
 21
5801.1150502062
 31
0.0
  0
LINE
  5
351
330
1F
100
AcDbEntity
  8
0
  6
Continuous
 62
     7
370
    25
100
AcDbLine
 10
7346.5897549074
 20
5801.1150502062
 30
0.0
 11
7346.5897549074
 21
5796.1137436724
 31
0.0
  0
LINE
  5
352
330
1F
100
AcDbEntity
  8
0
  6
Continuous
 62
     7
370
    25
100
AcDbLine
 10
7346.5897549074
 20
5796.1137436724
 30
0.0
 11
7343.5397551991
 21
5796.1137436724
 31
0.0
  0
LINE
  5
353
330
1F
100
AcDbEntity
  8
0
  6
Continuous
 62
     7
370
    25
100
AcDbLine
 10
7346.5897549074
 20
5791.1124371386
 30
0.0
 11
7343.5397551991
 21
5791.1124371386
 31
0.0
  0
LINE
  5
354
330
1F
100
AcDbEntity
  8
0
  6
Continuous
 62
     7
370
    25
100
AcDbLine
 10
7346.5897549074
 20
5796.1137436724
 30
0.0
 11
7346.5897549074
 21
5791.1124371386
 31
0.0
  0
LINE
  5
355
330
1F
100
AcDbEntity
  8
0
  6
Continuous
 62
     7
370
    25
100
AcDbLine
 10
7347.0897549894
 20
5800.5536936617
 30
0.0
 11
7347.0897549894
 21
5791.6737936831
 31
0.0
  0
LINE
  5
356
330
1F
100
AcDbEntity
  8
0
  6
Continuous
 62
     7
370
    25
100
AcDbLine
 10
7350.3997555133
 20
5793.1137226916
 30
0.0
 11
7350.3997555133
 21
5799.1137646533
 31
0.0
  0
LINE
  5
357
330
1F
100
AcDbEntity
  8
0
  6
Continuous
 62
     7
370
    25
100
AcDbLine
 10
7362.4797552955
 20
5793.1137226916
 30
0.0
 11
7362.4797552955
 21
5799.1137646533
 31
0.0
  0
LINE
  5
358
330
1F
100
AcDbEntity
  8
0
  6
Continuous
 62
     7
370
    25
100
AcDbLine
 10
7363.089754818
 20
5793.7237166262
 30
0.0
 11
7363.089754818
 21
5798.5037707186
 31
0.0
  0
LINE
  5
359
330
1F
100
AcDbEntity
  8
0
  6
Continuous
 62
     7
370
    25
100
AcDbLine
 10
7350.0897554811
 20
5799.1137646533
 30
0.0
 11
7350.0897554811
 21
5793.1137226916
 31
0.0
  0
LINE
  5
35A
330
1F
100
AcDbEntity
  8
0
  6
Continuous
 62
     7
370
    25
100
AcDbLine
 10
7754.5897286516
 20
5729.1137122012
 30
0.0
 11
7757.2054784875
 21
5729.1137122012
 31
0.0
  0
LINE
  5
35B
330
1F
100
AcDbEntity
  8
0
  6
Continuous
 62
     7
370
    25
100
AcDbLine
 10
7748.9740174394
 20
5729.1137122012
 30
0.0
 11
7751.5897672754
 21
5729.1137122012
 31
0.0
  0
LINE
  5
35C
330
1F
100
AcDbEntity
  8
0
  6
Continuous
 62
     7
370
    25
100
AcDbLine
 10
7748.0897527319
 20
5730.1137589312
 30
0.0
 11
7758.0897431951
 21
5730.1137589312
 31
0.0
  0
LINE
  5
35D
330
1F
100
AcDbEntity
  8
0
  6
Continuous
 62
     7
370
    25
100
AcDbLine
 10
7324.5897233617
 20
5729.1137122012
 30
0.0
 11
7327.2054759916
 21
5729.1137122012
 31
0.0
  0
LINE
  5
35E
330
1F
100
AcDbEntity
  8
0
  6
Continuous
 62
     7
370
    25
100
AcDbLine
 10
7318.9740065616
 20
5729.1137122012
 30
0.0
 11
7321.5897545349
 21
5729.1137122012
 31
0.0
  0
LINE
  5
35F
330
1F
100
AcDbEntity
  8
0
  6
Continuous
 62
     7
370
    25
100
AcDbLine
 10
7318.0897548925
 20
5730.1137589312
 30
0.0
 11
7328.089754669
 21
5730.1137589312
 31
0.0
  0
LINE
  5
360
330
1F
100
AcDbEntity
  8
0
  6
Continuous
 62
     7
370
    25
100
AcDbLine
 10
7770.4102616888
 20
5729.1137122012
 30
0.0
 11
7764.4102495294
 21
5729.1138314105
 31
0.0
  0
LINE
  5
361
330
1F
100
AcDbEntity
  8
0
  6
Continuous
 62
     7
370
    25
100
AcDbLine
 10
7761.7500048261
 20
5729.1135929919
 30
0.0
 11
7770.4102616888
 21
5729.1137122012
 31
0.0
  0
LINE
  5
362
330
1F
100
AcDbEntity
  8
0
  6
Continuous
 62
     7
370
    25
100
AcDbLine
 10
7744.4294911008
 20
5729.1135929919
 30
0.0
 11
7761.7500048261
 21
5729.1135929919
 31
0.0
  0
LINE
  5
363
330
1F
100
AcDbEntity
  8
0
  6
Continuous
 62
     7
370
    25
100
AcDbLine
 10
7735.7692342382
 20
5729.1137122012
 30
0.0
 11
7744.4294911008
 21
5729.1135929919
 31
0.0
  0
LINE
  5
364
330
1F
100
AcDbEntity
  8
0
  6
Continuous
 62
     7
370
    25
100
AcDbLine
 10
7741.7692463976
 20
5729.1138314105
 30
0.0
 11
7735.7692342382
 21
5729.1137122012
 31
0.0
  0
LINE
  5
365
330
1F
100
AcDbEntity
  8
0
  6
Continuous
 62
     7
370
    25
100
AcDbLine
 10
7748.5897462946
 20
5729.1137122012
 30
0.0
 11
7750.5897503477
 21
5729.1137122012
 31
0.0
  0
LINE
  5
366
330
1F
100
AcDbEntity
  8
0
  6
Continuous
 62
     7
370
    25
100
AcDbLine
 10
7764.4102495294
 20
5729.1137122012
 30
0.0
 11
7762.1551375967
 21
5729.1137122012
 31
0.0
  0
LINE
  5
367
330
1F
100
AcDbEntity
  8
0
  6
Continuous
 62
     7
370
    25
100
AcDbLine
 10
7760.0338976961
 20
5729.1137122012
 30
0.0
 11
7757.2054784875
 21
5729.1137122012
 31
0.0
  0
LINE
  5
368
330
1F
100
AcDbEntity
  8
0
  6
Continuous
 62
     7
370
    25
100
AcDbLine
 10
7762.1552270036
 20
5729.1137122012
 30
0.0
 11
7760.0338976961
 21
5729.1137122012
 31
0.0
  0
LINE
  5
369
330
1F
100
AcDbEntity
  8
0
  6
Continuous
 62
     7
370
    25
100
AcDbLine
 10
7754.5897584539
 20
5729.1137122012
 30
0.0
 11
7751.5897672754
 21
5729.1137122012
 31
0.0
  0
LINE
  5
36A
330
1F
100
AcDbEntity
  8
0
  6
Continuous
 62
     7
370
    25
100
AcDbLine
 10
7746.1455982309
 20
5729.1137122012
 30
0.0
 11
7744.0242987257
 21
5729.1137122012
 31
0.0
  0
LINE
  5
36B
330
1F
100
AcDbEntity
  8
0
  6
Continuous
 62
     7
370
    25
100
AcDbLine
 10
7748.9740472417
 20
5729.1137122012
 30
0.0
 11
7746.1455982309
 21
5729.1137122012
 31
0.0
  0
LINE
  5
36C
330
1F
100
AcDbEntity
  8
0
  6
Continuous
 62
     7
370
    25
100
AcDbLine
 10
7744.0242987257
 20
5729.1137122012
 30
0.0
 11
7741.7692463976
 21
5729.1137122012
 31
0.0
  0
LINE
  5
36D
330
1F
100
AcDbEntity
  8
0
  6
Continuous
 62
     7
370
    25
100
AcDbLine
 10
7735.7692342382
 20
5721.1136959887
 30
0.0
 11
7735.7692342382
 21
5729.1137122012
 31
0.0
  0
LINE
  5
36E
330
1F
100
AcDbEntity
  8
0
  6
Continuous
 62
     7
370
    25
100
AcDbLine
 10
7744.4294911008
 20
5729.1135929919
 30
0.0
 11
7744.4294911008
 21
5721.1135767794
 31
0.0
  0
LINE
  5
36F
330
1F
100
AcDbEntity
  8
0
  6
Continuous
 62
     7
370
    25
100
AcDbLine
 10
7735.7692342382
 20
5721.1136959887
 30
0.0
 11
7744.4294911008
 21
5721.1135767794
 31
0.0
  0
LINE
  5
370
330
1F
100
AcDbEntity
  8
0
  6
Continuous
 62
     7
370
    25
100
AcDbLine
 10
7761.7500048261
 20
5729.1135929919
 30
0.0
 11
7761.7500048261
 21
5721.1135767794
 31
0.0
  0
LINE
  5
371
330
1F
100
AcDbEntity
  8
0
  6
Continuous
 62
     7
370
    25
100
AcDbLine
 10
7770.4102616888
 20
5729.1137122012
 30
0.0
 11
7770.4102616888
 21
5721.1136959887
 31
0.0
  0
LINE
  5
372
330
1F
100
AcDbEntity
  8
0
  6
Continuous
 62
     7
370
    25
100
AcDbLine
 10
7761.7500048261
 20
5721.1135767794
 30
0.0
 11
7770.4102616888
 21
5721.1136959887
 31
0.0
  0
LINE
  5
373
330
1F
100
AcDbEntity
  8
0
  6
Continuous
 62
     7
370
    25
100
AcDbLine
 10
7744.4294911008
 20
5721.1135767794
 30
0.0
 11
7761.7500048261
 21
5721.1135767794
 31
0.0
  0
LINE
  5
374
330
1F
100
AcDbEntity
  8
0
  6
Continuous
 62
     7
370
    25
100
AcDbLine
 10
7754.5897584539
 20
5729.1137122012
 30
0.0
 11
7751.5897672754
 21
5730.1136397219
 31
0.0
  0
LINE
  5
375
330
1F
100
AcDbEntity
  8
0
  6
Continuous
 62
     7
370
    25
100
AcDbLine
 10
7751.5897672754
 20
5730.1136397219
 30
0.0
 11
7751.5897672754
 21
5729.1137122012
 31
0.0
  0
LINE
  5
376
330
1F
100
AcDbEntity
  8
0
  6
Continuous
 62
     7
370
    25
100
AcDbLine
 10
7762.1552270036
 20
5729.1137122012
 30
0.0
 11
7760.0338976961
 21
5730.1136397219
 31
0.0
  0
LINE
  5
377
330
1F
100
AcDbEntity
  8
0
  6
Continuous
 62
     7
370
    25
100
AcDbLine
 10
7760.0338976961
 20
5730.1136397219
 30
0.0
 11
7760.0338976961
 21
5729.1137122012
 31
0.0
  0
LINE
  5
378
330
1F
100
AcDbEntity
  8
0
  6
Continuous
 62
     7
370
    25
100
AcDbLine
 10
7746.1455982309
 20
5729.1137122012
 30
0.0
 11
7744.0242987257
 21
5730.1136397219
 31
0.0
  0
LINE
  5
379
330
1F
100
AcDbEntity
  8
0
  6
Continuous
 62
     7
370
    25
100
AcDbLine
 10
7746.8527179342
 20
5730.1137589312
 30
0.0
 11
7744.0242987257
 21
5730.1136397219
 31
0.0
  0
LINE
  5
37A
330
1F
100
AcDbEntity
  8
0
  6
Continuous
 62
     7
370
    25
100
AcDbLine
 10
7748.9740472417
 20
5729.1137122012
 30
0.0
 11
7746.8527179342
 21
5730.1137589312
 31
0.0
  0
LINE
  5
37B
330
1F
100
AcDbEntity
  8
0
  6
Continuous
 62
     7
370
    25
100
AcDbLine
 10
7757.2054784875
 20
5729.1137122012
 30
0.0
 11
7757.2054784875
 21
5730.1136397219
 31
0.0
  0
LINE
  5
37C
330
1F
100
AcDbEntity
  8
0
  6
Continuous
 62
     7
370
    25
100
AcDbLine
 10
7757.2054784875
 20
5730.1136397219
 30
0.0
 11
7760.0338976961
 21
5730.1136397219
 31
0.0
  0
LINE
  5
37D
330
1F
100
AcDbEntity
  8
0
  6
Continuous
 62
     7
370
    25
100
AcDbLine
 10
7744.0242987257
 20
5730.1136397219
 30
0.0
 11
7744.0242987257
 21
5729.1137122012
 31
0.0
  0
LINE
  5
37E
330
1F
100
AcDbEntity
  8
0
  6
Continuous
 62
     7
370
    25
100
AcDbLine
 10
7760.4102712255
 20
5729.9362562991
 30
0.0
 11
7760.4102712255
 21
5730.1137589312
 31
0.0
  0
LINE
  5
37F
330
1F
100
AcDbEntity
  8
0
  6
Continuous
 62
     7
370
    25
100
AcDbLine
 10
7760.4102712255
 20
5730.1137589312
 30
0.0
 11
7764.4102495294
 21
5730.1137589312
 31
0.0
  0
LINE
  5
380
330
1F
100
AcDbEntity
  8
0
  6
Continuous
 62
     7
370
    25
100
AcDbLine
 10
7764.4102495294
 20
5730.1137589312
 30
0.0
 11
7764.4102495294
 21
5729.1137122012
 31
0.0
  0
LINE
  5
381
330
1F
100
AcDbEntity
  8
0
  6
Continuous
 62
     7
370
    25
100
AcDbLine
 10
7741.7692463976
 20
5729.1137122012
 30
0.0
 11
7741.7692463976
 21
5730.1137589312
 31
0.0
  0
LINE
  5
382
330
1F
100
AcDbEntity
  8
0
  6
Continuous
 62
     7
370
    25
100
AcDbLine
 10
7745.7692545038
 20
5730.1137589312
 30
0.0
 11
7741.7692463976
 21
5730.1137589312
 31
0.0
  0
LINE
  5
383
330
1F
100
AcDbEntity
  8
0
  6
Continuous
 62
     7
370
    25
100
AcDbLine
 10
7745.7692545038
 20
5730.1136397219
 30
0.0
 11
7745.7692545038
 21
5730.1137589312
 31
0.0
  0
LINE
  5
384
330
1F
100
AcDbEntity
  8
0
  6
Continuous
 62
     7
370
    25
100
AcDbLine
 10
7746.145419417
 20
5730.1137589312
 30
0.0
 11
7746.1455982309
 21
5730.1137589312
 31
0.0
  0
LINE
  5
385
330
1F
100
AcDbEntity
  8
0
  6
Continuous
 62
     7
370
    25
100
AcDbLine
 10
7748.0897527319
 20
5730.1137589312
 30
0.0
 11
7746.1455982309
 21
5730.1137589312
 31
0.0
  0
LINE
  5
386
330
1F
100
AcDbEntity
  8
0
  6
Continuous
 62
     7
370
    25
100
AcDbLine
 10
7759.3268077951
 20
5730.1136397219
 30
0.0
 11
7759.3268077951
 21
5730.1137589312
 31
0.0
  0
LINE
  5
387
330
1F
100
AcDbEntity
  8
0
  6
Continuous
 62
     7
370
    25
100
AcDbLine
 10
7759.3268077951
 20
5730.1137589312
 30
0.0
 11
7762.1552270036
 21
5730.1137589312
 31
0.0
  0
LINE
  5
388
330
1F
100
AcDbEntity
  8
0
  6
Continuous
 62
     7
370
    25
100
AcDbLine
 10
7759.3266289812
 20
5730.1136397219
 30
0.0
 11
7759.3268077951
 21
5730.1137589312
 31
0.0
  0
LINE
  5
389
330
1F
100
AcDbEntity
  8
0
  6
Continuous
 62
     7
370
    25
100
AcDbLine
 10
7340.4102632092
 20
5729.1219376421
 30
0.0
 11
7334.4102633316
 21
5729.1220568514
 31
0.0
  0
LINE
  5
38A
330
1F
100
AcDbEntity
  8
0
  6
Continuous
 62
     7
370
    25
100
AcDbLine
 10
7334.4102633316
 20
5729.1218184329
 30
0.0
 11
7340.4102632092
 21
5729.1219376421
 31
0.0
  0
LINE
  5
38B
330
1F
100
AcDbEntity
  8
0
  6
Continuous
 62
     7
370
    25
100
AcDbLine
 10
7305.7692457121
 20
5729.1219376421
 30
0.0
 11
7311.7692466956
 21
5729.1218184329
 31
0.0
  0
LINE
  5
38C
330
1F
100
AcDbEntity
  8
0
  6
Continuous
 62
     7
370
    25
100
AcDbLine
 10
7311.7692466956
 20
5729.1220568514
 30
0.0
 11
7305.7692457121
 21
5729.1219376421
 31
0.0
  0
LINE
  5
38D
330
1F
100
AcDbEntity
  8
0
  6
Continuous
 62
     7
370
    25
100
AcDbLine
 10
7305.7692457121
 20
5729.1137122012
 30
0.0
 11
7305.7692457121
 21
5729.1219376421
 31
0.0
  0
LINE
  5
38E
330
1F
100
AcDbEntity
  8
0
  6
Continuous
 62
     7
370
    25
100
AcDbLine
 10
7340.4102632092
 20
5729.1219376421
 30
0.0
 11
7340.4102632092
 21
5729.1137122012
 31
0.0
  0
LINE
  5
38F
330
1F
100
AcDbEntity
  8
0
  6
Continuous
 62
     7
370
    25
100
AcDbLine
 10
7330.0511162859
 20
5730.1137589312
 30
0.0
 11
7330.0339026507
 21
5730.1218651629
 31
0.0
  0
LINE
  5
390
330
1F
100
AcDbEntity
  8
0
  6
Continuous
 62
     7
370
    25
100
AcDbLine
 10
7330.0339026507
 20
5730.1218651629
 30
0.0
 11
7330.0339026507
 21
5730.1137589312
 31
0.0
  0
LINE
  5
391
330
1F
100
AcDbEntity
  8
0
  6
Continuous
 62
     7
370
    25
100
AcDbLine
 10
7314.0415787827
 20
5730.1137589312
 30
0.0
 11
7314.0242878478
 21
5730.1218651629
 31
0.0
  0
LINE
  5
392
330
1F
100
AcDbEntity
  8
0
  6
Continuous
 62
     7
370
    25
100
AcDbLine
 10
7316.8527145069
 20
5730.1218651629
 30
0.0
 11
7314.0242878478
 21
5730.1218651629
 31
0.0
  0
LINE
  5
393
330
1F
100
AcDbEntity
  8
0
  6
Continuous
 62
     7
370
    25
100
AcDbLine
 10
7316.8699476998
 20
5730.1137589312
 30
0.0
 11
7316.8527145069
 21
5730.1218651629
 31
0.0
  0
LINE
  5
394
330
1F
100
AcDbEntity
  8
0
  6
Continuous
 62
     7
370
    25
100
AcDbLine
 10
7328.089754669
 20
5730.1218651629
 30
0.0
 11
7330.0339026507
 21
5730.1218651629
 31
0.0
  0
LINE
  5
395
330
1F
100
AcDbEntity
  8
0
  6
Continuous
 62
     7
370
    25
100
AcDbLine
 10
7314.0242878478
 20
5730.1218651629
 30
0.0
 11
7314.0242878478
 21
5730.1137589312
 31
0.0
  0
LINE
  5
396
330
1F
100
AcDbEntity
  8
0
  6
Continuous
 62
     7
370
    25
100
AcDbLine
 10
7330.4102631416
 20
5730.1219843722
 30
0.0
 11
7334.4102633316
 21
5730.1219843722
 31
0.0
  0
LINE
  5
397
330
1F
100
AcDbEntity
  8
0
  6
Continuous
 62
     7
370
    25
100
AcDbLine
 10
7334.4102633316
 20
5730.1219843722
 30
0.0
 11
7334.4102633316
 21
5730.1137589312
 31
0.0
  0
LINE
  5
398
330
1F
100
AcDbEntity
  8
0
  6
Continuous
 62
     7
370
    25
100
AcDbLine
 10
7330.4102631416
 20
5730.1137589312
 30
0.0
 11
7330.4102631416
 21
5730.1219843722
 31
0.0
  0
LINE
  5
399
330
1F
100
AcDbEntity
  8
0
  6
Continuous
 62
     7
370
    25
100
AcDbLine
 10
7315.7692473512
 20
5730.1219843722
 30
0.0
 11
7311.7692466956
 21
5730.1219843722
 31
0.0
  0
LINE
  5
39A
330
1F
100
AcDbEntity
  8
0
  6
Continuous
 62
     7
370
    25
100
AcDbLine
 10
7315.7692473512
 20
5730.1218651629
 30
0.0
 11
7315.7692473512
 21
5730.1219843722
 31
0.0
  0
LINE
  5
39B
330
1F
100
AcDbEntity
  8
0
  6
Continuous
 62
     7
370
    25
100
AcDbLine
 10
7311.7692466956
 20
5730.1137589312
 30
0.0
 11
7311.7692466956
 21
5730.1219843722
 31
0.0
  0
LINE
  5
39C
330
1F
100
AcDbEntity
  8
0
  6
Continuous
 62
     7
370
    25
100
AcDbLine
 10
7329.3266162407
 20
5730.1218651629
 30
0.0
 11
7329.3267959859
 21
5730.1219843722
 31
0.0
  0
LINE
  5
39D
330
1F
100
AcDbEntity
  8
0
  6
Continuous
 62
     7
370
    25
100
AcDbLine
 10
7329.3267959859
 20
5730.1218651629
 30
0.0
 11
7329.3267959859
 21
5730.1219843722
 31
0.0
  0
LINE
  5
39E
330
1F
100
AcDbEntity
  8
0
  6
Continuous
 62
     7
370
    25
100
AcDbLine
 10
7329.3267959859
 20
5730.1219843722
 30
0.0
 11
7332.1552235764
 21
5730.1219843722
 31
0.0
  0
LINE
  5
39F
330
1F
100
AcDbEntity
  8
0
  6
Continuous
 62
     7
370
    25
100
AcDbLine
 10
7316.1454066765
 20
5730.1218651629
 30
0.0
 11
7316.1456078421
 21
5730.1219843722
 31
0.0
  0
LINE
  5
3A0
330
1F
100
AcDbEntity
  8
0
  6
Continuous
 62
     7
370
    25
100
AcDbLine
 10
7318.0897548925
 20
5730.1219843722
 30
0.0
 11
7316.1456078421
 21
5730.1219843722
 31
0.0
  0
LINE
  5
3A1
330
1F
100
AcDbEntity
  8
0
  6
Continuous
 62
     7
370
    25
100
AcDbLine
 10
7735.7692342382
 20
5729.1137122012
 30
0.0
 11
7735.7692342382
 21
5729.1219376421
 31
0.0
  0
LINE
  5
3A2
330
1F
100
AcDbEntity
  8
0
  6
Continuous
 62
     7
370
    25
100
AcDbLine
 10
7735.7692342382
 20
5729.1219376421
 30
0.0
 11
7741.7692463976
 21
5729.1218184329
 31
0.0
  0
LINE
  5
3A3
330
1F
100
AcDbEntity
  8
0
  6
Continuous
 62
     7
370
    25
100
AcDbLine
 10
7770.4102616888
 20
5729.1219376421
 30
0.0
 11
7764.4102495294
 21
5729.1220568514
 31
0.0
  0
LINE
  5
3A4
330
1F
100
AcDbEntity
  8
0
  6
Continuous
 62
     7
370
    25
100
AcDbLine
 10
7764.4102495294
 20
5729.1218184329
 30
0.0
 11
7770.4102616888
 21
5729.1219376421
 31
0.0
  0
LINE
  5
3A5
330
1F
100
AcDbEntity
  8
0
  6
Continuous
 62
     7
370
    25
100
AcDbLine
 10
7741.7692463976
 20
5729.1220568514
 30
0.0
 11
7735.7692342382
 21
5729.1219376421
 31
0.0
  0
LINE
  5
3A6
330
1F
100
AcDbEntity
  8
0
  6
Continuous
 62
     7
370
    25
100
AcDbLine
 10
7770.4102616888
 20
5729.1219376421
 30
0.0
 11
7770.4102616888
 21
5729.1137122012
 31
0.0
  0
LINE
  5
3A7
330
1F
100
AcDbEntity
  8
0
  6
Continuous
 62
     7
370
    25
100
AcDbLine
 10
7744.0415840726
 20
5730.1137589312
 30
0.0
 11
7744.0242987257
 21
5730.1218651629
 31
0.0
  0
LINE
  5
3A8
330
1F
100
AcDbEntity
  8
0
  6
Continuous
 62
     7
370
    25
100
AcDbLine
 10
7744.0242987257
 20
5730.1218651629
 30
0.0
 11
7744.0242987257
 21
5730.1137589312
 31
0.0
  0
LINE
  5
3A9
330
1F
100
AcDbEntity
  8
0
  6
Continuous
 62
     7
370
    25
100
AcDbLine
 10
7746.8527179342
 20
5730.1218651629
 30
0.0
 11
7744.0242987257
 21
5730.1218651629
 31
0.0
  0
LINE
  5
3AA
330
1F
100
AcDbEntity
  8
0
  6
Continuous
 62
     7
370
    25
100
AcDbLine
 10
7746.8699436765
 20
5730.1137589312
 30
0.0
 11
7746.8527179342
 21
5730.1218651629
 31
0.0
  0
LINE
  5
3AB
330
1F
100
AcDbEntity
  8
0
  6
Continuous
 62
     7
370
    25
100
AcDbLine
 10
7758.0897431951
 20
5730.1218651629
 30
0.0
 11
7760.0338976961
 21
5730.1218651629
 31
0.0
  0
LINE
  5
3AC
330
1F
100
AcDbEntity
  8
0
  6
Continuous
 62
     7
370
    25
100
AcDbLine
 10
7760.0338976961
 20
5730.1218651629
 30
0.0
 11
7760.0338976961
 21
5730.1137589312
 31
0.0
  0
LINE
  5
3AD
330
1F
100
AcDbEntity
  8
0
  6
Continuous
 62
     7
370
    25
100
AcDbLine
 10
7760.0511234384
 20
5730.1137589312
 30
0.0
 11
7760.0338976961
 21
5730.1218651629
 31
0.0
  0
LINE
  5
3AE
330
1F
100
AcDbEntity
  8
0
  6
Continuous
 62
     7
370
    25
100
AcDbLine
 10
7745.7692545038
 20
5730.1219843722
 30
0.0
 11
7741.7692463976
 21
5730.1219843722
 31
0.0
  0
LINE
  5
3AF
330
1F
100
AcDbEntity
  8
0
  6
Continuous
 62
     7
370
    25
100
AcDbLine
 10
7745.7692545038
 20
5730.1218651629
 30
0.0
 11
7745.7692545038
 21
5730.1219843722
 31
0.0
  0
LINE
  5
3B0
330
1F
100
AcDbEntity
  8
0
  6
Continuous
 62
     7
370
    25
100
AcDbLine
 10
7741.7692463976
 20
5730.1137589312
 30
0.0
 11
7741.7692463976
 21
5730.1219843722
 31
0.0
  0
LINE
  5
3B1
330
1F
100
AcDbEntity
  8
0
  6
Continuous
 62
     7
370
    25
100
AcDbLine
 10
7760.4102712255
 20
5730.1137589312
 30
0.0
 11
7760.4102712255
 21
5730.1219843722
 31
0.0
  0
LINE
  5
3B2
330
1F
100
AcDbEntity
  8
0
  6
Continuous
 62
     7
370
    25
100
AcDbLine
 10
7764.4102495294
 20
5730.1219843722
 30
0.0
 11
7764.4102495294
 21
5730.1137589312
 31
0.0
  0
LINE
  5
3B3
330
1F
100
AcDbEntity
  8
0
  6
Continuous
 62
     7
370
    25
100
AcDbLine
 10
7760.4102712255
 20
5730.1219843722
 30
0.0
 11
7764.4102495294
 21
5730.1219843722
 31
0.0
  0
LINE
  5
3B4
330
1F
100
AcDbEntity
  8
0
  6
Continuous
 62
     7
370
    25
100
AcDbLine
 10
7746.145419417
 20
5730.1218651629
 30
0.0
 11
7746.1455982309
 21
5730.1219843722
 31
0.0
  0
LINE
  5
3B5
330
1F
100
AcDbEntity
  8
0
  6
Continuous
 62
     7
370
    25
100
AcDbLine
 10
7748.0897527319
 20
5730.1219843722
 30
0.0
 11
7746.1455982309
 21
5730.1219843722
 31
0.0
  0
LINE
  5
3B6
330
1F
100
AcDbEntity
  8
0
  6
Continuous
 62
     7
370
    25
100
AcDbLine
 10
7759.3266289812
 20
5730.1218651629
 30
0.0
 11
7759.3268077951
 21
5730.1219843722
 31
0.0
  0
LINE
  5
3B7
330
1F
100
AcDbEntity
  8
0
  6
Continuous
 62
     7
370
    25
100
AcDbLine
 10
7759.3268077951
 20
5730.1218651629
 30
0.0
 11
7759.3268077951
 21
5730.1219843722
 31
0.0
  0
LINE
  5
3B8
330
1F
100
AcDbEntity
  8
0
  6
Continuous
 62
     7
370
    25
100
AcDbLine
 10
7759.3268077951
 20
5730.1219843722
 30
0.0
 11
7762.1552270036
 21
5730.1219843722
 31
0.0
  0
LINE
  5
3B9
330
1F
100
AcDbEntity
  8
0
  6
Continuous
 62
     7
370
    25
100
AcDbLine
 10
7331.7500088494
 20
5729.1135929919
 30
0.0
 11
7331.7500088494
 21
5721.1135767794
 31
0.0
  0
LINE
  5
3BA
330
1F
100
AcDbEntity
  8
0
  6
Continuous
 62
     7
370
    25
100
AcDbLine
 10
7331.7500088494
 20
5729.1135929919
 30
0.0
 11
7340.4102632092
 21
5729.1137122012
 31
0.0
  0
LINE
  5
3BB
330
1F
100
AcDbEntity
  8
0
  6
Continuous
 62
     7
370
    25
100
AcDbLine
 10
7340.4102632092
 20
5729.1137122012
 30
0.0
 11
7340.4102632019
 21
5721.1136959887
 31
0.0
  0
LINE
  5
3BC
330
1F
100
AcDbEntity
  8
0
  6
Continuous
 62
     7
370
    25
100
AcDbLine
 10
7331.7500088494
 20
5721.1135767794
 30
0.0
 11
7340.4102632019
 21
5721.1136959887
 31
0.0
  0
LINE
  5
3BD
330
1F
100
AcDbEntity
  8
0
  6
Continuous
 62
     7
370
    25
100
AcDbLine
 10
7314.4295007121
 20
5729.1135929919
 30
0.0
 11
7314.4295007121
 21
5721.1135767794
 31
0.0
  0
LINE
  5
3BE
330
1F
100
AcDbEntity
  8
0
  6
Continuous
 62
     7
370
    25
100
AcDbLine
 10
7314.4295007121
 20
5729.1135929919
 30
0.0
 11
7331.7500088494
 21
5729.1135929919
 31
0.0
  0
LINE
  5
3BF
330
1F
100
AcDbEntity
  8
0
  6
Continuous
 62
     7
370
    25
100
AcDbLine
 10
7314.4295007121
 20
5721.1135767794
 30
0.0
 11
7331.7500088494
 21
5721.1135767794
 31
0.0
  0
LINE
  5
3C0
330
1F
100
AcDbEntity
  8
0
  6
Continuous
 62
     7
370
    25
100
AcDbLine
 10
7340.4102632092
 20
5729.1137122012
 30
0.0
 11
7334.4102633316
 21
5729.1138314105
 31
0.0
  0
LINE
  5
3C1
330
1F
100
AcDbEntity
  8
0
  6
Continuous
 62
     7
370
    25
100
AcDbLine
 10
7305.7692457121
 20
5729.1137122012
 30
0.0
 11
7314.4295007121
 21
5729.1135929919
 31
0.0
  0
LINE
  5
3C2
330
1F
100
AcDbEntity
  8
0
  6
Continuous
 62
     7
370
    25
100
AcDbLine
 10
7311.7692466956
 20
5729.1138314105
 30
0.0
 11
7305.7692457121
 21
5729.1137122012
 31
0.0
  0
LINE
  5
3C3
330
1F
100
AcDbEntity
  8
0
  6
Continuous
 62
     7
370
    25
100
AcDbLine
 10
7318.5897559058
 20
5729.1137122012
 30
0.0
 11
7320.589754371
 21
5729.1137122012
 31
0.0
  0
LINE
  5
3C4
330
1F
100
AcDbEntity
  8
0
  6
Continuous
 62
     7
370
    25
100
AcDbLine
 10
7334.4102633316
 20
5729.1137122012
 30
0.0
 11
7332.1551444139
 21
5729.1137122012
 31
0.0
  0
LINE
  5
3C5
330
1F
100
AcDbEntity
  8
0
  6
Continuous
 62
     7
370
    25
100
AcDbLine
 10
7330.0339026507
 20
5729.1137122012
 30
0.0
 11
7327.2054759916
 21
5729.1137122012
 31
0.0
  0
LINE
  5
3C6
330
1F
100
AcDbEntity
  8
0
  6
Continuous
 62
     7
370
    25
100
AcDbLine
 10
7332.1552235764
 20
5729.1137122012
 30
0.0
 11
7330.0339026507
 21
5729.1137122012
 31
0.0
  0
LINE
  5
3C7
330
1F
100
AcDbEntity
  8
0
  6
Continuous
 62
     7
370
    25
100
AcDbLine
 10
7324.5897550266
 20
5729.1137122012
 30
0.0
 11
7321.5897545349
 21
5729.1137122012
 31
0.0
  0
LINE
  5
3C8
330
1F
100
AcDbEntity
  8
0
  6
Continuous
 62
     7
370
    25
100
AcDbLine
 10
7316.1456078421
 20
5729.1137122012
 30
0.0
 11
7314.0242878478
 21
5729.1137122012
 31
0.0
  0
LINE
  5
3C9
330
1F
100
AcDbEntity
  8
0
  6
Continuous
 62
     7
370
    25
100
AcDbLine
 10
7318.9740345013
 20
5729.1137122012
 30
0.0
 11
7316.1456078421
 21
5729.1137122012
 31
0.0
  0
LINE
  5
3CA
330
1F
100
AcDbEntity
  8
0
  6
Continuous
 62
     7
370
    25
100
AcDbLine
 10
7314.0242878478
 20
5729.1137122012
 30
0.0
 11
7311.7692466956
 21
5729.1137122012
 31
0.0
  0
LINE
  5
3CB
330
1F
100
AcDbEntity
  8
0
  6
Continuous
 62
     7
370
    25
100
AcDbLine
 10
7305.7692457121
 20
5721.1136959887
 30
0.0
 11
7305.7692457121
 21
5729.1137122012
 31
0.0
  0
LINE
  5
3CC
330
1F
100
AcDbEntity
  8
0
  6
Continuous
 62
     7
370
    25
100
AcDbLine
 10
7305.7692457121
 20
5721.1136959887
 30
0.0
 11
7314.4295007121
 21
5721.1135767794
 31
0.0
  0
LINE
  5
3CD
330
1F
100
AcDbEntity
  8
0
  6
Continuous
 62
     7
370
    25
100
AcDbLine
 10
7324.5897550266
 20
5729.1137122012
 30
0.0
 11
7321.5897545349
 21
5730.1136397219
 31
0.0
  0
LINE
  5
3CE
330
1F
100
AcDbEntity
  8
0
  6
Continuous
 62
     7
370
    25
100
AcDbLine
 10
7321.5897545349
 20
5730.1136397219
 30
0.0
 11
7321.5897545349
 21
5729.1137122012
 31
0.0
  0
LINE
  5
3CF
330
1F
100
AcDbEntity
  8
0
  6
Continuous
 62
     7
370
    25
100
AcDbLine
 10
7332.1552235764
 20
5729.1137122012
 30
0.0
 11
7330.0339026507
 21
5730.1136397219
 31
0.0
  0
LINE
  5
3D0
330
1F
100
AcDbEntity
  8
0
  6
Continuous
 62
     7
370
    25
100
AcDbLine
 10
7330.0339026507
 20
5730.1136397219
 30
0.0
 11
7330.0339026507
 21
5729.1137122012
 31
0.0
  0
LINE
  5
3D1
330
1F
100
AcDbEntity
  8
0
  6
Continuous
 62
     7
370
    25
100
AcDbLine
 10
7316.1456078421
 20
5729.1137122012
 30
0.0
 11
7314.0242878478
 21
5730.1136397219
 31
0.0
  0
LINE
  5
3D2
330
1F
100
AcDbEntity
  8
0
  6
Continuous
 62
     7
370
    25
100
AcDbLine
 10
7316.8527145069
 20
5730.1137589312
 30
0.0
 11
7314.0242878478
 21
5730.1136397219
 31
0.0
  0
LINE
  5
3D3
330
1F
100
AcDbEntity
  8
0
  6
Continuous
 62
     7
370
    25
100
AcDbLine
 10
7318.9740345013
 20
5729.1137122012
 30
0.0
 11
7316.8527145069
 21
5730.1137589312
 31
0.0
  0
LINE
  5
3D4
330
1F
100
AcDbEntity
  8
0
  6
Continuous
 62
     7
370
    25
100
AcDbLine
 10
7314.0242878478
 20
5730.1136397219
 30
0.0
 11
7314.0242878478
 21
5729.1137122012
 31
0.0
  0
LINE
  5
3D5
330
1F
100
AcDbEntity
  8
0
  6
Continuous
 62
     7
370
    25
100
AcDbLine
 10
7327.2054759916
 20
5729.1137122012
 30
0.0
 11
7327.2054759916
 21
5730.1136397219
 31
0.0
  0
LINE
  5
3D6
330
1F
100
AcDbEntity
  8
0
  6
Continuous
 62
     7
370
    25
100
AcDbLine
 10
7327.2054759916
 20
5730.1136397219
 30
0.0
 11
7330.0339026507
 21
5730.1136397219
 31
0.0
  0
LINE
  5
3D7
330
1F
100
AcDbEntity
  8
0
  6
Continuous
 62
     7
370
    25
100
AcDbLine
 10
7315.7692473512
 20
5730.1137589312
 30
0.0
 11
7311.7692466956
 21
5730.1137589312
 31
0.0
  0
LINE
  5
3D8
330
1F
100
AcDbEntity
  8
0
  6
Continuous
 62
     7
370
    25
100
AcDbLine
 10
7315.7692473512
 20
5730.1136397219
 30
0.0
 11
7315.7692473512
 21
5730.1137589312
 31
0.0
  0
LINE
  5
3D9
330
1F
100
AcDbEntity
  8
0
  6
Continuous
 62
     7
370
    25
100
AcDbLine
 10
7311.7692466956
 20
5729.1137122012
 30
0.0
 11
7311.7692466956
 21
5730.1137589312
 31
0.0
  0
LINE
  5
3DA
330
1F
100
AcDbEntity
  8
0
  6
Continuous
 62
     7
370
    25
100
AcDbLine
 10
7330.4102631416
 20
5730.1137589312
 30
0.0
 11
7334.4102633316
 21
5730.1137589312
 31
0.0
  0
LINE
  5
3DB
330
1F
100
AcDbEntity
  8
0
  6
Continuous
 62
     7
370
    25
100
AcDbLine
 10
7334.4102633316
 20
5730.1137589312
 30
0.0
 11
7334.4102633316
 21
5729.1137122012
 31
0.0
  0
LINE
  5
3DC
330
1F
100
AcDbEntity
  8
0
  6
Continuous
 62
     7
370
    25
100
AcDbLine
 10
7330.4102631416
 20
5729.9362562991
 30
0.0
 11
7330.4102631416
 21
5730.1137589312
 31
0.0
  0
LINE
  5
3DD
330
1F
100
AcDbEntity
  8
0
  6
Continuous
 62
     7
370
    25
100
AcDbLine
 10
7329.3266162407
 20
5730.1136397219
 30
0.0
 11
7329.3267959859
 21
5730.1137589312
 31
0.0
  0
LINE
  5
3DE
330
1F
100
AcDbEntity
  8
0
  6
Continuous
 62
     7
370
    25
100
AcDbLine
 10
7329.3267959859
 20
5730.1136397219
 30
0.0
 11
7329.3267959859
 21
5730.1137589312
 31
0.0
  0
LINE
  5
3DF
330
1F
100
AcDbEntity
  8
0
  6
Continuous
 62
     7
370
    25
100
AcDbLine
 10
7316.1454066765
 20
5730.1137589312
 30
0.0
 11
7316.1456078421
 21
5730.1137589312
 31
0.0
  0
LINE
  5
3E0
330
1F
100
AcDbEntity
  8
0
  6
Continuous
 62
     7
370
    25
100
AcDbLine
 10
7318.0897548925
 20
5730.1137589312
 30
0.0
 11
7316.1456078421
 21
5730.1137589312
 31
0.0
  0
LINE
  5
3E1
330
1F
100
AcDbEntity
  8
0
  6
Continuous
 62
     7
370
    25
100
AcDbLine
 10
7329.3267959859
 20
5730.1137589312
 30
0.0
 11
7332.1552235764
 21
5730.1137589312
 31
0.0
  0
LINE
  5
3E2
330
1F
100
AcDbEntity
  8
0
  6
Continuous
 62
     7
370
    25
100
AcDbLine
 10
7764.5897489172
 20
5751.1135481692
 30
0.0
 11
7764.5897489172
 21
5751.6136311388
 31
0.0
  0
LINE
  5
3E3
330
1F
100
AcDbEntity
  8
0
  6
Continuous
 62
     7
370
    25
100
AcDbLine
 10
7741.5897470098
 20
5751.1135481692
 30
0.0
 11
7741.5897470098
 21
5751.6136311388
 31
0.0
  0
LINE
  5
3E4
330
1F
100
AcDbEntity
  8
0
  6
Continuous
 62
     7
370
    25
100
AcDbLine
 10
7741.5897470098
 20
5751.6136311388
 30
0.0
 11
7764.5897489172
 21
5751.6136311388
 31
0.0
  0
LINE
  5
3E5
330
1F
100
AcDbEntity
  8
0
  6
Continuous
 62
     7
370
    25
100
AcDbLine
 10
7764.5897489172
 20
5751.1135481692
 30
0.0
 11
7741.5897470098
 21
5751.1135481692
 31
0.0
  0
LINE
  5
3E6
330
1F
100
AcDbEntity
  8
0
  6
Continuous
 62
     7
370
    25
100
AcDbLine
 10
7764.5897489172
 20
5747.1135996676
 30
0.0
 11
7764.5897489172
 21
5747.613563428
 31
0.0
  0
LINE
  5
3E7
330
1F
100
AcDbEntity
  8
0
  6
Continuous
 62
     7
370
    25
100
AcDbLine
 10
7741.5897470098
 20
5747.613563428
 30
0.0
 11
7764.5897489172
 21
5747.613563428
 31
0.0
  0
LINE
  5
3E8
330
1F
100
AcDbEntity
  8
0
  6
Continuous
 62
     7
370
    25
100
AcDbLine
 10
7741.5897470098
 20
5747.1135996676
 30
0.0
 11
7741.5897470098
 21
5747.613563428
 31
0.0
  0
LINE
  5
3E9
330
1F
100
AcDbEntity
  8
0
  6
Continuous
 62
     7
370
    25
100
AcDbLine
 10
7764.5897489172
 20
5747.1135996676
 30
0.0
 11
7741.5897470098
 21
5747.1135996676
 31
0.0
  0
LINE
  5
3EA
330
1F
100
AcDbEntity
  8
0
  6
Continuous
 62
     7
370
    25
100
AcDbLine
 10
7764.5897489172
 20
5743.113651166
 30
0.0
 11
7764.5897489172
 21
5743.6136149264
 31
0.0
  0
LINE
  5
3EB
330
1F
100
AcDbEntity
  8
0
  6
Continuous
 62
     7
370
    25
100
AcDbLine
 10
7741.5897470098
 20
5743.6136149264
 30
0.0
 11
7764.5897489172
 21
5743.6136149264
 31
0.0
  0
LINE
  5
3EC
330
1F
100
AcDbEntity
  8
0
  6
Continuous
 62
     7
370
    25
100
AcDbLine
 10
7741.5897470098
 20
5743.113651166
 30
0.0
 11
7741.5897470098
 21
5743.6136149264
 31
0.0
  0
LINE
  5
3ED
330
1F
100
AcDbEntity
  8
0
  6
Continuous
 62
     7
370
    25
100
AcDbLine
 10
7764.5897489172
 20
5743.113651166
 30
0.0
 11
7741.5897470098
 21
5743.113651166
 31
0.0
  0
LINE
  5
3EE
330
1F
100
AcDbEntity
  8
0
  6
Continuous
 62
     7
370
    25
100
AcDbLine
 10
7773.0897586923
 20
5741.1135577059
 30
0.0
 11
7773.0897586923
 21
5738.1136559344
 31
0.0
  0
LINE
  5
3EF
330
1F
100
AcDbEntity
  8
0
  6
Continuous
 62
     7
370
    25
100
AcDbLine
 10
7733.089767037
 20
5738.1136559344
 30
0.0
 11
7773.0897586923
 21
5738.1136559344
 31
0.0
  0
LINE
  5
3F0
330
1F
100
AcDbEntity
  8
0
  6
Continuous
 62
     7
370
    25
100
AcDbLine
 10
7733.089767037
 20
5741.1135577059
 30
0.0
 11
7733.089767037
 21
5738.1136559344
 31
0.0
  0
LINE
  5
3F1
330
1F
100
AcDbEntity
  8
0
  6
Continuous
 62
     7
370
    25
100
AcDbLine
 10
7733.089767037
 20
5741.1135577059
 30
0.0
 11
7773.0897586923
 21
5741.1135577059
 31
0.0
  0
LINE
  5
3F2
330
1F
100
AcDbEntity
  8
0
  6
Continuous
 62
     7
370
    25
100
AcDbLine
 10
7733.089767037
 20
5741.1139153338
 30
0.0
 11
7733.089767037
 21
5741.1135577059
 31
0.0
  0
LINE
  5
3F3
330
1F
100
AcDbEntity
  8
0
  6
Continuous
 62
     7
370
    25
100
AcDbLine
 10
7773.0897586923
 20
5741.1135577059
 30
0.0
 11
7773.0897586923
 21
5741.1139153338
 31
0.0
  0
ELLIPSE
  5
3F4
330
1F
100
AcDbEntity
  8
0
  6
Continuous
 62
     7
370
    25
100
AcDbEllipse
 10
7768.0897551299
 20
5738.1136309947
 30
0.0
 11
-3.535545938394535
 21
3.535545938462747
 31
0.0
210
0.0
220
0.0
230
1.0
 40
0.9999931934
 41
2.356191086892465
 42
3.926987413687552
  0
ELLIPSE
  5
3F5
330
1F
100
AcDbEntity
  8
0
  6
Continuous
 62
     7
370
    25
100
AcDbEllipse
 10
7738.0897551299
 20
5738.1136309947
 30
0.0
 11
3.535545938556425
 21
3.535545938299947
 31
0.0
210
0.0
220
0.0
230
1.0
 40
0.9999931934
 41
2.35619789353803
 42
3.926994220332989
  0
LINE
  5
3F6
330
1F
100
AcDbEntity
  8
0
  6
Continuous
 62
     7
370
    25
100
AcDbLine
 10
7738.0897622686
 20
5733.1136607028
 30
0.0
 11
7768.0897634607
 21
5733.1136607028
 31
0.0
  0
LINE
  5
3F7
330
1F
100
AcDbEntity
  8
0
  6
Continuous
 62
     7
370
    25
100
AcDbLine
 10
7334.5897552688
 20
5751.1135481692
 30
0.0
 11
7334.5897552688
 21
5751.6136311388
 31
0.0
  0
LINE
  5
3F8
330
1F
100
AcDbEntity
  8
0
  6
Continuous
 62
     7
370
    25
100
AcDbLine
 10
7311.5897547584
 20
5751.1135481692
 30
0.0
 11
7311.5897547584
 21
5751.6136311388
 31
0.0
  0
LINE
  5
3F9
330
1F
100
AcDbEntity
  8
0
  6
Continuous
 62
     7
370
    25
100
AcDbLine
 10
7311.5897547584
 20
5751.6136311388
 30
0.0
 11
7334.5897552688
 21
5751.6136311388
 31
0.0
  0
LINE
  5
3FA
330
1F
100
AcDbEntity
  8
0
  6
Continuous
 62
     7
370
    25
100
AcDbLine
 10
7334.5897552688
 20
5751.1135481692
 30
0.0
 11
7311.5897547584
 21
5751.1135481692
 31
0.0
  0
LINE
  5
3FB
330
1F
100
AcDbEntity
  8
0
  6
Continuous
 62
     7
370
    25
100
AcDbLine
 10
7334.5897552688
 20
5747.1135996676
 30
0.0
 11
7334.5897552688
 21
5747.613563428
 31
0.0
  0
LINE
  5
3FC
330
1F
100
AcDbEntity
  8
0
  6
Continuous
 62
     7
370
    25
100
AcDbLine
 10
7311.5897547584
 20
5747.1135996676
 30
0.0
 11
7311.5897547584
 21
5747.613563428
 31
0.0
  0
LINE
  5
3FD
330
1F
100
AcDbEntity
  8
0
  6
Continuous
 62
     7
370
    25
100
AcDbLine
 10
7311.5897547584
 20
5747.613563428
 30
0.0
 11
7334.5897552688
 21
5747.613563428
 31
0.0
  0
LINE
  5
3FE
330
1F
100
AcDbEntity
  8
0
  6
Continuous
 62
     7
370
    25
100
AcDbLine
 10
7334.5897552688
 20
5747.1135996676
 30
0.0
 11
7311.5897547584
 21
5747.1135996676
 31
0.0
  0
LINE
  5
3FF
330
1F
100
AcDbEntity
  8
0
  6
Continuous
 62
     7
370
    25
100
AcDbLine
 10
7311.5897547584
 20
5743.6136149264
 30
0.0
 11
7334.5897552688
 21
5743.6136149264
 31
0.0
  0
LINE
  5
400
330
1F
100
AcDbEntity
  8
0
  6
Continuous
 62
     7
370
    25
100
AcDbLine
 10
7334.5897552688
 20
5743.113651166
 30
0.0
 11
7334.5897552688
 21
5743.6136149264
 31
0.0
  0
LINE
  5
401
330
1F
100
AcDbEntity
  8
0
  6
Continuous
 62
     7
370
    25
100
AcDbLine
 10
7311.5897547584
 20
5743.113651166
 30
0.0
 11
7311.5897547584
 21
5743.6136149264
 31
0.0
  0
LINE
  5
402
330
1F
100
AcDbEntity
  8
0
  6
Continuous
 62
     7
370
    25
100
AcDbLine
 10
7334.5897552688
 20
5743.113651166
 30
0.0
 11
7311.5897547584
 21
5743.113651166
 31
0.0
  0
LINE
  5
403
330
1F
100
AcDbEntity
  8
0
  6
Continuous
 62
     7
370
    25
100
AcDbLine
 10
7343.0897550322
 20
5741.1135577059
 30
0.0
 11
7343.0897550322
 21
5741.1139153338
 31
0.0
  0
LINE
  5
404
330
1F
100
AcDbEntity
  8
0
  6
Continuous
 62
     7
370
    25
100
AcDbLine
 10
7303.0897561591
 20
5741.1135577059
 30
0.0
 11
7343.0897550322
 21
5741.1135577059
 31
0.0
  0
LINE
  5
405
330
1F
100
AcDbEntity
  8
0
  6
Continuous
 62
     7
370
    25
100
AcDbLine
 10
7303.0897561591
 20
5741.1139153338
 30
0.0
 11
7303.0897561591
 21
5741.1135577059
 31
0.0
  0
LINE
  5
406
330
1F
100
AcDbEntity
  8
0
  6
Continuous
 62
     7
370
    25
100
AcDbLine
 10
7303.0897561591
 20
5738.1136559344
 30
0.0
 11
7343.0897550322
 21
5738.1136559344
 31
0.0
  0
LINE
  5
407
330
1F
100
AcDbEntity
  8
0
  6
Continuous
 62
     7
370
    25
100
AcDbLine
 10
7343.0897550322
 20
5741.1135577059
 30
0.0
 11
7343.0897550322
 21
5738.1136559344
 31
0.0
  0
LINE
  5
408
330
1F
100
AcDbEntity
  8
0
  6
Continuous
 62
     7
370
    25
100
AcDbLine
 10
7303.0897561591
 20
5741.1135577059
 30
0.0
 11
7303.0897561591
 21
5738.1136559344
 31
0.0
  0
ELLIPSE
  5
409
330
1F
100
AcDbEntity
  8
0
  6
Continuous
 62
     7
370
    25
100
AcDbEllipse
 10
7338.0897551299
 20
5738.1136309947
 30
0.0
 11
-3.535545938393625
 21
3.535545938462747
 31
0.0
210
0.0
220
0.0
230
1.0
 40
0.9999931934
 41
2.356191086892657
 42
3.926987413687617
  0
ELLIPSE
  5
40A
330
1F
100
AcDbEntity
  8
0
  6
Continuous
 62
     7
370
    25
100
AcDbEllipse
 10
7308.0897551299
 20
5738.1136309947
 30
0.0
 11
3.535545938557334
 21
3.535545938299947
 31
0.0
210
0.0
220
0.0
230
1.0
 40
0.9999931934
 41
2.356197893538094
 42
3.926994220333182
  0
LINE
  5
40B
330
1F
100
AcDbEntity
  8
0
  6
Continuous
 62
     7
370
    25
100
AcDbLine
 10
7308.089755116
 20
5733.1136607028
 30
0.0
 11
7338.089755144
 21
5733.1136607028
 31
0.0
  0
LINE
  5
40C
330
1F
100
AcDbEntity
  8
0
  6
Continuous
 62
     7
370
    25
100
AcDbLine
 10
7343.0897550322
 20
5916.1219738818
 30
0.0
 11
7733.089767037
 21
5916.1219738818
 31
0.0
  0
LINE
  5
40D
330
1F
100
AcDbEntity
  8
0
  6
Continuous
 62
     7
370
    25
100
AcDbLine
 10
7343.0897550322
 20
5916.1220930911
 30
0.0
 11
7733.089767037
 21
5916.1220930911
 31
0.0
  0
LINE
  5
40E
330
1F
100
AcDbEntity
  8
0
  6
Continuous
 62
     7
370
    25
100
AcDbLine
 10
7343.0897550322
 20
5916.1136292315
 30
0.0
 11
7733.089767037
 21
5916.1136292315
 31
0.0
  0
LINE
  5
40F
330
1F
100
AcDbEntity
  8
0
  6
Continuous
 62
     7
370
    25
100
AcDbLine
 10
7733.089767037
 20
5916.1136292315
 30
0.0
 11
7733.089767037
 21
5914.1136549807
 31
0.0
  0
LINE
  5
410
330
1F
100
AcDbEntity
  8
0
  6
Continuous
 62
     7
370
    25
100
AcDbLine
 10
7733.089767037
 20
5914.1136549807
 30
0.0
 11
7343.0897550322
 21
5914.1136549807
 31
0.0
  0
LINE
  5
411
330
1F
100
AcDbEntity
  8
0
  6
Continuous
 62
     7
370
    25
100
AcDbLine
 10
7343.0897550322
 20
5914.1136549807
 30
0.0
 11
7343.0897550322
 21
5916.1136292315
 31
0.0
  0
LINE
  5
412
330
1F
100
AcDbEntity
  8
0
  6
Continuous
 62
     7
370
    25
100
AcDbLine
 10
7343.0897550322
 20
5878.1136416293
 30
0.0
 11
7733.089767037
 21
5878.1136416293
 31
0.0
  0
LINE
  5
413
330
1F
100
AcDbEntity
  8
0
  6
Continuous
 62
     7
370
    25
100
AcDbLine
 10
7733.089767037
 20
5914.1136549807
 30
0.0
 11
7733.089767037
 21
5878.1136416293
 31
0.0
  0
LINE
  5
414
330
1F
100
AcDbEntity
  8
0
  6
Continuous
 62
     7
370
    25
100
AcDbLine
 10
7343.0897550322
 20
5878.1136416293
 30
0.0
 11
7343.0897550322
 21
5914.1136549807
 31
0.0
  0
LINE
  5
415
330
1F
100
AcDbEntity
  8
0
  6
Continuous
 62
     7
370
    25
100
AcDbLine
 10
7343.0897550322
 20
5876.1136673785
 30
0.0
 11
7733.089767037
 21
5876.1136673785
 31
0.0
  0
LINE
  5
416
330
1F
100
AcDbEntity
  8
0
  6
Continuous
 62
     7
370
    25
100
AcDbLine
 10
7733.089767037
 20
5878.1136416293
 30
0.0
 11
7733.089767037
 21
5876.1136673785
 31
0.0
  0
LINE
  5
417
330
1F
100
AcDbEntity
  8
0
  6
Continuous
 62
     7
370
    25
100
AcDbLine
 10
7343.0897550322
 20
5876.1136673785
 30
0.0
 11
7343.0897550322
 21
5878.1136416293
 31
0.0
  0
LINE
  5
418
330
1F
100
AcDbEntity
  8
0
  6
Continuous
 62
     7
370
    25
100
AcDbLine
 10
7343.0897550322
 20
5916.1137484408
 30
0.0
 11
7733.089767037
 21
5916.1137484408
 31
0.0
  0
LINE
  5
419
330
1F
100
AcDbEntity
  8
0
  6
Continuous
 62
     7
370
    25
100
AcDbLine
 10
7303.0897561591
 20
5741.1135577059
 30
0.0
 11
7303.0897561591
 21
6071.3135742045
 31
0.0
  0
LINE
  5
41A
330
1F
100
AcDbEntity
  8
0
  6
Continuous
 62
     7
370
    25
100
AcDbLine
 10
7343.0897550322
 20
5741.1135577059
 30
0.0
 11
7343.0897550322
 21
5876.1136673785
 31
0.0
  0
LINE
  5
41B
330
1F
100
AcDbEntity
  8
0
  6
Continuous
 62
     7
370
    25
100
AcDbLine
 10
7343.0897550322
 20
5916.1136292315
 30
0.0
 11
7343.0897550322
 21
6071.1136006213
 31
0.0
  0
LINE
  5
41C
330
1F
100
AcDbEntity
  8
0
  6
Continuous
 62
     7
370
    25
100
AcDbLine
 10
7341.0897551119
 20
5741.1135577059
 30
0.0
 11
7305.089756487
 21
5741.1135577059
 31
0.0
  0
LINE
  5
41D
330
1F
100
AcDbEntity
  8
0
  6
Continuous
 62
     7
370
    25
100
AcDbLine
 10
7771.0897546392
 20
5741.1135577059
 30
0.0
 11
7735.0897412878
 21
5741.1135577059
 31
0.0
  0
LINE
  5
41E
330
1F
100
AcDbEntity
  8
0
  6
Continuous
 62
     7
370
    25
100
AcDbLine
 10
7733.089767037
 20
5741.1135577059
 30
0.0
 11
7733.089767037
 21
5876.1136673785
 31
0.0
  0
LINE
  5
41F
330
1F
100
AcDbEntity
  8
0
  6
Continuous
 62
     7
370
    25
100
AcDbLine
 10
7733.089767037
 20
5916.1136292315
 30
0.0
 11
7733.089767037
 21
6071.1136006213
 31
0.0
  0
LINE
  5
420
330
1F
100
AcDbEntity
  8
0
  6
Continuous
 62
     7
370
    25
100
AcDbLine
 10
7773.0897586923
 20
5741.1135577059
 30
0.0
 11
7773.0897586923
 21
6071.3135742045
 31
0.0
  0
LINE
  5
421
330
1F
100
AcDbEntity
  8
0
  6
Continuous
 62
     7
370
    25
100
AcDbLine
 10
7296.2831962984
 20
6991.889945457
 30
0.0
 11
7342.9831947331
 21
6981.9635555542
 31
0.0
  0
ARC
  5
422
330
1F
100
AcDbEntity
  8
0
  6
Continuous
 62
     7
370
    25
100
AcDbCircle
 10
7342.6401404058
 20
6980.3496115813
 30
0.0
 40
1.650000000000546
100
AcDbArc
 50
0.0
 51
78.0
  0
LINE
  5
423
330
1F
100
AcDbEntity
  8
0
  6
Continuous
 62
     7
370
    25
100
AcDbLine
 10
7344.2901404239
 20
6980.3496107853
 30
0.0
 11
7344.2901404239
 21
6571.3135742045
 31
0.0
  0
LINE
  5
424
330
1F
100
AcDbEntity
  8
0
  6
Continuous
 62
     7
370
    25
100
AcDbLine
 10
7344.2901404239
 20
6571.3135742045
 30
0.0
 11
7774.2901366335
 21
6571.3135742045
 31
0.0
  0
LINE
  5
425
330
1F
100
AcDbEntity
  8
0
  6
Continuous
 62
     7
370
    25
100
AcDbLine
 10
7774.2901366335
 20
6571.3135742045
 30
0.0
 11
7774.2901366335
 21
6546.3235818243
 31
0.0
  0
LINE
  5
426
330
1F
100
AcDbEntity
  8
0
  6
Continuous
 62
     7
370
    25
100
AcDbLine
 10
7774.2901366335
 20
6546.3235818243
 30
0.0
 11
7771.180145083
 21
6546.3235818243
 31
0.0
  0
LINE
  5
427
330
1F
100
AcDbEntity
  8
0
  6
Continuous
 62
     7
370
    25
100
AcDbLine
 10
7771.180145083
 20
6546.3135980463
 30
0.0
 11
7771.180145083
 21
6546.3235818243
 31
0.0
  0
LINE
  5
428
330
1F
100
AcDbEntity
  8
0
  6
Continuous
 62
     7
370
    25
100
AcDbLine
 10
7771.180145083
 20
6546.3135980463
 30
0.0
 11
7771.190128861
 21
6546.3135980463
 31
0.0
  0
LINE
  5
429
330
1F
100
AcDbEntity
  8
0
  6
Continuous
 62
     7
370
    25
100
AcDbLine
 10
7771.190128861
 20
6071.3135742045
 30
0.0
 11
7771.190128861
 21
6546.3135980463
 31
0.0
  0
LINE
  5
42A
330
1F
100
AcDbEntity
  8
0
  6
Continuous
 62
     7
370
    25
100
AcDbLine
 10
7771.190128861
 20
6071.3135742045
 30
0.0
 11
7297.3901402336
 21
6071.3135742045
 31
0.0
  0
LINE
  5
42B
330
1F
100
AcDbEntity
  8
0
  6
Continuous
 62
     7
370
    25
100
AcDbLine
 10
7297.3901402336
 20
6071.3135742045
 30
0.0
 11
7297.3901402336
 21
6966.7760033554
 31
0.0
  0
LINE
  5
42C
330
1F
100
AcDbEntity
  8
0
  6
Continuous
 62
     7
370
    25
100
AcDbLine
 10
7297.3901402336
 20
6966.7760033554
 30
0.0
 11
7297.4001389127
 21
6966.7760033554
 31
0.0
  0
LINE
  5
42D
330
1F
100
AcDbEntity
  8
0
  6
Continuous
 62
     7
370
    25
100
AcDbLine
 10
7297.4001389127
 20
6966.7860038972
 30
0.0
 11
7297.4001389127
 21
6966.7760033554
 31
0.0
  0
LINE
  5
42E
330
1F
100
AcDbEntity
  8
0
  6
Continuous
 62
     7
370
    25
100
AcDbLine
 10
7297.4001389127
 20
6966.7860038972
 30
0.0
 11
7294.2901399117
 21
6966.7860038972
 31
0.0
  0
LINE
  5
42F
330
1F
100
AcDbEntity
  8
0
  6
Continuous
 62
     7
370
    25
100
AcDbLine
 10
7294.2901399117
 20
6966.7860038972
 30
0.0
 11
7294.2901399117
 21
6990.2760044134
 31
0.0
  0
ARC
  5
430
330
1F
100
AcDbEntity
  8
0
  6
Continuous
 62
     7
370
    25
100
AcDbCircle
 10
7295.9401404058
 20
6990.2760030111
 30
0.0
 40
1.650000000000643
100
AcDbArc
 50
78.0
 51
180.0
  0
LINE
  5
431
330
1F
100
AcDbEntity
  8
0
  6
Continuous
 62
     7
370
    25
100
AcDbLine
 10
7296.2831962984
 20
6991.8899603582
 30
0.0
 11
7296.2831962984
 21
6991.889945457
 31
0.0
  0
ARC
  5
432
330
1F
100
AcDbEntity
  8
0
  6
Continuous
 62
     7
370
    25
100
AcDbCircle
 10
7295.9401404058
 20
6990.2760166243
 30
0.0
 40
1.650000000000643
100
AcDbArc
 50
78.0
 51
180.0
  0
LINE
  5
433
330
1F
100
AcDbEntity
  8
0
  6
Continuous
 62
     7
370
    25
100
AcDbLine
 10
7294.2901399117
 20
6990.2760155893
 30
0.0
 11
7294.2901399117
 21
6990.2760044134
 31
0.0
  0
LINE
  5
434
330
1F
100
AcDbEntity
  8
0
  6
Continuous
 62
     7
370
    25
100
AcDbLine
 10
7296.2831962984
 20
6991.8899603582
 30
0.0
 11
7342.9831947331
 21
6981.9635704554
 31
0.0
  0
LINE
  5
435
330
1F
100
AcDbEntity
  8
0
  6
Continuous
 62
     7
370
    25
100
AcDbLine
 10
7342.9831947331
 20
6981.9635704554
 30
0.0
 11
7342.9831947331
 21
6981.9635555542
 31
0.0
  0
ARC
  5
436
330
1F
100
AcDbEntity
  8
0
  6
Continuous
 62
     7
370
    25
100
AcDbCircle
 10
7342.6401404058
 20
6980.3496251946
 30
0.0
 40
1.650000000000546
100
AcDbArc
 50
0.0
 51
78.0
  0
LINE
  5
437
330
1F
100
AcDbEntity
  8
0
  6
Continuous
 62
     7
370
    25
100
AcDbLine
 10
7344.2901404239
 20
6980.3496256865
 30
0.0
 11
7344.2901404239
 21
6980.3496107853
 31
0.0
  0
LINE
  5
438
330
1F
100
AcDbEntity
  8
0
  6
Continuous
 62
     7
370
    25
100
AcDbLine
 10
7294.2901399117
 20
6966.7761728561
 30
0.0
 11
7294.2901399117
 21
6966.7760238445
 31
0.0
  0
LINE
  5
439
330
1F
100
AcDbEntity
  8
0
  6
Continuous
 62
     7
370
    25
100
AcDbLine
 10
7296.2901402395
 20
6966.7761728561
 30
0.0
 11
7294.2901399117
 21
6966.7761728561
 31
0.0
  0
LINE
  5
43A
330
1F
100
AcDbEntity
  8
0
  6
Continuous
 62
     7
370
    25
100
AcDbLine
 10
7296.2901402395
 20
6966.7761728561
 30
0.0
 11
7296.2901402395
 21
6966.7760238445
 31
0.0
  0
LWPOLYLINE
  5
43B
330
1F
100
AcDbEntity
  8
0
  6
Continuous
 62
     7
370
    25
100
AcDbPolyline
 90
        9
 70
   128
 43
0.0
 10
7296.2901402395
 20
6966.7760238445
 10
7296.3112775367
 20
6966.7760219819
 10
7296.3738735896
 20
6966.7760219819
 10
7296.4755255859
 20
6966.7760201192
 10
7296.612321971
 20
6966.7760182566
 10
7296.7790138107
 20
6966.7760182566
 10
7296.9691898804
 20
6966.7760163939
 10
7297.1755411606
 20
6966.7760163939
 10
7297.3901402336
 20
6966.7760163939
  0
LINE
  5
43C
330
1F
100
AcDbEntity
  8
0
  6
Continuous
 62
     7
370
    25
100
AcDbLine
 10
7297.4001389127
 20
6966.7760163939
 30
0.0
 11
7297.3901402336
 21
6966.7760163939
 31
0.0
  0
LWPOLYLINE
  5
43D
330
1F
100
AcDbEntity
  8
0
  6
Continuous
 62
     7
370
    25
100
AcDbPolyline
 90
        9
 70
   128
 43
0.0
 10
7294.2901399117
 20
6966.7760238445
 10
7294.3497073036
 20
6966.7760201192
 10
7294.5261147004
 20
6966.7760163939
 10
7294.812585799
 20
6966.7760126687
 10
7295.1981086414
 20
6966.7760089434
 10
7295.6678714734
 20
6966.7760070807
 10
7296.203821538
 20
6966.7760052181
 10
7296.7853617054
 20
6966.7760033554
 10
7297.3901402336
 20
6966.7760033554
  0
LWPOLYLINE
  5
43E
330
1F
100
AcDbEntity
  8
0
  6
Continuous
 62
     7
370
    25
100
AcDbPolyline
 90
        9
 70
   128
 43
0.0
 10
7297.3901402336
 20
6071.3135742045
 10
7296.7853617054
 20
6071.3135742045
 10
7296.203821538
 20
6071.3135742045
 10
7295.6678714734
 20
6071.3135742045
 10
7295.1981086414
 20
6071.3135742045
 10
7294.812585799
 20
6071.3135742045
 10
7294.5261147004
 20
6071.3135742045
 10
7294.3497073036
 20
6071.3135742045
 10
7294.2901399117
 20
6071.3136338091
  0
LINE
  5
43F
330
1F
100
AcDbEntity
  8
0
  6
Continuous
 62
     7
370
    25
100
AcDbLine
 10
7294.2901399117
 20
6966.7760238445
 30
0.0
 11
7294.2901399117
 21
6071.3136338091
 31
0.0
  0
LINE
  5
440
330
1F
100
AcDbEntity
  8
0
  6
Continuous
 62
     7
370
    25
100
AcDbLine
 10
7774.2901366335
 20
6571.3136040068
 30
0.0
 11
7774.2901366335
 21
6571.3135742045
 31
0.0
  0
LINE
  5
441
330
1F
100
AcDbEntity
  8
0
  6
Continuous
 62
     7
370
    25
100
AcDbLine
 10
7344.2901404239
 20
6571.3136040068
 30
0.0
 11
7774.2901366335
 21
6571.3136040068
 31
0.0
  0
LINE
  5
442
330
1F
100
AcDbEntity
  8
0
  6
Continuous
 62
     7
370
    25
100
AcDbLine
 10
7774.2901366335
 20
6546.3135980463
 30
0.0
 11
7774.2901366335
 21
6546.3138662672
 31
0.0
  0
LINE
  5
443
330
1F
100
AcDbEntity
  8
0
  6
Continuous
 62
     7
370
    25
100
AcDbLine
 10
7771.190128861
 20
6546.3135980463
 30
0.0
 11
7774.0884047132
 21
6546.3135980463
 31
0.0
  0
LINE
  5
444
330
1F
100
AcDbEntity
  8
0
  6
Continuous
 62
     7
370
    25
100
AcDbLine
 10
7771.190128861
 20
6546.3135980463
 30
0.0
 11
7771.4740257841
 21
6546.3135980463
 31
0.0
  0
LINE
  5
445
330
1F
100
AcDbEntity
  8
0
  6
Continuous
 62
     7
370
    25
100
AcDbLine
 10
7774.2901366335
 20
6071.3136338091
 30
0.0
 11
7774.2901366335
 21
6546.3135980463
 31
0.0
  0
LWPOLYLINE
  5
446
330
1F
100
AcDbEntity
  8
0
  6
Continuous
 62
     7
370
    25
100
AcDbPolyline
 90
        9
 70
   128
 43
0.0
 10
7774.2901366335
 20
6071.3136338091
 10
7774.230561791
 20
6071.3135742045
 10
7774.0541618448
 20
6071.3135742045
 10
7773.767701922
 20
6071.3135742045
 10
7773.3821790796
 20
6071.3135742045
 10
7772.9124050718
 20
6071.3135742045
 10
7772.3764699083
 20
6071.3135742045
 10
7771.7949073892
 20
6071.3135742045
 10
7771.190128861
 20
6071.3135742045
  0
LINE
  5
447
330
1F
100
AcDbEntity
  8
0
  6
Continuous
 62
     7
370
    25
100
AcDbLine
 10
7774.2901366335
 20
6546.321793685
 30
0.0
 11
7774.2901366335
 21
6546.3220619059
 31
0.0
  0
LINE
  5
448
330
1F
100
AcDbEntity
  8
0
  6
Continuous
 62
     7
370
    25
100
AcDbLine
 10
7774.2901366335
 20
6546.321793685
 30
0.0
 11
7774.2901366335
 21
6546.3138662672
 31
0.0
  0
LINE
  5
449
330
1F
100
AcDbEntity
  8
0
  6
Continuous
 62
     7
370
    25
100
AcDbLine
 10
7294.2901399117
 20
6966.7843405551
 30
0.0
 11
7296.2901402395
 21
6966.7843405551
 31
0.0
  0
LINE
  5
44A
330
1F
100
AcDbEntity
  8
0
  6
Continuous
 62
     7
370
    25
100
AcDbLine
 10
7294.2901399117
 20
6966.7843405551
 30
0.0
 11
7294.2901399117
 21
6966.7761728561
 31
0.0
  0
LINE
  5
44B
330
1F
100
AcDbEntity
  8
0
  6
Continuous
 62
     7
370
    25
100
AcDbLine
 10
7296.2901402395
 20
6966.7843405551
 30
0.0
 11
7296.2901402395
 21
6966.7761728561
 31
0.0
  0
LINE
  5
44C
330
1F
100
AcDbEntity
  8
0
  6
Continuous
 62
     7
370
    25
100
AcDbLine
 10
7294.2901399117
 20
6966.7844895667
 30
0.0
 11
7294.2901399117
 21
6966.7843405551
 31
0.0
  0
LWPOLYLINE
  5
44D
330
1F
100
AcDbEntity
  8
0
  6
Continuous
 62
     7
370
    25
100
AcDbPolyline
 90
        9
 70
   128
 43
0.0
 10
7297.3901402336
 20
6966.7845119185
 10
7296.7853617054
 20
6966.7845100558
 10
7296.203821538
 20
6966.7845100558
 10
7295.6678714734
 20
6966.7845081932
 10
7295.1981086414
 20
6966.7845044679
 10
7294.812585799
 20
6966.7845026052
 10
7294.5261147004
 20
6966.78449888
 10
7294.3497073036
 20
6966.7844951547
 10
7294.2901399117
 20
6966.7844895667
  0
LINE
  5
44E
330
1F
100
AcDbEntity
  8
0
  6
Continuous
 62
     7
370
    25
100
AcDbLine
 10
7297.4001389127
 20
6966.7845119185
 30
0.0
 11
7297.3901402336
 21
6966.7845119185
 31
0.0
  0
LINE
  5
44F
330
1F
100
AcDbEntity
  8
0
  6
Continuous
 62
     7
370
    25
100
AcDbLine
 10
7297.4001389127
 20
6966.7844970173
 30
0.0
 11
7297.3901402336
 21
6966.7844970173
 31
0.0
  0
LWPOLYLINE
  5
450
330
1F
100
AcDbEntity
  8
0
  6
Continuous
 62
     7
370
    25
100
AcDbPolyline
 90
        9
 70
   128
 43
0.0
 10
7297.3901402336
 20
6966.7844970173
 10
7297.1755411606
 20
6966.7844970173
 10
7296.9691898804
 20
6966.7844970173
 10
7296.7790138107
 20
6966.7844970173
 10
7296.612321971
 20
6966.7844951547
 10
7296.4755255859
 20
6966.7844951547
 10
7296.3738735896
 20
6966.784493292
 10
7296.3112775367
 20
6966.7844914294
 10
7296.2901402395
 20
6966.7844895667
  0
LINE
  5
451
330
1F
100
AcDbEntity
  8
0
  6
Continuous
 62
     7
370
    25
100
AcDbLine
 10
7296.2901402395
 20
6966.7844895667
 30
0.0
 11
7296.2901402395
 21
6966.7843405551
 31
0.0
  0
LINE
  5
452
330
1F
100
AcDbEntity
  8
0
  6
Continuous
 62
     7
370
    25
100
AcDbLine
 10
7342.9831947331
 20
6981.9720492161
 30
0.0
 11
7296.2831962984
 21
6991.8984428442
 31
0.0
  0
ARC
  5
453
330
1F
100
AcDbEntity
  8
0
  6
Continuous
 62
     7
370
    25
100
AcDbCircle
 10
7342.6401404058
 20
6980.3581062419
 30
0.0
 40
1.650000000000546
100
AcDbArc
 50
0.0
 51
78.0
  0
LINE
  5
454
330
1F
100
AcDbEntity
  8
0
  6
Continuous
 62
     7
370
    25
100
AcDbLine
 10
7344.2901404239
 20
6980.3566385454
 30
0.0
 11
7344.2901404239
 21
6980.3581063098
 31
0.0
  0
LINE
  5
455
330
1F
100
AcDbEntity
  8
0
  6
Continuous
 62
     7
370
    25
100
AcDbLine
 10
7774.2901366335
 20
6571.3220678664
 30
0.0
 11
7344.2930456847
 21
6571.3220678664
 31
0.0
  0
LINE
  5
456
330
1F
100
AcDbEntity
  8
0
  6
Continuous
 62
     7
370
    25
100
AcDbLine
 10
7774.2901366335
 20
6571.3136040068
 30
0.0
 11
7774.2901366335
 21
6571.3220678664
 31
0.0
  0
ARC
  5
457
330
1F
100
AcDbEntity
  8
0
  6
Continuous
 62
     7
370
    25
100
AcDbCircle
 10
7295.9401404058
 20
6990.2844976716
 30
0.0
 40
1.650000000000643
100
AcDbArc
 50
78.0
 51
180.0
  0
LINE
  5
458
330
1F
100
AcDbEntity
  8
0
  6
Continuous
 62
     7
370
    25
100
AcDbLine
 10
7296.2831962984
 20
6991.8984428442
 30
0.0
 11
7296.2831962984
 21
6991.8984540201
 31
0.0
  0
ARC
  5
459
330
1F
100
AcDbEntity
  8
0
  6
Continuous
 62
     7
370
    25
100
AcDbCircle
 10
7295.9401404058
 20
6990.2845112849
 30
0.0
 40
1.650000000000546
100
AcDbArc
 50
78.0
 51
180.0
  0
LINE
  5
45A
330
1F
100
AcDbEntity
  8
0
  6
Continuous
 62
     7
370
    25
100
AcDbLine
 10
7342.9831947331
 20
6981.9720641172
 30
0.0
 11
7296.2831962984
 21
6991.8984540201
 31
0.0
  0
LINE
  5
45B
330
1F
100
AcDbEntity
  8
0
  6
Continuous
 62
     7
370
    25
100
AcDbLine
 10
7342.9831947331
 20
6981.9720492161
 30
0.0
 11
7342.9831947331
 21
6981.9720641172
 31
0.0
  0
ARC
  5
45C
330
1F
100
AcDbEntity
  8
0
  6
Continuous
 62
     7
370
    25
100
AcDbCircle
 10
7342.6401404058
 20
6980.3581198551
 30
0.0
 40
1.650000000000546
100
AcDbArc
 50
0.0
 51
78.0
  0
LINE
  5
45D
330
1F
100
AcDbEntity
  8
0
  6
Continuous
 62
     7
370
    25
100
AcDbLine
 10
7344.2901404239
 20
6980.3581063098
 30
0.0
 11
7344.2901404239
 21
6980.3581193483
 31
0.0
  0
LINE
  5
45E
330
1F
100
AcDbEntity
  8
0
  6
Continuous
 62
     7
370
    25
100
AcDbLine
 10
7774.2901366335
 20
6571.3220678664
 30
0.0
 11
7774.2901366335
 21
6571.3220976687
 31
0.0
  0
LINE
  5
45F
330
1F
100
AcDbEntity
  8
0
  6
Continuous
 62
     7
370
    25
100
AcDbLine
 10
7774.2901366335
 20
6571.3220976687
 30
0.0
 11
7772.6397436243
 21
6571.3220976687
 31
0.0
  0
LINE
  5
460
330
1F
100
AcDbEntity
  8
0
  6
Continuous
 62
     7
370
    25
100
AcDbLine
 10
7730.9397678953
 20
6571.3220976687
 30
0.0
 11
7344.2930456847
 21
6571.3220976687
 31
0.0
  0
LINE
  5
461
330
1F
100
AcDbEntity
  8
0
  6
Continuous
 62
     7
370
    25
100
AcDbLine
 10
7344.2930456847
 20
6980.2587658561
 30
0.0
 11
7344.2930456847
 21
6571.3136040068
 31
0.0
  0
LINE
  5
462
330
1F
100
AcDbEntity
  8
0
  6
Continuous
 62
     7
370
    25
100
AcDbLine
 10
7774.2897492033
 20
6546.3135980463
 30
0.0
 11
7774.2897492033
 21
6546.3235818243
 31
0.0
  0
LINE
  5
463
330
1F
100
AcDbEntity
  8
0
  6
Continuous
 62
     7
370
    25
100
AcDbLine
 10
7774.2897492033
 20
6546.3135980463
 30
0.0
 11
7774.0884047132
 21
6546.3135980463
 31
0.0
  0
LINE
  5
464
330
1F
100
AcDbEntity
  8
0
  6
Continuous
 62
     7
370
    25
100
AcDbLine
 10
7773.0897586923
 20
6546.3235818243
 30
0.0
 11
7773.0897586923
 21
6546.3135980463
 31
0.0
  0
LINE
  5
465
330
1F
100
AcDbEntity
  8
0
  6
Continuous
 62
     7
370
    25
100
AcDbLine
 10
7730.9397678953
 20
6571.3136040068
 30
0.0
 11
7730.9397678953
 21
6571.3220678664
 31
0.0
  0
LINE
  5
466
330
1F
100
AcDbEntity
  8
0
  6
Continuous
 62
     7
370
    25
100
AcDbLine
 10
7730.9397678953
 20
6571.3220678664
 30
0.0
 11
7772.6397436243
 21
6571.3220678664
 31
0.0
  0
LINE
  5
467
330
1F
100
AcDbEntity
  8
0
  6
Continuous
 62
     7
370
    25
100
AcDbLine
 10
7772.6397436243
 20
6571.3136040068
 30
0.0
 11
7772.6397436243
 21
6571.3220678664
 31
0.0
  0
LINE
  5
468
330
1F
100
AcDbEntity
  8
0
  6
Continuous
 62
     7
370
    25
100
AcDbLine
 10
7772.6397436243
 20
6571.3220678664
 30
0.0
 11
7772.8068452459
 21
6571.3136040068
 31
0.0
  0
LINE
  5
469
330
1F
100
AcDbEntity
  8
0
  6
Continuous
 62
     7
370
    25
100
AcDbLine
 10
7730.7726662737
 20
6571.3136040068
 30
0.0
 11
7730.9397678953
 21
6571.3220678664
 31
0.0
  0
LINE
  5
46A
330
1F
100
AcDbEntity
  8
0
  6
Continuous
 62
     8
370
    25
100
AcDbLine
 10
7305.089756487
 20
5741.1135577059
 30
0.0
 11
7305.089756487
 21
6071.3135742045
 31
0.0
  0
LINE
  5
46B
330
1F
100
AcDbEntity
  8
0
  6
Continuous
 62
     8
370
    25
100
AcDbLine
 10
7341.0897551119
 20
5741.1135577059
 30
0.0
 11
7341.0897551119
 21
6071.3135742045
 31
0.0
  0
LINE
  5
46C
330
1F
100
AcDbEntity
  8
0
  6
Continuous
 62
     8
370
    25
100
AcDbLine
 10
7735.0897412878
 20
6071.3135742045
 30
0.0
 11
7735.0897412878
 21
5741.1135577059
 31
0.0
  0
LINE
  5
46D
330
1F
100
AcDbEntity
  8
0
  6
Continuous
 62
     8
370
    25
100
AcDbLine
 10
7771.0897546392
 20
5741.1135577059
 30
0.0
 11
7771.0897546392
 21
6071.3135742045
 31
0.0
  0
LINE
  5
46E
330
1F
100
AcDbEntity
  8
0
  6
Continuous
 62
     8
370
    25
100
AcDbLine
 10
7297.3901402336
 20
6966.7760163939
 30
0.0
 11
7297.3901402336
 21
6966.7844970173
 31
0.0
  0
ENDSEC
  0
SECTION
  2
OBJECTS
  0
DICTIONARY
  5
C
330
0
100
AcDbDictionary
281
     1
  3
ACAD_GROUP
350
D
  3
ACAD_LAYOUT
350
1A
  3
ACAD_MLINESTYLE
350
17
  3
ACAD_PLOTSETTINGS
350
19
  3
ACAD_PLOTSTYLENAME
350
E
  3
ACAD_SCALELIST
350
47
  0
DICTIONARY
  5
D
102
{ACAD_REACTORS
330
C
102
}
330
C
100
AcDbDictionary
281
     1
  0
DICTIONARY
  5
1A
102
{ACAD_REACTORS
330
C
102
}
330
C
100
AcDbDictionary
281
     1
  3
Layout1
350
1E
  3
Layout2
350
26
  3
Model
350
22
  0
DICTIONARY
  5
17
102
{ACAD_REACTORS
330
C
102
}
330
C
100
AcDbDictionary
281
     1
  3
Standard
350
18
  0
DICTIONARY
  5
19
102
{ACAD_REACTORS
330
C
102
}
330
C
100
AcDbDictionary
281
     1
  0
ACDBDICTIONARYWDFLT
  5
E
102
{ACAD_REACTORS
330
C
102
}
330
C
100
AcDbDictionary
281
     1
  3
Normal
350
F
100
AcDbDictionaryWithDefault
340
F
  0
DICTIONARY
  5
47
102
{ACAD_REACTORS
330
C
102
}
330
C
100
AcDbDictionary
281
     1
  3
A0
350
48
  3
A1
350
49
  3
A2
350
4A
  3
A3
350
4B
  3
A4
350
4C
  3
A5
350
4D
  3
A6
350
4E
  3
A7
350
4F
  3
A8
350
50
  3
A9
350
51
  3
B0
350
52
  3
B1
350
53
  3
B2
350
54
  3
B3
350
55
  3
B4
350
56
  3
B5
350
57
  3
B6
350
58
  3
B7
350
59
  3
B8
350
5A
  3
B9
350
5B
  3
C0
350
5C
  3
C1
350
5D
  3
C2
350
5E
  3
C3
350
5F
  3
C4
350
60
  3
C5
350
61
  3
C6
350
62
  3
C7
350
63
  3
C8
350
64
  3
C9
350
65
  3
D0
350
66
  3
D1
350
67
  3
D2
350
68
  0
LAYOUT
  5
1E
102
{ACAD_REACTORS
330
1A
102
}
330
1A
100
AcDbPlotSettings
  1

  2
none_device
  4

  6

 40
0.0
 41
0.0
 42
0.0
 43
0.0
 44
0.0
 45
0.0
 46
0.0
 47
0.0
 48
0.0
 49
0.0
140
0.0
141
0.0
142
1.0
143
1.0
 70
   688
 72
     1
 73
     0
 74
     5
  7

 75
    16
147
1.0
148
0.0
149
0.0
100
AcDbLayout
  1
Layout1
 70
     1
 71
     1
 10
0.0
 20
0.0
 11
420.0
 21
297.0
 12
0.0
 22
0.0
 32
0.0
 14
1.0000000000E+20
 24
1.0000000000E+20
 34
1.0000000000E+20
 15
-1.0000000000E+20
 25
-1.0000000000E+20
 35
-1.0000000000E+20
146
0.0
 13
0.0
 23
0.0
 33
0.0
 16
1.0
 26
0.0
 36
0.0
 17
0.0
 27
1.0
 37
0.0
 76
     0
330
1B
  0
LAYOUT
  5
26
102
{ACAD_REACTORS
330
1A
102
}
330
1A
100
AcDbPlotSettings
  1

  2
none_device
  4

  6

 40
0.0
 41
0.0
 42
0.0
 43
0.0
 44
0.0
 45
0.0
 46
0.0
 47
0.0
 48
0.0
 49
0.0
140
0.0
141
0.0
142
1.0
143
1.0
 70
   688
 72
     1
 73
     0
 74
     5
  7

 75
    16
147
1.0
148
0.0
149
0.0
100
AcDbLayout
  1
Layout2
 70
     1
 71
     2
 10
0.0
 20
0.0
 11
0.0
 21
0.0
 12
0.0
 22
0.0
 32
0.0
 14
0.0
 24
0.0
 34
0.0
 15
0.0
 25
0.0
 35
0.0
146
0.0
 13
0.0
 23
0.0
 33
0.0
 16
1.0
 26
0.0
 36
0.0
 17
0.0
 27
1.0
 37
0.0
 76
     0
330
23
  0
LAYOUT
  5
22
102
{ACAD_REACTORS
330
1A
102
}
330
1A
100
AcDbPlotSettings
  1

  2
none_device
  4
Letter_(8.50_x_11.00_Inches)
  6

 40
6.35
 41
6.35
 42
6.35000508
 43
6.35000508
 44
215.9
 45
279.4
 46
0.0
 47
0.0
 48
0.0
 49
0.0
140
0.0
141
0.0
142
1.0
143
1.0
 70
  1712
 72
     1
 73
     0
 74
     0
  7

 75
     0
147
1.0
148
0.0
149
0.0
100
AcDbLayout
  1
Model
 70
     1
 71
     0
 10
0.0
 20
0.0
 11
20000.0
 21
10000.0
 12
0.0
 22
0.0
 32
0.0
 14
0.0
 24
0.0
 34
0.0
 15
20000.0
 25
10000.0
 35
0.0
146
0.0
 13
0.0
 23
0.0
 33
0.0
 16
1.0
 26
0.0
 36
0.0
 17
0.0
 27
1.0
 37
0.0
 76
     0
330
1F
331
29
  0
MLINESTYLE
  5
18
102
{ACAD_REACTORS
330
17
102
}
330
17
100
AcDbMlineStyle
  2
Standard
 70
     0
  3

 62
   256
 51
90.0
 52
90.0
 71
     2
 49
0.5
 62
   256
  6
BYLAYER
 49
-0.5
 62
   256
  6
BYLAYER
  0
ACDBPLACEHOLDER
  5
F
102
{ACAD_REACTORS
330
E
102
}
330
E
  0
SCALE
  5
48
102
{ACAD_REACTORS
330
47
102
}
330
47
100
AcDbScale
 70
     0
300
1:1
140
1.0
141
1.0
290
     1
  0
SCALE
  5
49
102
{ACAD_REACTORS
330
47
102
}
330
47
100
AcDbScale
 70
     0
300
1:2
140
1.0
141
2.0
290
     0
  0
SCALE
  5
4A
102
{ACAD_REACTORS
330
47
102
}
330
47
100
AcDbScale
 70
     0
300
1:4
140
1.0
141
4.0
290
     0
  0
SCALE
  5
4B
102
{ACAD_REACTORS
330
47
102
}
330
47
100
AcDbScale
 70
     0
300
1:5
140
1.0
141
5.0
290
     0
  0
SCALE
  5
4C
102
{ACAD_REACTORS
330
47
102
}
330
47
100
AcDbScale
 70
     0
300
1:8
140
1.0
141
8.0
290
     0
  0
SCALE
  5
4D
102
{ACAD_REACTORS
330
47
102
}
330
47
100
AcDbScale
 70
     0
300
1:10
140
1.0
141
10.0
290
     0
  0
SCALE
  5
4E
102
{ACAD_REACTORS
330
47
102
}
330
47
100
AcDbScale
 70
     0
300
1:16
140
1.0
141
16.0
290
     0
  0
SCALE
  5
4F
102
{ACAD_REACTORS
330
47
102
}
330
47
100
AcDbScale
 70
     0
300
1:20
140
1.0
141
20.0
290
     0
  0
SCALE
  5
50
102
{ACAD_REACTORS
330
47
102
}
330
47
100
AcDbScale
 70
     0
300
1:30
140
1.0
141
30.0
290
     0
  0
SCALE
  5
51
102
{ACAD_REACTORS
330
47
102
}
330
47
100
AcDbScale
 70
     0
300
1:40
140
1.0
141
40.0
290
     0
  0
SCALE
  5
52
102
{ACAD_REACTORS
330
47
102
}
330
47
100
AcDbScale
 70
     0
300
1:50
140
1.0
141
50.0
290
     0
  0
SCALE
  5
53
102
{ACAD_REACTORS
330
47
102
}
330
47
100
AcDbScale
 70
     0
300
1:100
140
1.0
141
100.0
290
     0
  0
SCALE
  5
54
102
{ACAD_REACTORS
330
47
102
}
330
47
100
AcDbScale
 70
     0
300
2:1
140
2.0
141
1.0
290
     0
  0
SCALE
  5
55
102
{ACAD_REACTORS
330
47
102
}
330
47
100
AcDbScale
 70
     0
300
4:1
140
4.0
141
1.0
290
     0
  0
SCALE
  5
56
102
{ACAD_REACTORS
330
47
102
}
330
47
100
AcDbScale
 70
     0
300
8:1
140
8.0
141
1.0
290
     0
  0
SCALE
  5
57
102
{ACAD_REACTORS
330
47
102
}
330
47
100
AcDbScale
 70
     0
300
10:1
140
10.0
141
1.0
290
     0
  0
SCALE
  5
58
102
{ACAD_REACTORS
330
47
102
}
330
47
100
AcDbScale
 70
     0
300
100:1
140
100.0
141
1.0
290
     0
  0
SCALE
  5
59
102
{ACAD_REACTORS
330
47
102
}
330
47
100
AcDbScale
 70
     0
300
1/128" = 1'-0"
140
0.0078125
141
12.0
290
     0
  0
SCALE
  5
5A
102
{ACAD_REACTORS
330
47
102
}
330
47
100
AcDbScale
 70
     0
300
1/64" = 1'-0"
140
0.015625
141
12.0
290
     0
  0
SCALE
  5
5B
102
{ACAD_REACTORS
330
47
102
}
330
47
100
AcDbScale
 70
     0
300
1/32" = 1'-0"
140
0.03125
141
12.0
290
     0
  0
SCALE
  5
5C
102
{ACAD_REACTORS
330
47
102
}
330
47
100
AcDbScale
 70
     0
300
1/16" = 1'-0"
140
0.0625
141
12.0
290
     0
  0
SCALE
  5
5D
102
{ACAD_REACTORS
330
47
102
}
330
47
100
AcDbScale
 70
     0
300
3/32" = 1'-0"
140
0.09375
141
12.0
290
     0
  0
SCALE
  5
5E
102
{ACAD_REACTORS
330
47
102
}
330
47
100
AcDbScale
 70
     0
300
1/8" = 1'-0"
140
0.125
141
12.0
290
     0
  0
SCALE
  5
5F
102
{ACAD_REACTORS
330
47
102
}
330
47
100
AcDbScale
 70
     0
300
3/16" = 1'-0"
140
0.1875
141
12.0
290
     0
  0
SCALE
  5
60
102
{ACAD_REACTORS
330
47
102
}
330
47
100
AcDbScale
 70
     0
300
1/4" = 1'-0"
140
0.25
141
12.0
290
     0
  0
SCALE
  5
61
102
{ACAD_REACTORS
330
47
102
}
330
47
100
AcDbScale
 70
     0
300
3/8" = 1'-0"
140
0.375
141
12.0
290
     0
  0
SCALE
  5
62
102
{ACAD_REACTORS
330
47
102
}
330
47
100
AcDbScale
 70
     0
300
1/2" = 1'-0"
140
0.5
141
12.0
290
     0
  0
SCALE
  5
63
102
{ACAD_REACTORS
330
47
102
}
330
47
100
AcDbScale
 70
     0
300
3/4" = 1'-0"
140
0.75
141
12.0
290
     0
  0
SCALE
  5
64
102
{ACAD_REACTORS
330
47
102
}
330
47
100
AcDbScale
 70
     0
300
1" = 1'-0"
140
1.0
141
12.0
290
     0
  0
SCALE
  5
65
102
{ACAD_REACTORS
330
47
102
}
330
47
100
AcDbScale
 70
     0
300
1-1/2" = 1'-0"
140
1.5
141
12.0
290
     0
  0
SCALE
  5
66
102
{ACAD_REACTORS
330
47
102
}
330
47
100
AcDbScale
 70
     0
300
3" = 1'-0"
140
3.0
141
12.0
290
     0
  0
SCALE
  5
67
102
{ACAD_REACTORS
330
47
102
}
330
47
100
AcDbScale
 70
     0
300
6" = 1'-0"
140
6.0
141
12.0
290
     0
  0
SCALE
  5
68
102
{ACAD_REACTORS
330
47
102
}
330
47
100
AcDbScale
 70
     0
300
1'-0" = 1'-0"
140
12.0
141
12.0
290
     0
  0
ENDSEC
  0
EOF
