  0
SECTION
  2
HEADER
  9
$ACADVER
  1
AC1015
  9
$ACADMAINTVER
 70
     6
  9
$DWGCODEPAGE
  3
ANSI_1250
  9
$INSBASE
 10
0.0
 20
0.0
 30
0.0
  9
$EXTMIN
 10
8420.534855011
 20
5386.040410309
 30
0.0
  9
$EXTMAX
 10
9954.8329575468
 20
7335.5414560846
 30
0.0
  9
$LIMMIN
 10
0.0
 20
0.0
  9
$LIMMAX
 10
420.0
 20
297.0
  9
$ORTHOMODE
 70
     0
  9
$REGENMODE
 70
     1
  9
$FILLMODE
 70
     1
  9
$QTEXTMODE
 70
     0
  9
$MIRRTEXT
 70
     1
  9
$LTSCALE
 40
1.0
  9
$ATTMODE
 70
     1
  9
$TEXTSIZE
 40
3.5
  9
$TRACEWID
 40
1.0
  9
$TEXTSTYLE
  7
Standard
  9
$CLAYER
  8
0
  9
$CELTYPE
  6
ByLayer
  9
$CECOLOR
 62
   256
  9
$CELTSCALE
 40
1.0
  9
$DISPSILH
 70
     0
  9
$DIMSCALE
 40
1.0
  9
$DIMASZ
 40
3.302
  9
$DIMEXO
 40
0.0
  9
$DIMDLI
 40
3.75
  9
$DIMRND
 40
0.0
  9
$DIMDLE
 40
0.0
  9
$DIMEXE
 40
1.0
  9
$DIMTP
 40
0.0
  9
$DIMTM
 40
0.0
  9
$DIMTXT
 40
3.5
  9
$DIMCEN
 40
2.5
  9
$DIMTSZ
 40
0.0
  9
$DIMTOL
 70
     0
  9
$DIMLIM
 70
     0
  9
$DIMTIH
 70
     1
  9
$DIMTOH
 70
     1
  9
$DIMSE1
 70
     0
  9
$DIMSE2
 70
     0
  9
$DIMTAD
 70
     1
  9
$DIMZIN
 70
     0
  9
$DIMBLK
  1

  9
$DIMASO
 70
     1
  9
$DIMSHO
 70
     1
  9
$DIMPOST
  1

  9
$DIMAPOST
  1

  9
$DIMALT
 70
     0
  9
$DIMALTD
 70
     3
  9
$DIMALTF
 40
0.0393700787
  9
$DIMLFAC
 40
1.0
  9
$DIMTOFL
 70
     1
  9
$DIMTVP
 40
0.0
  9
$DIMTIX
 70
     0
  9
$DIMSOXD
 70
     0
  9
$DIMSAH
 70
     0
  9
$DIMBLK1
  1

  9
$DIMBLK2
  1

  9
$DIMSTYLE
  2
ISO-25
  9
$DIMCLRD
 70
     0
  9
$DIMCLRE
 70
     0
  9
$DIMCLRT
 70
     0
  9
$DIMTFAC
 40
1.0
  9
$DIMGAP
 40
1.524
  9
$DIMJUST
 70
     0
  9
$DIMSD1
 70
     0
  9
$DIMSD2
 70
     0
  9
$DIMTOLJ
 70
     0
  9
$DIMTZIN
 70
     0
  9
$DIMALTZ
 70
     0
  9
$DIMALTTZ
 70
     0
  9
$DIMUPT
 70
     0
  9
$DIMDEC
 70
     2
  9
$DIMTDEC
 70
     2
  9
$DIMALTU
 70
     2
  9
$DIMALTTD
 70
     3
  9
$DIMTXSTY
  7
Standard
  9
$DIMAUNIT
 70
     0
  9
$DIMADEC
 70
     2
  9
$DIMALTRND
 40
0.0
  9
$DIMAZIN
 70
     0
  9
$DIMDSEP
 70
    44
  9
$DIMATFIT
 70
     3
  9
$DIMFRAC
 70
     0
  9
$DIMLDRBLK
  1

  9
$DIMLUNIT
 70
     2
  9
$DIMLWD
 70
    -2
  9
$DIMLWE
 70
    -2
  9
$DIMTMOVE
 70
     0
  9
$LUNITS
 70
     2
  9
$LUPREC
 70
     2
  9
$SKETCHINC
 40
1.0
  9
$FILLETRAD
 40
10.0
  9
$AUNITS
 70
     0
  9
$AUPREC
 70
     2
  9
$MENU
  1
.
  9
$ELEVATION
 40
0.0
  9
$PELEVATION
 40
0.0
  9
$THICKNESS
 40
0.0
  9
$LIMCHECK
 70
     0
  9
$CHAMFERA
 40
0.0
  9
$CHAMFERB
 40
0.0
  9
$CHAMFERC
 40
0.0
  9
$CHAMFERD
 40
0.0
  9
$SKPOLY
 70
     0
  9
$TDCREATE
 40
2459097.436807928
  9
$TDUCREATE
 40
2459097.353474595
  9
$TDUPDATE
 40
2459097.436838148
  9
$TDUUPDATE
 40
2459097.353504815
  9
$TDINDWG
 40
0.0000000116
  9
$TDUSRTIMER
 40
0.0000000116
  9
$USRTIMER
 70
     1
  9
$ANGBASE
 50
0.0
  9
$ANGDIR
 70
     0
  9
$PDMODE
 70
     0
  9
$PDSIZE
 40
-1.0
  9
$PLINEWID
 40
0.0
  9
$SPLFRAME
 70
     0
  9
$SPLINETYPE
 70
     6
  9
$SPLINESEGS
 70
     8
  9
$HANDSEED
  5
35A
  9
$SURFTAB1
 70
     6
  9
$SURFTAB2
 70
     6
  9
$SURFTYPE
 70
     6
  9
$SURFU
 70
     6
  9
$SURFV
 70
     6
  9
$UCSBASE
  2

  9
$UCSNAME
  2

  9
$UCSORG
 10
0.0
 20
0.0
 30
0.0
  9
$UCSXDIR
 10
1.0
 20
0.0
 30
0.0
  9
$UCSYDIR
 10
0.0
 20
1.0
 30
0.0
  9
$UCSORTHOREF
  2

  9
$UCSORTHOVIEW
 70
     0
  9
$UCSORGTOP
 10
0.0
 20
0.0
 30
0.0
  9
$UCSORGBOTTOM
 10
0.0
 20
0.0
 30
0.0
  9
$UCSORGLEFT
 10
0.0
 20
0.0
 30
0.0
  9
$UCSORGRIGHT
 10
0.0
 20
0.0
 30
0.0
  9
$UCSORGFRONT
 10
0.0
 20
0.0
 30
0.0
  9
$UCSORGBACK
 10
0.0
 20
0.0
 30
0.0
  9
$PUCSBASE
  2

  9
$PUCSNAME
  2

  9
$PUCSORG
 10
0.0
 20
0.0
 30
0.0
  9
$PUCSXDIR
 10
1.0
 20
0.0
 30
0.0
  9
$PUCSYDIR
 10
0.0
 20
1.0
 30
0.0
  9
$PUCSORTHOREF
  2

  9
$PUCSORTHOVIEW
 70
     0
  9
$PUCSORGTOP
 10
0.0
 20
0.0
 30
0.0
  9
$PUCSORGBOTTOM
 10
0.0
 20
0.0
 30
0.0
  9
$PUCSORGLEFT
 10
0.0
 20
0.0
 30
0.0
  9
$PUCSORGRIGHT
 10
0.0
 20
0.0
 30
0.0
  9
$PUCSORGFRONT
 10
0.0
 20
0.0
 30
0.0
  9
$PUCSORGBACK
 10
0.0
 20
0.0
 30
0.0
  9
$USERI1
 70
     0
  9
$USERI2
 70
     0
  9
$USERI3
 70
     0
  9
$USERI4
 70
     0
  9
$USERI5
 70
     0
  9
$USERR1
 40
0.0
  9
$USERR2
 40
0.0
  9
$USERR3
 40
0.0
  9
$USERR4
 40
0.0
  9
$USERR5
 40
0.0
  9
$WORLDVIEW
 70
     1
  9
$SHADEDGE
 70
     3
  9
$SHADEDIF
 70
    70
  9
$TILEMODE
 70
     1
  9
$MAXACTVP
 70
    64
  9
$PINSBASE
 10
0.0
 20
0.0
 30
0.0
  9
$PLIMCHECK
 70
     0
  9
$PEXTMIN
 10
1.0000000000E+20
 20
1.0000000000E+20
 30
1.0000000000E+20
  9
$PEXTMAX
 10
-1.0000000000E+20
 20
-1.0000000000E+20
 30
-1.0000000000E+20
  9
$PLIMMIN
 10
0.0
 20
0.0
  9
$PLIMMAX
 10
420.0
 20
297.0
  9
$UNITMODE
 70
     0
  9
$VISRETAIN
 70
     1
  9
$PLINEGEN
 70
     0
  9
$PSLTSCALE
 70
     1
  9
$TREEDEPTH
 70
  3020
  9
$CMLSTYLE
  2
Standard
  9
$CMLJUST
 70
     0
  9
$CMLSCALE
 40
20.0
  9
$PROXYGRAPHICS
 70
     1
  9
$MEASUREMENT
 70
     1
  9
$CELWEIGHT
370
    -1
  9
$ENDCAPS
280
     0
  9
$JOINSTYLE
280
     0
  9
$LWDISPLAY
290
     1
  9
$INSUNITS
 70
     4
  9
$HYPERLINKBASE
  1

  9
$STYLESHEET
  1

  9
$XEDIT
290
     1
  9
$CEPSNTYPE
380
     0
  9
$PSTYLEMODE
290
     1
  9
$FINGERPRINTGUID
  2
{ad993121-42a9-4f59-b835-a67635e7eb00}
  9
$VERSIONGUID
  2
{FAEB1C32-E019-11D5-929B-00C0DF256EC4}
  9
$EXTNAMES
290
     1
  9
$PSVPSCALE
 40
0.0
  9
$OLESTARTUP
290
     0
  0
ENDSEC
  0
SECTION
  2
CLASSES
  0
CLASS
  1
ACDBDICTIONARYWDFLT
  2
AcDbDictionaryWithDefault
  3
ObjectDBX Classes
 90
        0
280
     0
281
     0
  0
CLASS
  1
VISUALSTYLE
  2
AcDbVisualStyle
  3
ObjectDBX Classes
 90
     4095
280
     0
281
     0
  0
CLASS
  1
MATERIAL
  2
AcDbMaterial
  3
ObjectDBX Classes
 90
     1153
280
     0
281
     0
  0
CLASS
  1
SCALE
  2
AcDbScale
  3
ObjectDBX Classes
 90
     1153
280
     0
281
     0
  0
CLASS
  1
TABLESTYLE
  2
AcDbTableStyle
  3
ObjectDBX Classes
 90
     4095
280
     0
281
     0
  0
CLASS
  1
MLEADERSTYLE
  2
AcDbMLeaderStyle
  3
ACDB_MLEADERSTYLE_CLASS
 90
     4095
280
     0
281
     0
  0
CLASS
  1
SUN
  2
AcDbSun
  3
SCENEOE
 90
     1153
280
     0
281
     0
  0
CLASS
  1
ACDBPLACEHOLDER
  2
AcDbPlaceHolder
  3
ObjectDBX Classes
 90
        0
280
     0
281
     0
  0
CLASS
  1
LAYOUT
  2
AcDbLayout
  3
ObjectDBX Classes
 90
        0
280
     0
281
     0
  0
ENDSEC
  0
SECTION
  2
TABLES
  0
TABLE
  2
VPORT
  5
8
330
0
100
AcDbSymbolTable
 70
     1
  0
VPORT
  5
29
330
8
100
AcDbSymbolTableRecord
100
AcDbViewportTableRecord
  2
*Active
 70
     0
 10
0.0
 20
0.0
 11
1.0
 21
1.0
 12
9187.6839062789
 22
6360.7909331968
 13
0.0
 23
0.0
 14
10.0
 24
10.0
 15
10.0
 25
10.0
 16
0.0
 26
0.0
 36
1.0
 17
0.0
 27
0.0
 37
0.0
 40
1988.4910666911
 41
0.7870209179
 42
50.0
 43
0.0
 44
0.0
 50
0.0
 51
0.0
 71
     0
 72
   100
 73
     1
 74
     3
 75
     0
 76
     0
 77
     0
 78
     0
281
     0
 65
     1
110
0.0
120
0.0
130
0.0
111
1.0
121
0.0
131
0.0
112
0.0
122
1.0
132
0.0
 79
     0
146
0.0
  0
ENDTAB
  0
TABLE
  2
LTYPE
  5
5
330
0
100
AcDbSymbolTable
 70
     6
  0
LTYPE
  5
14
330
5
100
AcDbSymbolTableRecord
100
AcDbLinetypeTableRecord
  2
ByBlock
 70
     0
  3

 72
    65
 73
     0
 40
0.0
  0
LTYPE
  5
15
330
5
100
AcDbSymbolTableRecord
100
AcDbLinetypeTableRecord
  2
ByLayer
 70
     0
  3

 72
    65
 73
     0
 40
0.0
  0
LTYPE
  5
16
330
5
100
AcDbSymbolTableRecord
100
AcDbLinetypeTableRecord
  2
Continuous
 70
     0
  3
Solid line
 72
    65
 73
     0
 40
0.0
  0
LTYPE
  5
6E
330
5
100
AcDbSymbolTableRecord
100
AcDbLinetypeTableRecord
  2
HIDDEN
 70
     0
  3
Hidden __ __ __ __ __ __ __ __ __ __ __ __ __ __
 72
    65
 73
     2
 40
1.905
 49
1.27
 74
     0
 49
-0.635
 74
     0
  0
LTYPE
  5
6F
330
5
100
AcDbSymbolTableRecord
100
AcDbLinetypeTableRecord
  2
PHANTOM
 70
     0
  3
Phantom ______  __  __  ______  __  __  ______
 72
    65
 73
     6
 40
12.7
 49
6.35
 74
     0
 49
-1.27
 74
     0
 49
1.27
 74
     0
 49
-1.27
 74
     0
 49
1.27
 74
     0
 49
-1.27
 74
     0
  0
LTYPE
  5
70
330
5
100
AcDbSymbolTableRecord
100
AcDbLinetypeTableRecord
  2
CENTER
 70
     0
  3
Center ____ _ ____ _ ____ _ ____ _ ____ _ ____
 72
    65
 73
     4
 40
10.16
 49
6.35
 74
     0
 49
-1.27
 74
     0
 49
1.27
 74
     0
 49
-1.27
 74
     0
  0
LTYPE
  5
71
330
5
100
AcDbSymbolTableRecord
100
AcDbLinetypeTableRecord
  2
CENTERX2
 70
     0
  3
Center (2x) ________  __  ________  __  _____
 72
    65
 73
     4
 40
20.32
 49
12.7
 74
     0
 49
-2.54
 74
     0
 49
2.54
 74
     0
 49
-2.54
 74
     0
  0
LTYPE
  5
72
330
5
100
AcDbSymbolTableRecord
100
AcDbLinetypeTableRecord
  2
DOT2
 70
     0
  3
Dot (.5x) ........................................
 72
    65
 73
     2
 40
0.635
 49
0.0
 74
     0
 49
-0.635
 74
     0
  0
ENDTAB
  0
TABLE
  2
LAYER
  5
2
330
0
100
AcDbSymbolTable
 70
     1
  0
LAYER
  5
10
330
2
100
AcDbSymbolTableRecord
100
AcDbLayerTableRecord
  2
0
 70
     0
 62
     7
  6
Continuous
370
    -3
390
F
  0
ENDTAB
  0
TABLE
  2
STYLE
  5
3
330
0
100
AcDbSymbolTable
 70
     1
  0
STYLE
  5
11
330
3
100
AcDbSymbolTableRecord
100
AcDbTextStyleTableRecord
  2
Standard
 70
     0
 40
0.0
 41
1.0
 50
0.0
 71
     0
 42
3.5
  3
txt
  4

  0
ENDTAB
  0
TABLE
  2
VIEW
  5
6
330
0
100
AcDbSymbolTable
 70
     0
  0
ENDTAB
  0
TABLE
  2
UCS
  5
7
330
0
100
AcDbSymbolTable
 70
     0
  0
ENDTAB
  0
TABLE
  2
APPID
  5
9
330
0
100
AcDbSymbolTable
 70
     1
  0
APPID
  5
12
330
9
100
AcDbSymbolTableRecord
100
AcDbRegAppTableRecord
  2
ACAD
 70
     0
  0
ENDTAB
  0
TABLE
  2
DIMSTYLE
  5
A
330
0
100
AcDbSymbolTable
 70
     1
100
AcDbDimStyleTable
  0
DIMSTYLE
105
27
330
A
100
AcDbSymbolTableRecord
100
AcDbDimStyleTableRecord
  2
ISO-25
 70
     0
 41
2.5
 42
0.625
 43
3.75
 44
1.25
 73
     0
 74
     0
 77
     1
 78
     8
140
2.5
141
2.5
143
0.0393700787
147
0.625
171
     3
172
     1
178
     0
271
     2
272
     2
274
     3
278
    44
283
     0
284
     8
340
11
  0
ENDTAB
  0
TABLE
  2
BLOCK_RECORD
  5
1
330
0
100
AcDbSymbolTable
 70
     1
  0
BLOCK_RECORD
  5
1F
330
1
100
AcDbSymbolTableRecord
100
AcDbBlockTableRecord
  2
*Model_Space
340
22
  0
BLOCK_RECORD
  5
1B
330
1
100
AcDbSymbolTableRecord
100
AcDbBlockTableRecord
  2
*Paper_Space
340
1E
  0
BLOCK_RECORD
  5
23
330
1
100
AcDbSymbolTableRecord
100
AcDbBlockTableRecord
  2
*Paper_Space0
340
26
  0
ENDTAB
  0
ENDSEC
  0
SECTION
  2
BLOCKS
  0
BLOCK
  5
20
330
1F
100
AcDbEntity
  8
0
100
AcDbBlockBegin
  2
*Model_Space
 70
     0
 10
0.0
 20
0.0
 30
0.0
  3
*Model_Space
  1

  0
ENDBLK
  5
21
330
1F
100
AcDbEntity
  8
0
100
AcDbBlockEnd
  0
BLOCK
  5
1C
330
1B
100
AcDbEntity
 67
     1
  8
0
100
AcDbBlockBegin
  2
*Paper_Space
 70
     0
 10
0.0
 20
0.0
 30
0.0
  3
*Paper_Space
  1

  0
ENDBLK
  5
1D
330
1B
100
AcDbEntity
 67
     1
  8
0
100
AcDbBlockEnd
  0
BLOCK
  5
24
330
23
100
AcDbEntity
  8
0
100
AcDbBlockBegin
  2
*Paper_Space0
 70
     0
 10
0.0
 20
0.0
 30
0.0
  3
*Paper_Space0
  1

  0
ENDBLK
  5
25
330
23
100
AcDbEntity
  8
0
100
AcDbBlockEnd
  0
ENDSEC
  0
SECTION
  2
ENTITIES
  0
ARC
  5
73
330
1F
100
AcDbEntity
  8
0
  6
Continuous
 62
     7
100
AcDbCircle
 10
8423.034855011
 20
6943.5414560846
 30
0.0
 40
2.000000000001819
100
AcDbArc
 50
90.0
 51
180.0
  0
ARC
  5
74
330
1F
100
AcDbEntity
  8
0
  6
Continuous
 62
     7
100
AcDbCircle
 10
8919.034855011
 20
6943.5414560846
 30
0.0
 40
2.000000000002728
100
AcDbArc
 50
0.0000000001
 51
89.9999999999
  0
ARC
  5
75
330
1F
100
AcDbEntity
  8
0
  6
Continuous
 62
     7
100
AcDbCircle
 10
8423.034855011
 20
6907.5414560846
 30
0.0
 40
2.0
100
AcDbArc
 50
180.0
 51
270.0
  0
ARC
  5
76
330
1F
100
AcDbEntity
  8
0
  6
Continuous
 62
     7
100
AcDbCircle
 10
8919.034855011
 20
6907.5414560846
 30
0.0
 40
2.000000000000909
100
AcDbArc
 50
270.0
 51
359.9999999999
  0
ARC
  5
77
330
1F
100
AcDbEntity
  8
0
  6
Continuous
 62
     7
100
AcDbCircle
 10
8423.034855011
 20
7293.5414560846
 30
0.0
 40
2.0
100
AcDbArc
 50
90.0
 51
180.0
  0
ARC
  5
78
330
1F
100
AcDbEntity
  8
0
  6
Continuous
 62
     7
100
AcDbCircle
 10
8919.034855011
 20
7293.5414560846
 30
0.0
 40
2.000000000003638
100
AcDbArc
 50
0.0000000001
 51
90.0
  0
ARC
  5
79
330
1F
100
AcDbEntity
  8
0
  6
Continuous
 62
     7
100
AcDbCircle
 10
8919.034855011
 20
7257.5414560846
 30
0.0
 40
2.000000000001819
100
AcDbArc
 50
270.0
 51
359.9999999999
  0
ARC
  5
7A
330
1F
100
AcDbEntity
  8
0
  6
Continuous
 62
     7
100
AcDbCircle
 10
8423.034855011
 20
7257.5414560846
 30
0.0
 40
2.0
100
AcDbArc
 50
180.0
 51
270.0
  0
ARC
  5
7B
330
1F
100
AcDbEntity
  8
0
  6
Continuous
 62
     7
100
AcDbCircle
 10
9256.8329575468
 20
7257.5414560846
 30
0.0
 40
2.000000000001819
100
AcDbArc
 50
180.0
 51
269.9999999999
  0
ARC
  5
7C
330
1F
100
AcDbEntity
  8
0
  6
Continuous
 62
     7
100
AcDbCircle
 10
9256.8329575468
 20
7293.5414560846
 30
0.0
 40
2.0
100
AcDbArc
 50
90.0
 51
180.0000000029
  0
ARC
  5
7D
330
1F
100
AcDbEntity
  8
0
  6
Continuous
 62
     7
100
AcDbCircle
 10
9587.8329575468
 20
7293.5414560846
 30
0.0
 40
2.0
100
AcDbArc
 50
0.0
 51
90.0
  0
ARC
  5
7E
330
1F
100
AcDbEntity
  8
0
  6
Continuous
 62
     7
100
AcDbCircle
 10
9587.8329575468
 20
7257.5414560846
 30
0.0
 40
2.0
100
AcDbArc
 50
270.0
 51
0.0
  0
ARC
  5
7F
330
1F
100
AcDbEntity
  8
0
  6
Continuous
 62
     7
100
AcDbCircle
 10
9952.8329575468
 20
6907.5414560846
 30
0.0
 40
2.0
100
AcDbArc
 50
269.9999999999
 51
0.0
  0
ARC
  5
80
330
1F
100
AcDbEntity
  8
0
  6
Continuous
 62
     7
100
AcDbCircle
 10
9952.8329575468
 20
6943.5414560846
 30
0.0
 40
2.000000000001819
100
AcDbArc
 50
0.0
 51
90.0
  0
ARC
  5
81
330
1F
100
AcDbEntity
  8
0
  6
Continuous
 62
     7
100
AcDbCircle
 10
9258.8329575468
 20
6597.5414560846
 30
0.0
 40
2.0
100
AcDbArc
 50
180.0
 51
270.0
  0
ARC
  5
82
330
1F
100
AcDbEntity
  8
0
  6
Continuous
 62
     7
100
AcDbCircle
 10
8671.034855011
 20
5996.040410309
 30
0.0
 40
5.250000000001463
100
AcDbArc
 50
98.2132107017
 51
261.7867892983
  0
ARC
  5
83
330
1F
100
AcDbEntity
  8
0
  6
Continuous
 62
     7
100
AcDbCircle
 10
8671.034855011
 20
5996.040410309
 30
0.0
 40
5.250000000000424
100
AcDbArc
 50
278.2132107017
 51
81.7867892983
  0
ARC
  5
84
330
1F
100
AcDbEntity
  8
0
  6
Continuous
 62
     7
100
AcDbCircle
 10
8671.034855011
 20
5996.040410309
 30
0.0
 40
5.250000000001463
100
AcDbArc
 50
81.7867892983
 51
98.2132107017
  0
ARC
  5
85
330
1F
100
AcDbEntity
  8
0
  6
Continuous
 62
     7
100
AcDbCircle
 10
8671.034855011
 20
5996.040410309
 30
0.0
 40
5.249999999999662
100
AcDbArc
 50
261.7867892983
 51
278.2132107017
  0
ARC
  5
86
330
1F
100
AcDbEntity
  8
0
  6
Continuous
 62
     7
100
AcDbCircle
 10
8777.534855011
 20
5722.540410309
 30
0.0
 40
35.00000000000109
100
AcDbArc
 50
36.8698976458
 51
54.5167960447
  0
ARC
  5
87
330
1F
100
AcDbEntity
  8
0
  6
Continuous
 62
     7
100
AcDbCircle
 10
8777.534855011
 20
5722.540410309
 30
0.0
 40
35.00000000000109
100
AcDbArc
 50
125.4832039553
 51
143.1301023542
  0
ARC
  5
88
330
1F
100
AcDbEntity
  8
0
  6
Continuous
 62
     7
100
AcDbCircle
 10
8777.534855011
 20
5722.540410309
 30
0.0
 40
34.99999999999971
100
AcDbArc
 50
175.2275662214
 51
208.0910190857
  0
ARC
  5
89
330
1F
100
AcDbEntity
  8
0
  6
Continuous
 62
     7
100
AcDbCircle
 10
8777.534855011
 20
5722.540410309
 30
0.0
 40
19.4870076343032
100
AcDbArc
 50
311.0031606453
 51
10.2788510036
  0
ARC
  5
8A
330
1F
100
AcDbEntity
  8
0
  6
Continuous
 62
     7
100
AcDbCircle
 10
8789.6592106639
 20
5715.540410309
 30
0.0
 40
5.000000000000388
100
AcDbArc
 50
270.0
 51
126.7080308427
  0
CIRCLE
  5
8B
330
1F
100
AcDbEntity
  8
0
  6
Continuous
 62
     7
100
AcDbCircle
 10
8671.034855011
 20
5996.040410309
 30
0.0
 40
24.96512544439065
  0
ARC
  5
8C
330
1F
100
AcDbEntity
  8
0
  6
Continuous
 62
     7
100
AcDbCircle
 10
8671.034855011
 20
5996.040410309
 30
0.0
 40
34.99999999999922
100
AcDbArc
 50
270.0
 51
63.7635701515
  0
ARC
  5
8D
330
1F
100
AcDbEntity
  8
0
  6
Continuous
 62
     7
100
AcDbCircle
 10
8671.034855011
 20
5996.040410309
 30
0.0
 40
35.00000000000244
100
AcDbArc
 50
116.2364298485
 51
270.0
  0
ARC
  5
8E
330
1F
100
AcDbEntity
  8
0
  6
Continuous
 62
     7
100
AcDbCircle
 10
8671.034855011
 20
5996.040410309
 30
0.0
 40
35.16921944985703
100
AcDbArc
 50
270.0
 51
292.5454334843
  0
ARC
  5
8F
330
1F
100
AcDbEntity
  8
0
  6
Continuous
 62
     7
100
AcDbCircle
 10
8671.034855011
 20
5996.040410309
 30
0.0
 40
35.16921944986202
100
AcDbArc
 50
138.4406424297
 51
150.3494538825
  0
CIRCLE
  5
90
330
1F
100
AcDbEntity
  8
0
  6
Continuous
 62
     7
100
AcDbCircle
 10
8671.034855011
 20
5996.040410309
 30
0.0
 40
21.99999999999636
  0
CIRCLE
  5
91
330
1F
100
AcDbEntity
  8
0
  6
Continuous
 62
     7
100
AcDbCircle
 10
8671.034855011
 20
5996.040410309
 30
0.0
 40
20.49999999999636
  0
CIRCLE
  5
92
330
1F
100
AcDbEntity
  8
0
  6
Continuous
 62
     7
100
AcDbCircle
 10
8671.034855011
 20
5996.040410309
 30
0.0
 40
19.48700763430134
  0
CIRCLE
  5
93
330
1F
100
AcDbEntity
  8
0
  6
Continuous
 62
     7
100
AcDbCircle
 10
8671.034855011
 20
5996.040410309
 30
0.0
 40
5.699999999995271
  0
CIRCLE
  5
94
330
1F
100
AcDbEntity
  8
0
  6
Continuous
 62
     7
100
AcDbCircle
 10
8671.034855011
 20
6010.040410309
 30
0.0
 40
5.000000000001819
  0
CIRCLE
  5
95
330
1F
100
AcDbEntity
  8
0
  6
Continuous
 62
     7
100
AcDbCircle
 10
8683.1592106639
 20
6003.040410309
 30
0.0
 40
5.0
  0
CIRCLE
  5
96
330
1F
100
AcDbEntity
  8
0
  6
Continuous
 62
     7
100
AcDbCircle
 10
8683.1592106639
 20
5989.040410309
 30
0.0
 40
5.000000000001819
  0
CIRCLE
  5
97
330
1F
100
AcDbEntity
  8
0
  6
Continuous
 62
     7
100
AcDbCircle
 10
8671.034855011
 20
5982.040410309
 30
0.0
 40
5.000000000001819
  0
CIRCLE
  5
98
330
1F
100
AcDbEntity
  8
0
  6
Continuous
 62
     7
100
AcDbCircle
 10
8658.910499358
 20
5989.040410309
 30
0.0
 40
5.000000000001819
  0
CIRCLE
  5
99
330
1F
100
AcDbEntity
  8
0
  6
Continuous
 62
     7
100
AcDbCircle
 10
8658.910499358
 20
6003.040410309
 30
0.0
 40
5.0
  0
ARC
  5
9A
330
1F
100
AcDbEntity
  8
0
  6
Continuous
 62
     7
100
AcDbCircle
 10
8671.034855011
 20
5996.040410309
 30
0.0
 40
17.99999999999663
100
AcDbArc
 50
319.1559374362
 51
340.8440625638
  0
ARC
  5
9B
330
1F
100
AcDbEntity
  8
0
  6
Continuous
 62
     7
100
AcDbCircle
 10
8671.034855011
 20
5996.040410309
 30
0.0
 40
18.00000000000017
100
AcDbArc
 50
259.1559374363
 51
280.8440625637
  0
ARC
  5
9C
330
1F
100
AcDbEntity
  8
0
  6
Continuous
 62
     7
100
AcDbCircle
 10
8671.034855011
 20
5996.040410309
 30
0.0
 40
18.00000000000165
100
AcDbArc
 50
199.1559374363
 51
220.8440625637
  0
ARC
  5
9D
330
1F
100
AcDbEntity
  8
0
  6
Continuous
 62
     7
100
AcDbCircle
 10
8671.034855011
 20
5996.040410309
 30
0.0
 40
18.00000000000284
100
AcDbArc
 50
139.1559374363
 51
160.8440625637
  0
ARC
  5
9E
330
1F
100
AcDbEntity
  8
0
  6
Continuous
 62
     7
100
AcDbCircle
 10
8671.034855011
 20
5996.040410309
 30
0.0
 40
18.00000000000107
100
AcDbArc
 50
79.1559374363
 51
100.8440625637
  0
ARC
  5
9F
330
1F
100
AcDbEntity
  8
0
  6
Continuous
 62
     7
100
AcDbCircle
 10
8671.034855011
 20
5996.040410309
 30
0.0
 40
17.99999999999818
100
AcDbArc
 50
19.1559374363
 51
40.8440625637
  0
ARC
  5
A0
330
1F
100
AcDbEntity
  8
0
  6
Continuous
 62
     7
100
AcDbCircle
 10
8777.534855011
 20
5722.540410309
 30
0.0
 40
18.00000000000157
100
AcDbArc
 50
319.1559374208
 51
340.8440625787
  0
CIRCLE
  5
A1
330
1F
100
AcDbEntity
  8
0
  6
Continuous
 62
     7
100
AcDbCircle
 10
8546.034855011
 20
5716.040410309
 30
0.0
 40
10.0
  0
CIRCLE
  5
A2
330
1F
100
AcDbEntity
  8
0
  6
Continuous
 62
     7
100
AcDbCircle
 10
8846.034855011
 20
5716.040410309
 30
0.0
 40
10.00000000000182
  0
CIRCLE
  5
A3
330
1F
100
AcDbEntity
  8
0
  6
Continuous
 62
     7
100
AcDbCircle
 10
8796.034855011
 20
5716.040410309
 30
0.0
 40
10.0
  0
CIRCLE
  5
A4
330
1F
100
AcDbEntity
  8
0
  6
Continuous
 62
     7
100
AcDbCircle
 10
8746.034855011
 20
5716.040410309
 30
0.0
 40
10.0
  0
CIRCLE
  5
A5
330
1F
100
AcDbEntity
  8
0
  6
Continuous
 62
     7
100
AcDbCircle
 10
8696.034855011
 20
5716.040410309
 30
0.0
 40
10.0
  0
CIRCLE
  5
A6
330
1F
100
AcDbEntity
  8
0
  6
Continuous
 62
     7
100
AcDbCircle
 10
8596.034855011
 20
5716.040410309
 30
0.0
 40
10.00000000000182
  0
CIRCLE
  5
A7
330
1F
100
AcDbEntity
  8
0
  6
Continuous
 62
     7
100
AcDbCircle
 10
8646.034855011
 20
5716.040410309
 30
0.0
 40
10.0
  0
CIRCLE
  5
A8
330
1F
100
AcDbEntity
  8
0
  6
Continuous
 62
     7
100
AcDbCircle
 10
8496.034855011
 20
5716.040410309
 30
0.0
 40
10.0
  0
CIRCLE
  5
A9
330
1F
100
AcDbEntity
  8
0
  6
Continuous
 62
     7
100
AcDbCircle
 10
8546.034855011
 20
5516.040410309
 30
0.0
 40
10.0
  0
CIRCLE
  5
AA
330
1F
100
AcDbEntity
  8
0
  6
Continuous
 62
     7
100
AcDbCircle
 10
8846.034855011
 20
5516.040410309
 30
0.0
 40
10.00000000000182
  0
CIRCLE
  5
AB
330
1F
100
AcDbEntity
  8
0
  6
Continuous
 62
     7
100
AcDbCircle
 10
8796.034855011
 20
5516.040410309
 30
0.0
 40
10.0
  0
CIRCLE
  5
AC
330
1F
100
AcDbEntity
  8
0
  6
Continuous
 62
     7
100
AcDbCircle
 10
8746.034855011
 20
5516.040410309
 30
0.0
 40
10.0
  0
CIRCLE
  5
AD
330
1F
100
AcDbEntity
  8
0
  6
Continuous
 62
     7
100
AcDbCircle
 10
8696.034855011
 20
5516.040410309
 30
0.0
 40
10.0
  0
CIRCLE
  5
AE
330
1F
100
AcDbEntity
  8
0
  6
Continuous
 62
     7
100
AcDbCircle
 10
8596.034855011
 20
5516.040410309
 30
0.0
 40
10.00000000000182
  0
CIRCLE
  5
AF
330
1F
100
AcDbEntity
  8
0
  6
Continuous
 62
     7
100
AcDbCircle
 10
8646.034855011
 20
5516.040410309
 30
0.0
 40
10.0
  0
CIRCLE
  5
B0
330
1F
100
AcDbEntity
  8
0
  6
Continuous
 62
     7
100
AcDbCircle
 10
8496.034855011
 20
5516.040410309
 30
0.0
 40
10.0
  0
CIRCLE
  5
B1
330
1F
100
AcDbEntity
  8
0
  6
Continuous
 62
     7
100
AcDbCircle
 10
8646.034855011
 20
5616.040410309
 30
0.0
 40
10.0
  0
CIRCLE
  5
B2
330
1F
100
AcDbEntity
  8
0
  6
Continuous
 62
     7
100
AcDbCircle
 10
8596.034855011
 20
5616.040410309
 30
0.0
 40
10.00000000000182
  0
CIRCLE
  5
B3
330
1F
100
AcDbEntity
  8
0
  6
Continuous
 62
     7
100
AcDbCircle
 10
8696.034855011
 20
5616.040410309
 30
0.0
 40
10.0
  0
CIRCLE
  5
B4
330
1F
100
AcDbEntity
  8
0
  6
Continuous
 62
     7
100
AcDbCircle
 10
8746.034855011
 20
5616.040410309
 30
0.0
 40
10.0
  0
CIRCLE
  5
B5
330
1F
100
AcDbEntity
  8
0
  6
Continuous
 62
     7
100
AcDbCircle
 10
8796.034855011
 20
5616.040410309
 30
0.0
 40
10.0
  0
CIRCLE
  5
B6
330
1F
100
AcDbEntity
  8
0
  6
Continuous
 62
     7
100
AcDbCircle
 10
8846.034855011
 20
5616.040410309
 30
0.0
 40
10.00000000000182
  0
CIRCLE
  5
B7
330
1F
100
AcDbEntity
  8
0
  6
Continuous
 62
     7
100
AcDbCircle
 10
8546.034855011
 20
5616.040410309
 30
0.0
 40
10.0
  0
CIRCLE
  5
B8
330
1F
100
AcDbEntity
  8
0
  6
Continuous
 62
     7
100
AcDbCircle
 10
8496.034855011
 20
5616.040410309
 30
0.0
 40
10.0
  0
CIRCLE
  5
B9
330
1F
100
AcDbEntity
  8
0
  6
Continuous
 62
     7
100
AcDbCircle
 10
8496.034855011
 20
5566.040410309
 30
0.0
 40
10.0
  0
CIRCLE
  5
BA
330
1F
100
AcDbEntity
  8
0
  6
Continuous
 62
     7
100
AcDbCircle
 10
8646.034855011
 20
5566.040410309
 30
0.0
 40
10.0
  0
CIRCLE
  5
BB
330
1F
100
AcDbEntity
  8
0
  6
Continuous
 62
     7
100
AcDbCircle
 10
8596.034855011
 20
5566.040410309
 30
0.0
 40
10.00000000000182
  0
CIRCLE
  5
BC
330
1F
100
AcDbEntity
  8
0
  6
Continuous
 62
     7
100
AcDbCircle
 10
8696.034855011
 20
5566.040410309
 30
0.0
 40
10.0
  0
CIRCLE
  5
BD
330
1F
100
AcDbEntity
  8
0
  6
Continuous
 62
     7
100
AcDbCircle
 10
8746.034855011
 20
5566.040410309
 30
0.0
 40
10.0
  0
CIRCLE
  5
BE
330
1F
100
AcDbEntity
  8
0
  6
Continuous
 62
     7
100
AcDbCircle
 10
8796.034855011
 20
5566.040410309
 30
0.0
 40
10.0
  0
CIRCLE
  5
BF
330
1F
100
AcDbEntity
  8
0
  6
Continuous
 62
     7
100
AcDbCircle
 10
8846.034855011
 20
5566.040410309
 30
0.0
 40
10.00000000000182
  0
CIRCLE
  5
C0
330
1F
100
AcDbEntity
  8
0
  6
Continuous
 62
     7
100
AcDbCircle
 10
8546.034855011
 20
5566.040410309
 30
0.0
 40
10.0
  0
CIRCLE
  5
C1
330
1F
100
AcDbEntity
  8
0
  6
Continuous
 62
     7
100
AcDbCircle
 10
8496.034855011
 20
5666.040410309
 30
0.0
 40
10.0
  0
CIRCLE
  5
C2
330
1F
100
AcDbEntity
  8
0
  6
Continuous
 62
     7
100
AcDbCircle
 10
8646.034855011
 20
5666.040410309
 30
0.0
 40
10.0
  0
CIRCLE
  5
C3
330
1F
100
AcDbEntity
  8
0
  6
Continuous
 62
     7
100
AcDbCircle
 10
8596.034855011
 20
5666.040410309
 30
0.0
 40
10.00000000000182
  0
CIRCLE
  5
C4
330
1F
100
AcDbEntity
  8
0
  6
Continuous
 62
     7
100
AcDbCircle
 10
8696.034855011
 20
5666.040410309
 30
0.0
 40
10.0
  0
CIRCLE
  5
C5
330
1F
100
AcDbEntity
  8
0
  6
Continuous
 62
     7
100
AcDbCircle
 10
8746.034855011
 20
5666.040410309
 30
0.0
 40
10.0
  0
CIRCLE
  5
C6
330
1F
100
AcDbEntity
  8
0
  6
Continuous
 62
     7
100
AcDbCircle
 10
8796.034855011
 20
5666.040410309
 30
0.0
 40
10.0
  0
CIRCLE
  5
C7
330
1F
100
AcDbEntity
  8
0
  6
Continuous
 62
     7
100
AcDbCircle
 10
8846.034855011
 20
5666.040410309
 30
0.0
 40
10.00000000000182
  0
CIRCLE
  5
C8
330
1F
100
AcDbEntity
  8
0
  6
Continuous
 62
     7
100
AcDbCircle
 10
8546.034855011
 20
5666.040410309
 30
0.0
 40
10.0
  0
ARC
  5
C9
330
1F
100
AcDbEntity
  8
0
  6
Continuous
 62
     7
100
AcDbCircle
 10
8919.034855011
 20
6084.040410309
 30
0.0
 40
2.000000000002728
100
AcDbArc
 50
0.0000000001
 51
90.0
  0
ARC
  5
CA
330
1F
100
AcDbEntity
  8
0
  6
Continuous
 62
     7
100
AcDbCircle
 10
8530.4188087893
 20
6021.040410309
 30
0.0
 40
55.00000000000091
100
AcDbArc
 50
90.0
 51
170.9966072197
  0
ARC
  5
CB
330
1F
100
AcDbEntity
  8
0
  6
Continuous
 62
     7
100
AcDbCircle
 10
8506.0348550109
 20
5867.1451659185
 30
0.0
 40
55.00000000000344
100
AcDbArc
 50
170.9966072197
 51
248.6484970071
  0
ARC
  5
CC
330
1F
100
AcDbEntity
  8
0
  6
Continuous
 62
     7
100
AcDbCircle
 10
8671.034855011
 20
6289.2268325969
 30
0.0
 40
508.1864222879906
100
AcDbArc
 50
248.6484970071
 51
291.3515029929
  0
ARC
  5
CD
330
1F
100
AcDbEntity
  8
0
  6
Continuous
 62
     7
100
AcDbCircle
 10
8836.0348550111
 20
5867.1451659184
 30
0.0
 40
55.00000000000133
100
AcDbArc
 50
291.3515029928
 51
9.0033927804
  0
ARC
  5
CE
330
1F
100
AcDbEntity
  8
0
  6
Continuous
 62
     7
100
AcDbCircle
 10
8811.6509012326
 20
6021.040410309
 30
0.0
 40
55.00000000000182
100
AcDbArc
 50
9.0033927803
 51
90.0
  0
ARC
  5
CF
330
1F
100
AcDbEntity
  8
0
  6
Continuous
 62
     7
100
AcDbCircle
 10
8811.6509012326
 20
6021.040410309
 30
0.0
 40
50.00000000003229
100
AcDbArc
 50
9.0033927803
 51
90.0
  0
ARC
  5
D0
330
1F
100
AcDbEntity
  8
0
  6
Continuous
 62
     7
100
AcDbCircle
 10
8423.034855011
 20
6084.040410309
 30
0.0
 40
2.0
100
AcDbArc
 50
90.0
 51
180.0
  0
ARC
  5
D1
330
1F
100
AcDbEntity
  8
0
  6
Continuous
 62
     7
100
AcDbCircle
 10
8530.4188087893
 20
6021.040410309
 30
0.0
 40
50.00000000000182
100
AcDbArc
 50
90.0
 51
170.9966072197
  0
ARC
  5
D2
330
1F
100
AcDbEntity
  8
0
  6
Continuous
 62
     7
100
AcDbCircle
 10
8836.0348550111
 20
5867.1451659184
 30
0.0
 40
49.99999999993632
100
AcDbArc
 50
291.3515029928
 51
9.0033927803
  0
ARC
  5
D3
330
1F
100
AcDbEntity
  8
0
  6
Continuous
 62
     7
100
AcDbCircle
 10
8671.034855011
 20
6289.2268325969
 30
0.0
 40
503.1864222879256
100
AcDbArc
 50
248.6484970071
 51
291.3515029929
  0
ARC
  5
D4
330
1F
100
AcDbEntity
  8
0
  6
Continuous
 62
     7
100
AcDbCircle
 10
8506.0348550109
 20
5867.1451659185
 30
0.0
 40
50.00000000002902
100
AcDbArc
 50
170.9966072197
 51
248.6484970072
  0
ARC
  5
D5
330
1F
100
AcDbEntity
  8
0
  6
Continuous
 62
     7
100
AcDbCircle
 10
8919.034855011
 20
5753.040410309
 30
0.0
 40
2.000000000001819
100
AcDbArc
 50
270.0
 51
359.9999999999
  0
ARC
  5
D6
330
1F
100
AcDbEntity
  8
0
  6
Continuous
 62
     7
100
AcDbCircle
 10
8423.034855011
 20
5753.040410309
 30
0.0
 40
2.0
100
AcDbArc
 50
180.0
 51
270.0
  0
ARC
  5
D7
330
1F
100
AcDbEntity
  8
0
  6
Continuous
 62
     7
100
AcDbCircle
 10
8670.9555615881
 20
5955.8704275155
 30
0.0
 40
18.10709508456843
100
AcDbArc
 50
151.182679876
 51
153.3571335342
  0
ARC
  5
D8
330
1F
100
AcDbEntity
  8
0
  6
Continuous
 62
     7
100
AcDbCircle
 10
8624.873352414
 20
6021.4682393219
 30
0.0
 40
38.58726610087134
100
AcDbArc
 50
288.0785791699
 51
289.1174376613
  0
ARC
  5
D9
330
1F
100
AcDbEntity
  8
0
  6
Continuous
 62
     7
100
AcDbCircle
 10
8717.1963661149
 20
6021.4651868075
 30
0.0
 40
38.58436693523808
100
AcDbArc
 50
250.8810653978
 51
251.9200021709
  0
ARC
  5
DA
330
1F
100
AcDbEntity
  8
0
  6
Continuous
 62
     7
100
AcDbCircle
 10
8671.1131784527
 20
5955.870439964
 30
0.0
 40
18.10795649547738
100
AcDbArc
 50
26.6414548662
 51
28.8158040617
  0
ARC
  5
DB
330
1F
100
AcDbEntity
  8
0
  6
Continuous
 62
     7
100
AcDbCircle
 10
8717.1963607564
 20
5970.6137116807
 30
0.0
 40
38.58619249999612
100
AcDbArc
 50
108.0791044901
 51
109.1179919688
  0
ARC
  5
DC
330
1F
100
AcDbEntity
  8
0
  6
Continuous
 62
     7
100
AcDbCircle
 10
8624.8733197519
 20
5970.6243160302
 30
0.0
 40
38.57612099980724
100
AcDbArc
 50
70.8768065046
 51
71.9159659967
  0
ARC
  5
DD
330
1F
100
AcDbEntity
  8
0
  6
Continuous
 62
     7
100
AcDbCircle
 10
8531.034855011
 20
5476.0404103091
 30
0.0
 40
87.07106781186485
100
AcDbArc
 50
180.0
 51
270.0
  0
ARC
  5
DE
330
1F
100
AcDbEntity
  8
0
  6
Continuous
 62
     7
100
AcDbCircle
 10
8811.0348550109
 20
5476.0404103091
 30
0.0
 40
87.07106781186394
100
AcDbArc
 50
270.0
 51
360.0
  0
ARC
  5
DF
330
1F
100
AcDbEntity
  8
0
  6
Continuous
 62
     7
100
AcDbCircle
 10
8811.0348550109
 20
5476.0404103091
 30
0.0
 40
83.53553390596426
100
AcDbArc
 50
270.0
 51
360.0
  0
ARC
  5
E0
330
1F
100
AcDbEntity
  8
0
  6
Continuous
 62
     7
100
AcDbCircle
 10
8531.034855011
 20
5476.0404103091
 30
0.0
 40
83.53553390596426
100
AcDbArc
 50
180.0
 51
270.0
  0
ARC
  5
E1
330
1F
100
AcDbEntity
  8
0
  6
Continuous
 62
     7
100
AcDbCircle
 10
8919.034855011
 20
5388.040410309
 30
0.0
 40
2.000000000001819
100
AcDbArc
 50
270.0
 51
359.9999999999
  0
ARC
  5
E2
330
1F
100
AcDbEntity
  8
0
  6
Continuous
 62
     7
100
AcDbCircle
 10
8423.034855011
 20
5388.040410309
 30
0.0
 40
2.0
100
AcDbArc
 50
180.0
 51
270.0
  0
ARC
  5
E3
330
1F
100
AcDbEntity
  8
0
  6
Continuous
 62
     7
100
AcDbCircle
 10
8811.0348550109
 20
5476.0404103091
 30
0.0
 40
81.17157287526425
100
AcDbArc
 50
270.0
 51
360.0
  0
ARC
  5
E4
330
1F
100
AcDbEntity
  8
0
  6
Continuous
 62
     7
100
AcDbCircle
 10
8531.034855011
 20
5476.0404103091
 30
0.0
 40
81.17157287526425
100
AcDbArc
 50
180.0
 51
270.0
  0
ARC
  5
E5
330
1F
100
AcDbEntity
  8
0
  6
Continuous
 62
     7
100
AcDbCircle
 10
8811.0348550109
 20
5476.0404103091
 30
0.0
 40
78.34314575056396
100
AcDbArc
 50
270.0
 51
360.0
  0
ARC
  5
E6
330
1F
100
AcDbEntity
  8
0
  6
Continuous
 62
     7
100
AcDbCircle
 10
8531.034855011
 20
5476.0404103091
 30
0.0
 40
78.34314575056487
100
AcDbArc
 50
180.0
 51
270.0
  0
ARC
  5
E7
330
1F
100
AcDbEntity
  8
0
  6
Continuous
 62
     7
100
AcDbCircle
 10
8531.034855011
 20
5476.0404103091
 30
0.0
 40
65.00000000006366
100
AcDbArc
 50
180.0000000001
 51
270.0
  0
ARC
  5
E8
330
1F
100
AcDbEntity
  8
0
  6
Continuous
 62
     7
100
AcDbCircle
 10
8811.0348550109
 20
5476.0404103091
 30
0.0
 40
65.00000000006366
100
AcDbArc
 50
270.0000000001
 51
359.9999999999
  0
ARC
  5
E9
330
1F
100
AcDbEntity
  8
0
  6
Continuous
 62
     7
100
AcDbCircle
 10
8811.0348550109
 20
5476.0404103091
 30
0.0
 40
59.99999999996453
100
AcDbArc
 50
270.0
 51
0.0
  0
ARC
  5
EA
330
1F
100
AcDbEntity
  8
0
  6
Continuous
 62
     7
100
AcDbCircle
 10
8531.034855011
 20
5476.0404103091
 30
0.0
 40
59.99999999996544
100
AcDbArc
 50
180.0000000001
 51
270.0
  0
ARC
  5
EB
330
1F
100
AcDbEntity
  8
0
  6
Continuous
 62
     7
100
AcDbCircle
 10
8918.034855011
 20
5883.040410309
 30
0.0
 40
3.500000000000646
100
AcDbArc
 50
0.0
 51
31.0027191339
  0
ARC
  5
EC
330
1F
100
AcDbEntity
  8
0
  6
Continuous
 62
     7
100
AcDbCircle
 10
8918.034855011
 20
5849.040410309
 30
0.0
 40
3.500000000000646
100
AcDbArc
 50
328.9972808661
 51
0.0
  0
ARC
  5
ED
330
1F
100
AcDbEntity
  8
0
  6
Continuous
 62
     7
100
AcDbCircle
 10
8424.034855011
 20
5849.040410309
 30
0.0
 40
3.500000000004232
100
AcDbArc
 50
180.0
 51
211.0027191339
  0
ARC
  5
EE
330
1F
100
AcDbEntity
  8
0
  6
Continuous
 62
     7
100
AcDbCircle
 10
8424.034855011
 20
5883.040410309
 30
0.0
 40
3.500000000002205
100
AcDbArc
 50
148.9972808661
 51
180.0
  0
ARC
  5
EF
330
1F
100
AcDbEntity
  8
0
  6
Continuous
 62
     7
100
AcDbCircle
 10
8918.034855011
 20
5397.040410309
 30
0.0
 40
3.500000000000646
100
AcDbArc
 50
328.9972808661
 51
0.0
  0
ARC
  5
F0
330
1F
100
AcDbEntity
  8
0
  6
Continuous
 62
     7
100
AcDbCircle
 10
8918.034855011
 20
5431.040410309
 30
0.0
 40
3.500000000000646
100
AcDbArc
 50
0.0
 51
31.0027191339
  0
ARC
  5
F1
330
1F
100
AcDbEntity
  8
0
  6
Continuous
 62
     7
100
AcDbCircle
 10
8424.034855011
 20
5397.040410309
 30
0.0
 40
3.500000000004232
100
AcDbArc
 50
180.0
 51
211.0027191339
  0
ARC
  5
F2
330
1F
100
AcDbEntity
  8
0
  6
Continuous
 62
     7
100
AcDbCircle
 10
8424.034855011
 20
5431.040410309
 30
0.0
 40
3.500000000002205
100
AcDbArc
 50
148.9972808661
 51
180.0
  0
ARC
  5
F3
330
1F
100
AcDbEntity
  8
0
  6
Continuous
 62
     7
100
AcDbCircle
 10
8777.534855011
 20
5722.540410309
 30
0.0
 40
24.9651254443959
100
AcDbArc
 50
318.6384131243
 51
2.6435985242
  0
ARC
  5
F4
330
1F
100
AcDbEntity
  8
0
  6
Continuous
 62
     7
100
AcDbCircle
 10
8777.534855011
 20
5722.540410309
 30
0.0
 40
24.96512544439508
100
AcDbArc
 50
57.2642383
 51
122.7357617
  0
ARC
  5
F5
330
1F
100
AcDbEntity
  8
0
  6
Continuous
 62
     7
100
AcDbCircle
 10
8777.534855011
 20
5722.540410309
 30
0.0
 40
24.96512544439483
100
AcDbArc
 50
177.5889604222
 51
205.7296248849
  0
ARC
  5
F6
330
1F
100
AcDbEntity
  8
0
  6
Continuous
 62
     7
100
AcDbCircle
 10
8777.534855011
 20
5722.540410309
 30
0.0
 40
22.00000000000126
100
AcDbArc
 50
313.6053377984
 51
7.6766738502
  0
ARC
  5
F7
330
1F
100
AcDbEntity
  8
0
  6
Continuous
 62
     7
100
AcDbCircle
 10
8777.534855011
 20
5722.540410309
 30
0.0
 40
21.99999999999903
100
AcDbArc
 50
72.6585571972
 51
107.3414428028
  0
ARC
  5
F8
330
1F
100
AcDbEntity
  8
0
  6
Continuous
 62
     7
100
AcDbCircle
 10
8777.534855011
 20
5722.540410309
 30
0.0
 40
20.49999999999978
100
AcDbArc
 50
311.8762921844
 51
9.405719464
  0
ARC
  5
F9
330
1F
100
AcDbEntity
  8
0
  6
Continuous
 62
     7
100
AcDbCircle
 10
8777.534855011
 20
5722.540410309
 30
0.0
 40
36.32842712474663
100
AcDbArc
 50
176.3752368655
 51
206.9433484416
  0
ARC
  5
FA
330
1F
100
AcDbEntity
  8
0
  6
Continuous
 62
     7
100
AcDbCircle
 10
8777.534855011
 20
5722.540410309
 30
0.0
 40
36.32842712474709
100
AcDbArc
 50
128.3246545913
 51
144.6858117162
  0
ARC
  5
FB
330
1F
100
AcDbEntity
  8
0
  6
Continuous
 62
     7
100
AcDbCircle
 10
8777.534855011
 20
5722.540410309
 30
0.0
 40
36.32842712474508
100
AcDbArc
 50
35.3141882838
 51
51.6753454087
  0
ARC
  5
FC
330
1F
100
AcDbEntity
  8
0
  6
Continuous
 62
     7
100
AcDbCircle
 10
8777.534855011
 20
5722.540410309
 30
0.0
 40
34.91421356237221
100
AcDbArc
 50
36.9755552947
 51
54.7147640367
  0
ARC
  5
FD
330
1F
100
AcDbEntity
  8
0
  6
Continuous
 62
     7
100
AcDbCircle
 10
8777.534855011
 20
5722.540410309
 30
0.0
 40
34.91421356237391
100
AcDbArc
 50
125.2852359633
 51
143.0244447053
  0
ARC
  5
FE
330
1F
100
AcDbEntity
  8
0
  6
Continuous
 62
     7
100
AcDbCircle
 10
8777.534855011
 20
5722.540410309
 30
0.0
 40
34.91421356237365
100
AcDbArc
 50
175.1641347853
 51
208.1544505217
  0
LINE
  5
FF
330
1F
100
AcDbEntity
  8
0
  6
Continuous
 62
     7
100
AcDbLine
 10
8426.034855011
 20
6465.5414560846
 30
0.0
 11
8426.034855011
 21
6445.5414560846
 31
0.0
  0
LINE
  5
100
330
1F
100
AcDbEntity
  8
0
  6
Continuous
 62
     7
100
AcDbLine
 10
8456.034855011
 20
6445.5414560846
 30
0.0
 11
8456.034855011
 21
6465.5414560846
 31
0.0
  0
LINE
  5
101
330
1F
100
AcDbEntity
  8
0
  6
Continuous
 62
     7
100
AcDbLine
 10
8886.034855011
 20
6465.5414560846
 30
0.0
 11
8886.034855011
 21
6445.5414560846
 31
0.0
  0
LINE
  5
102
330
1F
100
AcDbEntity
  8
0
  6
Continuous
 62
     7
100
AcDbLine
 10
8916.034855011
 20
6445.5414560846
 30
0.0
 11
8916.034855011
 21
6465.5414560846
 31
0.0
  0
LINE
  5
103
330
1F
100
AcDbEntity
  8
0
  6
Continuous
 62
     7
100
AcDbLine
 10
8919.034855011
 20
6905.5414560846
 30
0.0
 11
8423.034855011
 21
6905.5414560846
 31
0.0
  0
LINE
  5
104
330
1F
100
AcDbEntity
  8
0
  6
Continuous
 62
     7
100
AcDbLine
 10
8423.034855011
 20
6905.5414560846
 30
0.0
 11
8423.034855011
 21
6907.5414560846
 31
0.0
  0
LINE
  5
105
330
1F
100
AcDbEntity
  8
0
  6
Continuous
 62
     7
100
AcDbLine
 10
8423.034855011
 20
6907.5414560846
 30
0.0
 11
8919.034855011
 21
6907.5414560846
 31
0.0
  0
LINE
  5
106
330
1F
100
AcDbEntity
  8
0
  6
Continuous
 62
     7
100
AcDbLine
 10
8919.034855011
 20
6905.5414560846
 30
0.0
 11
8919.034855011
 21
6907.5414560846
 31
0.0
  0
LINE
  5
107
330
1F
100
AcDbEntity
  8
0
  6
Continuous
 62
     7
100
AcDbLine
 10
8423.034855011
 20
6943.5414560846
 30
0.0
 11
8423.034855011
 21
6945.5414560846
 31
0.0
  0
LINE
  5
108
330
1F
100
AcDbEntity
  8
0
  6
Continuous
 62
     7
100
AcDbLine
 10
8421.034855011
 20
6943.5414560846
 30
0.0
 11
8423.034855011
 21
6943.5414560846
 31
0.0
  0
LINE
  5
109
330
1F
100
AcDbEntity
  8
0
  6
Continuous
 62
     7
100
AcDbLine
 10
8919.034855011
 20
6943.5414560846
 30
0.0
 11
8919.034855011
 21
6945.5414560846
 31
0.0
  0
LINE
  5
10A
330
1F
100
AcDbEntity
  8
0
  6
Continuous
 62
     7
100
AcDbLine
 10
8919.034855011
 20
6943.5414560846
 30
0.0
 11
8921.034855011
 21
6943.5414560846
 31
0.0
  0
LINE
  5
10B
330
1F
100
AcDbEntity
  8
0
  6
Continuous
 62
     7
100
AcDbLine
 10
8919.034855011
 20
6907.5414560846
 30
0.0
 11
8919.034855011
 21
6943.5414560846
 31
0.0
  0
LINE
  5
10C
330
1F
100
AcDbEntity
  8
0
  6
Continuous
 62
     7
100
AcDbLine
 10
8423.034855011
 20
6943.5414560846
 30
0.0
 11
8423.034855011
 21
6907.5414560846
 31
0.0
  0
LINE
  5
10D
330
1F
100
AcDbEntity
  8
0
  6
Continuous
 62
     7
100
AcDbLine
 10
8919.034855011
 20
6943.5414560846
 30
0.0
 11
8423.034855011
 21
6943.5414560846
 31
0.0
  0
LINE
  5
10E
330
1F
100
AcDbEntity
  8
0
  6
Continuous
 62
     7
100
AcDbLine
 10
8423.034855011
 20
6945.5414560846
 30
0.0
 11
8919.034855011
 21
6945.5414560846
 31
0.0
  0
LINE
  5
10F
330
1F
100
AcDbEntity
  8
0
  6
Continuous
 62
     7
100
AcDbLine
 10
8421.034855011
 20
6907.5414560846
 30
0.0
 11
8421.034855011
 21
6943.5414560846
 31
0.0
  0
LINE
  5
110
330
1F
100
AcDbEntity
  8
0
  6
Continuous
 62
     7
100
AcDbLine
 10
8423.034855011
 20
6907.5414560846
 30
0.0
 11
8421.034855011
 21
6907.5414560846
 31
0.0
  0
LINE
  5
111
330
1F
100
AcDbEntity
  8
0
  6
Continuous
 62
     7
100
AcDbLine
 10
8921.034855011
 20
6907.5414560846
 30
0.0
 11
8919.034855011
 21
6907.5414560846
 31
0.0
  0
LINE
  5
112
330
1F
100
AcDbEntity
  8
0
  6
Continuous
 62
     7
100
AcDbLine
 10
8921.034855011
 20
6943.5414560846
 30
0.0
 11
8921.034855011
 21
6907.5414560846
 31
0.0
  0
LINE
  5
113
330
1F
100
AcDbEntity
  8
0
  6
Continuous
 62
     7
100
AcDbLine
 10
8884.034855011
 20
6470.5414560846
 30
0.0
 11
8884.034855011
 21
6465.5414560846
 31
0.0
  0
LINE
  5
114
330
1F
100
AcDbEntity
  8
0
  6
Continuous
 62
     7
100
AcDbLine
 10
8918.034855011
 20
6470.5414560846
 30
0.0
 11
8884.034855011
 21
6470.5414560846
 31
0.0
  0
LINE
  5
115
330
1F
100
AcDbEntity
  8
0
  6
Continuous
 62
     7
100
AcDbLine
 10
8918.034855011
 20
6470.5414560846
 30
0.0
 11
8918.034855011
 21
6465.5414560846
 31
0.0
  0
LINE
  5
116
330
1F
100
AcDbEntity
  8
0
  6
Continuous
 62
     7
100
AcDbLine
 10
8918.034855011
 20
6465.5414560846
 30
0.0
 11
8884.034855011
 21
6465.5414560846
 31
0.0
  0
LINE
  5
117
330
1F
100
AcDbEntity
  8
0
  6
Continuous
 62
     7
100
AcDbLine
 10
8921.534855011
 20
6470.5414560846
 30
0.0
 11
8921.534855011
 21
6465.5414560846
 31
0.0
  0
LINE
  5
118
330
1F
100
AcDbEntity
  8
0
  6
Continuous
 62
     7
100
AcDbLine
 10
8921.534855011
 20
6465.5414560846
 30
0.0
 11
8918.034855011
 21
6465.5414560846
 31
0.0
  0
LINE
  5
119
330
1F
100
AcDbEntity
  8
0
  6
Continuous
 62
     7
100
AcDbLine
 10
8921.534855011
 20
6470.5414560846
 30
0.0
 11
8918.034855011
 21
6470.5414560846
 31
0.0
  0
LINE
  5
11A
330
1F
100
AcDbEntity
  8
0
  6
Continuous
 62
     7
100
AcDbLine
 10
8424.034855011
 20
6470.5414560846
 30
0.0
 11
8424.034855011
 21
6465.5414560846
 31
0.0
  0
LINE
  5
11B
330
1F
100
AcDbEntity
  8
0
  6
Continuous
 62
     7
100
AcDbLine
 10
8458.034855011
 20
6470.5414560846
 30
0.0
 11
8424.034855011
 21
6470.5414560846
 31
0.0
  0
LINE
  5
11C
330
1F
100
AcDbEntity
  8
0
  6
Continuous
 62
     7
100
AcDbLine
 10
8458.034855011
 20
6470.5414560846
 30
0.0
 11
8458.034855011
 21
6465.5414560846
 31
0.0
  0
LINE
  5
11D
330
1F
100
AcDbEntity
  8
0
  6
Continuous
 62
     7
100
AcDbLine
 10
8458.034855011
 20
6465.5414560846
 30
0.0
 11
8424.034855011
 21
6465.5414560846
 31
0.0
  0
LINE
  5
11E
330
1F
100
AcDbEntity
  8
0
  6
Continuous
 62
     7
100
AcDbLine
 10
8461.534855011
 20
6470.5414560846
 30
0.0
 11
8461.534855011
 21
6465.5414560846
 31
0.0
  0
LINE
  5
11F
330
1F
100
AcDbEntity
  8
0
  6
Continuous
 62
     7
100
AcDbLine
 10
8461.534855011
 20
6465.5414560846
 30
0.0
 11
8458.034855011
 21
6465.5414560846
 31
0.0
  0
LINE
  5
120
330
1F
100
AcDbEntity
  8
0
  6
Continuous
 62
     7
100
AcDbLine
 10
8461.534855011
 20
6470.5414560846
 30
0.0
 11
8458.034855011
 21
6470.5414560846
 31
0.0
  0
LINE
  5
121
330
1F
100
AcDbEntity
  8
0
  6
Continuous
 62
     7
100
AcDbLine
 10
8420.534855011
 20
6470.5414560846
 30
0.0
 11
8420.534855011
 21
6465.5414560846
 31
0.0
  0
LINE
  5
122
330
1F
100
AcDbEntity
  8
0
  6
Continuous
 62
     7
100
AcDbLine
 10
8424.034855011
 20
6465.5414560846
 30
0.0
 11
8420.534855011
 21
6465.5414560846
 31
0.0
  0
LINE
  5
123
330
1F
100
AcDbEntity
  8
0
  6
Continuous
 62
     7
100
AcDbLine
 10
8424.034855011
 20
6470.5414560846
 30
0.0
 11
8420.534855011
 21
6470.5414560846
 31
0.0
  0
LINE
  5
124
330
1F
100
AcDbEntity
  8
0
  6
Continuous
 62
     7
100
AcDbLine
 10
8880.534855011
 20
6470.5414560846
 30
0.0
 11
8880.534855011
 21
6465.5414560846
 31
0.0
  0
LINE
  5
125
330
1F
100
AcDbEntity
  8
0
  6
Continuous
 62
     7
100
AcDbLine
 10
8884.034855011
 20
6465.5414560846
 30
0.0
 11
8880.534855011
 21
6465.5414560846
 31
0.0
  0
LINE
  5
126
330
1F
100
AcDbEntity
  8
0
  6
Continuous
 62
     7
100
AcDbLine
 10
8884.034855011
 20
6470.5414560846
 30
0.0
 11
8880.534855011
 21
6470.5414560846
 31
0.0
  0
LINE
  5
127
330
1F
100
AcDbEntity
  8
0
  6
Continuous
 62
     7
100
AcDbLine
 10
8458.034855011
 20
6905.5414560846
 30
0.0
 11
8458.034855011
 21
6470.5414560846
 31
0.0
  0
LINE
  5
128
330
1F
100
AcDbEntity
  8
0
  6
Continuous
 62
     7
100
AcDbLine
 10
8424.034855011
 20
6905.5414560846
 30
0.0
 11
8424.034855011
 21
6470.5414560846
 31
0.0
  0
LINE
  5
129
330
1F
100
AcDbEntity
  8
0
  6
Continuous
 62
     7
100
AcDbLine
 10
8423.034855011
 20
6905.5414560846
 30
0.0
 11
8421.034855011
 21
6905.5414560846
 31
0.0
  0
LINE
  5
12A
330
1F
100
AcDbEntity
  8
0
  6
Continuous
 62
     7
100
AcDbLine
 10
8421.034855011
 20
6905.5414560846
 30
0.0
 11
8421.034855011
 21
6470.5414560846
 31
0.0
  0
LINE
  5
12B
330
1F
100
AcDbEntity
  8
0
  6
Continuous
 62
     7
100
AcDbLine
 10
8921.034855011
 20
6905.5414560846
 30
0.0
 11
8919.034855011
 21
6905.5414560846
 31
0.0
  0
LINE
  5
12C
330
1F
100
AcDbEntity
  8
0
  6
Continuous
 62
     7
100
AcDbLine
 10
8921.034855011
 20
6905.5414560846
 30
0.0
 11
8921.034855011
 21
6470.5414560846
 31
0.0
  0
LINE
  5
12D
330
1F
100
AcDbEntity
  8
0
  6
Continuous
 62
     7
100
AcDbLine
 10
8918.034855011
 20
6905.5414560846
 30
0.0
 11
8918.034855011
 21
6470.5414560846
 31
0.0
  0
LINE
  5
12E
330
1F
100
AcDbEntity
  8
0
  6
Continuous
 62
     7
100
AcDbLine
 10
8881.2064278862
 20
6597.5414560846
 30
0.0
 11
8881.2064278862
 21
6905.5414560846
 31
0.0
  0
LINE
  5
12F
330
1F
100
AcDbEntity
  8
0
  6
Continuous
 62
     7
100
AcDbLine
 10
8884.034855011
 20
6905.5414560846
 30
0.0
 11
8884.034855011
 21
6470.5414560846
 31
0.0
  0
LINE
  5
130
330
1F
100
AcDbEntity
  8
0
  6
Continuous
 62
     7
100
AcDbLine
 10
8881.034855011
 20
6595.809405277
 30
0.0
 11
8881.034855011
 21
6470.5414560846
 31
0.0
  0
LINE
  5
131
330
1F
100
AcDbEntity
  8
0
  6
Continuous
 62
     7
100
AcDbLine
 10
8460.8632821357
 20
6905.5414560846
 30
0.0
 11
8460.8632821357
 21
6597.5414560846
 31
0.0
  0
LINE
  5
132
330
1F
100
AcDbEntity
  8
0
  6
Continuous
 62
     7
100
AcDbLine
 10
8461.034855011
 20
6595.809405277
 30
0.0
 11
8461.034855011
 21
6470.5414560846
 31
0.0
  0
LINE
  5
133
330
1F
100
AcDbEntity
  8
0
  6
Continuous
 62
     7
100
AcDbLine
 10
8460.8632821357
 20
6597.5414560846
 30
0.0
 11
8881.2064278862
 21
6597.5414560846
 31
0.0
  0
LINE
  5
134
330
1F
100
AcDbEntity
  8
0
  6
Continuous
 62
     7
100
AcDbLine
 10
8881.034855011
 20
6595.5414560846
 30
0.0
 11
8461.034855011
 21
6595.5414560846
 31
0.0
  0
LINE
  5
135
330
1F
100
AcDbEntity
  8
0
  6
Continuous
 62
     7
100
AcDbLine
 10
8426.034855011
 20
6445.5414560846
 30
0.0
 11
8456.034855011
 21
6445.5414560846
 31
0.0
  0
LINE
  5
136
330
1F
100
AcDbEntity
  8
0
  6
Continuous
 62
     7
100
AcDbLine
 10
8886.034855011
 20
6445.5414560846
 30
0.0
 11
8916.034855011
 21
6445.5414560846
 31
0.0
  0
LINE
  5
137
330
1F
100
AcDbEntity
  8
0
  6
Continuous
 62
     7
100
AcDbLine
 10
8423.034855011
 20
7295.5414560846
 30
0.0
 11
8423.034855011
 21
7293.5414560846
 31
0.0
  0
LINE
  5
138
330
1F
100
AcDbEntity
  8
0
  6
Continuous
 62
     7
100
AcDbLine
 10
8421.034855011
 20
7293.5414560846
 30
0.0
 11
8423.034855011
 21
7293.5414560846
 31
0.0
  0
LINE
  5
139
330
1F
100
AcDbEntity
  8
0
  6
Continuous
 62
     7
100
AcDbLine
 10
8423.034855011
 20
7257.5414560846
 30
0.0
 11
8919.034855011
 21
7257.5414560846
 31
0.0
  0
LINE
  5
13A
330
1F
100
AcDbEntity
  8
0
  6
Continuous
 62
     7
100
AcDbLine
 10
8919.034855011
 20
7257.5414560846
 30
0.0
 11
8919.034855011
 21
7255.5414560846
 31
0.0
  0
LINE
  5
13B
330
1F
100
AcDbEntity
  8
0
  6
Continuous
 62
     7
100
AcDbLine
 10
8919.034855011
 20
7255.5414560846
 30
0.0
 11
8423.034855011
 21
7255.5414560846
 31
0.0
  0
LINE
  5
13C
330
1F
100
AcDbEntity
  8
0
  6
Continuous
 62
     7
100
AcDbLine
 10
8423.034855011
 20
7255.5414560846
 30
0.0
 11
8423.034855011
 21
7257.5414560846
 31
0.0
  0
LINE
  5
13D
330
1F
100
AcDbEntity
  8
0
  6
Continuous
 62
     7
100
AcDbLine
 10
8919.034855011
 20
7293.5414560846
 30
0.0
 11
8919.034855011
 21
7295.5414560846
 31
0.0
  0
LINE
  5
13E
330
1F
100
AcDbEntity
  8
0
  6
Continuous
 62
     7
100
AcDbLine
 10
8919.034855011
 20
7293.5414560846
 30
0.0
 11
8921.034855011
 21
7293.5414560846
 31
0.0
  0
LINE
  5
13F
330
1F
100
AcDbEntity
  8
0
  6
Continuous
 62
     7
100
AcDbLine
 10
8423.034855011
 20
7295.5414560846
 30
0.0
 11
8919.034855011
 21
7295.5414560846
 31
0.0
  0
LINE
  5
140
330
1F
100
AcDbEntity
  8
0
  6
Continuous
 62
     7
100
AcDbLine
 10
8919.034855011
 20
7293.5414560846
 30
0.0
 11
8423.034855011
 21
7293.5414560846
 31
0.0
  0
LINE
  5
141
330
1F
100
AcDbEntity
  8
0
  6
Continuous
 62
     7
100
AcDbLine
 10
8919.034855011
 20
7257.5414560846
 30
0.0
 11
8919.034855011
 21
7293.5414560846
 31
0.0
  0
LINE
  5
142
330
1F
100
AcDbEntity
  8
0
  6
Continuous
 62
     7
100
AcDbLine
 10
8423.034855011
 20
7293.5414560846
 30
0.0
 11
8423.034855011
 21
7257.5414560846
 31
0.0
  0
LINE
  5
143
330
1F
100
AcDbEntity
  8
0
  6
Continuous
 62
     7
100
AcDbLine
 10
8921.034855011
 20
7293.5414560846
 30
0.0
 11
8921.034855011
 21
7257.5414560846
 31
0.0
  0
LINE
  5
144
330
1F
100
AcDbEntity
  8
0
  6
Continuous
 62
     7
100
AcDbLine
 10
8919.034855011
 20
7257.5414560846
 30
0.0
 11
8921.034855011
 21
7257.5414560846
 31
0.0
  0
LINE
  5
145
330
1F
100
AcDbEntity
  8
0
  6
Continuous
 62
     7
100
AcDbLine
 10
8421.034855011
 20
7257.5414560846
 30
0.0
 11
8423.034855011
 21
7257.5414560846
 31
0.0
  0
LINE
  5
146
330
1F
100
AcDbEntity
  8
0
  6
Continuous
 62
     7
100
AcDbLine
 10
8421.034855011
 20
7257.5414560846
 30
0.0
 11
8421.034855011
 21
7293.5414560846
 31
0.0
  0
LINE
  5
147
330
1F
100
AcDbEntity
  8
0
  6
Continuous
 62
     7
100
AcDbLine
 10
8919.034855011
 20
7255.5414560846
 30
0.0
 11
8919.034855011
 21
7155.5414560846
 31
0.0
  0
LINE
  5
148
330
1F
100
AcDbEntity
  8
0
  6
Continuous
 62
     7
100
AcDbLine
 10
8919.034855011
 20
7155.5414560846
 30
0.0
 11
8423.034855011
 21
7155.5414560846
 31
0.0
  0
LINE
  5
149
330
1F
100
AcDbEntity
  8
0
  6
Continuous
 62
     7
100
AcDbLine
 10
8423.034855011
 20
7155.5414560846
 30
0.0
 11
8423.034855011
 21
7255.5414560846
 31
0.0
  0
LINE
  5
14A
330
1F
100
AcDbEntity
  8
0
  6
Continuous
 62
     7
100
AcDbLine
 10
8918.034855011
 20
7155.5414560846
 30
0.0
 11
8918.034855011
 21
6945.5414560846
 31
0.0
  0
LINE
  5
14B
330
1F
100
AcDbEntity
  8
0
  6
Continuous
 62
     7
100
AcDbLine
 10
8919.034855011
 20
7255.5414560846
 30
0.0
 11
8921.034855011
 21
7255.5414560846
 31
0.0
  0
LINE
  5
14C
330
1F
100
AcDbEntity
  8
0
  6
Continuous
 62
     7
100
AcDbLine
 10
8921.034855011
 20
7255.5414560846
 30
0.0
 11
8921.034855011
 21
6943.5414560846
 31
0.0
  0
LINE
  5
14D
330
1F
100
AcDbEntity
  8
0
  6
Continuous
 62
     7
100
AcDbLine
 10
8921.034855011
 20
6907.5414560846
 30
0.0
 11
8921.034855011
 21
6905.5414560846
 31
0.0
  0
LINE
  5
14E
330
1F
100
AcDbEntity
  8
0
  6
Continuous
 62
     7
100
AcDbLine
 10
8884.034855011
 20
7155.5414560846
 30
0.0
 11
8884.034855011
 21
6945.5414560846
 31
0.0
  0
LINE
  5
14F
330
1F
100
AcDbEntity
  8
0
  6
Continuous
 62
     7
100
AcDbLine
 10
8881.2064278862
 20
7155.5414560846
 30
0.0
 11
8881.2064278862
 21
6945.5414560846
 31
0.0
  0
LINE
  5
150
330
1F
100
AcDbEntity
  8
0
  6
Continuous
 62
     7
100
AcDbLine
 10
8460.8632821357
 20
6945.5414560846
 30
0.0
 11
8460.8632821357
 21
7155.5414560846
 31
0.0
  0
LINE
  5
151
330
1F
100
AcDbEntity
  8
0
  6
Continuous
 62
     7
100
AcDbLine
 10
8458.034855011
 20
7155.5414560846
 30
0.0
 11
8458.034855011
 21
6945.5414560846
 31
0.0
  0
LINE
  5
152
330
1F
100
AcDbEntity
  8
0
  6
Continuous
 62
     7
100
AcDbLine
 10
8421.034855011
 20
7255.5414560846
 30
0.0
 11
8423.034855011
 21
7255.5414560846
 31
0.0
  0
LINE
  5
153
330
1F
100
AcDbEntity
  8
0
  6
Continuous
 62
     7
100
AcDbLine
 10
8424.034855011
 20
7155.5414560846
 30
0.0
 11
8424.034855011
 21
6945.5414560846
 31
0.0
  0
LINE
  5
154
330
1F
100
AcDbEntity
  8
0
  6
Continuous
 62
     7
100
AcDbLine
 10
8421.034855011
 20
7255.5414560846
 30
0.0
 11
8421.034855011
 21
6943.5414560846
 31
0.0
  0
LINE
  5
155
330
1F
100
AcDbEntity
  8
0
  6
Continuous
 62
     7
100
AcDbLine
 10
8421.034855011
 20
6907.5414560846
 30
0.0
 11
8421.034855011
 21
6905.5414560846
 31
0.0
  0
LINE
  5
156
330
1F
100
AcDbEntity
  8
0
  6
Continuous
 62
     7
100
AcDbLine
 10
8423.034855011
 20
7335.5414560846
 30
0.0
 11
8423.034855011
 21
7295.5414560846
 31
0.0
  0
LINE
  5
157
330
1F
100
AcDbEntity
  8
0
  6
Continuous
 62
     7
100
AcDbLine
 10
8919.034855011
 20
7335.5414560846
 30
0.0
 11
8919.034855011
 21
7295.5414560846
 31
0.0
  0
LINE
  5
158
330
1F
100
AcDbEntity
  8
0
  6
Continuous
 62
     7
100
AcDbLine
 10
8423.034855011
 20
7335.5414560846
 30
0.0
 11
8919.034855011
 21
7335.5414560846
 31
0.0
  0
LINE
  5
159
330
1F
100
AcDbEntity
  8
0
  6
Continuous
 62
     7
100
AcDbLine
 10
9256.8329575468
 20
7255.5414560846
 30
0.0
 11
9258.8329575468
 21
7255.5414560846
 31
0.0
  0
LINE
  5
15A
330
1F
100
AcDbEntity
  8
0
  6
Continuous
 62
     7
100
AcDbLine
 10
9459.8329575468
 20
6465.5414560846
 30
0.0
 11
9459.8329575468
 21
6445.5414560846
 31
0.0
  0
LINE
  5
15B
330
1F
100
AcDbEntity
  8
0
  6
Continuous
 62
     7
100
AcDbLine
 10
9489.8329575468
 20
6445.5414560846
 30
0.0
 11
9489.8329575468
 21
6465.5414560846
 31
0.0
  0
LINE
  5
15C
330
1F
100
AcDbEntity
  8
0
  6
Continuous
 62
     7
100
AcDbLine
 10
9911.8329575468
 20
6465.5414560846
 30
0.0
 11
9911.8329575468
 21
6445.5414560846
 31
0.0
  0
LINE
  5
15D
330
1F
100
AcDbEntity
  8
0
  6
Continuous
 62
     7
100
AcDbLine
 10
9941.8329575468
 20
6445.5414560846
 30
0.0
 11
9941.8329575468
 21
6465.5414560846
 31
0.0
  0
LINE
  5
15E
330
1F
100
AcDbEntity
  8
0
  6
Continuous
 62
     7
100
AcDbLine
 10
9454.3329575468
 20
6470.5414560846
 30
0.0
 11
9454.3329575468
 21
6465.5414560846
 31
0.0
  0
LINE
  5
15F
330
1F
100
AcDbEntity
  8
0
  6
Continuous
 62
     7
100
AcDbLine
 10
9457.8329575468
 20
6470.5414560846
 30
0.0
 11
9454.3329575468
 21
6470.5414560846
 31
0.0
  0
LINE
  5
160
330
1F
100
AcDbEntity
  8
0
  6
Continuous
 62
     7
100
AcDbLine
 10
9457.8329575468
 20
6470.5414560846
 30
0.0
 11
9457.8329575468
 21
6465.5414560846
 31
0.0
  0
LINE
  5
161
330
1F
100
AcDbEntity
  8
0
  6
Continuous
 62
     7
100
AcDbLine
 10
9457.8329575468
 20
6465.5414560846
 30
0.0
 11
9454.3329575468
 21
6465.5414560846
 31
0.0
  0
LINE
  5
162
330
1F
100
AcDbEntity
  8
0
  6
Continuous
 62
     7
100
AcDbLine
 10
9491.8329575468
 20
6470.5414560846
 30
0.0
 11
9457.8329575468
 21
6470.5414560846
 31
0.0
  0
LINE
  5
163
330
1F
100
AcDbEntity
  8
0
  6
Continuous
 62
     7
100
AcDbLine
 10
9491.8329575468
 20
6470.5414560846
 30
0.0
 11
9491.8329575468
 21
6465.5414560846
 31
0.0
  0
LINE
  5
164
330
1F
100
AcDbEntity
  8
0
  6
Continuous
 62
     7
100
AcDbLine
 10
9491.8329575468
 20
6465.5414560846
 30
0.0
 11
9457.8329575468
 21
6465.5414560846
 31
0.0
  0
LINE
  5
165
330
1F
100
AcDbEntity
  8
0
  6
Continuous
 62
     7
100
AcDbLine
 10
9495.3329575468
 20
6470.5414560846
 30
0.0
 11
9495.3329575468
 21
6465.5414560846
 31
0.0
  0
LINE
  5
166
330
1F
100
AcDbEntity
  8
0
  6
Continuous
 62
     7
100
AcDbLine
 10
9495.3329575468
 20
6465.5414560846
 30
0.0
 11
9491.8329575468
 21
6465.5414560846
 31
0.0
  0
LINE
  5
167
330
1F
100
AcDbEntity
  8
0
  6
Continuous
 62
     7
100
AcDbLine
 10
9495.3329575468
 20
6470.5414560846
 30
0.0
 11
9491.8329575468
 21
6470.5414560846
 31
0.0
  0
LINE
  5
168
330
1F
100
AcDbEntity
  8
0
  6
Continuous
 62
     7
100
AcDbLine
 10
9909.8329575468
 20
6470.5414560846
 30
0.0
 11
9909.8329575468
 21
6465.5414560846
 31
0.0
  0
LINE
  5
169
330
1F
100
AcDbEntity
  8
0
  6
Continuous
 62
     7
100
AcDbLine
 10
9943.8329575468
 20
6470.5414560846
 30
0.0
 11
9943.8329575468
 21
6465.5414560846
 31
0.0
  0
LINE
  5
16A
330
1F
100
AcDbEntity
  8
0
  6
Continuous
 62
     7
100
AcDbLine
 10
9943.8329575468
 20
6470.5414560846
 30
0.0
 11
9909.8329575468
 21
6470.5414560846
 31
0.0
  0
LINE
  5
16B
330
1F
100
AcDbEntity
  8
0
  6
Continuous
 62
     7
100
AcDbLine
 10
9943.8329575468
 20
6465.5414560846
 30
0.0
 11
9909.8329575468
 21
6465.5414560846
 31
0.0
  0
LINE
  5
16C
330
1F
100
AcDbEntity
  8
0
  6
Continuous
 62
     7
100
AcDbLine
 10
9906.3329575468
 20
6470.5414560846
 30
0.0
 11
9906.3329575468
 21
6465.5414560846
 31
0.0
  0
LINE
  5
16D
330
1F
100
AcDbEntity
  8
0
  6
Continuous
 62
     7
100
AcDbLine
 10
9909.8329575468
 20
6470.5414560846
 30
0.0
 11
9906.3329575468
 21
6470.5414560846
 31
0.0
  0
LINE
  5
16E
330
1F
100
AcDbEntity
  8
0
  6
Continuous
 62
     7
100
AcDbLine
 10
9909.8329575468
 20
6465.5414560846
 30
0.0
 11
9906.3329575468
 21
6465.5414560846
 31
0.0
  0
LINE
  5
16F
330
1F
100
AcDbEntity
  8
0
  6
Continuous
 62
     7
100
AcDbLine
 10
9947.3329575468
 20
6470.5414560846
 30
0.0
 11
9947.3329575468
 21
6465.5414560846
 31
0.0
  0
LINE
  5
170
330
1F
100
AcDbEntity
  8
0
  6
Continuous
 62
     7
100
AcDbLine
 10
9947.3329575468
 20
6470.5414560846
 30
0.0
 11
9943.8329575468
 21
6470.5414560846
 31
0.0
  0
LINE
  5
171
330
1F
100
AcDbEntity
  8
0
  6
Continuous
 62
     7
100
AcDbLine
 10
9947.3329575468
 20
6465.5414560846
 30
0.0
 11
9943.8329575468
 21
6465.5414560846
 31
0.0
  0
LINE
  5
172
330
1F
100
AcDbEntity
  8
0
  6
Continuous
 62
     7
100
AcDbLine
 10
9254.8329575468
 20
7257.5414560846
 30
0.0
 11
9256.8329575468
 21
7257.5414560846
 31
0.0
  0
LINE
  5
173
330
1F
100
AcDbEntity
  8
0
  6
Continuous
 62
     7
100
AcDbLine
 10
9256.8329575468
 20
7257.5414560846
 30
0.0
 11
9256.8329575468
 21
7255.5414560846
 31
0.0
  0
LINE
  5
174
330
1F
100
AcDbEntity
  8
0
  6
Continuous
 62
     7
100
AcDbLine
 10
9256.8329575468
 20
7295.5414560846
 30
0.0
 11
9256.8329575468
 21
7293.5414560846
 31
0.0
  0
LINE
  5
175
330
1F
100
AcDbEntity
  8
0
  6
Continuous
 62
     7
100
AcDbLine
 10
9254.8329575468
 20
7293.5414560845
 30
0.0
 11
9256.8329575468
 21
7293.5414560846
 31
0.0
  0
LINE
  5
176
330
1F
100
AcDbEntity
  8
0
  6
Continuous
 62
     7
100
AcDbLine
 10
9256.8329575468
 20
7295.5414560846
 30
0.0
 11
9587.8329575468
 21
7295.5414560846
 31
0.0
  0
LINE
  5
177
330
1F
100
AcDbEntity
  8
0
  6
Continuous
 62
     7
100
AcDbLine
 10
9587.8329575468
 20
7295.5414560846
 30
0.0
 11
9587.8329575468
 21
7293.5414560846
 31
0.0
  0
LINE
  5
178
330
1F
100
AcDbEntity
  8
0
  6
Continuous
 62
     7
100
AcDbLine
 10
9587.8329575468
 20
7293.5414560846
 30
0.0
 11
9256.8329575468
 21
7293.5414560846
 31
0.0
  0
LINE
  5
179
330
1F
100
AcDbEntity
  8
0
  6
Continuous
 62
     7
100
AcDbLine
 10
9587.8329575468
 20
7257.5414560846
 30
0.0
 11
9587.8329575468
 21
7293.5414560846
 31
0.0
  0
LINE
  5
17A
330
1F
100
AcDbEntity
  8
0
  6
Continuous
 62
     7
100
AcDbLine
 10
9256.8329575468
 20
7257.5414560846
 30
0.0
 11
9587.8329575468
 21
7257.5414560846
 31
0.0
  0
LINE
  5
17B
330
1F
100
AcDbEntity
  8
0
  6
Continuous
 62
     7
100
AcDbLine
 10
9256.8329575468
 20
7293.5414560846
 30
0.0
 11
9256.8329575468
 21
7257.5414560846
 31
0.0
  0
LINE
  5
17C
330
1F
100
AcDbEntity
  8
0
  6
Continuous
 62
     7
100
AcDbLine
 10
9254.8329575468
 20
7257.5414560846
 30
0.0
 11
9254.8329575468
 21
7293.5414560845
 31
0.0
  0
LINE
  5
17D
330
1F
100
AcDbEntity
  8
0
  6
Continuous
 62
     7
100
AcDbLine
 10
9587.8329575468
 20
7257.5414560846
 30
0.0
 11
9587.8329575468
 21
7255.5414560846
 31
0.0
  0
LINE
  5
17E
330
1F
100
AcDbEntity
  8
0
  6
Continuous
 62
     7
100
AcDbLine
 10
9587.8329575468
 20
7255.5414560846
 30
0.0
 11
9582.8329575468
 21
7255.5414560846
 31
0.0
  0
LINE
  5
17F
330
1F
100
AcDbEntity
  8
0
  6
Continuous
 62
     7
100
AcDbLine
 10
9582.8329575468
 20
7255.5414560846
 30
0.0
 11
9494.6613846715
 21
7255.5414560846
 31
0.0
  0
LINE
  5
180
330
1F
100
AcDbEntity
  8
0
  6
Continuous
 62
     7
100
AcDbLine
 10
9455.004530422
 20
7255.5414560846
 30
0.0
 11
9258.8329575468
 21
7255.5414560846
 31
0.0
  0
LINE
  5
181
330
1F
100
AcDbEntity
  8
0
  6
Continuous
 62
     7
100
AcDbLine
 10
9455.004530422
 20
6597.5414560846
 30
0.0
 11
9455.004530422
 21
7255.5414560846
 31
0.0
  0
LINE
  5
182
330
1F
100
AcDbEntity
  8
0
  6
Continuous
 62
     7
100
AcDbLine
 10
9457.8329575468
 20
7255.5414560846
 30
0.0
 11
9457.8329575468
 21
6470.5414560846
 31
0.0
  0
LINE
  5
183
330
1F
100
AcDbEntity
  8
0
  6
Continuous
 62
     7
100
AcDbLine
 10
9454.8329575468
 20
6595.809405277
 30
0.0
 11
9454.8329575468
 21
6470.5414560846
 31
0.0
  0
LINE
  5
184
330
1F
100
AcDbEntity
  8
0
  6
Continuous
 62
     7
100
AcDbLine
 10
9455.004530422
 20
7255.5414560846
 30
0.0
 11
9457.8329575468
 21
7255.5414560846
 31
0.0
  0
LINE
  5
185
330
1F
100
AcDbEntity
  8
0
  6
Continuous
 62
     7
100
AcDbLine
 10
9491.8329575468
 20
7255.5414560846
 30
0.0
 11
9491.8329575468
 21
6470.5414560846
 31
0.0
  0
LINE
  5
186
330
1F
100
AcDbEntity
  8
0
  6
Continuous
 62
     7
100
AcDbLine
 10
9457.8329575468
 20
7255.5414560846
 30
0.0
 11
9491.8329575468
 21
7255.5414560846
 31
0.0
  0
LINE
  5
187
330
1F
100
AcDbEntity
  8
0
  6
Continuous
 62
     7
100
AcDbLine
 10
9494.6613846715
 20
7255.5414560846
 30
0.0
 11
9494.6613846715
 21
7155.5414560846
 31
0.0
  0
LINE
  5
188
330
1F
100
AcDbEntity
  8
0
  6
Continuous
 62
     7
100
AcDbLine
 10
9494.8329575468
 20
7155.5414560846
 30
0.0
 11
9494.8329575468
 21
6945.5414560846
 31
0.0
  0
LINE
  5
189
330
1F
100
AcDbEntity
  8
0
  6
Continuous
 62
     7
100
AcDbLine
 10
9494.6613846715
 20
6945.5414560846
 30
0.0
 11
9494.6613846715
 21
6597.5414560846
 31
0.0
  0
LINE
  5
18A
330
1F
100
AcDbEntity
  8
0
  6
Continuous
 62
     7
100
AcDbLine
 10
9494.8329575468
 20
6595.809405277
 30
0.0
 11
9494.8329575468
 21
6470.5414560846
 31
0.0
  0
LINE
  5
18B
330
1F
100
AcDbEntity
  8
0
  6
Continuous
 62
     7
100
AcDbLine
 10
9491.8329575468
 20
7255.5414560846
 30
0.0
 11
9494.6613846715
 21
7255.5414560846
 31
0.0
  0
LINE
  5
18C
330
1F
100
AcDbEntity
  8
0
  6
Continuous
 62
     7
100
AcDbLine
 10
9952.8329575468
 20
6905.5414560846
 30
0.0
 11
9946.6613846715
 21
6905.5414560846
 31
0.0
  0
LINE
  5
18D
330
1F
100
AcDbEntity
  8
0
  6
Continuous
 62
     7
100
AcDbLine
 10
9907.004530422
 20
6905.5414560846
 30
0.0
 11
9494.8329575468
 21
6905.5414560846
 31
0.0
  0
LINE
  5
18E
330
1F
100
AcDbEntity
  8
0
  6
Continuous
 62
     7
100
AcDbLine
 10
9494.8329575468
 20
6905.5414560846
 30
0.0
 11
9496.8329575468
 21
6907.5414560846
 31
0.0
  0
LINE
  5
18F
330
1F
100
AcDbEntity
  8
0
  6
Continuous
 62
     7
100
AcDbLine
 10
9496.8329575468
 20
6907.5414560846
 30
0.0
 11
9952.8329575468
 21
6907.5414560846
 31
0.0
  0
LINE
  5
190
330
1F
100
AcDbEntity
  8
0
  6
Continuous
 62
     7
100
AcDbLine
 10
9952.8329575468
 20
6905.5414560846
 30
0.0
 11
9952.8329575468
 21
6907.5414560846
 31
0.0
  0
LINE
  5
191
330
1F
100
AcDbEntity
  8
0
  6
Continuous
 62
     7
100
AcDbLine
 10
9496.8329575468
 20
6943.5414560846
 30
0.0
 11
9496.8329575468
 21
6907.5414560846
 31
0.0
  0
LINE
  5
192
330
1F
100
AcDbEntity
  8
0
  6
Continuous
 62
     7
100
AcDbLine
 10
9494.8329575468
 20
6945.5414560846
 30
0.0
 11
9494.8329575468
 21
6905.5414560846
 31
0.0
  0
LINE
  5
193
330
1F
100
AcDbEntity
  8
0
  6
Continuous
 62
     7
100
AcDbLine
 10
9496.8329575468
 20
6943.5414560846
 30
0.0
 11
9494.8329575468
 21
6945.5414560846
 31
0.0
  0
LINE
  5
194
330
1F
100
AcDbEntity
  8
0
  6
Continuous
 62
     7
100
AcDbLine
 10
9952.8329575468
 20
6943.5414560846
 30
0.0
 11
9496.8329575468
 21
6943.5414560846
 31
0.0
  0
LINE
  5
195
330
1F
100
AcDbEntity
  8
0
  6
Continuous
 62
     7
100
AcDbLine
 10
9494.8329575468
 20
6945.5414560846
 30
0.0
 11
9952.8329575468
 21
6945.5414560846
 31
0.0
  0
LINE
  5
196
330
1F
100
AcDbEntity
  8
0
  6
Continuous
 62
     7
100
AcDbLine
 10
9952.8329575468
 20
6943.5414560846
 30
0.0
 11
9952.8329575468
 21
6945.5414560846
 31
0.0
  0
LINE
  5
197
330
1F
100
AcDbEntity
  8
0
  6
Continuous
 62
     7
100
AcDbLine
 10
9952.8329575468
 20
6907.5414560846
 30
0.0
 11
9952.8329575468
 21
6943.5414560846
 31
0.0
  0
LINE
  5
198
330
1F
100
AcDbEntity
  8
0
  6
Continuous
 62
     7
100
AcDbLine
 10
9587.8329575468
 20
7293.5414560846
 30
0.0
 11
9589.8329575468
 21
7293.5414560846
 31
0.0
  0
LINE
  5
199
330
1F
100
AcDbEntity
  8
0
  6
Continuous
 62
     7
100
AcDbLine
 10
9589.8329575468
 20
7293.5414560846
 30
0.0
 11
9589.8329575468
 21
7257.5414560846
 31
0.0
  0
LINE
  5
19A
330
1F
100
AcDbEntity
  8
0
  6
Continuous
 62
     7
100
AcDbLine
 10
9587.8329575468
 20
7257.5414560846
 30
0.0
 11
9589.8329575468
 21
7257.5414560846
 31
0.0
  0
LINE
  5
19B
330
1F
100
AcDbEntity
  8
0
  6
Continuous
 62
     7
100
AcDbLine
 10
9907.004530422
 20
6597.5414560846
 30
0.0
 11
9907.004530422
 21
6905.5414560846
 31
0.0
  0
LINE
  5
19C
330
1F
100
AcDbEntity
  8
0
  6
Continuous
 62
     7
100
AcDbLine
 10
9909.8329575468
 20
6905.5414560846
 30
0.0
 11
9909.8329575468
 21
6470.5414560846
 31
0.0
  0
LINE
  5
19D
330
1F
100
AcDbEntity
  8
0
  6
Continuous
 62
     7
100
AcDbLine
 10
9906.8329575468
 20
6595.809405277
 30
0.0
 11
9906.8329575468
 21
6470.5414560846
 31
0.0
  0
LINE
  5
19E
330
1F
100
AcDbEntity
  8
0
  6
Continuous
 62
     7
100
AcDbLine
 10
9909.8329575468
 20
6905.5414560846
 30
0.0
 11
9907.004530422
 21
6905.5414560846
 31
0.0
  0
LINE
  5
19F
330
1F
100
AcDbEntity
  8
0
  6
Continuous
 62
     7
100
AcDbLine
 10
9943.8329575468
 20
6905.5414560846
 30
0.0
 11
9943.8329575468
 21
6470.5414560846
 31
0.0
  0
LINE
  5
1A0
330
1F
100
AcDbEntity
  8
0
  6
Continuous
 62
     7
100
AcDbLine
 10
9943.8329575468
 20
6905.5414560846
 30
0.0
 11
9909.8329575468
 21
6905.5414560846
 31
0.0
  0
LINE
  5
1A1
330
1F
100
AcDbEntity
  8
0
  6
Continuous
 62
     7
100
AcDbLine
 10
9946.8329575468
 20
6905.5414560846
 30
0.0
 11
9946.8329575468
 21
6470.5414560846
 31
0.0
  0
LINE
  5
1A2
330
1F
100
AcDbEntity
  8
0
  6
Continuous
 62
     7
100
AcDbLine
 10
9946.6613846715
 20
6905.5414560846
 30
0.0
 11
9943.8329575468
 21
6905.5414560846
 31
0.0
  0
LINE
  5
1A3
330
1F
100
AcDbEntity
  8
0
  6
Continuous
 62
     7
100
AcDbLine
 10
9954.8329575468
 20
6907.5414560846
 30
0.0
 11
9952.8329575468
 21
6907.5414560846
 31
0.0
  0
LINE
  5
1A4
330
1F
100
AcDbEntity
  8
0
  6
Continuous
 62
     7
100
AcDbLine
 10
9952.8329575468
 20
6943.5414560846
 30
0.0
 11
9954.8329575468
 21
6943.5414560846
 31
0.0
  0
LINE
  5
1A5
330
1F
100
AcDbEntity
  8
0
  6
Continuous
 62
     7
100
AcDbLine
 10
9954.8329575468
 20
6943.5414560846
 30
0.0
 11
9954.8329575468
 21
6907.5414560846
 31
0.0
  0
LINE
  5
1A6
330
1F
100
AcDbEntity
  8
0
  6
Continuous
 62
     7
100
AcDbLine
 10
9254.8329575468
 20
7293.5414560845
 30
0.0
 11
9254.8329575468
 21
7335.5414560846
 31
0.0
  0
LINE
  5
1A7
330
1F
100
AcDbEntity
  8
0
  6
Continuous
 62
     7
100
AcDbLine
 10
9256.8329575468
 20
7335.5414560846
 30
0.0
 11
9256.8329575468
 21
7295.5414560846
 31
0.0
  0
LINE
  5
1A8
330
1F
100
AcDbEntity
  8
0
  6
Continuous
 62
     7
100
AcDbLine
 10
9254.8329575468
 20
7335.5414560846
 30
0.0
 11
9256.8329575468
 21
7335.5414560846
 31
0.0
  0
LINE
  5
1A9
330
1F
100
AcDbEntity
  8
0
  6
Continuous
 62
     7
100
AcDbLine
 10
9258.8329575468
 20
7255.5414560846
 30
0.0
 11
9258.8329575468
 21
6597.5414560846
 31
0.0
  0
LINE
  5
1AA
330
1F
100
AcDbEntity
  8
0
  6
Continuous
 62
     7
100
AcDbLine
 10
9258.8329575468
 20
6597.5414560846
 30
0.0
 11
9256.8329575468
 21
6597.5414560846
 31
0.0
  0
LINE
  5
1AB
330
1F
100
AcDbEntity
  8
0
  6
Continuous
 62
     7
100
AcDbLine
 10
9256.8329575468
 20
6597.5414560846
 30
0.0
 11
9256.8329575468
 21
7255.5414560846
 31
0.0
  0
LINE
  5
1AC
330
1F
100
AcDbEntity
  8
0
  6
Continuous
 62
     7
100
AcDbLine
 10
9258.8329575468
 20
6597.5414560846
 30
0.0
 11
9455.004530422
 21
6597.5414560846
 31
0.0
  0
LINE
  5
1AD
330
1F
100
AcDbEntity
  8
0
  6
Continuous
 62
     7
100
AcDbLine
 10
9258.8329575468
 20
6595.5414560846
 30
0.0
 11
9258.8329575468
 21
6597.5414560846
 31
0.0
  0
LINE
  5
1AE
330
1F
100
AcDbEntity
  8
0
  6
Continuous
 62
     7
100
AcDbLine
 10
9454.8329575468
 20
6595.5414560846
 30
0.0
 11
9258.8329575468
 21
6595.5414560846
 31
0.0
  0
LINE
  5
1AF
330
1F
100
AcDbEntity
  8
0
  6
Continuous
 62
     7
100
AcDbLine
 10
9582.8329575468
 20
7155.5414560846
 30
0.0
 11
9582.8329575468
 21
7255.5414560846
 31
0.0
  0
LINE
  5
1B0
330
1F
100
AcDbEntity
  8
0
  6
Continuous
 62
     7
100
AcDbLine
 10
9582.8329575468
 20
7155.5414560846
 30
0.0
 11
9494.6613846715
 21
7155.5414560846
 31
0.0
  0
LINE
  5
1B1
330
1F
100
AcDbEntity
  8
0
  6
Continuous
 62
     7
100
AcDbLine
 10
9494.6613846715
 20
6597.5414560846
 30
0.0
 11
9907.004530422
 21
6597.5414560846
 31
0.0
  0
LINE
  5
1B2
330
1F
100
AcDbEntity
  8
0
  6
Continuous
 62
     7
100
AcDbLine
 10
9906.8329575468
 20
6595.5414560846
 30
0.0
 11
9494.8329575468
 21
6595.5414560846
 31
0.0
  0
LINE
  5
1B3
330
1F
100
AcDbEntity
  8
0
  6
Continuous
 62
     7
100
AcDbLine
 10
9494.6613846715
 20
6945.5414560846
 30
0.0
 11
9494.8329575468
 21
6945.5414560846
 31
0.0
  0
LINE
  5
1B4
330
1F
100
AcDbEntity
  8
0
  6
Continuous
 62
     7
100
AcDbLine
 10
9474.8329575468
 20
6445.5414560846
 30
0.0
 11
9489.8329575468
 21
6445.5414560846
 31
0.0
  0
LINE
  5
1B5
330
1F
100
AcDbEntity
  8
0
  6
Continuous
 62
     7
100
AcDbLine
 10
9459.8329575468
 20
6445.5414560846
 30
0.0
 11
9474.8329575468
 21
6445.5414560846
 31
0.0
  0
LINE
  5
1B6
330
1F
100
AcDbEntity
  8
0
  6
Continuous
 62
     7
100
AcDbLine
 10
9926.8329575468
 20
6445.5414560846
 30
0.0
 11
9941.8329575468
 21
6445.5414560846
 31
0.0
  0
LINE
  5
1B7
330
1F
100
AcDbEntity
  8
0
  6
Continuous
 62
     7
100
AcDbLine
 10
9911.8329575468
 20
6445.5414560846
 30
0.0
 11
9926.8329575468
 21
6445.5414560846
 31
0.0
  0
LINE
  5
1B8
330
1F
100
AcDbEntity
  8
0
  6
Continuous
 62
     7
100
AcDbLine
 10
8865.034855011
 20
5743.540410309
 30
0.0
 11
8477.034855011
 21
5743.540410309
 31
0.0
  0
LINE
  5
1B9
330
1F
100
AcDbEntity
  8
0
  6
Continuous
 62
     7
100
AcDbLine
 10
8477.034855011
 20
5488.540410309
 30
0.0
 11
8865.034855011
 21
5488.540410309
 31
0.0
  0
LINE
  5
1BA
330
1F
100
AcDbEntity
  8
0
  6
Continuous
 62
     7
100
AcDbLine
 10
8670.284855011
 20
6001.2365627317
 30
0.0
 11
8670.284855011
 21
5990.8442578863
 31
0.0
  0
LINE
  5
1BB
330
1F
100
AcDbEntity
  8
0
  6
Continuous
 62
     7
100
AcDbLine
 10
8671.784855011
 20
5990.8442578863
 30
0.0
 11
8671.784855011
 21
6001.2365627317
 31
0.0
  0
LINE
  5
1BC
330
1F
100
AcDbEntity
  8
0
  6
Continuous
 62
     7
100
AcDbLine
 10
8791.1568943992
 20
5724.7699864883
 30
0.0
 11
8792.2571304141
 21
5725.2683132863
 31
0.0
  0
LINE
  5
1BD
330
1F
100
AcDbEntity
  8
0
  6
Continuous
 62
     7
100
AcDbLine
 10
8792.2571304141
 20
5725.2683132863
 30
0.0
 11
8792.3919231253
 21
5725.3532534451
 31
0.0
  0
LINE
  5
1BE
330
1F
100
AcDbEntity
  8
0
  6
Continuous
 62
     7
100
AcDbLine
 10
8787.3319318988
 20
5711.1150545551
 30
0.0
 11
8788.3102268081
 21
5710.7258238723
 31
0.0
  0
LINE
  5
1BF
330
1F
100
AcDbEntity
  8
0
  6
Continuous
 62
     7
100
AcDbLine
 10
8788.3102268081
 20
5710.7258238723
 30
0.0
 11
8789.6592106639
 21
5710.540410309
 31
0.0
  0
LINE
  5
1C0
330
1F
100
AcDbEntity
  8
0
  6
Continuous
 62
     7
100
AcDbLine
 10
8669.4192535991
 20
5960.9083191559
 30
0.0
 11
8671.034855011
 21
5960.8711908592
 31
0.0
  0
LINE
  5
1C1
330
1F
100
AcDbEntity
  8
0
  6
Continuous
 62
     7
100
AcDbLine
 10
8881.034855011
 20
5491.040410309
 30
0.0
 11
8881.034855011
 21
5741.040410309
 31
0.0
  0
LINE
  5
1C2
330
1F
100
AcDbEntity
  8
0
  6
Continuous
 62
     7
100
AcDbLine
 10
8868.534855011
 20
5491.040410309
 30
0.0
 11
8881.034855011
 21
5491.040410309
 31
0.0
  0
LINE
  5
1C3
330
1F
100
AcDbEntity
  8
0
  6
Continuous
 62
     7
100
AcDbLine
 10
8868.534855011
 20
5491.040410309
 30
0.0
 11
8868.534855011
 21
5741.040410309
 31
0.0
  0
LINE
  5
1C4
330
1F
100
AcDbEntity
  8
0
  6
Continuous
 62
     7
100
AcDbLine
 10
8868.534855011
 20
5741.040410309
 30
0.0
 11
8881.034855011
 21
5741.040410309
 31
0.0
  0
LINE
  5
1C5
330
1F
100
AcDbEntity
  8
0
  6
Continuous
 62
     7
100
AcDbLine
 10
8866.034855011
 20
5491.040410309
 30
0.0
 11
8868.534855011
 21
5491.040410309
 31
0.0
  0
LINE
  5
1C6
330
1F
100
AcDbEntity
  8
0
  6
Continuous
 62
     7
100
AcDbLine
 10
8866.034855011
 20
5491.040410309
 30
0.0
 11
8866.034855011
 21
5741.040410309
 31
0.0
  0
LINE
  5
1C7
330
1F
100
AcDbEntity
  8
0
  6
Continuous
 62
     7
100
AcDbLine
 10
8866.034855011
 20
5741.040410309
 30
0.0
 11
8868.534855011
 21
5741.040410309
 31
0.0
  0
LINE
  5
1C8
330
1F
100
AcDbEntity
  8
0
  6
Continuous
 62
     7
100
AcDbLine
 10
8473.534855011
 20
5491.040410309
 30
0.0
 11
8473.534855011
 21
5741.040410309
 31
0.0
  0
LINE
  5
1C9
330
1F
100
AcDbEntity
  8
0
  6
Continuous
 62
     7
100
AcDbLine
 10
8461.034855011
 20
5491.040410309
 30
0.0
 11
8473.534855011
 21
5491.040410309
 31
0.0
  0
LINE
  5
1CA
330
1F
100
AcDbEntity
  8
0
  6
Continuous
 62
     7
100
AcDbLine
 10
8461.034855011
 20
5491.040410309
 30
0.0
 11
8461.034855011
 21
5741.040410309
 31
0.0
  0
LINE
  5
1CB
330
1F
100
AcDbEntity
  8
0
  6
Continuous
 62
     7
100
AcDbLine
 10
8461.034855011
 20
5741.040410309
 30
0.0
 11
8473.534855011
 21
5741.040410309
 31
0.0
  0
LINE
  5
1CC
330
1F
100
AcDbEntity
  8
0
  6
Continuous
 62
     7
100
AcDbLine
 10
8476.034855011
 20
5491.040410309
 30
0.0
 11
8476.034855011
 21
5741.040410309
 31
0.0
  0
LINE
  5
1CD
330
1F
100
AcDbEntity
  8
0
  6
Continuous
 62
     7
100
AcDbLine
 10
8473.534855011
 20
5491.040410309
 30
0.0
 11
8476.034855011
 21
5491.040410309
 31
0.0
  0
LINE
  5
1CE
330
1F
100
AcDbEntity
  8
0
  6
Continuous
 62
     7
100
AcDbLine
 10
8473.534855011
 20
5741.040410309
 30
0.0
 11
8476.034855011
 21
5741.040410309
 31
0.0
  0
LINE
  5
1CF
330
1F
100
AcDbEntity
  8
0
  6
Continuous
 62
     7
100
AcDbLine
 10
8865.034855011
 20
5491.040410309
 30
0.0
 11
8866.034855011
 21
5491.040410309
 31
0.0
  0
LINE
  5
1D0
330
1F
100
AcDbEntity
  8
0
  6
Continuous
 62
     7
100
AcDbLine
 10
8865.034855011
 20
5491.040410309
 30
0.0
 11
8865.034855011
 21
5741.040410309
 31
0.0
  0
LINE
  5
1D1
330
1F
100
AcDbEntity
  8
0
  6
Continuous
 62
     7
100
AcDbLine
 10
8865.034855011
 20
5741.040410309
 30
0.0
 11
8866.034855011
 21
5741.040410309
 31
0.0
  0
LINE
  5
1D2
330
1F
100
AcDbEntity
  8
0
  6
Continuous
 62
     7
100
AcDbLine
 10
8477.034855011
 20
5491.040410309
 30
0.0
 11
8477.034855011
 21
5741.040410309
 31
0.0
  0
LINE
  5
1D3
330
1F
100
AcDbEntity
  8
0
  6
Continuous
 62
     7
100
AcDbLine
 10
8476.034855011
 20
5491.040410309
 30
0.0
 11
8477.034855011
 21
5491.040410309
 31
0.0
  0
LINE
  5
1D4
330
1F
100
AcDbEntity
  8
0
  6
Continuous
 62
     7
100
AcDbLine
 10
8476.034855011
 20
5741.040410309
 30
0.0
 11
8477.034855011
 21
5741.040410309
 31
0.0
  0
LINE
  5
1D5
330
1F
100
AcDbEntity
  8
0
  6
Continuous
 62
     7
100
AcDbLine
 10
8477.034855011
 20
5491.040410309
 30
0.0
 11
8865.034855011
 21
5491.040410309
 31
0.0
  0
LINE
  5
1D6
330
1F
100
AcDbEntity
  8
0
  6
Continuous
 62
     7
100
AcDbLine
 10
8477.034855011
 20
5741.040410309
 30
0.0
 11
8865.034855011
 21
5741.040410309
 31
0.0
  0
LINE
  5
1D7
330
1F
100
AcDbEntity
  8
0
  6
Continuous
 62
     7
100
AcDbLine
 10
8477.034855011
 20
5741.040410309
 30
0.0
 11
8477.034855011
 21
5743.540410309
 31
0.0
  0
LINE
  5
1D8
330
1F
100
AcDbEntity
  8
0
  6
Continuous
 62
     7
100
AcDbLine
 10
8865.034855011
 20
5743.540410309
 30
0.0
 11
8865.034855011
 21
5741.040410309
 31
0.0
  0
LINE
  5
1D9
330
1F
100
AcDbEntity
  8
0
  6
Continuous
 62
     7
100
AcDbLine
 10
8865.034855011
 20
5491.040410309
 30
0.0
 11
8865.034855011
 21
5488.540410309
 31
0.0
  0
LINE
  5
1DA
330
1F
100
AcDbEntity
  8
0
  6
Continuous
 62
     7
100
AcDbLine
 10
8477.034855011
 20
5488.540410309
 30
0.0
 11
8477.034855011
 21
5491.040410309
 31
0.0
  0
LINE
  5
1DB
330
1F
100
AcDbEntity
  8
0
  6
Continuous
 62
     7
100
AcDbLine
 10
8919.034855011
 20
6084.040410309
 30
0.0
 11
8919.034855011
 21
6086.040410309
 31
0.0
  0
LINE
  5
1DC
330
1F
100
AcDbEntity
  8
0
  6
Continuous
 62
     7
100
AcDbLine
 10
8423.034855011
 20
6084.040410309
 30
0.0
 11
8919.034855011
 21
6084.040410309
 31
0.0
  0
LINE
  5
1DD
330
1F
100
AcDbEntity
  8
0
  6
Continuous
 62
     7
100
AcDbLine
 10
8423.034855011
 20
6086.040410309
 30
0.0
 11
8423.034855011
 21
6084.040410309
 31
0.0
  0
LINE
  5
1DE
330
1F
100
AcDbEntity
  8
0
  6
Continuous
 62
     7
100
AcDbLine
 10
8919.034855011
 20
6086.040410309
 30
0.0
 11
8423.034855011
 21
6086.040410309
 31
0.0
  0
LINE
  5
1DF
330
1F
100
AcDbEntity
  8
0
  6
Continuous
 62
     7
100
AcDbLine
 10
8921.034855011
 20
6084.040410309
 30
0.0
 11
8919.034855011
 21
6084.040410309
 31
0.0
  0
LINE
  5
1E0
330
1F
100
AcDbEntity
  8
0
  6
Continuous
 62
     7
100
AcDbLine
 10
8919.034855011
 20
5753.040410309
 30
0.0
 11
8919.034855011
 21
6084.040410309
 31
0.0
  0
LINE
  5
1E1
330
1F
100
AcDbEntity
  8
0
  6
Continuous
 62
     7
100
AcDbLine
 10
8423.034855011
 20
5753.040410309
 30
0.0
 11
8919.034855011
 21
5753.040410309
 31
0.0
  0
LINE
  5
1E2
330
1F
100
AcDbEntity
  8
0
  6
Continuous
 62
     7
100
AcDbLine
 10
8423.034855011
 20
6084.040410309
 30
0.0
 11
8423.034855011
 21
5753.040410309
 31
0.0
  0
LINE
  5
1E3
330
1F
100
AcDbEntity
  8
0
  6
Continuous
 62
     7
100
AcDbLine
 10
8530.4188087893
 20
6076.040410309
 30
0.0
 11
8811.6509012326
 21
6076.040410309
 31
0.0
  0
LINE
  5
1E4
330
1F
100
AcDbEntity
  8
0
  6
Continuous
 62
     7
100
AcDbLine
 10
8451.7125058547
 20
5875.7522782188
 30
0.0
 11
8476.0964596331
 21
6029.6475226094
 31
0.0
  0
LINE
  5
1E5
330
1F
100
AcDbEntity
  8
0
  6
Continuous
 62
     7
100
AcDbLine
 10
8865.9732503888
 20
6029.6475226094
 30
0.0
 11
8890.3572041672
 21
5875.7522782188
 31
0.0
  0
LINE
  5
1E6
330
1F
100
AcDbEntity
  8
0
  6
Continuous
 62
     7
100
AcDbLine
 10
8811.6509012326
 20
6076.040410309
 30
0.0
 11
8811.6509012326
 21
6071.040410309
 31
0.0
  0
LINE
  5
1E7
330
1F
100
AcDbEntity
  8
0
  6
Continuous
 62
     7
100
AcDbLine
 10
8811.6509012326
 20
6071.040410309
 30
0.0
 11
8530.4188087893
 21
6071.040410309
 31
0.0
  0
LINE
  5
1E8
330
1F
100
AcDbEntity
  8
0
  6
Continuous
 62
     7
100
AcDbLine
 10
8530.4188087893
 20
6076.040410309
 30
0.0
 11
8530.4188087893
 21
6071.040410309
 31
0.0
  0
LINE
  5
1E9
330
1F
100
AcDbEntity
  8
0
  6
Continuous
 62
     7
100
AcDbLine
 10
8921.034855011
 20
6084.040410309
 30
0.0
 11
8921.034855011
 21
5753.040410309
 31
0.0
  0
LINE
  5
1EA
330
1F
100
AcDbEntity
  8
0
  6
Continuous
 62
     7
100
AcDbLine
 10
8921.034855011
 20
5753.040410309
 30
0.0
 11
8919.034855011
 21
5753.040410309
 31
0.0
  0
LINE
  5
1EB
330
1F
100
AcDbEntity
  8
0
  6
Continuous
 62
     7
100
AcDbLine
 10
8865.9732503888
 20
6029.6475226094
 30
0.0
 11
8861.034855011
 21
6028.8650578548
 31
0.0
  0
LINE
  5
1EC
330
1F
100
AcDbEntity
  8
0
  6
Continuous
 62
     7
100
AcDbLine
 10
8423.034855011
 20
6084.040410309
 30
0.0
 11
8421.034855011
 21
6084.040410309
 31
0.0
  0
LINE
  5
1ED
330
1F
100
AcDbEntity
  8
0
  6
Continuous
 62
     7
100
AcDbLine
 10
8476.0964596331
 20
6029.6475226094
 30
0.0
 11
8481.034855011
 21
6028.8650578548
 31
0.0
  0
LINE
  5
1EE
330
1F
100
AcDbEntity
  8
0
  6
Continuous
 62
     7
100
AcDbLine
 10
8885.4188087894
 20
5874.9698134641
 30
0.0
 11
8861.034855011
 21
6028.8650578548
 31
0.0
  0
LINE
  5
1EF
330
1F
100
AcDbEntity
  8
0
  6
Continuous
 62
     7
100
AcDbLine
 10
8885.4188087894
 20
5874.9698134641
 30
0.0
 11
8890.3572041672
 21
5875.7522782188
 31
0.0
  0
LINE
  5
1F0
330
1F
100
AcDbEntity
  8
0
  6
Continuous
 62
     7
100
AcDbLine
 10
8423.034855011
 20
5753.040410309
 30
0.0
 11
8421.034855011
 21
5753.040410309
 31
0.0
  0
LINE
  5
1F1
330
1F
100
AcDbEntity
  8
0
  6
Continuous
 62
     7
100
AcDbLine
 10
8421.034855011
 20
5753.040410309
 30
0.0
 11
8421.034855011
 21
6084.040410309
 31
0.0
  0
LINE
  5
1F2
330
1F
100
AcDbEntity
  8
0
  6
Continuous
 62
     7
100
AcDbLine
 10
8481.034855011
 20
6028.8650578548
 30
0.0
 11
8456.6509012326
 21
5874.9698134642
 31
0.0
  0
LINE
  5
1F3
330
1F
100
AcDbEntity
  8
0
  6
Continuous
 62
     7
100
AcDbLine
 10
8456.6509012326
 20
5874.9698134642
 30
0.0
 11
8451.7125058547
 21
5875.7522782188
 31
0.0
  0
LINE
  5
1F4
330
1F
100
AcDbEntity
  8
0
  6
Continuous
 62
     7
100
AcDbLine
 10
8854.2392839044
 20
5820.5769496259
 30
0.0
 11
8856.0597267937
 21
5815.9201279966
 31
0.0
  0
LINE
  5
1F5
330
1F
100
AcDbEntity
  8
0
  6
Continuous
 62
     7
100
AcDbLine
 10
8487.8304261176
 20
5820.5769496259
 30
0.0
 11
8486.0099832282
 21
5815.9201279967
 31
0.0
  0
LINE
  5
1F6
330
1F
100
AcDbEntity
  8
0
  6
Continuous
 62
     7
100
AcDbLine
 10
8919.034855011
 20
5751.040410309
 30
0.0
 11
8919.034855011
 21
5753.040410309
 31
0.0
  0
LINE
  5
1F7
330
1F
100
AcDbEntity
  8
0
  6
Continuous
 62
     7
100
AcDbLine
 10
8919.034855011
 20
5751.040410309
 30
0.0
 11
8423.034855011
 21
5751.040410309
 31
0.0
  0
LINE
  5
1F8
330
1F
100
AcDbEntity
  8
0
  6
Continuous
 62
     7
100
AcDbLine
 10
8423.034855011
 20
5753.040410309
 30
0.0
 11
8423.034855011
 21
5751.040410309
 31
0.0
  0
LINE
  5
1F9
330
1F
100
AcDbEntity
  8
0
  6
Continuous
 62
     7
100
AcDbLine
 10
8571.6692632288
 20
5795.9489649151
 30
0.0
 11
8572.1185409223
 21
5796.0468586283
 31
0.0
  0
LINE
  5
1FA
330
1F
100
AcDbEntity
  8
0
  6
Continuous
 62
     7
100
AcDbLine
 10
8572.1185409223
 20
5796.0468586283
 30
0.0
 11
8572.6374405413
 21
5796.5061278523
 31
0.0
  0
LINE
  5
1FB
330
1F
100
AcDbEntity
  8
0
  6
Continuous
 62
     7
100
AcDbLine
 10
8572.6374405413
 20
5796.5061278523
 30
0.0
 11
8573.2221287436
 21
5797.3233797613
 31
0.0
  0
LINE
  5
1FC
330
1F
100
AcDbEntity
  8
0
  6
Continuous
 62
     7
100
AcDbLine
 10
8573.2221287436
 20
5797.3233797613
 30
0.0
 11
8573.8682861775
 21
5798.4925769521
 31
0.0
  0
LINE
  5
1FD
330
1F
100
AcDbEntity
  8
0
  6
Continuous
 62
     7
100
AcDbLine
 10
8573.8682861775
 20
5798.4925769521
 30
0.0
 11
8574.5711393906
 21
5800.005082045
 31
0.0
  0
LINE
  5
1FE
330
1F
100
AcDbEntity
  8
0
  6
Continuous
 62
     7
100
AcDbLine
 10
8574.5711393906
 20
5800.005082045
 30
0.0
 11
8575.3254960938
 21
5801.8497214924
 31
0.0
  0
LINE
  5
1FF
330
1F
100
AcDbEntity
  8
0
  6
Continuous
 62
     7
100
AcDbLine
 10
8575.3254960938
 20
5801.8497214924
 30
0.0
 11
8576.1257835187
 21
5804.0128681226
 31
0.0
  0
LINE
  5
200
330
1F
100
AcDbEntity
  8
0
  6
Continuous
 62
     7
100
AcDbLine
 10
8576.1257835187
 20
5804.0128681226
 30
0.0
 11
8576.9660895862
 21
5806.4785418096
 31
0.0
  0
LINE
  5
201
330
1F
100
AcDbEntity
  8
0
  6
Continuous
 62
     7
100
AcDbLine
 10
8576.9660895862
 20
5806.4785418096
 30
0.0
 11
8577.8402065819
 21
5809.2285275255
 31
0.0
  0
LINE
  5
202
330
1F
100
AcDbEntity
  8
0
  6
Continuous
 62
     7
100
AcDbLine
 10
8577.8402065819
 20
5809.2285275255
 30
0.0
 11
8578.7416770147
 21
5812.242509903
 31
0.0
  0
LINE
  5
203
330
1F
100
AcDbEntity
  8
0
  6
Continuous
 62
     7
100
AcDbLine
 10
8578.7416770147
 20
5812.242509903
 30
0.0
 11
8579.6638413217
 21
5815.4982233142
 31
0.0
  0
LINE
  5
204
330
1F
100
AcDbEntity
  8
0
  6
Continuous
 62
     7
100
AcDbLine
 10
8579.6638413217
 20
5815.4982233142
 30
0.0
 11
8580.5998870653
 21
5818.9716163566
 31
0.0
  0
LINE
  5
205
330
1F
100
AcDbEntity
  8
0
  6
Continuous
 62
     7
100
AcDbLine
 10
8580.5998870653
 20
5818.9716163566
 30
0.0
 11
8581.5428992592
 21
5822.6370295312
 31
0.0
  0
LINE
  5
206
330
1F
100
AcDbEntity
  8
0
  6
Continuous
 62
     7
100
AcDbLine
 10
8770.4004467931
 20
5795.9489649151
 30
0.0
 11
8769.9511690996
 21
5796.0468586283
 31
0.0
  0
LINE
  5
207
330
1F
100
AcDbEntity
  8
0
  6
Continuous
 62
     7
100
AcDbLine
 10
8769.9511690996
 20
5796.0468586283
 30
0.0
 11
8769.4322694806
 21
5796.5061278523
 31
0.0
  0
LINE
  5
208
330
1F
100
AcDbEntity
  8
0
  6
Continuous
 62
     7
100
AcDbLine
 10
8769.4322694806
 20
5796.5061278523
 30
0.0
 11
8768.8475812783
 21
5797.3233797613
 31
0.0
  0
LINE
  5
209
330
1F
100
AcDbEntity
  8
0
  6
Continuous
 62
     7
100
AcDbLine
 10
8768.8475812783
 20
5797.3233797613
 30
0.0
 11
8768.2014238444
 21
5798.4925769521
 31
0.0
  0
LINE
  5
20A
330
1F
100
AcDbEntity
  8
0
  6
Continuous
 62
     7
100
AcDbLine
 10
8768.2014238444
 20
5798.4925769521
 30
0.0
 11
8767.4985706313
 21
5800.005082045
 31
0.0
  0
LINE
  5
20B
330
1F
100
AcDbEntity
  8
0
  6
Continuous
 62
     7
100
AcDbLine
 10
8767.4985706313
 20
5800.005082045
 30
0.0
 11
8766.7442139281
 21
5801.8497214924
 31
0.0
  0
LINE
  5
20C
330
1F
100
AcDbEntity
  8
0
  6
Continuous
 62
     7
100
AcDbLine
 10
8766.7442139281
 20
5801.8497214924
 30
0.0
 11
8765.9439265032
 21
5804.0128681226
 31
0.0
  0
LINE
  5
20D
330
1F
100
AcDbEntity
  8
0
  6
Continuous
 62
     7
100
AcDbLine
 10
8765.9439265032
 20
5804.0128681226
 30
0.0
 11
8765.1036204357
 21
5806.4785418096
 31
0.0
  0
LINE
  5
20E
330
1F
100
AcDbEntity
  8
0
  6
Continuous
 62
     7
100
AcDbLine
 10
8765.1036204357
 20
5806.4785418096
 30
0.0
 11
8764.22950344
 21
5809.2285275255
 31
0.0
  0
LINE
  5
20F
330
1F
100
AcDbEntity
  8
0
  6
Continuous
 62
     7
100
AcDbLine
 10
8764.22950344
 20
5809.2285275255
 30
0.0
 11
8763.3280330072
 21
5812.242509903
 31
0.0
  0
LINE
  5
210
330
1F
100
AcDbEntity
  8
0
  6
Continuous
 62
     7
100
AcDbLine
 10
8763.3280330072
 20
5812.242509903
 30
0.0
 11
8762.4058687002
 21
5815.4982233142
 31
0.0
  0
LINE
  5
211
330
1F
100
AcDbEntity
  8
0
  6
Continuous
 62
     7
100
AcDbLine
 10
8762.4058687002
 20
5815.4982233142
 30
0.0
 11
8761.4698229566
 21
5818.9716163566
 31
0.0
  0
LINE
  5
212
330
1F
100
AcDbEntity
  8
0
  6
Continuous
 62
     7
100
AcDbLine
 10
8761.4698229566
 20
5818.9716163566
 30
0.0
 11
8760.5268107627
 21
5822.6370295312
 31
0.0
  0
LINE
  5
213
330
1F
100
AcDbEntity
  8
0
  6
Continuous
 62
     7
100
AcDbLine
 10
8854.2392839044
 20
5820.5769496259
 30
0.0
 11
8854.5998793757
 21
5820.9255166678
 31
0.0
  0
LINE
  5
214
330
1F
100
AcDbEntity
  8
0
  6
Continuous
 62
     7
100
AcDbLine
 10
8854.5998793757
 20
5820.9255166678
 30
0.0
 11
8854.8168898182
 21
5821.6315542706
 31
0.0
  0
LINE
  5
215
330
1F
100
AcDbEntity
  8
0
  6
Continuous
 62
     7
100
AcDbLine
 10
8854.8168898182
 20
5821.6315542706
 30
0.0
 11
8854.8886368363
 21
5822.6896018205
 31
0.0
  0
LINE
  5
216
330
1F
100
AcDbEntity
  8
0
  6
Continuous
 62
     7
100
AcDbLine
 10
8854.8886368363
 20
5822.6896018205
 30
0.0
 11
8854.8145655267
 21
5824.0914761995
 31
0.0
  0
LINE
  5
217
330
1F
100
AcDbEntity
  8
0
  6
Continuous
 62
     7
100
AcDbLine
 10
8854.8145655267
 20
5824.0914761995
 30
0.0
 11
8854.5952487692
 21
5825.8263350745
 31
0.0
  0
LINE
  5
218
330
1F
100
AcDbEntity
  8
0
  6
Continuous
 62
     7
100
AcDbLine
 10
8854.5952487692
 20
5825.8263350745
 30
0.0
 11
8854.2323827967
 21
5827.8807607546
 31
0.0
  0
LINE
  5
219
330
1F
100
AcDbEntity
  8
0
  6
Continuous
 62
     7
100
AcDbLine
 10
8854.2323827967
 20
5827.8807607546
 30
0.0
 11
8853.7287740757
 21
5830.2388639651
 31
0.0
  0
LINE
  5
21A
330
1F
100
AcDbEntity
  8
0
  6
Continuous
 62
     7
100
AcDbLine
 10
8853.7287740757
 20
5830.2388639651
 30
0.0
 11
8853.0883176012
 21
5832.8824067382
 31
0.0
  0
LINE
  5
21B
330
1F
100
AcDbEntity
  8
0
  6
Continuous
 62
     7
100
AcDbLine
 10
8853.0883176012
 20
5832.8824067382
 30
0.0
 11
8852.3159667713
 21
5835.7909434682
 31
0.0
  0
LINE
  5
21C
330
1F
100
AcDbEntity
  8
0
  6
Continuous
 62
     7
100
AcDbLine
 10
8852.3159667713
 20
5835.7909434682
 30
0.0
 11
8851.4176950777
 21
5838.9419790418
 31
0.0
  0
LINE
  5
21D
330
1F
100
AcDbEntity
  8
0
  6
Continuous
 62
     7
100
AcDbLine
 10
8851.4176950777
 20
5838.9419790418
 30
0.0
 11
8850.4004499052
 21
5842.3111428183
 31
0.0
  0
LINE
  5
21E
330
1F
100
AcDbEntity
  8
0
  6
Continuous
 62
     7
100
AcDbLine
 10
8850.4004499052
 20
5842.3111428183
 30
0.0
 11
8849.2720987993
 21
5845.8723771171
 31
0.0
  0
LINE
  5
21F
330
1F
100
AcDbEntity
  8
0
  6
Continuous
 62
     7
100
AcDbLine
 10
8849.2720987993
 20
5845.8723771171
 30
0.0
 11
8848.0413686179
 21
5849.5981387515
 31
0.0
  0
LINE
  5
220
330
1F
100
AcDbEntity
  8
0
  6
Continuous
 62
     7
100
AcDbLine
 10
8848.0413686179
 20
5849.5981387515
 30
0.0
 11
8846.7177780357
 21
5853.4596120529
 31
0.0
  0
LINE
  5
221
330
1F
100
AcDbEntity
  8
0
  6
Continuous
 62
     7
100
AcDbLine
 10
8495.3519319862
 20
5853.4596120529
 30
0.0
 11
8494.028341404
 21
5849.5981387515
 31
0.0
  0
LINE
  5
222
330
1F
100
AcDbEntity
  8
0
  6
Continuous
 62
     7
100
AcDbLine
 10
8494.028341404
 20
5849.5981387515
 30
0.0
 11
8492.7976112226
 21
5845.8723771171
 31
0.0
  0
LINE
  5
223
330
1F
100
AcDbEntity
  8
0
  6
Continuous
 62
     7
100
AcDbLine
 10
8492.7976112226
 20
5845.8723771171
 30
0.0
 11
8491.6692601167
 21
5842.3111428183
 31
0.0
  0
LINE
  5
224
330
1F
100
AcDbEntity
  8
0
  6
Continuous
 62
     7
100
AcDbLine
 10
8491.6692601167
 20
5842.3111428183
 30
0.0
 11
8490.6520149442
 21
5838.9419790418
 31
0.0
  0
LINE
  5
225
330
1F
100
AcDbEntity
  8
0
  6
Continuous
 62
     7
100
AcDbLine
 10
8490.6520149442
 20
5838.9419790418
 30
0.0
 11
8489.7537432506
 21
5835.7909434682
 31
0.0
  0
LINE
  5
226
330
1F
100
AcDbEntity
  8
0
  6
Continuous
 62
     7
100
AcDbLine
 10
8489.7537432506
 20
5835.7909434682
 30
0.0
 11
8488.9813924208
 21
5832.8824067382
 31
0.0
  0
LINE
  5
227
330
1F
100
AcDbEntity
  8
0
  6
Continuous
 62
     7
100
AcDbLine
 10
8488.9813924208
 20
5832.8824067382
 30
0.0
 11
8488.3409359462
 21
5830.2388639651
 31
0.0
  0
LINE
  5
228
330
1F
100
AcDbEntity
  8
0
  6
Continuous
 62
     7
100
AcDbLine
 10
8488.3409359462
 20
5830.2388639651
 30
0.0
 11
8487.8373272252
 21
5827.8807607546
 31
0.0
  0
LINE
  5
229
330
1F
100
AcDbEntity
  8
0
  6
Continuous
 62
     7
100
AcDbLine
 10
8487.8373272252
 20
5827.8807607546
 30
0.0
 11
8487.4744612527
 21
5825.8263350745
 31
0.0
  0
LINE
  5
22A
330
1F
100
AcDbEntity
  8
0
  6
Continuous
 62
     7
100
AcDbLine
 10
8487.4744612527
 20
5825.8263350745
 30
0.0
 11
8487.2551444952
 21
5824.0914761995
 31
0.0
  0
LINE
  5
22B
330
1F
100
AcDbEntity
  8
0
  6
Continuous
 62
     7
100
AcDbLine
 10
8487.2551444952
 20
5824.0914761995
 30
0.0
 11
8487.1810731856
 21
5822.6896018205
 31
0.0
  0
LINE
  5
22C
330
1F
100
AcDbEntity
  8
0
  6
Continuous
 62
     7
100
AcDbLine
 10
8487.1810731856
 20
5822.6896018205
 30
0.0
 11
8487.2528202037
 21
5821.6315542706
 31
0.0
  0
LINE
  5
22D
330
1F
100
AcDbEntity
  8
0
  6
Continuous
 62
     7
100
AcDbLine
 10
8487.2528202037
 20
5821.6315542706
 30
0.0
 11
8487.4698306462
 21
5820.9255166678
 31
0.0
  0
LINE
  5
22E
330
1F
100
AcDbEntity
  8
0
  6
Continuous
 62
     7
100
AcDbLine
 10
8487.4698306462
 20
5820.9255166678
 30
0.0
 11
8487.8304261176
 21
5820.5769496259
 31
0.0
  0
LINE
  5
22F
330
1F
100
AcDbEntity
  8
0
  6
Continuous
 62
     7
100
AcDbLine
 10
8885.4188087894
 20
5874.9698134641
 30
0.0
 11
8885.4403836817
 21
5873.6081843354
 31
0.0
  0
LINE
  5
230
330
1F
100
AcDbEntity
  8
0
  6
Continuous
 62
     7
100
AcDbLine
 10
8885.4403836817
 20
5873.6081843354
 30
0.0
 11
8885.0829662126
 21
5872.1969770589
 31
0.0
  0
LINE
  5
231
330
1F
100
AcDbEntity
  8
0
  6
Continuous
 62
     7
100
AcDbLine
 10
8885.0829662126
 20
5872.1969770589
 30
0.0
 11
8884.3492981503
 21
5870.7470170783
 31
0.0
  0
LINE
  5
232
330
1F
100
AcDbEntity
  8
0
  6
Continuous
 62
     7
100
AcDbLine
 10
8884.3492981503
 20
5870.7470170783
 30
0.0
 11
8883.2450075002
 21
5869.2694271114
 31
0.0
  0
LINE
  5
233
330
1F
100
AcDbEntity
  8
0
  6
Continuous
 62
     7
100
AcDbLine
 10
8883.2450075002
 20
5869.2694271114
 30
0.0
 11
8881.7785653328
 21
5867.7755418272
 31
0.0
  0
LINE
  5
234
330
1F
100
AcDbEntity
  8
0
  6
Continuous
 62
     7
100
AcDbLine
 10
8881.7785653328
 20
5867.7755418272
 30
0.0
 11
8879.9612208019
 21
5866.2768208969
 31
0.0
  0
LINE
  5
235
330
1F
100
AcDbEntity
  8
0
  6
Continuous
 62
     7
100
AcDbLine
 10
8879.9612208019
 20
5866.2768208969
 30
0.0
 11
8877.8069148511
 21
5864.784761086
 31
0.0
  0
LINE
  5
236
330
1F
100
AcDbEntity
  8
0
  6
Continuous
 62
     7
100
AcDbLine
 10
8877.8069148511
 20
5864.784761086
 30
0.0
 11
8875.3321732725
 21
5863.3108080625
 31
0.0
  0
LINE
  5
237
330
1F
100
AcDbEntity
  8
0
  6
Continuous
 62
     7
100
AcDbLine
 10
8875.3321732725
 20
5863.3108080625
 30
0.0
 11
8872.5559799367
 21
5861.8662685961
 31
0.0
  0
LINE
  5
238
330
1F
100
AcDbEntity
  8
0
  6
Continuous
 62
     7
100
AcDbLine
 10
8872.5559799367
 20
5861.8662685961
 30
0.0
 11
8869.4996311659
 21
5860.4622238236
 31
0.0
  0
LINE
  5
239
330
1F
100
AcDbEntity
  8
0
  6
Continuous
 62
     7
100
AcDbLine
 10
8869.4996311659
 20
5860.4622238236
 30
0.0
 11
8866.1865723696
 21
5859.109444245
 31
0.0
  0
LINE
  5
23A
330
1F
100
AcDbEntity
  8
0
  6
Continuous
 62
     7
100
AcDbLine
 10
8866.1865723696
 20
5859.109444245
 30
0.0
 11
8862.6422181926
 21
5857.8183071021
 31
0.0
  0
LINE
  5
23B
330
1F
100
AcDbEntity
  8
0
  6
Continuous
 62
     7
100
AcDbLine
 10
8862.6422181926
 20
5857.8183071021
 30
0.0
 11
8858.8937575589
 21
5856.5987167748
 31
0.0
  0
LINE
  5
23C
330
1F
100
AcDbEntity
  8
0
  6
Continuous
 62
     7
100
AcDbLine
 10
8858.8937575589
 20
5856.5987167748
 30
0.0
 11
8854.9699451036
 21
5855.4600288034
 31
0.0
  0
LINE
  5
23D
330
1F
100
AcDbEntity
  8
0
  6
Continuous
 62
     7
100
AcDbLine
 10
8854.9699451036
 20
5855.4600288034
 30
0.0
 11
8850.9008805945
 21
5854.4109781221
 31
0.0
  0
LINE
  5
23E
330
1F
100
AcDbEntity
  8
0
  6
Continuous
 62
     7
100
AcDbLine
 10
8850.9008805945
 20
5854.4109781221
 30
0.0
 11
8846.7177780357
 21
5853.4596120529
 31
0.0
  0
LINE
  5
23F
330
1F
100
AcDbEntity
  8
0
  6
Continuous
 62
     7
100
AcDbLine
 10
8873.5608306403
 20
5949.8094584952
 30
0.0
 11
8873.4086396929
 21
5949.5872613696
 31
0.0
  0
LINE
  5
240
330
1F
100
AcDbEntity
  8
0
  6
Continuous
 62
     7
100
AcDbLine
 10
8873.4086396929
 20
5949.5872613696
 30
0.0
 11
8872.8919602116
 21
5949.3087793204
 31
0.0
  0
LINE
  5
241
330
1F
100
AcDbEntity
  8
0
  6
Continuous
 62
     7
100
AcDbLine
 10
8872.8919602116
 20
5949.3087793204
 30
0.0
 11
8872.0146174453
 21
5948.9760740962
 31
0.0
  0
LINE
  5
242
330
1F
100
AcDbEntity
  8
0
  6
Continuous
 62
     7
100
AcDbLine
 10
8872.0146174453
 20
5948.9760740962
 30
0.0
 11
8870.7831068222
 21
5948.591608888
 31
0.0
  0
LINE
  5
243
330
1F
100
AcDbEntity
  8
0
  6
Continuous
 62
     7
100
AcDbLine
 10
8870.7831068222
 20
5948.591608888
 30
0.0
 11
8869.2065458605
 21
5948.1582300932
 31
0.0
  0
LINE
  5
244
330
1F
100
AcDbEntity
  8
0
  6
Continuous
 62
     7
100
AcDbLine
 10
8869.2065458605
 20
5948.1582300932
 30
0.0
 11
8867.2966066672
 21
5947.6791462421
 31
0.0
  0
LINE
  5
245
330
1F
100
AcDbEntity
  8
0
  6
Continuous
 62
     7
100
AcDbLine
 10
8867.2966066672
 20
5947.6791462421
 30
0.0
 11
8865.0674295227
 21
5947.1579042434
 31
0.0
  0
LINE
  5
246
330
1F
100
AcDbEntity
  8
0
  6
Continuous
 62
     7
100
AcDbLine
 10
8865.0674295227
 20
5947.1579042434
 30
0.0
 11
8862.5355181933
 21
5946.5983631248
 31
0.0
  0
LINE
  5
247
330
1F
100
AcDbEntity
  8
0
  6
Continuous
 62
     7
100
AcDbLine
 10
8862.5355181933
 20
5946.5983631248
 30
0.0
 11
8859.7196177452
 21
5946.0046654623
 31
0.0
  0
LINE
  5
248
330
1F
100
AcDbEntity
  8
0
  6
Continuous
 62
     7
100
AcDbLine
 10
8859.7196177452
 20
5946.0046654623
 30
0.0
 11
8856.6405757646
 21
5945.3812067107
 31
0.0
  0
LINE
  5
249
330
1F
100
AcDbEntity
  8
0
  6
Continuous
 62
     7
100
AcDbLine
 10
8856.6405757646
 20
5945.3812067107
 30
0.0
 11
8853.3211880126
 21
5944.7326026618
 31
0.0
  0
LINE
  5
24A
330
1F
100
AcDbEntity
  8
0
  6
Continuous
 62
     7
100
AcDbLine
 10
8853.3211880126
 20
5944.7326026618
 30
0.0
 11
8849.7860296557
 21
5944.0636552713
 31
0.0
  0
LINE
  5
24B
330
1F
100
AcDbEntity
  8
0
  6
Continuous
 62
     7
100
AcDbLine
 10
8849.7860296557
 20
5944.0636552713
 30
0.0
 11
8846.0612733235
 21
5943.3793171071
 31
0.0
  0
LINE
  5
24C
330
1F
100
AcDbEntity
  8
0
  6
Continuous
 62
     7
100
AcDbLine
 10
8846.0612733235
 20
5943.3793171071
 30
0.0
 11
8842.1744953385
 21
5942.6846546832
 31
0.0
  0
LINE
  5
24D
330
1F
100
AcDbEntity
  8
0
  6
Continuous
 62
     7
100
AcDbLine
 10
8842.1744953385
 20
5942.6846546832
 30
0.0
 11
8838.1544715545
 21
5941.9848109494
 31
0.0
  0
LINE
  5
24E
330
1F
100
AcDbEntity
  8
0
  6
Continuous
 62
     7
100
AcDbLine
 10
8495.3519319862
 20
5853.4596120529
 30
0.0
 11
8491.1688294274
 21
5854.4109781222
 31
0.0
  0
LINE
  5
24F
330
1F
100
AcDbEntity
  8
0
  6
Continuous
 62
     7
100
AcDbLine
 10
8491.1688294274
 20
5854.4109781222
 30
0.0
 11
8487.0997649183
 21
5855.4600288034
 31
0.0
  0
LINE
  5
250
330
1F
100
AcDbEntity
  8
0
  6
Continuous
 62
     7
100
AcDbLine
 10
8487.0997649183
 20
5855.4600288034
 30
0.0
 11
8483.175952463
 21
5856.5987167748
 31
0.0
  0
LINE
  5
251
330
1F
100
AcDbEntity
  8
0
  6
Continuous
 62
     7
100
AcDbLine
 10
8483.175952463
 20
5856.5987167748
 30
0.0
 11
8479.4274918293
 21
5857.8183071021
 31
0.0
  0
LINE
  5
252
330
1F
100
AcDbEntity
  8
0
  6
Continuous
 62
     7
100
AcDbLine
 10
8479.4274918293
 20
5857.8183071021
 30
0.0
 11
8475.8831376524
 21
5859.109444245
 31
0.0
  0
LINE
  5
253
330
1F
100
AcDbEntity
  8
0
  6
Continuous
 62
     7
100
AcDbLine
 10
8475.8831376524
 20
5859.109444245
 30
0.0
 11
8472.570078856
 21
5860.4622238236
 31
0.0
  0
LINE
  5
254
330
1F
100
AcDbEntity
  8
0
  6
Continuous
 62
     7
100
AcDbLine
 10
8472.570078856
 20
5860.4622238236
 30
0.0
 11
8469.5137300852
 21
5861.8662685961
 31
0.0
  0
LINE
  5
255
330
1F
100
AcDbEntity
  8
0
  6
Continuous
 62
     7
100
AcDbLine
 10
8469.5137300852
 20
5861.8662685961
 30
0.0
 11
8466.7375367494
 21
5863.3108080625
 31
0.0
  0
LINE
  5
256
330
1F
100
AcDbEntity
  8
0
  6
Continuous
 62
     7
100
AcDbLine
 10
8466.7375367494
 20
5863.3108080625
 30
0.0
 11
8464.2627951708
 21
5864.784761086
 31
0.0
  0
LINE
  5
257
330
1F
100
AcDbEntity
  8
0
  6
Continuous
 62
     7
100
AcDbLine
 10
8464.2627951708
 20
5864.784761086
 30
0.0
 11
8462.10848922
 21
5866.2768208969
 31
0.0
  0
LINE
  5
258
330
1F
100
AcDbEntity
  8
0
  6
Continuous
 62
     7
100
AcDbLine
 10
8462.10848922
 20
5866.2768208969
 30
0.0
 11
8460.2911446891
 21
5867.7755418272
 31
0.0
  0
LINE
  5
259
330
1F
100
AcDbEntity
  8
0
  6
Continuous
 62
     7
100
AcDbLine
 10
8460.2911446891
 20
5867.7755418272
 30
0.0
 11
8458.8247025217
 21
5869.2694271114
 31
0.0
  0
LINE
  5
25A
330
1F
100
AcDbEntity
  8
0
  6
Continuous
 62
     7
100
AcDbLine
 10
8458.8247025217
 20
5869.2694271114
 30
0.0
 11
8457.7204118716
 21
5870.7470170783
 31
0.0
  0
LINE
  5
25B
330
1F
100
AcDbEntity
  8
0
  6
Continuous
 62
     7
100
AcDbLine
 10
8457.7204118716
 20
5870.7470170783
 30
0.0
 11
8456.9867438093
 21
5872.1969770589
 31
0.0
  0
LINE
  5
25C
330
1F
100
AcDbEntity
  8
0
  6
Continuous
 62
     7
100
AcDbLine
 10
8456.9867438093
 20
5872.1969770589
 30
0.0
 11
8456.6293263403
 21
5873.6081843355
 31
0.0
  0
LINE
  5
25D
330
1F
100
AcDbEntity
  8
0
  6
Continuous
 62
     7
100
AcDbLine
 10
8456.6293263403
 20
5873.6081843355
 30
0.0
 11
8456.6509012326
 21
5874.9698134642
 31
0.0
  0
LINE
  5
25E
330
1F
100
AcDbEntity
  8
0
  6
Continuous
 62
     7
100
AcDbLine
 10
8503.9152384674
 20
5941.9848109494
 30
0.0
 11
8499.8952146834
 21
5942.6846546832
 31
0.0
  0
LINE
  5
25F
330
1F
100
AcDbEntity
  8
0
  6
Continuous
 62
     7
100
AcDbLine
 10
8499.8952146834
 20
5942.6846546832
 30
0.0
 11
8496.0084366984
 21
5943.3793171071
 31
0.0
  0
LINE
  5
260
330
1F
100
AcDbEntity
  8
0
  6
Continuous
 62
     7
100
AcDbLine
 10
8496.0084366984
 20
5943.3793171071
 30
0.0
 11
8492.2836803662
 21
5944.0636552713
 31
0.0
  0
LINE
  5
261
330
1F
100
AcDbEntity
  8
0
  6
Continuous
 62
     7
100
AcDbLine
 10
8492.2836803662
 20
5944.0636552713
 30
0.0
 11
8488.7485220093
 21
5944.7326026618
 31
0.0
  0
LINE
  5
262
330
1F
100
AcDbEntity
  8
0
  6
Continuous
 62
     7
100
AcDbLine
 10
8488.7485220093
 20
5944.7326026618
 30
0.0
 11
8485.4291342573
 21
5945.3812067107
 31
0.0
  0
LINE
  5
263
330
1F
100
AcDbEntity
  8
0
  6
Continuous
 62
     7
100
AcDbLine
 10
8485.4291342573
 20
5945.3812067107
 30
0.0
 11
8482.3500922767
 21
5946.0046654623
 31
0.0
  0
LINE
  5
264
330
1F
100
AcDbEntity
  8
0
  6
Continuous
 62
     7
100
AcDbLine
 10
8482.3500922767
 20
5946.0046654623
 30
0.0
 11
8479.5341918286
 21
5946.5983631248
 31
0.0
  0
LINE
  5
265
330
1F
100
AcDbEntity
  8
0
  6
Continuous
 62
     7
100
AcDbLine
 10
8479.5341918286
 20
5946.5983631248
 30
0.0
 11
8477.0022804992
 21
5947.1579042434
 31
0.0
  0
LINE
  5
266
330
1F
100
AcDbEntity
  8
0
  6
Continuous
 62
     7
100
AcDbLine
 10
8477.0022804992
 20
5947.1579042434
 30
0.0
 11
8474.7731033547
 21
5947.6791462421
 31
0.0
  0
LINE
  5
267
330
1F
100
AcDbEntity
  8
0
  6
Continuous
 62
     7
100
AcDbLine
 10
8474.7731033547
 20
5947.6791462421
 30
0.0
 11
8472.8631641614
 21
5948.1582300932
 31
0.0
  0
LINE
  5
268
330
1F
100
AcDbEntity
  8
0
  6
Continuous
 62
     7
100
AcDbLine
 10
8472.8631641614
 20
5948.1582300932
 30
0.0
 11
8471.2866031997
 21
5948.591608888
 31
0.0
  0
LINE
  5
269
330
1F
100
AcDbEntity
  8
0
  6
Continuous
 62
     7
100
AcDbLine
 10
8471.2866031997
 20
5948.591608888
 30
0.0
 11
8470.0550925766
 21
5948.9760740962
 31
0.0
  0
LINE
  5
26A
330
1F
100
AcDbEntity
  8
0
  6
Continuous
 62
     7
100
AcDbLine
 10
8470.0550925766
 20
5948.9760740962
 30
0.0
 11
8469.1777498103
 21
5949.3087793204
 31
0.0
  0
LINE
  5
26B
330
1F
100
AcDbEntity
  8
0
  6
Continuous
 62
     7
100
AcDbLine
 10
8469.1777498103
 20
5949.3087793204
 30
0.0
 11
8468.661070329
 21
5949.5872613696
 31
0.0
  0
LINE
  5
26C
330
1F
100
AcDbEntity
  8
0
  6
Continuous
 62
     7
100
AcDbLine
 10
8468.661070329
 20
5949.5872613696
 30
0.0
 11
8468.5088793816
 21
5949.8094584952
 31
0.0
  0
LINE
  5
26D
330
1F
100
AcDbEntity
  8
0
  6
Continuous
 62
     7
100
AcDbLine
 10
8838.1544715545
 20
5941.9848109494
 30
0.0
 11
8824.4852237628
 21
6021.040410309
 31
0.0
  0
LINE
  5
26E
330
1F
100
AcDbEntity
  8
0
  6
Continuous
 62
     7
100
AcDbLine
 10
8861.034855011
 20
6028.8650578548
 30
0.0
 11
8860.8737966419
 21
6028.6555538312
 31
0.0
  0
LINE
  5
26F
330
1F
100
AcDbEntity
  8
0
  6
Continuous
 62
     7
100
AcDbLine
 10
8860.8737966419
 20
6028.6555538312
 30
0.0
 11
8860.3349823129
 21
6028.3876081855
 31
0.0
  0
LINE
  5
270
330
1F
100
AcDbEntity
  8
0
  6
Continuous
 62
     7
100
AcDbLine
 10
8860.3349823129
 20
6028.3876081855
 30
0.0
 11
8859.4225470981
 21
6028.0632772385
 31
0.0
  0
LINE
  5
271
330
1F
100
AcDbEntity
  8
0
  6
Continuous
 62
     7
100
AcDbLine
 10
8859.4225470981
 20
6028.0632772385
 30
0.0
 11
8858.143493386
 21
6027.6850500342
 31
0.0
  0
LINE
  5
272
330
1F
100
AcDbEntity
  8
0
  6
Continuous
 62
     7
100
AcDbLine
 10
8858.143493386
 20
6027.6850500342
 30
0.0
 11
8856.5076371406
 21
6027.2558292376
 31
0.0
  0
LINE
  5
273
330
1F
100
AcDbEntity
  8
0
  6
Continuous
 62
     7
100
AcDbLine
 10
8856.5076371406
 20
6027.2558292376
 30
0.0
 11
8854.5275325694
 21
6026.7789088588
 31
0.0
  0
LINE
  5
274
330
1F
100
AcDbEntity
  8
0
  6
Continuous
 62
     7
100
AcDbLine
 10
8854.5275325694
 20
6026.7789088588
 30
0.0
 11
8852.2183757777
 21
6026.2579489734
 31
0.0
  0
LINE
  5
275
330
1F
100
AcDbEntity
  8
0
  6
Continuous
 62
     7
100
AcDbLine
 10
8852.2183757777
 20
6026.2579489734
 30
0.0
 11
8849.5978881478
 21
6025.6969476336
 31
0.0
  0
LINE
  5
276
330
1F
100
AcDbEntity
  8
0
  6
Continuous
 62
     7
100
AcDbLine
 10
8849.5978881478
 20
6025.6969476336
 30
0.0
 11
8846.6861803376
 21
6025.1002101853
 31
0.0
  0
LINE
  5
277
330
1F
100
AcDbEntity
  8
0
  6
Continuous
 62
     7
100
AcDbLine
 10
8846.6861803376
 20
6025.1002101853
 30
0.0
 11
8843.5055979442
 21
6024.4723162276
 31
0.0
  0
LINE
  5
278
330
1F
100
AcDbEntity
  8
0
  6
Continuous
 62
     7
100
AcDbLine
 10
8843.5055979442
 20
6024.4723162276
 30
0.0
 11
8840.0805500142
 21
6023.8180844672
 31
0.0
  0
LINE
  5
279
330
1F
100
AcDbEntity
  8
0
  6
Continuous
 62
     7
100
AcDbLine
 10
8840.0805500142
 20
6023.8180844672
 30
0.0
 11
8836.4373217196
 21
6023.142535737
 31
0.0
  0
LINE
  5
27A
330
1F
100
AcDbEntity
  8
0
  6
Continuous
 62
     7
100
AcDbLine
 10
8836.4373217196
 20
6023.142535737
 30
0.0
 11
8832.6038726347
 21
6022.4508544653
 31
0.0
  0
LINE
  5
27B
330
1F
100
AcDbEntity
  8
0
  6
Continuous
 62
     7
100
AcDbLine
 10
8832.6038726347
 20
6022.4508544653
 30
0.0
 11
8828.6096221633
 21
6021.7483488874
 31
0.0
  0
LINE
  5
27C
330
1F
100
AcDbEntity
  8
0
  6
Continuous
 62
     7
100
AcDbLine
 10
8828.6096221633
 20
6021.7483488874
 30
0.0
 11
8824.4852237628
 21
6021.040410309
 31
0.0
  0
LINE
  5
27D
330
1F
100
AcDbEntity
  8
0
  6
Continuous
 62
     7
100
AcDbLine
 10
8517.5844862591
 20
6021.040410309
 30
0.0
 11
8503.9152384674
 21
5941.9848109494
 31
0.0
  0
LINE
  5
27E
330
1F
100
AcDbEntity
  8
0
  6
Continuous
 62
     7
100
AcDbLine
 10
8517.5844862591
 20
6021.040410309
 30
0.0
 11
8513.4600878586
 21
6021.7483488874
 31
0.0
  0
LINE
  5
27F
330
1F
100
AcDbEntity
  8
0
  6
Continuous
 62
     7
100
AcDbLine
 10
8513.4600878586
 20
6021.7483488874
 30
0.0
 11
8509.4658373872
 21
6022.4508544653
 31
0.0
  0
LINE
  5
280
330
1F
100
AcDbEntity
  8
0
  6
Continuous
 62
     7
100
AcDbLine
 10
8509.4658373872
 20
6022.4508544653
 30
0.0
 11
8505.6323883023
 21
6023.142535737
 31
0.0
  0
LINE
  5
281
330
1F
100
AcDbEntity
  8
0
  6
Continuous
 62
     7
100
AcDbLine
 10
8505.6323883023
 20
6023.142535737
 30
0.0
 11
8501.9891600077
 21
6023.8180844672
 31
0.0
  0
LINE
  5
282
330
1F
100
AcDbEntity
  8
0
  6
Continuous
 62
     7
100
AcDbLine
 10
8501.9891600077
 20
6023.8180844672
 30
0.0
 11
8498.5641120777
 21
6024.4723162276
 31
0.0
  0
LINE
  5
283
330
1F
100
AcDbEntity
  8
0
  6
Continuous
 62
     7
100
AcDbLine
 10
8498.5641120777
 20
6024.4723162276
 30
0.0
 11
8495.3835296843
 21
6025.1002101853
 31
0.0
  0
LINE
  5
284
330
1F
100
AcDbEntity
  8
0
  6
Continuous
 62
     7
100
AcDbLine
 10
8495.3835296843
 20
6025.1002101853
 30
0.0
 11
8492.4718218741
 21
6025.6969476336
 31
0.0
  0
LINE
  5
285
330
1F
100
AcDbEntity
  8
0
  6
Continuous
 62
     7
100
AcDbLine
 10
8492.4718218741
 20
6025.6969476336
 30
0.0
 11
8489.8513342442
 21
6026.2579489734
 31
0.0
  0
LINE
  5
286
330
1F
100
AcDbEntity
  8
0
  6
Continuous
 62
     7
100
AcDbLine
 10
8489.8513342442
 20
6026.2579489734
 30
0.0
 11
8487.5421774525
 21
6026.7789088588
 31
0.0
  0
LINE
  5
287
330
1F
100
AcDbEntity
  8
0
  6
Continuous
 62
     7
100
AcDbLine
 10
8487.5421774525
 20
6026.7789088588
 30
0.0
 11
8485.5620728813
 21
6027.2558292376
 31
0.0
  0
LINE
  5
288
330
1F
100
AcDbEntity
  8
0
  6
Continuous
 62
     7
100
AcDbLine
 10
8485.5620728813
 20
6027.2558292376
 30
0.0
 11
8483.9262166359
 21
6027.6850500342
 31
0.0
  0
LINE
  5
289
330
1F
100
AcDbEntity
  8
0
  6
Continuous
 62
     7
100
AcDbLine
 10
8483.9262166359
 20
6027.6850500342
 30
0.0
 11
8482.6471629238
 21
6028.0632772385
 31
0.0
  0
LINE
  5
28A
330
1F
100
AcDbEntity
  8
0
  6
Continuous
 62
     7
100
AcDbLine
 10
8482.6471629238
 20
6028.0632772385
 30
0.0
 11
8481.734727709
 21
6028.3876081855
 31
0.0
  0
LINE
  5
28B
330
1F
100
AcDbEntity
  8
0
  6
Continuous
 62
     7
100
AcDbLine
 10
8481.734727709
 20
6028.3876081855
 30
0.0
 11
8481.19591338
 21
6028.6555538312
 31
0.0
  0
LINE
  5
28C
330
1F
100
AcDbEntity
  8
0
  6
Continuous
 62
     7
100
AcDbLine
 10
8481.19591338
 20
6028.6555538312
 30
0.0
 11
8481.034855011
 21
6028.8650578548
 31
0.0
  0
LINE
  5
28D
330
1F
100
AcDbEntity
  8
0
  6
Continuous
 62
     7
100
AcDbLine
 10
8654.7723523267
 20
5963.9895259264
 30
0.0
 11
8654.7710961342
 21
5963.9901547506
 31
0.0
  0
LINE
  5
28E
330
1F
100
AcDbEntity
  8
0
  6
Continuous
 62
     7
100
AcDbLine
 10
8687.2986139028
 20
5963.9901547208
 30
0.0
 11
8687.2973567705
 21
5963.9895254625
 31
0.0
  0
LINE
  5
28F
330
1F
100
AcDbEntity
  8
0
  6
Continuous
 62
     7
100
AcDbLine
 10
8811.6509012326
 20
6071.040410309
 30
0.0
 11
8812.7694861454
 21
6070.8501452136
 31
0.0
  0
LINE
  5
290
330
1F
100
AcDbEntity
  8
0
  6
Continuous
 62
     7
100
AcDbLine
 10
8812.7694861454
 20
6070.8501452136
 30
0.0
 11
8813.8795579515
 21
6070.2807979596
 31
0.0
  0
LINE
  5
291
330
1F
100
AcDbEntity
  8
0
  6
Continuous
 62
     7
100
AcDbLine
 10
8813.8795579515
 20
6070.2807979596
 30
0.0
 11
8814.9726683344
 21
6069.3367016235
 31
0.0
  0
LINE
  5
292
330
1F
100
AcDbEntity
  8
0
  6
Continuous
 62
     7
100
AcDbLine
 10
8814.9726683344
 20
6069.3367016235
 30
0.0
 11
8816.0404980638
 21
6068.0250413483
 31
0.0
  0
LINE
  5
293
330
1F
100
AcDbEntity
  8
0
  6
Continuous
 62
     7
100
AcDbLine
 10
8816.0404980638
 20
6068.0250413483
 30
0.0
 11
8817.0749203109
 21
6066.3557996609
 31
0.0
  0
LINE
  5
294
330
1F
100
AcDbEntity
  8
0
  6
Continuous
 62
     7
100
AcDbLine
 10
8817.0749203109
 20
6066.3557996609
 30
0.0
 11
8818.0680624977
 21
6064.3416804982
 31
0.0
  0
LINE
  5
295
330
1F
100
AcDbEntity
  8
0
  6
Continuous
 62
     7
100
AcDbLine
 10
8818.0680624977
 20
6064.3416804982
 30
0.0
 11
8819.0123662124
 21
6061.9980125235
 31
0.0
  0
LINE
  5
296
330
1F
100
AcDbEntity
  8
0
  6
Continuous
 62
     7
100
AcDbLine
 10
8819.0123662124
 20
6061.9980125235
 30
0.0
 11
8819.9006447337
 21
6059.342632465
 31
0.0
  0
LINE
  5
297
330
1F
100
AcDbEntity
  8
0
  6
Continuous
 62
     7
100
AcDbLine
 10
8819.9006447337
 20
6059.342632465
 30
0.0
 11
8820.7261377256
 21
6056.3957493684
 31
0.0
  0
LINE
  5
298
330
1F
100
AcDbEntity
  8
0
  6
Continuous
 62
     7
100
AcDbLine
 10
8820.7261377256
 20
6056.3957493684
 30
0.0
 11
8821.482562688
 21
6053.1797907934
 31
0.0
  0
LINE
  5
299
330
1F
100
AcDbEntity
  8
0
  6
Continuous
 62
     7
100
AcDbLine
 10
8821.482562688
 20
6053.1797907934
 30
0.0
 11
8822.1641627703
 21
6049.7192321266
 31
0.0
  0
LINE
  5
29A
330
1F
100
AcDbEntity
  8
0
  6
Continuous
 62
     7
100
AcDbLine
 10
8822.1641627703
 20
6049.7192321266
 30
0.0
 11
8822.7657505841
 21
6046.040410309
 31
0.0
  0
LINE
  5
29B
330
1F
100
AcDbEntity
  8
0
  6
Continuous
 62
     7
100
AcDbLine
 10
8822.7657505841
 20
6046.040410309
 30
0.0
 11
8823.282747683
 21
6042.1713233961
 31
0.0
  0
LINE
  5
29C
330
1F
100
AcDbEntity
  8
0
  6
Continuous
 62
     7
100
AcDbLine
 10
8823.282747683
 20
6042.1713233961
 30
0.0
 11
8823.711219407
 21
6038.1414174753
 31
0.0
  0
LINE
  5
29D
330
1F
100
AcDbEntity
  8
0
  6
Continuous
 62
     7
100
AcDbLine
 10
8823.711219407
 20
6038.1414174753
 30
0.0
 11
8824.0479048274
 21
6033.9813625642
 31
0.0
  0
LINE
  5
29E
330
1F
100
AcDbEntity
  8
0
  6
Continuous
 62
     7
100
AcDbLine
 10
8824.0479048274
 20
6033.9813625642
 30
0.0
 11
8824.290241565
 21
6029.7228191924
 31
0.0
  0
LINE
  5
29F
330
1F
100
AcDbEntity
  8
0
  6
Continuous
 62
     7
100
AcDbLine
 10
8824.290241565
 20
6029.7228191924
 30
0.0
 11
8824.4363852908
 21
6025.3981974464
 31
0.0
  0
LINE
  5
2A0
330
1F
100
AcDbEntity
  8
0
  6
Continuous
 62
     7
100
AcDbLine
 10
8824.4363852908
 20
6025.3981974464
 30
0.0
 11
8824.4852237628
 21
6021.040410309
 31
0.0
  0
LINE
  5
2A1
330
1F
100
AcDbEntity
  8
0
  6
Continuous
 62
     7
100
AcDbLine
 10
8517.5844862591
 20
6021.040410309
 30
0.0
 11
8517.6333247311
 21
6025.3981974464
 31
0.0
  0
LINE
  5
2A2
330
1F
100
AcDbEntity
  8
0
  6
Continuous
 62
     7
100
AcDbLine
 10
8517.6333247311
 20
6025.3981974464
 30
0.0
 11
8517.7794684569
 21
6029.7228191924
 31
0.0
  0
LINE
  5
2A3
330
1F
100
AcDbEntity
  8
0
  6
Continuous
 62
     7
100
AcDbLine
 10
8517.7794684569
 20
6029.7228191924
 30
0.0
 11
8518.0218051945
 21
6033.9813625642
 31
0.0
  0
LINE
  5
2A4
330
1F
100
AcDbEntity
  8
0
  6
Continuous
 62
     7
100
AcDbLine
 10
8518.0218051945
 20
6033.9813625642
 30
0.0
 11
8518.3584906149
 21
6038.1414174753
 31
0.0
  0
LINE
  5
2A5
330
1F
100
AcDbEntity
  8
0
  6
Continuous
 62
     7
100
AcDbLine
 10
8518.3584906149
 20
6038.1414174753
 30
0.0
 11
8518.7869623389
 21
6042.1713233961
 31
0.0
  0
LINE
  5
2A6
330
1F
100
AcDbEntity
  8
0
  6
Continuous
 62
     7
100
AcDbLine
 10
8518.7869623389
 20
6042.1713233961
 30
0.0
 11
8519.3039594378
 21
6046.040410309
 31
0.0
  0
LINE
  5
2A7
330
1F
100
AcDbEntity
  8
0
  6
Continuous
 62
     7
100
AcDbLine
 10
8519.3039594378
 20
6046.040410309
 30
0.0
 11
8519.9055472516
 21
6049.7192321266
 31
0.0
  0
LINE
  5
2A8
330
1F
100
AcDbEntity
  8
0
  6
Continuous
 62
     7
100
AcDbLine
 10
8519.9055472516
 20
6049.7192321266
 30
0.0
 11
8520.5871473339
 21
6053.1797907934
 31
0.0
  0
LINE
  5
2A9
330
1F
100
AcDbEntity
  8
0
  6
Continuous
 62
     7
100
AcDbLine
 10
8520.5871473339
 20
6053.1797907934
 30
0.0
 11
8521.3435722963
 21
6056.3957493684
 31
0.0
  0
LINE
  5
2AA
330
1F
100
AcDbEntity
  8
0
  6
Continuous
 62
     7
100
AcDbLine
 10
8521.3435722963
 20
6056.3957493684
 30
0.0
 11
8522.1690652882
 21
6059.342632465
 31
0.0
  0
LINE
  5
2AB
330
1F
100
AcDbEntity
  8
0
  6
Continuous
 62
     7
100
AcDbLine
 10
8522.1690652882
 20
6059.342632465
 30
0.0
 11
8523.0573438095
 21
6061.9980125235
 31
0.0
  0
LINE
  5
2AC
330
1F
100
AcDbEntity
  8
0
  6
Continuous
 62
     7
100
AcDbLine
 10
8523.0573438095
 20
6061.9980125235
 30
0.0
 11
8524.0016475242
 21
6064.3416804982
 31
0.0
  0
LINE
  5
2AD
330
1F
100
AcDbEntity
  8
0
  6
Continuous
 62
     7
100
AcDbLine
 10
8524.0016475242
 20
6064.3416804982
 30
0.0
 11
8524.994789711
 21
6066.3557996609
 31
0.0
  0
LINE
  5
2AE
330
1F
100
AcDbEntity
  8
0
  6
Continuous
 62
     7
100
AcDbLine
 10
8524.994789711
 20
6066.3557996609
 30
0.0
 11
8526.0292119581
 21
6068.0250413483
 31
0.0
  0
LINE
  5
2AF
330
1F
100
AcDbEntity
  8
0
  6
Continuous
 62
     7
100
AcDbLine
 10
8526.0292119581
 20
6068.0250413483
 30
0.0
 11
8527.0970416875
 21
6069.3367016235
 31
0.0
  0
LINE
  5
2B0
330
1F
100
AcDbEntity
  8
0
  6
Continuous
 62
     7
100
AcDbLine
 10
8527.0970416875
 20
6069.3367016235
 30
0.0
 11
8528.1901520704
 21
6070.2807979596
 31
0.0
  0
LINE
  5
2B1
330
1F
100
AcDbEntity
  8
0
  6
Continuous
 62
     7
100
AcDbLine
 10
8528.1901520704
 20
6070.2807979596
 30
0.0
 11
8529.3002238765
 21
6070.8501452136
 31
0.0
  0
LINE
  5
2B2
330
1F
100
AcDbEntity
  8
0
  6
Continuous
 62
     7
100
AcDbLine
 10
8529.3002238765
 20
6070.8501452136
 30
0.0
 11
8530.4188087893
 21
6071.040410309
 31
0.0
  0
LINE
  5
2B3
330
1F
100
AcDbEntity
  8
0
  6
Continuous
 62
     7
100
AcDbLine
 10
8594.8724056695
 20
6021.040410309
 30
0.0
 11
8517.5844862591
 21
6021.040410309
 31
0.0
  0
LINE
  5
2B4
330
1F
100
AcDbEntity
  8
0
  6
Continuous
 62
     7
100
AcDbLine
 10
8594.8724056695
 20
6021.040410309
 30
0.0
 11
8594.8966458045
 21
6025.3981974464
 31
0.0
  0
LINE
  5
2B5
330
1F
100
AcDbEntity
  8
0
  6
Continuous
 62
     7
100
AcDbLine
 10
8594.8966458045
 20
6025.3981974464
 30
0.0
 11
8594.9691817273
 21
6029.7228191924
 31
0.0
  0
LINE
  5
2B6
330
1F
100
AcDbEntity
  8
0
  6
Continuous
 62
     7
100
AcDbLine
 10
8594.9691817273
 20
6029.7228191924
 30
0.0
 11
8595.0894613959
 21
6033.9813625641
 31
0.0
  0
LINE
  5
2B7
330
1F
100
AcDbEntity
  8
0
  6
Continuous
 62
     7
100
AcDbLine
 10
8595.0894613959
 20
6033.9813625641
 30
0.0
 11
8595.2565694093
 21
6038.1414174753
 31
0.0
  0
LINE
  5
2B8
330
1F
100
AcDbEntity
  8
0
  6
Continuous
 62
     7
100
AcDbLine
 10
8595.2565694093
 20
6038.1414174753
 30
0.0
 11
8595.4692339747
 21
6042.1713233961
 31
0.0
  0
LINE
  5
2B9
330
1F
100
AcDbEntity
  8
0
  6
Continuous
 62
     7
100
AcDbLine
 10
8595.4692339747
 20
6042.1713233961
 30
0.0
 11
8595.7258365862
 21
6046.040410309
 31
0.0
  0
LINE
  5
2BA
330
1F
100
AcDbEntity
  8
0
  6
Continuous
 62
     7
100
AcDbLine
 10
8595.7258365862
 20
6046.040410309
 30
0.0
 11
8596.024424343
 21
6049.7192321266
 31
0.0
  0
LINE
  5
2BB
330
1F
100
AcDbEntity
  8
0
  6
Continuous
 62
     7
100
AcDbLine
 10
8596.024424343
 20
6049.7192321266
 30
0.0
 11
8596.3627248121
 21
6053.1797907934
 31
0.0
  0
LINE
  5
2BC
330
1F
100
AcDbEntity
  8
0
  6
Continuous
 62
     7
100
AcDbLine
 10
8596.3627248121
 20
6053.1797907934
 30
0.0
 11
8596.7381633226
 21
6056.3957493684
 31
0.0
  0
LINE
  5
2BD
330
1F
100
AcDbEntity
  8
0
  6
Continuous
 62
     7
100
AcDbLine
 10
8596.7381633226
 20
6056.3957493684
 30
0.0
 11
8597.1478825608
 21
6059.342632465
 31
0.0
  0
LINE
  5
2BE
330
1F
100
AcDbEntity
  8
0
  6
Continuous
 62
     7
100
AcDbLine
 10
8597.1478825608
 20
6059.342632465
 30
0.0
 11
8597.5887643158
 21
6061.9980125235
 31
0.0
  0
LINE
  5
2BF
330
1F
100
AcDbEntity
  8
0
  6
Continuous
 62
     7
100
AcDbLine
 10
8597.5887643158
 20
6061.9980125235
 30
0.0
 11
8598.0574532112
 21
6064.3416804982
 31
0.0
  0
LINE
  5
2C0
330
1F
100
AcDbEntity
  8
0
  6
Continuous
 62
     7
100
AcDbLine
 10
8598.0574532112
 20
6064.3416804982
 30
0.0
 11
8598.5503822417
 21
6066.3557996609
 31
0.0
  0
LINE
  5
2C1
330
1F
100
AcDbEntity
  8
0
  6
Continuous
 62
     7
100
AcDbLine
 10
8598.5503822417
 20
6066.3557996609
 30
0.0
 11
8599.0637999195
 21
6068.0250413483
 31
0.0
  0
LINE
  5
2C2
330
1F
100
AcDbEntity
  8
0
  6
Continuous
 62
     7
100
AcDbLine
 10
8599.0637999195
 20
6068.0250413483
 30
0.0
 11
8599.5937988262
 21
6069.3367016235
 31
0.0
  0
LINE
  5
2C3
330
1F
100
AcDbEntity
  8
0
  6
Continuous
 62
     7
100
AcDbLine
 10
8599.5937988262
 20
6069.3367016235
 30
0.0
 11
8600.1363453501
 21
6070.2807979596
 31
0.0
  0
LINE
  5
2C4
330
1F
100
AcDbEntity
  8
0
  6
Continuous
 62
     7
100
AcDbLine
 10
8600.1363453501
 20
6070.2807979596
 30
0.0
 11
8600.6873103846
 21
6070.8501452136
 31
0.0
  0
LINE
  5
2C5
330
1F
100
AcDbEntity
  8
0
  6
Continuous
 62
     7
100
AcDbLine
 10
8600.6873103846
 20
6070.8501452136
 30
0.0
 11
8601.242500753
 21
6071.040410309
 31
0.0
  0
LINE
  5
2C6
330
1F
100
AcDbEntity
  8
0
  6
Continuous
 62
     7
100
AcDbLine
 10
8824.4852237628
 20
6021.040410309
 30
0.0
 11
8747.1973043524
 21
6021.040410309
 31
0.0
  0
LINE
  5
2C7
330
1F
100
AcDbEntity
  8
0
  6
Continuous
 62
     7
100
AcDbLine
 10
8740.8272092689
 20
6071.040410309
 30
0.0
 11
8741.3823996373
 21
6070.8501452136
 31
0.0
  0
LINE
  5
2C8
330
1F
100
AcDbEntity
  8
0
  6
Continuous
 62
     7
100
AcDbLine
 10
8741.3823996373
 20
6070.8501452136
 30
0.0
 11
8741.9333646718
 21
6070.2807979596
 31
0.0
  0
LINE
  5
2C9
330
1F
100
AcDbEntity
  8
0
  6
Continuous
 62
     7
100
AcDbLine
 10
8741.9333646718
 20
6070.2807979596
 30
0.0
 11
8742.4759111957
 21
6069.3367016235
 31
0.0
  0
LINE
  5
2CA
330
1F
100
AcDbEntity
  8
0
  6
Continuous
 62
     7
100
AcDbLine
 10
8742.4759111957
 20
6069.3367016235
 30
0.0
 11
8743.0059101024
 21
6068.0250413483
 31
0.0
  0
LINE
  5
2CB
330
1F
100
AcDbEntity
  8
0
  6
Continuous
 62
     7
100
AcDbLine
 10
8743.0059101024
 20
6068.0250413483
 30
0.0
 11
8743.5193277802
 21
6066.3557996609
 31
0.0
  0
LINE
  5
2CC
330
1F
100
AcDbEntity
  8
0
  6
Continuous
 62
     7
100
AcDbLine
 10
8743.5193277802
 20
6066.3557996609
 30
0.0
 11
8744.0122568107
 21
6064.3416804982
 31
0.0
  0
LINE
  5
2CD
330
1F
100
AcDbEntity
  8
0
  6
Continuous
 62
     7
100
AcDbLine
 10
8744.0122568107
 20
6064.3416804982
 30
0.0
 11
8744.4809457061
 21
6061.9980125235
 31
0.0
  0
LINE
  5
2CE
330
1F
100
AcDbEntity
  8
0
  6
Continuous
 62
     7
100
AcDbLine
 10
8744.4809457061
 20
6061.9980125235
 30
0.0
 11
8744.9218274611
 21
6059.342632465
 31
0.0
  0
LINE
  5
2CF
330
1F
100
AcDbEntity
  8
0
  6
Continuous
 62
     7
100
AcDbLine
 10
8744.9218274611
 20
6059.342632465
 30
0.0
 11
8745.3315466993
 21
6056.3957493684
 31
0.0
  0
LINE
  5
2D0
330
1F
100
AcDbEntity
  8
0
  6
Continuous
 62
     7
100
AcDbLine
 10
8745.3315466993
 20
6056.3957493684
 30
0.0
 11
8745.7069852098
 21
6053.1797907934
 31
0.0
  0
LINE
  5
2D1
330
1F
100
AcDbEntity
  8
0
  6
Continuous
 62
     7
100
AcDbLine
 10
8745.7069852098
 20
6053.1797907934
 30
0.0
 11
8746.0452856789
 21
6049.7192321266
 31
0.0
  0
LINE
  5
2D2
330
1F
100
AcDbEntity
  8
0
  6
Continuous
 62
     7
100
AcDbLine
 10
8746.0452856789
 20
6049.7192321266
 30
0.0
 11
8746.3438734357
 21
6046.040410309
 31
0.0
  0
LINE
  5
2D3
330
1F
100
AcDbEntity
  8
0
  6
Continuous
 62
     7
100
AcDbLine
 10
8746.3438734357
 20
6046.040410309
 30
0.0
 11
8746.6004760472
 21
6042.1713233961
 31
0.0
  0
LINE
  5
2D4
330
1F
100
AcDbEntity
  8
0
  6
Continuous
 62
     7
100
AcDbLine
 10
8746.6004760472
 20
6042.1713233961
 30
0.0
 11
8746.8131406126
 21
6038.1414174753
 31
0.0
  0
LINE
  5
2D5
330
1F
100
AcDbEntity
  8
0
  6
Continuous
 62
     7
100
AcDbLine
 10
8746.8131406126
 20
6038.1414174753
 30
0.0
 11
8746.980248626
 21
6033.9813625641
 31
0.0
  0
LINE
  5
2D6
330
1F
100
AcDbEntity
  8
0
  6
Continuous
 62
     7
100
AcDbLine
 10
8746.980248626
 20
6033.9813625641
 30
0.0
 11
8747.1005282946
 21
6029.7228191924
 31
0.0
  0
LINE
  5
2D7
330
1F
100
AcDbEntity
  8
0
  6
Continuous
 62
     7
100
AcDbLine
 10
8747.1005282946
 20
6029.7228191924
 30
0.0
 11
8747.1730642174
 21
6025.3981974464
 31
0.0
  0
LINE
  5
2D8
330
1F
100
AcDbEntity
  8
0
  6
Continuous
 62
     7
100
AcDbLine
 10
8747.1730642174
 20
6025.3981974464
 30
0.0
 11
8747.1973043524
 21
6021.040410309
 31
0.0
  0
LINE
  5
2D9
330
1F
100
AcDbEntity
  8
0
  6
Continuous
 62
     7
100
AcDbLine
 10
8685.5942828392
 20
6028.2892772596
 30
0.0
 11
8685.5942828392
 21
6071.040410309
 31
0.0
  0
LINE
  5
2DA
330
1F
100
AcDbEntity
  8
0
  6
Continuous
 62
     7
100
AcDbLine
 10
8656.4754271827
 20
6028.2892772596
 30
0.0
 11
8656.4754271827
 21
6071.040410309
 31
0.0
  0
LINE
  5
2DB
330
1F
100
AcDbEntity
  8
0
  6
Continuous
 62
     7
100
AcDbLine
 10
8636.8476233546
 20
6007.2943438445
 30
0.0
 11
8636.8477931722
 21
6007.2948641267
 31
0.0
  0
LINE
  5
2DC
330
1F
100
AcDbEntity
  8
0
  6
Continuous
 62
     7
100
AcDbLine
 10
8636.8477931271
 20
5984.7859564765
 30
0.0
 11
8636.8476007702
 21
5984.7865459887
 31
0.0
  0
LINE
  5
2DD
330
1F
100
AcDbEntity
  8
0
  6
Continuous
 62
     7
100
AcDbLine
 10
8705.2220866673
 20
5984.7864767736
 30
0.0
 11
8705.2219168824
 21
5984.7859564806
 31
0.0
  0
LINE
  5
2DE
330
1F
100
AcDbEntity
  8
0
  6
Continuous
 62
     7
100
AcDbLine
 10
8705.2219168901
 20
6007.29486414
 30
0.0
 11
8705.2221092525
 21
6007.2942746296
 31
0.0
  0
LINE
  5
2DF
330
1F
100
AcDbEntity
  8
0
  6
Continuous
 62
     7
100
AcDbLine
 10
8655.090830886
 20
5964.5983832986
 30
0.0
 11
8655.0920127373
 21
5964.5977902808
 31
0.0
  0
LINE
  5
2E0
330
1F
100
AcDbEntity
  8
0
  6
Continuous
 62
     7
100
AcDbLine
 10
8637.5107314032
 20
5985.0095840035
 30
0.0
 11
8637.5108932857
 21
5985.0090886755
 31
0.0
  0
LINE
  5
2E1
330
1F
100
AcDbEntity
  8
0
  6
Continuous
 62
     7
100
AcDbLine
 10
8704.5588222599
 20
5985.0091055986
 30
0.0
 11
8704.5589786141
 21
5985.0095840051
 31
0.0
  0
LINE
  5
2E2
330
1F
100
AcDbEntity
  8
0
  6
Continuous
 62
     7
100
AcDbLine
 10
8686.9776972972
 20
5964.5977902582
 30
0.0
 11
8686.978894839
 21
5964.5983911549
 31
0.0
  0
LINE
  5
2E3
330
1F
100
AcDbEntity
  8
0
  6
Continuous
 62
     7
100
AcDbLine
 10
8704.5589786208
 20
6007.0712366153
 30
0.0
 11
8704.5588187815
 21
6007.071725676
 31
0.0
  0
LINE
  5
2E4
330
1F
100
AcDbEntity
  8
0
  6
Continuous
 62
     7
100
AcDbLine
 10
8637.5108720431
 20
6007.0716668733
 30
0.0
 11
8637.5107314079
 21
6007.0712366129
 31
0.0
  0
LINE
  5
2E5
330
1F
100
AcDbEntity
  8
0
  6
Continuous
 62
     7
100
AcDbLine
 10
8921.034855011
 20
5753.040410309
 30
0.0
 11
8921.034855011
 21
5388.040410309
 31
0.0
  0
LINE
  5
2E6
330
1F
100
AcDbEntity
  8
0
  6
Continuous
 62
     7
100
AcDbLine
 10
8921.034855011
 20
5388.040410309
 30
0.0
 11
8919.034855011
 21
5388.040410309
 31
0.0
  0
LINE
  5
2E7
330
1F
100
AcDbEntity
  8
0
  6
Continuous
 62
     7
100
AcDbLine
 10
8423.034855011
 20
5388.040410309
 30
0.0
 11
8919.034855011
 21
5388.040410309
 31
0.0
  0
LINE
  5
2E8
330
1F
100
AcDbEntity
  8
0
  6
Continuous
 62
     7
100
AcDbLine
 10
8811.034855011
 20
5388.9693424972
 30
0.0
 11
8531.034855011
 21
5388.9693424972
 31
0.0
  0
LINE
  5
2E9
330
1F
100
AcDbEntity
  8
0
  6
Continuous
 62
     7
100
AcDbLine
 10
8421.034855011
 20
5388.040410309
 30
0.0
 11
8421.034855011
 21
5753.040410309
 31
0.0
  0
LINE
  5
2EA
330
1F
100
AcDbEntity
  8
0
  6
Continuous
 62
     7
100
AcDbLine
 10
8421.034855011
 20
5388.040410309
 30
0.0
 11
8423.034855011
 21
5388.040410309
 31
0.0
  0
LINE
  5
2EB
330
1F
100
AcDbEntity
  8
0
  6
Continuous
 62
     7
100
AcDbLine
 10
8894.5703889169
 20
5476.040410309
 30
0.0
 11
8898.1059228228
 21
5476.040410309
 31
0.0
  0
LINE
  5
2EC
330
1F
100
AcDbEntity
  8
0
  6
Continuous
 62
     7
100
AcDbLine
 10
8443.9637871991
 20
5476.040410309
 30
0.0
 11
8447.499321105
 21
5476.040410309
 31
0.0
  0
LINE
  5
2ED
330
1F
100
AcDbEntity
  8
0
  6
Continuous
 62
     7
100
AcDbLine
 10
8811.034855011
 20
5392.5048764031
 30
0.0
 11
8811.034855011
 21
5388.9693424972
 31
0.0
  0
LINE
  5
2EE
330
1F
100
AcDbEntity
  8
0
  6
Continuous
 62
     7
100
AcDbLine
 10
8531.034855011
 20
5388.9693424972
 30
0.0
 11
8531.034855011
 21
5392.5048764031
 31
0.0
  0
LINE
  5
2EF
330
1F
100
AcDbEntity
  8
0
  6
Continuous
 62
     7
100
AcDbLine
 10
8531.034855011
 20
5392.5048764031
 30
0.0
 11
8811.034855011
 21
5392.5048764031
 31
0.0
  0
LINE
  5
2F0
330
1F
100
AcDbEntity
  8
0
  6
Continuous
 62
     7
100
AcDbLine
 10
8919.034855011
 20
5386.040410309
 30
0.0
 11
8919.034855011
 21
5388.040410309
 31
0.0
  0
LINE
  5
2F1
330
1F
100
AcDbEntity
  8
0
  6
Continuous
 62
     7
100
AcDbLine
 10
8919.034855011
 20
5386.040410309
 30
0.0
 11
8423.034855011
 21
5386.040410309
 31
0.0
  0
LINE
  5
2F2
330
1F
100
AcDbEntity
  8
0
  6
Continuous
 62
     7
100
AcDbLine
 10
8423.034855011
 20
5386.040410309
 30
0.0
 11
8423.034855011
 21
5388.040410309
 31
0.0
  0
LINE
  5
2F3
330
1F
100
AcDbEntity
  8
0
  6
Continuous
 62
     7
100
AcDbLine
 10
8894.5703889169
 20
5476.040410309
 30
0.0
 11
8892.2064278862
 21
5476.040410309
 31
0.0
  0
LINE
  5
2F4
330
1F
100
AcDbEntity
  8
0
  6
Continuous
 62
     7
100
AcDbLine
 10
8449.8632821357
 20
5476.040410309
 30
0.0
 11
8447.499321105
 21
5476.040410309
 31
0.0
  0
LINE
  5
2F5
330
1F
100
AcDbEntity
  8
0
  6
Continuous
 62
     7
100
AcDbLine
 10
8811.034855011
 20
5392.5048764031
 30
0.0
 11
8811.034855011
 21
5394.8688374338
 31
0.0
  0
LINE
  5
2F6
330
1F
100
AcDbEntity
  8
0
  6
Continuous
 62
     7
100
AcDbLine
 10
8531.034855011
 20
5394.8688374338
 30
0.0
 11
8531.034855011
 21
5392.5048764031
 31
0.0
  0
LINE
  5
2F7
330
1F
100
AcDbEntity
  8
0
  6
Continuous
 62
     7
100
AcDbLine
 10
8811.034855011
 20
5394.8688374338
 30
0.0
 11
8531.034855011
 21
5394.8688374338
 31
0.0
  0
LINE
  5
2F8
330
1F
100
AcDbEntity
  8
0
  6
Continuous
 62
     7
100
AcDbLine
 10
8889.3780007615
 20
5476.040410309
 30
0.0
 11
8892.2064278862
 21
5476.040410309
 31
0.0
  0
LINE
  5
2F9
330
1F
100
AcDbEntity
  8
0
  6
Continuous
 62
     7
100
AcDbLine
 10
8449.8632821357
 20
5476.040410309
 30
0.0
 11
8452.6917092604
 21
5476.040410309
 31
0.0
  0
LINE
  5
2FA
330
1F
100
AcDbEntity
  8
0
  6
Continuous
 62
     7
100
AcDbLine
 10
8811.034855011
 20
5397.6972645585
 30
0.0
 11
8811.034855011
 21
5394.8688374338
 31
0.0
  0
LINE
  5
2FB
330
1F
100
AcDbEntity
  8
0
  6
Continuous
 62
     7
100
AcDbLine
 10
8531.034855011
 20
5397.6972645585
 30
0.0
 11
8531.034855011
 21
5394.8688374338
 31
0.0
  0
LINE
  5
2FC
330
1F
100
AcDbEntity
  8
0
  6
Continuous
 62
     7
100
AcDbLine
 10
8531.034855011
 20
5397.6972645585
 30
0.0
 11
8811.034855011
 21
5397.6972645585
 31
0.0
  0
LINE
  5
2FD
330
1F
100
AcDbEntity
  8
0
  6
Continuous
 62
     7
100
AcDbLine
 10
8811.034855011
 20
5411.040410309
 30
0.0
 11
8531.034855011
 21
5411.040410309
 31
0.0
  0
LINE
  5
2FE
330
1F
100
AcDbEntity
  8
0
  6
Continuous
 62
     7
100
AcDbLine
 10
8871.0348550109
 20
5476.0404103091
 30
0.0
 11
8871.0348550109
 21
5491.0404103091
 31
0.0
  0
LINE
  5
2FF
330
1F
100
AcDbEntity
  8
0
  6
Continuous
 62
     7
100
AcDbLine
 10
8871.034855011
 20
5741.040410309
 30
0.0
 11
8871.034855011
 21
5751.040410309
 31
0.0
  0
LINE
  5
300
330
1F
100
AcDbEntity
  8
0
  6
Continuous
 62
     7
100
AcDbLine
 10
8871.0348550109
 20
5476.0404103091
 30
0.0
 11
8876.034855011
 21
5476.040410309
 31
0.0
  0
LINE
  5
301
330
1F
100
AcDbEntity
  8
0
  6
Continuous
 62
     7
100
AcDbLine
 10
8471.034855011
 20
5751.040410309
 30
0.0
 11
8471.034855011
 21
5741.040410309
 31
0.0
  0
LINE
  5
302
330
1F
100
AcDbEntity
  8
0
  6
Continuous
 62
     7
100
AcDbLine
 10
8471.034855011
 20
5491.0404103091
 30
0.0
 11
8471.034855011
 21
5476.040410309
 31
0.0
  0
LINE
  5
303
330
1F
100
AcDbEntity
  8
0
  6
Continuous
 62
     7
100
AcDbLine
 10
8466.034855011
 20
5476.040410309
 30
0.0
 11
8471.034855011
 21
5476.040410309
 31
0.0
  0
LINE
  5
304
330
1F
100
AcDbEntity
  8
0
  6
Continuous
 62
     7
100
AcDbLine
 10
8811.0348550109
 20
5416.0404103091
 30
0.0
 11
8811.034855011
 21
5411.040410309
 31
0.0
  0
LINE
  5
305
330
1F
100
AcDbEntity
  8
0
  6
Continuous
 62
     7
100
AcDbLine
 10
8531.034855011
 20
5411.040410309
 30
0.0
 11
8531.034855011
 21
5416.0404103091
 31
0.0
  0
LINE
  5
306
330
1F
100
AcDbEntity
  8
0
  6
Continuous
 62
     7
100
AcDbLine
 10
8531.034855011
 20
5416.0404103091
 30
0.0
 11
8811.0348550109
 21
5416.0404103091
 31
0.0
  0
LINE
  5
307
330
1F
100
AcDbEntity
  8
0
  6
Continuous
 62
     7
100
AcDbLine
 10
8811.0348550109
 20
5476.0404103091
 30
0.0
 11
8871.0348550109
 21
5476.0404103091
 31
0.0
  0
LINE
  5
308
330
1F
100
AcDbEntity
  8
0
  6
Continuous
 62
     7
100
AcDbLine
 10
8471.034855011
 20
5476.040410309
 30
0.0
 11
8531.034855011
 21
5476.0404103091
 31
0.0
  0
LINE
  5
309
330
1F
100
AcDbEntity
  8
0
  6
Continuous
 62
     7
100
AcDbLine
 10
8811.0348550109
 20
5476.0404103091
 30
0.0
 11
8811.0348550109
 21
5416.0404103091
 31
0.0
  0
LINE
  5
30A
330
1F
100
AcDbEntity
  8
0
  6
Continuous
 62
     7
100
AcDbLine
 10
8531.034855011
 20
5476.0404103091
 30
0.0
 11
8811.0348550109
 21
5476.0404103091
 31
0.0
  0
LINE
  5
30B
330
1F
100
AcDbEntity
  8
0
  6
Continuous
 62
     7
100
AcDbLine
 10
8531.034855011
 20
5416.0404103091
 30
0.0
 11
8531.034855011
 21
5476.0404103091
 31
0.0
  0
LINE
  5
30C
330
1F
100
AcDbEntity
  8
0
  6
Continuous
 62
     7
100
AcDbLine
 10
8921.534855011
 20
5883.040410309
 30
0.0
 11
8921.534855011
 21
5849.040410309
 31
0.0
  0
LINE
  5
30D
330
1F
100
AcDbEntity
  8
0
  6
Continuous
 62
     7
100
AcDbLine
 10
8420.534855011
 20
5849.040410309
 30
0.0
 11
8420.534855011
 21
5883.040410309
 31
0.0
  0
LINE
  5
30E
330
1F
100
AcDbEntity
  8
0
  6
Continuous
 62
     7
100
AcDbLine
 10
8921.534855011
 20
5431.040410309
 30
0.0
 11
8921.534855011
 21
5397.040410309
 31
0.0
  0
LINE
  5
30F
330
1F
100
AcDbEntity
  8
0
  6
Continuous
 62
     7
100
AcDbLine
 10
8420.534855011
 20
5397.040410309
 30
0.0
 11
8420.534855011
 21
5431.040410309
 31
0.0
  0
LINE
  5
310
330
1F
100
AcDbEntity
  8
0
  6
Continuous
 62
     7
100
AcDbLine
 10
8655.0920127373
 20
5964.5977902808
 30
0.0
 11
8655.1970699671
 21
5964.7854895807
 31
0.0
  0
LINE
  5
311
330
1F
100
AcDbEntity
  8
0
  6
Continuous
 62
     7
100
AcDbLine
 10
8686.8726400548
 20
5964.7854895807
 30
0.0
 11
8686.9776972972
 21
5964.5977902582
 31
0.0
  0
LINE
  5
312
330
1F
100
AcDbEntity
  8
0
  6
Continuous
 62
     7
100
AcDbLine
 10
8637.5107314032
 20
5985.0095840035
 30
0.0
 11
8637.6807638367
 21
5985.0691749607
 31
0.0
  0
LINE
  5
313
330
1F
100
AcDbEntity
  8
0
  6
Continuous
 62
     7
100
AcDbLine
 10
8704.3889461852
 20
5985.0691749607
 30
0.0
 11
8704.5589786141
 21
5985.0095840051
 31
0.0
  0
LINE
  5
314
330
1F
100
AcDbEntity
  8
0
  6
Continuous
 62
     7
100
AcDbLine
 10
8685.4138445274
 20
6027.9547685786
 30
0.0
 11
8685.5942828392
 21
6028.2892772596
 31
0.0
  0
LINE
  5
315
330
1F
100
AcDbEntity
  8
0
  6
Continuous
 62
     7
100
AcDbLine
 10
8656.4754271827
 20
6028.2892772596
 30
0.0
 11
8656.7025038309
 21
6027.868307293
 31
0.0
  0
LINE
  5
316
330
1F
100
AcDbEntity
  8
0
  6
Continuous
 62
     7
100
AcDbLine
 10
8692.2927171459
 20
6023.9513359657
 30
0.0
 11
8692.4145882016
 21
6024.1014435357
 31
0.0
  0
LINE
  5
317
330
1F
100
AcDbEntity
  8
0
  6
Continuous
 62
     7
100
AcDbLine
 10
8649.6551218407
 20
6024.1014435105
 30
0.0
 11
8649.776992876
 21
6023.9513359657
 31
0.0
  0
LINE
  5
318
330
1F
100
AcDbEntity
  8
0
  6
Continuous
 62
     7
100
AcDbLine
 10
8704.3889461852
 20
6007.0116456574
 30
0.0
 11
8704.5589786208
 21
6007.0712366153
 31
0.0
  0
LINE
  5
319
330
1F
100
AcDbEntity
  8
0
  6
Continuous
 62
     7
100
AcDbLine
 10
8637.5107314079
 20
6007.0712366129
 30
0.0
 11
8637.6807638367
 21
6007.0116456574
 31
0.0
  0
LINE
  5
31A
330
1F
100
AcDbEntity
  8
0
  6
Continuous
 62
     7
100
AcDbLine
 10
8919.034855011
 20
5388.040410309
 30
0.0
 11
8919.034855011
 21
5751.040410309
 31
0.0
  0
LINE
  5
31B
330
1F
100
AcDbEntity
  8
0
  6
Continuous
 62
     7
100
AcDbLine
 10
8423.034855011
 20
5751.040410309
 30
0.0
 11
8423.034855011
 21
5388.040410309
 31
0.0
  0
LINE
  5
31C
330
1F
100
AcDbEntity
  8
0
  6
Continuous
 62
     7
100
AcDbLine
 10
8443.9637871991
 20
5476.040410309
 30
0.0
 11
8443.9637871991
 21
5751.040410309
 31
0.0
  0
LINE
  5
31D
330
1F
100
AcDbEntity
  8
0
  6
Continuous
 62
     7
100
AcDbLine
 10
8898.1059228228
 20
5751.040410309
 30
0.0
 11
8898.1059228228
 21
5476.040410309
 31
0.0
  0
LINE
  5
31E
330
1F
100
AcDbEntity
  8
0
  6
Continuous
 62
     7
100
AcDbLine
 10
8894.5703889169
 20
5476.040410309
 30
0.0
 11
8894.5703889169
 21
5751.040410309
 31
0.0
  0
LINE
  5
31F
330
1F
100
AcDbEntity
  8
0
  6
Continuous
 62
     7
100
AcDbLine
 10
8447.499321105
 20
5751.040410309
 30
0.0
 11
8447.499321105
 21
5476.040410309
 31
0.0
  0
LINE
  5
320
330
1F
100
AcDbEntity
  8
0
  6
Continuous
 62
     7
100
AcDbLine
 10
8892.2064278862
 20
5751.040410309
 30
0.0
 11
8892.2064278862
 21
5476.040410309
 31
0.0
  0
LINE
  5
321
330
1F
100
AcDbEntity
  8
0
  6
Continuous
 62
     7
100
AcDbLine
 10
8449.8632821357
 20
5476.040410309
 30
0.0
 11
8449.8632821357
 21
5751.040410309
 31
0.0
  0
LINE
  5
322
330
1F
100
AcDbEntity
  8
0
  6
Continuous
 62
     7
100
AcDbLine
 10
8889.3780007615
 20
5476.040410309
 30
0.0
 11
8889.3780007615
 21
5751.040410309
 31
0.0
  0
LINE
  5
323
330
1F
100
AcDbEntity
  8
0
  6
Continuous
 62
     7
100
AcDbLine
 10
8452.6917092604
 20
5751.040410309
 30
0.0
 11
8452.6917092604
 21
5476.040410309
 31
0.0
  0
LINE
  5
324
330
1F
100
AcDbEntity
  8
0
  6
Continuous
 62
     7
100
AcDbLine
 10
8466.034855011
 20
5476.040410309
 30
0.0
 11
8466.034855011
 21
5491.0404103091
 31
0.0
  0
LINE
  5
325
330
1F
100
AcDbEntity
  8
0
  6
Continuous
 62
     7
100
AcDbLine
 10
8466.034855011
 20
5741.040410309
 30
0.0
 11
8466.034855011
 21
5751.040410309
 31
0.0
  0
LINE
  5
326
330
1F
100
AcDbEntity
  8
0
  6
Continuous
 62
     7
100
AcDbLine
 10
8876.034855011
 20
5751.040410309
 30
0.0
 11
8876.034855011
 21
5741.040410309
 31
0.0
  0
LINE
  5
327
330
1F
100
AcDbEntity
  8
0
  6
Continuous
 62
     7
100
AcDbLine
 10
8876.0348550109
 20
5491.0404103091
 30
0.0
 11
8876.034855011
 21
5476.040410309
 31
0.0
  0
LINE
  5
328
330
1F
100
AcDbEntity
  8
0
  6
Continuous
 62
     7
100
AcDbLine
 10
8811.034855011
 20
5743.540410309
 30
0.0
 11
8811.034855011
 21
5751.040410309
 31
0.0
  0
LINE
  5
329
330
1F
100
AcDbEntity
  8
0
  6
Continuous
 62
     7
100
AcDbLine
 10
8811.0348550109
 20
5476.0404103091
 30
0.0
 11
8811.034855011
 21
5488.540410309
 31
0.0
  0
LINE
  5
32A
330
1F
100
AcDbEntity
  8
0
  6
Continuous
 62
     7
100
AcDbLine
 10
8531.034855011
 20
5751.040410309
 30
0.0
 11
8531.034855011
 21
5743.540410309
 31
0.0
  0
LINE
  5
32B
330
1F
100
AcDbEntity
  8
0
  6
Continuous
 62
     7
100
AcDbLine
 10
8531.034855011
 20
5488.540410309
 30
0.0
 11
8531.034855011
 21
5476.0404103091
 31
0.0
  0
LWPOLYLINE
  5
32C
330
1F
100
AcDbEntity
  8
0
  6
Continuous
 62
     7
100
AcDbPolyline
 90
        3
 70
   128
 43
0.0
 10
8881.2026977539
 20
6597.5414560846
 10
8881.1097439197
 20
6596.4351319602
 10
8881.034855011
 20
6595.809405277
  0
LWPOLYLINE
  5
32D
330
1F
100
AcDbEntity
  8
0
  6
Continuous
 62
     7
100
AcDbPolyline
 90
        3
 70
   128
 43
0.0
 10
8461.0290527344
 20
6595.809405277
 10
8460.9285909506
 20
6596.6522827462
 10
8460.8632821357
 20
6597.5414560846
  0
LWPOLYLINE
  5
32E
330
1F
100
AcDbEntity
  8
0
  6
Continuous
 62
     7
100
AcDbPolyline
 90
        3
 70
   128
 43
0.0
 10
9455.0018310547
 20
6597.5414560846
 10
9454.9078464556
 20
6596.4351319602
 10
9454.8329575468
 20
6595.809405277
  0
LWPOLYLINE
  5
32F
330
1F
100
AcDbEntity
  8
0
  6
Continuous
 62
     7
100
AcDbPolyline
 90
        3
 70
   128
 43
0.0
 10
9494.8272705078
 20
6595.809405277
 10
9494.7267586817
 20
6596.6518176065
 10
9494.6613846715
 20
6597.5414560846
  0
LWPOLYLINE
  5
330
330
1F
100
AcDbEntity
  8
0
  6
Continuous
 62
     7
100
AcDbPolyline
 90
        3
 70
   128
 43
0.0
 10
9906.9976806641
 20
6597.5414560846
 10
9906.9078464556
 20
6596.4351319602
 10
9906.8329575468
 20
6595.809405277
  0
ARC
  5
331
330
1F
100
AcDbEntity
  8
0
  6
Continuous
 62
     7
100
AcDbCircle
 10
8671.0310750591
 20
6208.6633174161
 30
0.0
 40
396.2647872916523
100
AcDbArc
 50
256.9472326816
 51
283.0527673184
  0
LWPOLYLINE
  5
332
330
1F
100
AcDbEntity
  8
0
  6
Continuous
 62
     7
100
AcDbPolyline
 90
        3
 70
   128
 43
0.0
 10
8760.5209350586
 20
5822.6370295312
 10
8809.3986251461
 20
5838.0432307854
 10
8846.7177780357
 20
5853.4596120529
  0
LWPOLYLINE
  5
333
330
1F
100
AcDbEntity
  8
0
  6
Continuous
 62
     7
100
AcDbPolyline
 90
        3
 70
   128
 43
0.0
 10
8495.3460693359
 20
5853.4596120529
 10
8543.0138361884
 20
5834.3449470958
 10
8581.5428992592
 20
5822.6370295312
  0
LWPOLYLINE
  5
334
330
1F
100
AcDbEntity
  8
0
  6
Continuous
 62
     7
100
AcDbPolyline
 90
        3
 70
   128
 43
0.0
 10
8846.7102050781
 20
5853.4596120529
 10
8842.0015511822
 20
5902.5334885062
 10
8838.1544715545
 20
5941.9848109494
  0
LWPOLYLINE
  5
335
330
1F
100
AcDbEntity
  8
0
  6
Continuous
 62
     7
100
AcDbPolyline
 90
        3
 70
   128
 43
0.0
 10
8503.9138793945
 20
5941.9848109494
 10
8499.0392884845
 20
5891.9114101368
 10
8495.3519319862
 20
5853.4596120529
  0
LWPOLYLINE
  5
336
330
1F
100
AcDbEntity
  8
0
  6
Continuous
 62
     7
100
AcDbPolyline
 90
        5
 70
   128
 43
0.0
 10
8581.5353393555
 20
5822.6370295312
 10
8606.0518700772
 20
5869.0533332707
 10
8622.1461814095
 20
5900.1261687062
 10
8638.4042589645
 20
5931.8436118963
 10
8654.7710961342
 20
5963.9901547506
  0
ARC
  5
337
330
1F
100
AcDbEntity
  8
0
  6
Continuous
 62
     7
100
AcDbCircle
 10
8671.0331798008
 20
5996.4955079901
 30
0.0
 40
36.34629802433936
100
AcDbArc
 50
243.4238997363
 51
296.5760986293
  0
LWPOLYLINE
  5
338
330
1F
100
AcDbEntity
  8
0
  6
Continuous
 62
     7
100
AcDbPolyline
 90
        5
 70
   128
 43
0.0
 10
8760.5209350586
 20
5822.6370295312
 10
8736.0178401867
 20
5869.0533328065
 10
8719.9235286232
 20
5900.1261686853
 10
8703.665451118
 20
5931.8436117776
 10
8687.2986139028
 20
5963.9901547208
  0
LWPOLYLINE
  5
339
330
1F
100
AcDbEntity
  8
0
  6
Continuous
 62
     7
100
AcDbPolyline
 90
        3
 70
   128
 43
0.0
 10
8747.1923828125
 20
6021.040410309
 10
8716.6648327324
 20
6022.8713112082
 10
8692.5881433998
 20
6024.3152100359
  0
ARC
  5
33A
330
1F
100
AcDbEntity
  8
0
  6
Continuous
 62
     7
100
AcDbCircle
 10
8671.5244014597
 20
5995.3810796082
 30
0.0
 40
35.7891761307856
100
AcDbArc
 50
53.9457766028
 51
66.8532989126
  0
ARC
  5
33B
330
1F
100
AcDbEntity
  8
0
  6
Continuous
 62
     7
100
AcDbCircle
 10
8670.7255742915
 20
5995.0350241201
 30
0.0
 40
36.17888948665708
100
AcDbArc
 50
113.1961513624
 51
125.9707577785
  0
LWPOLYLINE
  5
33C
330
1F
100
AcDbEntity
  8
0
  6
Continuous
 62
     7
100
AcDbPolyline
 90
        3
 70
   128
 43
0.0
 10
8649.4750976562
 20
6024.3152100359
 10
8618.8532207617
 20
6022.4786021609
 10
8594.8724056695
 20
6021.040410309
  0
ARC
  5
33D
330
1F
100
AcDbEntity
  8
0
  6
Continuous
 62
     7
100
AcDbCircle
 10
8671.3974447335
 20
5995.8060943702
 30
0.0
 40
35.56826108657
100
AcDbArc
 50
296.5552527636
 51
341.950974285
  0
LWPOLYLINE
  5
33E
330
1F
100
AcDbEntity
  8
0
  6
Continuous
 62
     7
100
AcDbPolyline
 90
        5
 70
   128
 43
0.0
 10
8838.1500244141
 20
5941.9848109494
 10
8793.453374375
 20
5956.0949024568
 10
8764.213457512
 20
5965.5110910158
 10
8734.7928607103
 20
5975.0891532747
 10
8705.2219168824
 20
5984.7859564806
  0
LWPOLYLINE
  5
33F
330
1F
100
AcDbEntity
  8
0
  6
Continuous
 62
     7
100
AcDbPolyline
 90
        5
 70
   128
 43
0.0
 10
8503.9138793945
 20
5941.9848109494
 10
8548.6163359901
 20
5956.0949025665
 10
8577.8562525702
 20
5965.5110910354
 10
8607.2768493362
 20
5975.0891532828
 10
8636.8477931271
 20
5984.7859564765
  0
ARC
  5
340
330
1F
100
AcDbEntity
  8
0
  6
Continuous
 62
     7
100
AcDbCircle
 10
8670.6951261942
 20
5995.8353904483
 30
0.0
 40
35.60522358934352
100
AcDbArc
 50
198.0792288626
 51
243.4311909547
  0
ARC
  5
341
330
1F
100
AcDbEntity
  8
0
  6
Continuous
 62
     7
100
AcDbCircle
 10
8671.0327676403
 20
5994.0109611019
 30
0.0
 40
37.24299509290789
100
AcDbArc
 50
66.9840922241
 51
113.0159077759
  0
LWPOLYLINE
  5
342
330
1F
100
AcDbEntity
  8
0
  6
Continuous
 62
     7
100
AcDbPolyline
 90
        3
 70
   128
 43
0.0
 10
8594.8715209961
 20
6021.040410309
 10
8618.3536014744
 20
6013.3658150668
 10
8636.8477931722
 20
6007.2948641267
  0
ARC
  5
343
330
1F
100
AcDbEntity
  8
0
  6
Continuous
 62
     7
100
AcDbCircle
 10
8671.409552558
 20
5996.0299974529
 30
0.0
 40
36.35123725388264
100
AcDbArc
 50
161.9482912398
 51
198.0170731561
  0
ARC
  5
344
330
1F
100
AcDbEntity
  8
0
  6
Continuous
 62
     7
100
AcDbCircle
 10
8670.7897236575
 20
5996.0302301992
 30
0.0
 40
36.22167325699812
100
AcDbArc
 50
341.9157533814
 51
18.1180142947
  0
LWPOLYLINE
  5
345
330
1F
100
AcDbEntity
  8
0
  6
Continuous
 62
     7
100
AcDbPolyline
 90
        3
 70
   128
 43
0.0
 10
8747.1923828125
 20
6021.040410309
 10
8723.7161085701
 20
6013.3658150742
 10
8705.2219168901
 20
6007.29486414
  0
LWPOLYLINE
  5
346
330
1F
100
AcDbEntity
  8
0
  6
Continuous
 62
     7
100
AcDbPolyline
 90
        3
 70
   128
 43
0.0
 10
8696.3577270508
 20
6021.6086501377
 10
8702.173081169
 20
6014.1123234361
 10
8705.2219168901
 20
6007.29486414
  0
LWPOLYLINE
  5
347
330
1F
100
AcDbEntity
  8
0
  6
Continuous
 62
     7
100
AcDbPolyline
 90
        3
 70
   128
 43
0.0
 10
8692.5811767578
 20
6024.3152100359
 10
8694.6966245153
 20
6022.7926516814
 10
8696.3624795403
 20
6021.6086501377
  0
LWPOLYLINE
  5
348
330
1F
100
AcDbEntity
  8
0
  6
Continuous
 62
     7
100
AcDbPolyline
 90
        3
 70
   128
 43
0.0
 10
8645.7061767578
 20
6021.6087278163
 10
8647.8260411375
 20
6023.1175060264
 10
8649.4815666221
 20
6024.3152100359
  0
LWPOLYLINE
  5
349
330
1F
100
AcDbEntity
  8
0
  6
Continuous
 62
     7
100
AcDbPolyline
 90
        3
 70
   128
 43
0.0
 10
8636.8408203125
 20
6007.2948641267
 10
8640.9691650812
 20
6015.8446145112
 10
8645.7073405666
 20
6021.6087278163
  0
ARC
  5
34A
330
1F
100
AcDbEntity
  8
0
  6
Continuous
 62
     7
100
AcDbCircle
 10
8671.0340146868
 20
5996.3903656871
 30
0.0
 40
35.56640082417082
100
AcDbArc
 50
243.3666583844
 51
296.6333415343
  0
LWPOLYLINE
  5
34B
330
1F
100
AcDbEntity
  8
0
  6
Continuous
 62
     7
100
AcDbPolyline
 90
        3
 70
   128
 43
0.0
 10
8686.9735717773
 20
5964.5977902582
 10
8687.1440453165
 20
5964.2880533526
 10
8687.2973567705
 20
5963.9895254625
  0
LWPOLYLINE
  5
34C
330
1F
100
AcDbEntity
  8
0
  6
Continuous
 62
     7
100
AcDbPolyline
 90
        3
 70
   128
 43
0.0
 10
8655.0903320312
 20
5964.5977902808
 10
8654.9256648742
 20
5964.2880532961
 10
8654.7723523267
 20
5963.9895259264
  0
ARC
  5
34D
330
1F
100
AcDbEntity
  8
0
  6
Continuous
 62
     7
100
AcDbCircle
 10
8670.803538789
 20
5995.9184306598
 30
0.0
 40
35.04047026444609
100
AcDbArc
 50
198.1397317655
 51
243.3578978007
  0
ARC
  5
34E
330
1F
100
AcDbEntity
  8
0
  6
Continuous
 62
     7
100
AcDbCircle
 10
8671.3082235258
 20
5995.8759941011
 30
0.0
 40
34.98130331912402
100
AcDbArc
 50
296.6039416746
 51
341.9016851052
  0
ARC
  5
34F
330
1F
100
AcDbEntity
  8
0
  6
Continuous
 62
     7
100
AcDbCircle
 10
8684.8105629768
 20
6007.6823677142
 30
0.0
 40
18.09386963667345
100
AcDbArc
 50
50.3241343385
 51
65.1537513726
  0
LWPOLYLINE
  5
350
330
1F
100
AcDbEntity
  8
0
  6
Continuous
 62
     7
100
AcDbPolyline
 90
       10
 70
   128
 43
0.0
 10
8645.7061767578
 20
6021.6087278163
 10
8647.6535864057
 20
6022.9149733478
 10
8648.6460036436
 20
6023.536241368
 10
8649.1469079901
 20
6023.8377393707
 10
8649.399474564
 20
6023.9838981272
 10
8649.5271610167
 20
6024.0534902817
 10
8649.5919409337
 20
6024.0853253916
 10
8649.6248101742
 20
6024.0987042594
 10
8649.6412533977
 20
6024.1032459891
 10
8649.6551218407
 20
6024.1014435105
  0
LWPOLYLINE
  5
351
330
1F
100
AcDbEntity
  8
0
  6
Continuous
 62
     7
100
AcDbPolyline
 90
        3
 70
   128
 43
0.0
 10
8637.5045776367
 20
6007.0712366129
 10
8635.7797436546
 20
5994.6936709571
 10
8637.5107314032
 20
5985.0095840035
  0
LWPOLYLINE
  5
352
330
1F
100
AcDbEntity
  8
0
  6
Continuous
 62
     7
100
AcDbPolyline
 90
        3
 70
   128
 43
0.0
 10
8637.5045776367
 20
5985.0095840035
 10
8637.171115734
 20
5984.8937327801
 10
8636.8476007702
 20
5984.7865459887
  0
LWPOLYLINE
  5
353
330
1F
100
AcDbEntity
  8
0
  6
Continuous
 62
     7
100
AcDbPolyline
 90
        3
 70
   128
 43
0.0
 10
8637.5045776367
 20
6007.0712366129
 10
8637.1711269765
 20
6007.1871222513
 10
8636.8476233546
 20
6007.2943438445
  0
LWPOLYLINE
  5
354
330
1F
100
AcDbEntity
  8
0
  6
Continuous
 62
     7
100
AcDbPolyline
 90
        3
 70
   128
 43
0.0
 10
8704.5516967773
 20
5985.0095840051
 10
8706.2899663673
 20
5997.387149661
 10
8704.5589786208
 20
6007.0712366153
  0
LWPOLYLINE
  5
355
330
1F
100
AcDbEntity
  8
0
  6
Continuous
 62
     7
100
AcDbPolyline
 90
        3
 70
   128
 43
0.0
 10
8704.5516967773
 20
6007.0712366153
 10
8704.8985942515
 20
6007.1870879576
 10
8705.2221092525
 20
6007.2942746296
  0
LWPOLYLINE
  5
356
330
1F
100
AcDbEntity
  8
0
  6
Continuous
 62
     7
100
AcDbPolyline
 90
        3
 70
   128
 43
0.0
 10
8704.5516967773
 20
5985.0095840051
 10
8704.8985830454
 20
5984.8936983668
 10
8705.2220866673
 20
5984.7864767736
  0
ARC
  5
357
330
1F
100
AcDbEntity
  8
0
  6
Continuous
 62
     7
100
AcDbCircle
 10
8671.3600372402
 20
5996.2559018527
 30
0.0
 40
34.90943006991571
100
AcDbArc
 50
18.0487011595
 51
52.9063709004
  0
ARC
  5
358
330
1F
100
AcDbEntity
  8
0
  6
Continuous
 62
     7
100
AcDbCircle
 10
8670.7889316294
 20
5996.1911429901
 30
0.0
 40
35.01164163250694
100
AcDbArc
 50
127.1391090893
 51
161.8944353498
  0
ENDSEC
  0
SECTION
  2
OBJECTS
  0
DICTIONARY
  5
C
330
0
100
AcDbDictionary
281
     1
  3
ACAD_GROUP
350
D
  3
ACAD_LAYOUT
350
1A
  3
ACAD_MLINESTYLE
350
17
  3
ACAD_PLOTSETTINGS
350
19
  3
ACAD_PLOTSTYLENAME
350
E
  3
ACAD_SCALELIST
350
47
  3
DWGPROPS
350
359
  0
DICTIONARY
  5
D
102
{ACAD_REACTORS
330
C
102
}
330
C
100
AcDbDictionary
281
     1
  0
DICTIONARY
  5
1A
102
{ACAD_REACTORS
330
C
102
}
330
C
100
AcDbDictionary
281
     1
  3
Layout1
350
1E
  3
Layout2
350
26
  3
Model
350
22
  0
DICTIONARY
  5
17
102
{ACAD_REACTORS
330
C
102
}
330
C
100
AcDbDictionary
281
     1
  3
Standard
350
18
  0
DICTIONARY
  5
19
102
{ACAD_REACTORS
330
C
102
}
330
C
100
AcDbDictionary
281
     1
  0
ACDBDICTIONARYWDFLT
  5
E
102
{ACAD_REACTORS
330
C
102
}
330
C
100
AcDbDictionary
281
     1
  3
Normal
350
F
100
AcDbDictionaryWithDefault
340
F
  0
DICTIONARY
  5
47
102
{ACAD_REACTORS
330
C
102
}
330
C
100
AcDbDictionary
281
     1
  3
A0
350
48
  3
A1
350
49
  3
A2
350
4A
  3
A3
350
4B
  3
A4
350
4C
  3
A5
350
4D
  3
A6
350
4E
  3
A7
350
4F
  3
A8
350
50
  3
A9
350
51
  3
B0
350
52
  3
B1
350
53
  3
B2
350
54
  3
B3
350
55
  3
B4
350
56
  3
B5
350
57
  3
B6
350
58
  3
B7
350
59
  3
B8
350
5A
  3
B9
350
5B
  3
C0
350
5C
  3
C1
350
5D
  3
C2
350
5E
  3
C3
350
5F
  3
C4
350
60
  3
C5
350
61
  3
C6
350
62
  3
C7
350
63
  3
C8
350
64
  3
C9
350
65
  3
D0
350
66
  3
D1
350
67
  3
D2
350
68
  0
XRECORD
  5
359
102
{ACAD_REACTORS
330
C
102
}
330
C
100
AcDbXrecord
280
     1
  1
DWGPROPS COOKIE
  2

  3

  4

  6

  7

  8
radek.stransky
  9

300
=
301
=
302
=
303
=
304
=
305
=
306
=
307
=
308
=
309
=
 40
0.0
 41
2459097.353474595
 42
2459097.353504815
  1

 90
        0
  0
LAYOUT
  5
1E
102
{ACAD_REACTORS
330
1A
102
}
330
1A
100
AcDbPlotSettings
  1

  2
none_device
  4

  6

 40
0.0
 41
0.0
 42
0.0
 43
0.0
 44
0.0
 45
0.0
 46
0.0
 47
0.0
 48
0.0
 49
0.0
140
0.0
141
0.0
142
1.0
143
1.0
 70
   688
 72
     1
 73
     0
 74
     5
  7

 75
    16
147
1.0
148
0.0
149
0.0
100
AcDbLayout
  1
Layout1
 70
     1
 71
     1
 10
0.0
 20
0.0
 11
420.0
 21
297.0
 12
0.0
 22
0.0
 32
0.0
 14
1.0000000000E+20
 24
1.0000000000E+20
 34
1.0000000000E+20
 15
-1.0000000000E+20
 25
-1.0000000000E+20
 35
-1.0000000000E+20
146
0.0
 13
0.0
 23
0.0
 33
0.0
 16
1.0
 26
0.0
 36
0.0
 17
0.0
 27
1.0
 37
0.0
 76
     0
330
1B
  0
LAYOUT
  5
26
102
{ACAD_REACTORS
330
1A
102
}
330
1A
100
AcDbPlotSettings
  1

  2
none_device
  4

  6

 40
0.0
 41
0.0
 42
0.0
 43
0.0
 44
0.0
 45
0.0
 46
0.0
 47
0.0
 48
0.0
 49
0.0
140
0.0
141
0.0
142
1.0
143
1.0
 70
   688
 72
     1
 73
     0
 74
     5
  7

 75
    16
147
1.0
148
0.0
149
0.0
100
AcDbLayout
  1
Layout2
 70
     1
 71
     2
 10
0.0
 20
0.0
 11
0.0
 21
0.0
 12
0.0
 22
0.0
 32
0.0
 14
0.0
 24
0.0
 34
0.0
 15
0.0
 25
0.0
 35
0.0
146
0.0
 13
0.0
 23
0.0
 33
0.0
 16
1.0
 26
0.0
 36
0.0
 17
0.0
 27
1.0
 37
0.0
 76
     0
330
23
  0
LAYOUT
  5
22
102
{ACAD_REACTORS
330
1A
102
}
330
1A
100
AcDbPlotSettings
  1

  2
none_device
  4
ANSI_A_(11.00_x_8.50_Inches)
  6

 40
6.35
 41
19.05
 42
6.35000508
 43
19.05000254
 44
279.4
 45
215.9
 46
-873.9768516675
 47
-608.4896322212
 48
0.0
 49
0.0
140
0.0
141
0.0
142
0.0043164891
143
1.0
 70
  1696
 72
     0
 73
     0
 74
     0
  7

 75
     0
147
0.0179189148
148
-1300.4909072572
149
0.0
100
AcDbLayout
  1
Model
 70
     1
 71
     0
 10
0.0
 20
0.0
 11
420.0
 21
297.0
 12
0.0
 22
0.0
 32
0.0
 14
8420.534855011
 24
5386.040410309
 34
0.0
 15
9954.8329575468
 25
7335.5414560846
 35
0.0
146
0.0
 13
0.0
 23
0.0
 33
0.0
 16
1.0
 26
0.0
 36
0.0
 17
0.0
 27
1.0
 37
0.0
 76
     0
330
1F
331
29
  0
MLINESTYLE
  5
18
102
{ACAD_REACTORS
330
17
102
}
330
17
100
AcDbMlineStyle
  2
Standard
 70
     0
  3

 62
   256
 51
90.0
 52
90.0
 71
     2
 49
0.5
 62
   256
  6
BYLAYER
 49
-0.5
 62
   256
  6
BYLAYER
  0
ACDBPLACEHOLDER
  5
F
102
{ACAD_REACTORS
330
E
102
}
330
E
  0
SCALE
  5
48
102
{ACAD_REACTORS
330
47
102
}
330
47
100
AcDbScale
 70
     0
300
1:1
140
1.0
141
1.0
290
     1
  0
SCALE
  5
49
102
{ACAD_REACTORS
330
47
102
}
330
47
100
AcDbScale
 70
     0
300
1:2
140
1.0
141
2.0
290
     0
  0
SCALE
  5
4A
102
{ACAD_REACTORS
330
47
102
}
330
47
100
AcDbScale
 70
     0
300
1:4
140
1.0
141
4.0
290
     0
  0
SCALE
  5
4B
102
{ACAD_REACTORS
330
47
102
}
330
47
100
AcDbScale
 70
     0
300
1:5
140
1.0
141
5.0
290
     0
  0
SCALE
  5
4C
102
{ACAD_REACTORS
330
47
102
}
330
47
100
AcDbScale
 70
     0
300
1:8
140
1.0
141
8.0
290
     0
  0
SCALE
  5
4D
102
{ACAD_REACTORS
330
47
102
}
330
47
100
AcDbScale
 70
     0
300
1:10
140
1.0
141
10.0
290
     0
  0
SCALE
  5
4E
102
{ACAD_REACTORS
330
47
102
}
330
47
100
AcDbScale
 70
     0
300
1:16
140
1.0
141
16.0
290
     0
  0
SCALE
  5
4F
102
{ACAD_REACTORS
330
47
102
}
330
47
100
AcDbScale
 70
     0
300
1:20
140
1.0
141
20.0
290
     0
  0
SCALE
  5
50
102
{ACAD_REACTORS
330
47
102
}
330
47
100
AcDbScale
 70
     0
300
1:30
140
1.0
141
30.0
290
     0
  0
SCALE
  5
51
102
{ACAD_REACTORS
330
47
102
}
330
47
100
AcDbScale
 70
     0
300
1:40
140
1.0
141
40.0
290
     0
  0
SCALE
  5
52
102
{ACAD_REACTORS
330
47
102
}
330
47
100
AcDbScale
 70
     0
300
1:50
140
1.0
141
50.0
290
     0
  0
SCALE
  5
53
102
{ACAD_REACTORS
330
47
102
}
330
47
100
AcDbScale
 70
     0
300
1:100
140
1.0
141
100.0
290
     0
  0
SCALE
  5
54
102
{ACAD_REACTORS
330
47
102
}
330
47
100
AcDbScale
 70
     0
300
2:1
140
2.0
141
1.0
290
     0
  0
SCALE
  5
55
102
{ACAD_REACTORS
330
47
102
}
330
47
100
AcDbScale
 70
     0
300
4:1
140
4.0
141
1.0
290
     0
  0
SCALE
  5
56
102
{ACAD_REACTORS
330
47
102
}
330
47
100
AcDbScale
 70
     0
300
8:1
140
8.0
141
1.0
290
     0
  0
SCALE
  5
57
102
{ACAD_REACTORS
330
47
102
}
330
47
100
AcDbScale
 70
     0
300
10:1
140
10.0
141
1.0
290
     0
  0
SCALE
  5
58
102
{ACAD_REACTORS
330
47
102
}
330
47
100
AcDbScale
 70
     0
300
100:1
140
100.0
141
1.0
290
     0
  0
SCALE
  5
59
102
{ACAD_REACTORS
330
47
102
}
330
47
100
AcDbScale
 70
     0
300
1/128" = 1'-0"
140
0.0078125
141
12.0
290
     0
  0
SCALE
  5
5A
102
{ACAD_REACTORS
330
47
102
}
330
47
100
AcDbScale
 70
     0
300
1/64" = 1'-0"
140
0.015625
141
12.0
290
     0
  0
SCALE
  5
5B
102
{ACAD_REACTORS
330
47
102
}
330
47
100
AcDbScale
 70
     0
300
1/32" = 1'-0"
140
0.03125
141
12.0
290
     0
  0
SCALE
  5
5C
102
{ACAD_REACTORS
330
47
102
}
330
47
100
AcDbScale
 70
     0
300
1/16" = 1'-0"
140
0.0625
141
12.0
290
     0
  0
SCALE
  5
5D
102
{ACAD_REACTORS
330
47
102
}
330
47
100
AcDbScale
 70
     0
300
3/32" = 1'-0"
140
0.09375
141
12.0
290
     0
  0
SCALE
  5
5E
102
{ACAD_REACTORS
330
47
102
}
330
47
100
AcDbScale
 70
     0
300
1/8" = 1'-0"
140
0.125
141
12.0
290
     0
  0
SCALE
  5
5F
102
{ACAD_REACTORS
330
47
102
}
330
47
100
AcDbScale
 70
     0
300
3/16" = 1'-0"
140
0.1875
141
12.0
290
     0
  0
SCALE
  5
60
102
{ACAD_REACTORS
330
47
102
}
330
47
100
AcDbScale
 70
     0
300
1/4" = 1'-0"
140
0.25
141
12.0
290
     0
  0
SCALE
  5
61
102
{ACAD_REACTORS
330
47
102
}
330
47
100
AcDbScale
 70
     0
300
3/8" = 1'-0"
140
0.375
141
12.0
290
     0
  0
SCALE
  5
62
102
{ACAD_REACTORS
330
47
102
}
330
47
100
AcDbScale
 70
     0
300
1/2" = 1'-0"
140
0.5
141
12.0
290
     0
  0
SCALE
  5
63
102
{ACAD_REACTORS
330
47
102
}
330
47
100
AcDbScale
 70
     0
300
3/4" = 1'-0"
140
0.75
141
12.0
290
     0
  0
SCALE
  5
64
102
{ACAD_REACTORS
330
47
102
}
330
47
100
AcDbScale
 70
     0
300
1" = 1'-0"
140
1.0
141
12.0
290
     0
  0
SCALE
  5
65
102
{ACAD_REACTORS
330
47
102
}
330
47
100
AcDbScale
 70
     0
300
1-1/2" = 1'-0"
140
1.5
141
12.0
290
     0
  0
SCALE
  5
66
102
{ACAD_REACTORS
330
47
102
}
330
47
100
AcDbScale
 70
     0
300
3" = 1'-0"
140
3.0
141
12.0
290
     0
  0
SCALE
  5
67
102
{ACAD_REACTORS
330
47
102
}
330
47
100
AcDbScale
 70
     0
300
6" = 1'-0"
140
6.0
141
12.0
290
     0
  0
SCALE
  5
68
102
{ACAD_REACTORS
330
47
102
}
330
47
100
AcDbScale
 70
     0
300
1'-0" = 1'-0"
140
12.0
141
12.0
290
     0
  0
ENDSEC
  0
EOF
