  0
SECTION
  2
HEADER
  9
$ACADVER
  1
AC1015
  9
$ACADMAINTVER
 70
     6
  9
$DWGCODEPAGE
  3
ANSI_1250
  9
$INSBASE
 10
0.0
 20
0.0
 30
0.0
  9
$EXTMIN
 10
6122.9212570553
 20
3608.4312015284
 30
0.0
  9
$EXTMAX
 10
7582.4928752652
 20
5660.2449591785
 30
0.0
  9
$LIMMIN
 10
0.0
 20
0.0
  9
$LIMMAX
 10
420.0
 20
297.0
  9
$ORTHOMODE
 70
     0
  9
$REGENMODE
 70
     1
  9
$FILLMODE
 70
     1
  9
$QTEXTMODE
 70
     0
  9
$MIRRTEXT
 70
     1
  9
$LTSCALE
 40
1.0
  9
$ATTMODE
 70
     1
  9
$TEXTSIZE
 40
3.5
  9
$TRACEWID
 40
1.0
  9
$TEXTSTYLE
  7
Standard
  9
$CLAYER
  8
0
  9
$CELTYPE
  6
ByLayer
  9
$CECOLOR
 62
   256
  9
$CELTSCALE
 40
1.0
  9
$DISPSILH
 70
     0
  9
$DIMSCALE
 40
1.0
  9
$DIMASZ
 40
3.302
  9
$DIMEXO
 40
0.0
  9
$DIMDLI
 40
3.75
  9
$DIMRND
 40
0.0
  9
$DIMDLE
 40
0.0
  9
$DIMEXE
 40
1.0
  9
$DIMTP
 40
0.0
  9
$DIMTM
 40
0.0
  9
$DIMTXT
 40
3.5
  9
$DIMCEN
 40
2.5
  9
$DIMTSZ
 40
0.0
  9
$DIMTOL
 70
     0
  9
$DIMLIM
 70
     0
  9
$DIMTIH
 70
     1
  9
$DIMTOH
 70
     1
  9
$DIMSE1
 70
     0
  9
$DIMSE2
 70
     0
  9
$DIMTAD
 70
     1
  9
$DIMZIN
 70
     0
  9
$DIMBLK
  1

  9
$DIMASO
 70
     1
  9
$DIMSHO
 70
     1
  9
$DIMPOST
  1

  9
$DIMAPOST
  1

  9
$DIMALT
 70
     0
  9
$DIMALTD
 70
     3
  9
$DIMALTF
 40
0.0393700787
  9
$DIMLFAC
 40
1.0
  9
$DIMTOFL
 70
     1
  9
$DIMTVP
 40
0.0
  9
$DIMTIX
 70
     0
  9
$DIMSOXD
 70
     0
  9
$DIMSAH
 70
     0
  9
$DIMBLK1
  1

  9
$DIMBLK2
  1

  9
$DIMSTYLE
  2
ISO-25
  9
$DIMCLRD
 70
     0
  9
$DIMCLRE
 70
     0
  9
$DIMCLRT
 70
     0
  9
$DIMTFAC
 40
1.0
  9
$DIMGAP
 40
1.524
  9
$DIMJUST
 70
     0
  9
$DIMSD1
 70
     0
  9
$DIMSD2
 70
     0
  9
$DIMTOLJ
 70
     0
  9
$DIMTZIN
 70
     0
  9
$DIMALTZ
 70
     0
  9
$DIMALTTZ
 70
     0
  9
$DIMUPT
 70
     0
  9
$DIMDEC
 70
     2
  9
$DIMTDEC
 70
     2
  9
$DIMALTU
 70
     2
  9
$DIMALTTD
 70
     3
  9
$DIMTXSTY
  7
Standard
  9
$DIMAUNIT
 70
     0
  9
$DIMADEC
 70
     2
  9
$DIMALTRND
 40
0.0
  9
$DIMAZIN
 70
     0
  9
$DIMDSEP
 70
    44
  9
$DIMATFIT
 70
     3
  9
$DIMFRAC
 70
     0
  9
$DIMLDRBLK
  1

  9
$DIMLUNIT
 70
     2
  9
$DIMLWD
 70
    -2
  9
$DIMLWE
 70
    -2
  9
$DIMTMOVE
 70
     0
  9
$LUNITS
 70
     2
  9
$LUPREC
 70
     2
  9
$SKETCHINC
 40
1.0
  9
$FILLETRAD
 40
10.0
  9
$AUNITS
 70
     0
  9
$AUPREC
 70
     2
  9
$MENU
  1
.
  9
$ELEVATION
 40
0.0
  9
$PELEVATION
 40
0.0
  9
$THICKNESS
 40
0.0
  9
$LIMCHECK
 70
     0
  9
$CHAMFERA
 40
0.0
  9
$CHAMFERB
 40
0.0
  9
$CHAMFERC
 40
0.0
  9
$CHAMFERD
 40
0.0
  9
$SKPOLY
 70
     0
  9
$TDCREATE
 40
2459096.378330729
  9
$TDUCREATE
 40
2459096.294997396
  9
$TDUPDATE
 40
2459096.378360868
  9
$TDUUPDATE
 40
2459096.295027535
  9
$TDINDWG
 40
0.0000000116
  9
$TDUSRTIMER
 40
0.0000000116
  9
$USRTIMER
 70
     1
  9
$ANGBASE
 50
0.0
  9
$ANGDIR
 70
     0
  9
$PDMODE
 70
     0
  9
$PDSIZE
 40
-1.0
  9
$PLINEWID
 40
0.0
  9
$SPLFRAME
 70
     0
  9
$SPLINETYPE
 70
     6
  9
$SPLINESEGS
 70
     8
  9
$HANDSEED
  5
693
  9
$SURFTAB1
 70
     6
  9
$SURFTAB2
 70
     6
  9
$SURFTYPE
 70
     6
  9
$SURFU
 70
     6
  9
$SURFV
 70
     6
  9
$UCSBASE
  2

  9
$UCSNAME
  2

  9
$UCSORG
 10
0.0
 20
0.0
 30
0.0
  9
$UCSXDIR
 10
1.0
 20
0.0
 30
0.0
  9
$UCSYDIR
 10
0.0
 20
1.0
 30
0.0
  9
$UCSORTHOREF
  2

  9
$UCSORTHOVIEW
 70
     0
  9
$UCSORGTOP
 10
0.0
 20
0.0
 30
0.0
  9
$UCSORGBOTTOM
 10
0.0
 20
0.0
 30
0.0
  9
$UCSORGLEFT
 10
0.0
 20
0.0
 30
0.0
  9
$UCSORGRIGHT
 10
0.0
 20
0.0
 30
0.0
  9
$UCSORGFRONT
 10
0.0
 20
0.0
 30
0.0
  9
$UCSORGBACK
 10
0.0
 20
0.0
 30
0.0
  9
$PUCSBASE
  2

  9
$PUCSNAME
  2

  9
$PUCSORG
 10
0.0
 20
0.0
 30
0.0
  9
$PUCSXDIR
 10
1.0
 20
0.0
 30
0.0
  9
$PUCSYDIR
 10
0.0
 20
1.0
 30
0.0
  9
$PUCSORTHOREF
  2

  9
$PUCSORTHOVIEW
 70
     0
  9
$PUCSORGTOP
 10
0.0
 20
0.0
 30
0.0
  9
$PUCSORGBOTTOM
 10
0.0
 20
0.0
 30
0.0
  9
$PUCSORGLEFT
 10
0.0
 20
0.0
 30
0.0
  9
$PUCSORGRIGHT
 10
0.0
 20
0.0
 30
0.0
  9
$PUCSORGFRONT
 10
0.0
 20
0.0
 30
0.0
  9
$PUCSORGBACK
 10
0.0
 20
0.0
 30
0.0
  9
$USERI1
 70
     0
  9
$USERI2
 70
     0
  9
$USERI3
 70
     0
  9
$USERI4
 70
     0
  9
$USERI5
 70
     0
  9
$USERR1
 40
0.0
  9
$USERR2
 40
0.0
  9
$USERR3
 40
0.0
  9
$USERR4
 40
0.0
  9
$USERR5
 40
0.0
  9
$WORLDVIEW
 70
     1
  9
$SHADEDGE
 70
     3
  9
$SHADEDIF
 70
    70
  9
$TILEMODE
 70
     1
  9
$MAXACTVP
 70
    64
  9
$PINSBASE
 10
0.0
 20
0.0
 30
0.0
  9
$PLIMCHECK
 70
     0
  9
$PEXTMIN
 10
1.0000000000E+20
 20
1.0000000000E+20
 30
1.0000000000E+20
  9
$PEXTMAX
 10
-1.0000000000E+20
 20
-1.0000000000E+20
 30
-1.0000000000E+20
  9
$PLIMMIN
 10
0.0
 20
0.0
  9
$PLIMMAX
 10
420.0
 20
297.0
  9
$UNITMODE
 70
     0
  9
$VISRETAIN
 70
     1
  9
$PLINEGEN
 70
     0
  9
$PSLTSCALE
 70
     1
  9
$TREEDEPTH
 70
  3020
  9
$CMLSTYLE
  2
Standard
  9
$CMLJUST
 70
     0
  9
$CMLSCALE
 40
20.0
  9
$PROXYGRAPHICS
 70
     1
  9
$MEASUREMENT
 70
     1
  9
$CELWEIGHT
370
    -1
  9
$ENDCAPS
280
     0
  9
$JOINSTYLE
280
     0
  9
$LWDISPLAY
290
     1
  9
$INSUNITS
 70
     4
  9
$HYPERLINKBASE
  1

  9
$STYLESHEET
  1

  9
$XEDIT
290
     1
  9
$CEPSNTYPE
380
     0
  9
$PSTYLEMODE
290
     1
  9
$FINGERPRINTGUID
  2
{63564e23-e63f-4dee-981c-1b89e77341ed}
  9
$VERSIONGUID
  2
{FAEB1C32-E019-11D5-929B-00C0DF256EC4}
  9
$EXTNAMES
290
     1
  9
$PSVPSCALE
 40
0.0
  9
$OLESTARTUP
290
     0
  0
ENDSEC
  0
SECTION
  2
CLASSES
  0
CLASS
  1
ACDBDICTIONARYWDFLT
  2
AcDbDictionaryWithDefault
  3
ObjectDBX Classes
 90
        0
280
     0
281
     0
  0
CLASS
  1
VISUALSTYLE
  2
AcDbVisualStyle
  3
ObjectDBX Classes
 90
     4095
280
     0
281
     0
  0
CLASS
  1
MATERIAL
  2
AcDbMaterial
  3
ObjectDBX Classes
 90
     1153
280
     0
281
     0
  0
CLASS
  1
SCALE
  2
AcDbScale
  3
ObjectDBX Classes
 90
     1153
280
     0
281
     0
  0
CLASS
  1
TABLESTYLE
  2
AcDbTableStyle
  3
ObjectDBX Classes
 90
     4095
280
     0
281
     0
  0
CLASS
  1
MLEADERSTYLE
  2
AcDbMLeaderStyle
  3
ACDB_MLEADERSTYLE_CLASS
 90
     4095
280
     0
281
     0
  0
CLASS
  1
SUN
  2
AcDbSun
  3
SCENEOE
 90
     1153
280
     0
281
     0
  0
CLASS
  1
ACDBPLACEHOLDER
  2
AcDbPlaceHolder
  3
ObjectDBX Classes
 90
        0
280
     0
281
     0
  0
CLASS
  1
LAYOUT
  2
AcDbLayout
  3
ObjectDBX Classes
 90
        0
280
     0
281
     0
  0
ENDSEC
  0
SECTION
  2
TABLES
  0
TABLE
  2
VPORT
  5
8
330
0
100
AcDbSymbolTable
 70
     1
  0
VPORT
  5
29
330
8
100
AcDbSymbolTableRecord
100
AcDbViewportTableRecord
  2
*Active
 70
     0
 10
0.0
 20
0.0
 11
1.0
 21
1.0
 12
6852.7070661603
 22
4634.3380803534
 13
0.0
 23
0.0
 14
10.0
 24
10.0
 15
10.0
 25
10.0
 16
0.0
 26
0.0
 36
1.0
 17
0.0
 27
0.0
 37
0.0
 40
2092.8500328031
 41
0.7113567753
 42
50.0
 43
0.0
 44
0.0
 50
0.0
 51
0.0
 71
     0
 72
   100
 73
     1
 74
     3
 75
     0
 76
     0
 77
     0
 78
     0
281
     0
 65
     1
110
0.0
120
0.0
130
0.0
111
1.0
121
0.0
131
0.0
112
0.0
122
1.0
132
0.0
 79
     0
146
0.0
  0
ENDTAB
  0
TABLE
  2
LTYPE
  5
5
330
0
100
AcDbSymbolTable
 70
     6
  0
LTYPE
  5
14
330
5
100
AcDbSymbolTableRecord
100
AcDbLinetypeTableRecord
  2
ByBlock
 70
     0
  3

 72
    65
 73
     0
 40
0.0
  0
LTYPE
  5
15
330
5
100
AcDbSymbolTableRecord
100
AcDbLinetypeTableRecord
  2
ByLayer
 70
     0
  3

 72
    65
 73
     0
 40
0.0
  0
LTYPE
  5
16
330
5
100
AcDbSymbolTableRecord
100
AcDbLinetypeTableRecord
  2
Continuous
 70
     0
  3
Solid line
 72
    65
 73
     0
 40
0.0
  0
LTYPE
  5
6E
330
5
100
AcDbSymbolTableRecord
100
AcDbLinetypeTableRecord
  2
HIDDEN
 70
     0
  3
Hidden __ __ __ __ __ __ __ __ __ __ __ __ __ __
 72
    65
 73
     2
 40
1.905
 49
1.27
 74
     0
 49
-0.635
 74
     0
  0
LTYPE
  5
6F
330
5
100
AcDbSymbolTableRecord
100
AcDbLinetypeTableRecord
  2
PHANTOM
 70
     0
  3
Phantom ______  __  __  ______  __  __  ______
 72
    65
 73
     6
 40
12.7
 49
6.35
 74
     0
 49
-1.27
 74
     0
 49
1.27
 74
     0
 49
-1.27
 74
     0
 49
1.27
 74
     0
 49
-1.27
 74
     0
  0
LTYPE
  5
70
330
5
100
AcDbSymbolTableRecord
100
AcDbLinetypeTableRecord
  2
CENTER
 70
     0
  3
Center ____ _ ____ _ ____ _ ____ _ ____ _ ____
 72
    65
 73
     4
 40
10.16
 49
6.35
 74
     0
 49
-1.27
 74
     0
 49
1.27
 74
     0
 49
-1.27
 74
     0
  0
LTYPE
  5
71
330
5
100
AcDbSymbolTableRecord
100
AcDbLinetypeTableRecord
  2
CENTERX2
 70
     0
  3
Center (2x) ________  __  ________  __  _____
 72
    65
 73
     4
 40
20.32
 49
12.7
 74
     0
 49
-2.54
 74
     0
 49
2.54
 74
     0
 49
-2.54
 74
     0
  0
LTYPE
  5
72
330
5
100
AcDbSymbolTableRecord
100
AcDbLinetypeTableRecord
  2
DOT2
 70
     0
  3
Dot (.5x) ........................................
 72
    65
 73
     2
 40
0.635
 49
0.0
 74
     0
 49
-0.635
 74
     0
  0
ENDTAB
  0
TABLE
  2
LAYER
  5
2
330
0
100
AcDbSymbolTable
 70
     1
  0
LAYER
  5
10
330
2
100
AcDbSymbolTableRecord
100
AcDbLayerTableRecord
  2
0
 70
     0
 62
     7
  6
Continuous
370
    -3
390
F
  0
ENDTAB
  0
TABLE
  2
STYLE
  5
3
330
0
100
AcDbSymbolTable
 70
     1
  0
STYLE
  5
11
330
3
100
AcDbSymbolTableRecord
100
AcDbTextStyleTableRecord
  2
Standard
 70
     0
 40
0.0
 41
1.0
 50
0.0
 71
     0
 42
3.5
  3
txt
  4

  0
ENDTAB
  0
TABLE
  2
VIEW
  5
6
330
0
100
AcDbSymbolTable
 70
     0
  0
ENDTAB
  0
TABLE
  2
UCS
  5
7
330
0
100
AcDbSymbolTable
 70
     0
  0
ENDTAB
  0
TABLE
  2
APPID
  5
9
330
0
100
AcDbSymbolTable
 70
     1
  0
APPID
  5
12
330
9
100
AcDbSymbolTableRecord
100
AcDbRegAppTableRecord
  2
ACAD
 70
     0
  0
ENDTAB
  0
TABLE
  2
DIMSTYLE
  5
A
330
0
100
AcDbSymbolTable
 70
     1
100
AcDbDimStyleTable
  0
DIMSTYLE
105
27
330
A
100
AcDbSymbolTableRecord
100
AcDbDimStyleTableRecord
  2
ISO-25
 70
     0
 41
2.5
 42
0.625
 43
3.75
 44
1.25
 73
     0
 74
     0
 77
     1
 78
     8
140
2.5
141
2.5
143
0.0393700787
147
0.625
171
     3
172
     1
178
     0
271
     2
272
     2
274
     3
278
    44
283
     0
284
     8
340
11
  0
ENDTAB
  0
TABLE
  2
BLOCK_RECORD
  5
1
330
0
100
AcDbSymbolTable
 70
     1
  0
BLOCK_RECORD
  5
1F
330
1
100
AcDbSymbolTableRecord
100
AcDbBlockTableRecord
  2
*Model_Space
340
22
  0
BLOCK_RECORD
  5
1B
330
1
100
AcDbSymbolTableRecord
100
AcDbBlockTableRecord
  2
*Paper_Space
340
1E
  0
BLOCK_RECORD
  5
23
330
1
100
AcDbSymbolTableRecord
100
AcDbBlockTableRecord
  2
*Paper_Space0
340
26
  0
ENDTAB
  0
ENDSEC
  0
SECTION
  2
BLOCKS
  0
BLOCK
  5
20
330
1F
100
AcDbEntity
  8
0
100
AcDbBlockBegin
  2
*Model_Space
 70
     0
 10
0.0
 20
0.0
 30
0.0
  3
*Model_Space
  1

  0
ENDBLK
  5
21
330
1F
100
AcDbEntity
  8
0
100
AcDbBlockEnd
  0
BLOCK
  5
1C
330
1B
100
AcDbEntity
 67
     1
  8
0
100
AcDbBlockBegin
  2
*Paper_Space
 70
     0
 10
0.0
 20
0.0
 30
0.0
  3
*Paper_Space
  1

  0
ENDBLK
  5
1D
330
1B
100
AcDbEntity
 67
     1
  8
0
100
AcDbBlockEnd
  0
BLOCK
  5
24
330
23
100
AcDbEntity
  8
0
100
AcDbBlockBegin
  2
*Paper_Space0
 70
     0
 10
0.0
 20
0.0
 30
0.0
  3
*Paper_Space0
  1

  0
ENDBLK
  5
25
330
23
100
AcDbEntity
  8
0
100
AcDbBlockEnd
  0
ENDSEC
  0
SECTION
  2
ENTITIES
  0
ARC
  5
73
330
1F
100
AcDbEntity
  8
0
  6
Continuous
 62
     7
100
AcDbCircle
 10
6149.0187542104
 20
4793.2514438081
 30
0.0
 40
18.09749180349453
100
AcDbArc
 50
179.9999823732
 51
270.0000054723
  0
ARC
  5
74
330
1F
100
AcDbEntity
  8
0
  6
Continuous
 62
     7
100
AcDbCircle
 10
6149.0187542104
 20
4793.2514438081
 30
0.0
 40
18.09749180349476
100
AcDbArc
 50
130.7506045388
 51
179.9999823732
  0
ARC
  5
75
330
1F
100
AcDbEntity
  8
0
  6
Continuous
 62
     7
100
AcDbCircle
 10
6149.0187471343
 20
4793.2514560915
 30
0.0
 40
26.09749007899949
100
AcDbArc
 50
130.7505866496
 51
270.00001933
  0
ARC
  5
76
330
1F
100
AcDbEntity
  8
0
  6
Continuous
 62
     7
100
AcDbCircle
 10
6264.018756409
 20
5629.962026897
 30
0.0
 40
6.000000000002316
100
AcDbArc
 50
359.9998838863
 51
90.0000093918
  0
ARC
  5
77
330
1F
100
AcDbEntity
  8
0
  6
Continuous
 62
     7
100
AcDbCircle
 10
6264.018753995
 20
5629.9620133071
 30
0.0
 40
14.00000000000189
100
AcDbArc
 50
0.0000058544
 51
89.9999941456
  0
ARC
  5
78
330
1F
100
AcDbEntity
  8
0
  6
Continuous
 62
     7
100
AcDbCircle
 10
6399.0187571115
 20
4793.2514420836
 30
0.0
 40
18.09749007899814
100
AcDbArc
 50
269.9999726998
 51
49.2494101613
  0
ARC
  5
79
330
1F
100
AcDbEntity
  8
0
  6
Continuous
 62
     7
100
AcDbCircle
 10
6399.0187558462
 20
4793.251457465
 30
0.0
 40
26.09749145250531
100
AcDbArc
 50
269.9999838463
 51
359.9999823877
  0
ARC
  5
7A
330
1F
100
AcDbEntity
  8
0
  6
Continuous
 62
     7
100
AcDbCircle
 10
6399.0187558462
 20
4793.251457465
 30
0.0
 40
26.09749145250593
100
AcDbArc
 50
359.9999823877
 51
49.2494052313
  0
ARC
  5
7B
330
1F
100
AcDbEntity
  8
0
  6
Continuous
 62
     7
100
AcDbCircle
 10
6244.018756409
 20
4943.8807024184
 30
0.0
 40
26.00000000000206
100
AcDbArc
 50
310.7506008754
 51
359.9999829697
  0
ARC
  5
7C
330
1F
100
AcDbEntity
  8
0
  6
Continuous
 62
     7
100
AcDbCircle
 10
6244.018753995
 20
4943.8807140365
 30
0.0
 40
34.00000000000096
100
AcDbArc
 50
310.7506066125
 51
359.9999673984
  0
ARC
  5
7D
330
1F
100
AcDbEntity
  8
0
  6
Continuous
 62
     7
100
AcDbCircle
 10
6218.0187553361
 20
5572.4693115383
 30
0.0
 40
14.99999966470114
100
AcDbArc
 50
0.0
 51
180.0
  0
ARC
  5
7E
330
1F
100
AcDbEntity
  8
0
  6
Continuous
 62
     7
100
AcDbCircle
 10
6218.0187553361
 20
5572.4693115383
 30
0.0
 40
19.99999802878481
100
AcDbArc
 50
0.0000170753
 51
221.4096093028
  0
ARC
  5
7F
330
1F
100
AcDbEntity
  8
0
  6
Continuous
 62
     7
100
AcDbCircle
 10
6218.0187553361
 20
5572.4693115383
 30
0.0
 40
19.99999802878481
100
AcDbArc
 50
318.5903906972
 51
0.0000170753
  0
ARC
  5
80
330
1F
100
AcDbEntity
  8
0
  6
Continuous
 62
     7
100
AcDbCircle
 10
6218.0187553361
 20
5572.4693115383
 30
0.0
 40
24.99999761584211
100
AcDbArc
 50
0.0000136602
 51
233.1300941581
  0
ARC
  5
81
330
1F
100
AcDbEntity
  8
0
  6
Continuous
 62
     7
100
AcDbCircle
 10
6218.0187553361
 20
5572.4693115383
 30
0.0
 40
24.99999761584211
100
AcDbArc
 50
306.8699058419
 51
0.0000136602
  0
ARC
  5
82
330
1F
100
AcDbEntity
  8
0
  6
Continuous
 62
     7
100
AcDbCircle
 10
6234.0187553836
 20
5271.1539598136
 30
0.0
 40
14.99999999999911
100
AcDbArc
 50
89.9999972784
 51
180.0000022766
  0
ARC
  5
83
330
1F
100
AcDbEntity
  8
0
  6
Continuous
 62
     7
100
AcDbCircle
 10
6234.0187553836
 20
5191.1539566844
 30
0.0
 40
15.00000000000002
100
AcDbArc
 50
179.9999977234
 51
270.0000027216
  0
ARC
  5
84
330
1F
100
AcDbEntity
  8
0
  6
Continuous
 62
     7
100
AcDbCircle
 10
6314.0187567666
 20
5191.1539553457
 30
0.0
 40
14.99999866125018
100
AcDbArc
 50
269.9999977234
 51
0.0000022766
  0
ARC
  5
85
330
1F
100
AcDbEntity
  8
0
  6
Continuous
 62
     7
100
AcDbCircle
 10
6314.0187567666
 20
5271.1539611523
 30
0.0
 40
14.99999866125018
100
AcDbArc
 50
359.9999977234
 51
90.0000022766
  0
ARC
  5
86
330
1F
100
AcDbEntity
  8
0
  6
Continuous
 62
     7
100
AcDbCircle
 10
6314.0187554279
 20
5391.153964582
 30
0.0
 40
14.99999999999921
100
AcDbArc
 50
359.9999926098
 51
89.9999971629
  0
ARC
  5
87
330
1F
100
AcDbEntity
  8
0
  6
Continuous
 62
     7
100
AcDbCircle
 10
6234.0187553836
 20
5391.153964582
 30
0.0
 40
14.99999999999911
100
AcDbArc
 50
89.9999972784
 51
180.0000022766
  0
ARC
  5
88
330
1F
100
AcDbEntity
  8
0
  6
Continuous
 62
     7
100
AcDbCircle
 10
6234.0187553836
 20
5311.1539577275
 30
0.0
 40
14.9999999999991
100
AcDbArc
 50
179.9999977234
 51
270.0000027216
  0
ARC
  5
89
330
1F
100
AcDbEntity
  8
0
  6
Continuous
 62
     7
100
AcDbCircle
 10
6314.0187567666
 20
5311.1539563888
 30
0.0
 40
14.99999866125018
100
AcDbArc
 50
269.9999977234
 51
0.0000022765
  0
ARC
  5
8A
330
1F
100
AcDbEntity
  8
0
  6
Continuous
 62
     7
100
AcDbCircle
 10
6234.018756727
 20
5391.1539544492
 30
0.0
 40
10.0
100
AcDbArc
 50
89.9999959446
 51
179.9999453582
  0
ARC
  5
8B
330
1F
100
AcDbEntity
  8
0
  6
Continuous
 62
     7
100
AcDbCircle
 10
6314.0187540844
 20
5391.1539544492
 30
0.0
 40
9.999999999999677
100
AcDbArc
 50
0.0000469714
 51
89.9999803765
  0
ARC
  5
8C
330
1F
100
AcDbEntity
  8
0
  6
Continuous
 62
     7
100
AcDbCircle
 10
6314.0187567666
 20
5311.1539563888
 30
0.0
 40
9.999997317801007
100
AcDbArc
 50
269.9999965852
 51
0.0000034148
  0
ARC
  5
8D
330
1F
100
AcDbEntity
  8
0
  6
Continuous
 62
     7
100
AcDbCircle
 10
6234.0187553836
 20
5311.1539577275
 30
0.0
 40
9.999998656550833
100
AcDbArc
 50
179.9999965852
 51
270.0000040823
  0
ARC
  5
8E
330
1F
100
AcDbEntity
  8
0
  6
Continuous
 62
     7
100
AcDbCircle
 10
6252.314390634
 20
5370.2166103923
 30
0.0
 40
1.999999999998867
100
AcDbArc
 50
149.9999256492
 51
30.0000743508
  0
ARC
  5
8F
330
1F
100
AcDbEntity
  8
0
  6
Continuous
 62
     7
100
AcDbCircle
 10
6242.3699484084
 20
5363.4916577311
 30
0.0
 40
2.000000000001553
100
AcDbArc
 50
137.1604944153
 51
17.1605390713
  0
ARC
  5
90
330
1F
100
AcDbEntity
  8
0
  6
Continuous
 62
     7
100
AcDbCircle
 10
6243.9255029772
 20
5370.3166279764
 30
0.0
 40
2.000000000000964
100
AcDbArc
 50
137.1604944163
 51
17.1605390735
  0
ARC
  5
91
330
1F
100
AcDbEntity
  8
0
  6
Continuous
 62
     7
100
AcDbCircle
 10
6240.814391977
 20
5356.6666874857
 30
0.0
 40
2.000000000000416
100
AcDbArc
 50
137.1604944153
 51
17.1605390713
  0
ARC
  5
92
330
1F
100
AcDbEntity
  8
0
  6
Continuous
 62
     7
100
AcDbCircle
 10
6262.7588338729
 20
5363.4916577312
 30
0.0
 40
2.000000000001466
100
AcDbArc
 50
162.839460931
 51
42.8395055816
  0
ARC
  5
93
330
1F
100
AcDbEntity
  8
0
  6
Continuous
 62
     7
100
AcDbCircle
 10
6261.2032793041
 20
5370.3166279764
 30
0.0
 40
2.000000000001232
100
AcDbArc
 50
162.8394609264
 51
42.8395055837
  0
ARC
  5
94
330
1F
100
AcDbEntity
  8
0
  6
Continuous
 62
     7
100
AcDbCircle
 10
6265.8699458051
 20
5349.8417142265
 30
0.0
 40
2.000000000000798
100
AcDbArc
 50
162.8393705655
 51
42.8396233294
  0
ARC
  5
95
330
1F
100
AcDbEntity
  8
0
  6
Continuous
 62
     7
100
AcDbCircle
 10
6264.3143884416
 20
5356.6666874857
 30
0.0
 40
2.000000000000684
100
AcDbArc
 50
162.8394609287
 51
42.8395055847
  0
ARC
  5
96
330
1F
100
AcDbEntity
  8
0
  6
Continuous
 62
     7
100
AcDbCircle
 10
6243.3399483934
 20
5327.3204664457
 30
0.0
 40
3.30000000000058
100
AcDbArc
 50
179.9999986871
 51
280.475696272
  0
ARC
  5
97
330
1F
100
AcDbEntity
  8
0
  6
Continuous
 62
     7
100
AcDbCircle
 10
6261.9399502888
 20
5327.3147218282
 30
0.0
 40
3.300000000002411
100
AcDbArc
 50
258.9892381699
 51
0.000005131
  0
ARC
  5
98
330
1F
100
AcDbEntity
  8
0
  6
Continuous
 62
     7
100
AcDbCircle
 10
6262.2399502888
 20
5344.4754716783
 30
0.0
 40
3.000000000000313
100
AcDbArc
 50
0.0000261822
 51
90.0000449657
  0
ARC
  5
99
330
1F
100
AcDbEntity
  8
0
  6
Continuous
 62
     7
100
AcDbCircle
 10
6243.0399483934
 20
5344.4754716783
 30
0.0
 40
3.000000000000313
100
AcDbArc
 50
89.9999906092
 51
179.9999738177
  0
ARC
  5
9A
330
1F
100
AcDbEntity
  8
0
  6
Continuous
 62
     7
100
AcDbCircle
 10
6239.2588360109
 20
5349.8417157335
 30
0.0
 40
2.000000000001039
100
AcDbArc
 50
137.160435545
 51
17.1605842529
  0
ARC
  5
9B
330
1F
100
AcDbEntity
  8
0
  6
Continuous
 62
     7
100
AcDbCircle
 10
6252.314390634
 20
5363.2166111076
 30
0.0
 40
1.999999999999321
100
AcDbArc
 50
149.9999256492
 51
30.0000743508
  0
ARC
  5
9C
330
1F
100
AcDbEntity
  8
0
  6
Continuous
 62
     7
100
AcDbCircle
 10
6314.0187567666
 20
5271.1539611523
 30
0.0
 40
9.999997317800098
100
AcDbArc
 50
359.9999812442
 51
90.0000034148
  0
ARC
  5
9D
330
1F
100
AcDbEntity
  8
0
  6
Continuous
 62
     7
100
AcDbCircle
 10
6314.0187567666
 20
5191.1539553457
 30
0.0
 40
9.999997317799188
100
AcDbArc
 50
269.9999965852
 51
0.0000034148
  0
ARC
  5
9E
330
1F
100
AcDbEntity
  8
0
  6
Continuous
 62
     7
100
AcDbCircle
 10
6234.0187553836
 20
5271.1539598136
 30
0.0
 40
9.999998656549923
100
AcDbArc
 50
89.9999959177
 51
180.0000034148
  0
ARC
  5
9F
330
1F
100
AcDbEntity
  8
0
  6
Continuous
 62
     7
100
AcDbCircle
 10
6253.4764595524
 20
5216.5272133689
 30
0.0
 40
2.000000000000433
100
AcDbArc
 50
330.000032371
 51
209.9999676289
  0
ARC
  5
A0
330
1F
100
AcDbEntity
  8
0
  6
Continuous
 62
     7
100
AcDbCircle
 10
6253.4764595524
 20
5209.5272136185
 30
0.0
 40
2.000000000000888
100
AcDbArc
 50
330.000032371
 51
209.9999676289
  0
ARC
  5
A1
330
1F
100
AcDbEntity
  8
0
  6
Continuous
 62
     7
100
AcDbCircle
 10
6253.4764595524
 20
5231.1800201688
 30
0.0
 40
2.000000000000888
100
AcDbArc
 50
330.000032371
 51
209.9999676289
  0
ARC
  5
A2
330
1F
100
AcDbEntity
  8
0
  6
Continuous
 62
     7
100
AcDbCircle
 10
6263.420905043
 20
5216.2521705526
 30
0.0
 40
2.000000000000347
100
AcDbArc
 50
317.1604353314
 51
197.1604029108
  0
ARC
  5
A3
330
1F
100
AcDbEntity
  8
0
  6
Continuous
 62
     7
100
AcDbCircle
 10
6253.4764595524
 20
5224.1800201273
 30
0.0
 40
2.000000000002252
100
AcDbArc
 50
330.000032371
 51
209.999967629
  0
ARC
  5
A4
330
1F
100
AcDbEntity
  8
0
  6
Continuous
 62
     7
100
AcDbCircle
 10
6261.8653505821
 20
5209.4271980952
 30
0.0
 40
2.000000000000148
100
AcDbArc
 50
317.1604307861
 51
197.1603924361
  0
ARC
  5
A5
330
1F
100
AcDbEntity
  8
0
  6
Continuous
 62
     7
100
AcDbCircle
 10
6266.532017083
 20
5229.9021178987
 30
0.0
 40
2.000000000001436
100
AcDbArc
 50
317.1603130411
 51
197.1604827993
  0
ARC
  5
A6
330
1F
100
AcDbEntity
  8
0
  6
Continuous
 62
     7
100
AcDbCircle
 10
6264.9764596892
 20
5223.0771427441
 30
0.0
 40
2.000000000001679
100
AcDbArc
 50
317.1604320677
 51
197.1603953802
  0
ARC
  5
A7
330
1F
100
AcDbEntity
  8
0
  6
Continuous
 62
     7
100
AcDbCircle
 10
6243.0320167737
 20
5216.2521705526
 30
0.0
 40
2.000000000000212
100
AcDbArc
 50
342.8395970892
 51
222.8395646686
  0
ARC
  5
A8
330
1F
100
AcDbEntity
  8
0
  6
Continuous
 62
     7
100
AcDbCircle
 10
6241.4764602648
 20
5223.0771427442
 30
0.0
 40
2.000000000000226
100
AcDbArc
 50
342.8396046175
 51
222.8395679353
  0
ARC
  5
A9
330
1F
100
AcDbEntity
  8
0
  6
Continuous
 62
     7
100
AcDbCircle
 10
6253.0016737575
 20
5271.5448381803
 30
0.0
 40
36.04807543703953
100
AcDbArc
 50
225.6411968121
 51
314.3588031879
  0
ARC
  5
AA
330
1F
100
AcDbEntity
  8
0
  6
Continuous
 62
     7
100
AcDbCircle
 10
6253.0016737575
 20
5222.3756544685
 30
0.0
 40
34.38821205771055
100
AcDbArc
 50
42.8702501843
 51
137.1297498157
  0
ARC
  5
AB
330
1F
100
AcDbEntity
  8
0
  6
Continuous
 62
     7
100
AcDbCircle
 10
6244.5875712346
 20
5209.4271980952
 30
0.0
 40
2.000000000000148
100
AcDbArc
 50
342.8396075639
 51
222.8395692139
  0
ARC
  5
AC
330
1F
100
AcDbEntity
  8
0
  6
Continuous
 62
     7
100
AcDbCircle
 10
6234.0187553836
 20
5191.1539566844
 30
0.0
 40
9.999998656549923
100
AcDbArc
 50
179.9999965852
 51
270.0000040823
  0
ARC
  5
AD
330
1F
100
AcDbEntity
  8
0
  6
Continuous
 62
     7
100
AcDbCircle
 10
6239.9209056657
 20
5229.9021148848
 30
0.0
 40
2.000000000000361
100
AcDbArc
 50
342.8396075641
 51
222.8395692098
  0
CIRCLE
  5
AE
330
1F
100
AcDbEntity
  8
0
  6
Continuous
 62
     7
100
AcDbCircle
 10
6253.6572749891
 20
5248.7752568058
 30
0.0
 40
3.621174220029388
  0
ARC
  5
AF
330
1F
100
AcDbEntity
  8
0
  6
Continuous
 62
     7
100
AcDbCircle
 10
6253.0016737575
 20
5222.3756544685
 30
0.0
 40
30.38821205772582
100
AcDbArc
 50
101.2224035449
 51
129.2550196037
  0
ARC
  5
B0
330
1F
100
AcDbEntity
  8
0
  6
Continuous
 62
     7
100
AcDbCircle
 10
6253.0016737575
 20
5222.3756544685
 30
0.0
 40
30.38821205774464
100
AcDbArc
 50
50.7449803963
 51
75.9324426487
  0
ARC
  5
B1
330
1F
100
AcDbEntity
  8
0
  6
Continuous
 62
     7
100
AcDbCircle
 10
6253.6572749891
 20
5248.7752568058
 30
0.0
 40
7.400832061086045
100
AcDbArc
 50
152.5851801566
 51
24.5696660371
  0
ARC
  5
B2
330
1F
100
AcDbEntity
  8
0
  6
Continuous
 62
     7
100
AcDbCircle
 10
6253.0016737575
 20
5271.5448381803
 30
0.0
 40
32.04807543700826
100
AcDbArc
 50
233.1301023542
 51
306.8698976458
  0
ARC
  5
B3
330
1F
100
AcDbEntity
  8
0
  6
Continuous
 62
     7
100
AcDbCircle
 10
7472.4928776494
 20
5512.4693258434
 30
0.0
 40
45.00000000000037
100
AcDbArc
 50
359.9999787505
 51
89.9999453585
  0
ARC
  5
B4
330
1F
100
AcDbEntity
  8
0
  6
Continuous
 62
     7
100
AcDbCircle
 10
7472.4929086438
 20
5512.4693270355
 30
0.0
 40
75.00000000000122
100
AcDbArc
 50
359.9999863396
 51
89.9999908931
  0
ARC
  5
B5
330
1F
100
AcDbEntity
  8
0
  6
Continuous
 62
     7
100
AcDbCircle
 10
6951.3922206632
 20
4771.1539579903
 30
0.0
 40
4.000008106250789
100
AcDbArc
 50
180.0
 51
0.0
  0
ARC
  5
B6
330
1F
100
AcDbEntity
  8
0
  6
Continuous
 62
     7
100
AcDbCircle
 10
6915.870393025
 20
5229.359647528
 30
0.0
 40
27.30819018239377
100
AcDbArc
 50
36.9401744668
 51
143.0598255332
  0
ARC
  5
B7
330
1F
100
AcDbEntity
  8
0
  6
Continuous
 62
     7
100
AcDbCircle
 10
6915.870393025
 20
5264.0752880563
 30
0.0
 40
28.4855706803883
100
AcDbArc
 50
219.9836457727
 51
320.0163542273
  0
ARC
  5
B8
330
1F
100
AcDbEntity
  8
0
  6
Continuous
 62
     7
100
AcDbCircle
 10
6907.6460532294
 20
5327.0636425464
 30
0.0
 40
3.011816433230381
100
AcDbArc
 50
175.1083269396
 51
277.1840853528
  0
ARC
  5
B9
330
1F
100
AcDbEntity
  8
0
  6
Continuous
 62
     7
100
AcDbCircle
 10
6923.4726628484
 20
5327.0553456187
 30
0.0
 40
3.007587522914634
100
AcDbArc
 50
262.2160642533
 51
4.9473747407
  0
ARC
  5
BA
330
1F
100
AcDbEntity
  8
0
  6
Continuous
 62
     7
100
AcDbCircle
 10
6923.6544729709
 20
5344.6629807471
 30
0.0
 40
2.820811115473188
100
AcDbArc
 50
356.1885688383
 51
85.5982648708
  0
ARC
  5
BB
330
1F
100
AcDbEntity
  8
0
  6
Continuous
 62
     7
100
AcDbCircle
 10
6907.4597883339
 20
5344.6629725385
 30
0.0
 40
2.82082002729724
100
AcDbArc
 50
94.4019142881
 51
183.8112520027
  0
ARC
  5
BC
330
1F
100
AcDbEntity
  8
0
  6
Continuous
 62
     7
100
AcDbCircle
 10
6916.4081799669
 20
5228.6301084867
 30
0.0
 40
28.13798671357274
100
AcDbArc
 50
90.9933007956
 51
142.4694098772
  0
ARC
  5
BD
330
1F
100
AcDbEntity
  8
0
  6
Continuous
 62
     7
100
AcDbCircle
 10
6916.3202946179
 20
5264.6666563422
 30
0.0
 40
29.17263449451152
100
AcDbArc
 50
220.3689193851
 51
269.2145603905
  0
ARC
  5
BE
330
1F
100
AcDbEntity
  8
0
  6
Continuous
 62
     7
100
AcDbCircle
 10
6915.1704598905
 20
5227.7080869688
 30
0.0
 40
25.17992334942492
100
AcDbArc
 50
46.2803529861
 51
73.5114145648
  0
ARC
  5
BF
330
1F
100
AcDbEntity
  8
0
  6
Continuous
 62
     7
100
AcDbCircle
 10
6915.6850124706
 20
5264.9455725258
 30
0.0
 40
25.44989841242104
100
AcDbArc
 50
270.529925617
 51
311.5735128627
  0
ARC
  5
C0
330
1F
100
AcDbEntity
  8
0
  6
Continuous
 62
     7
100
AcDbCircle
 10
6916.2460566438
 20
5249.0182289942
 30
0.0
 40
3.386866598319406
100
AcDbArc
 50
355.8861060942
 51
85.9008655709
  0
ARC
  5
C1
330
1F
100
AcDbEntity
  8
0
  6
Continuous
 62
     7
100
AcDbCircle
 10
6916.2075172052
 20
5248.565662248
 30
0.0
 40
3.423102234668567
100
AcDbArc
 50
274.7026336759
 51
3.5103946574
  0
ARC
  5
C2
330
1F
100
AcDbEntity
  8
0
  6
Continuous
 62
     7
100
AcDbCircle
 10
6916.5006644707
 20
5227.8849861468
 30
0.0
 40
24.96939104404676
100
AcDbArc
 50
103.3184621355
 51
133.8017292428
  0
ARC
  5
C3
330
1F
100
AcDbEntity
  8
0
  6
Continuous
 62
     7
100
AcDbCircle
 10
6915.1204318929
 20
5227.7080888088
 30
0.0
 40
25.17993563524555
100
AcDbArc
 50
46.2803176941
 51
73.5113053672
  0
ARC
  5
C4
330
1F
100
AcDbEntity
  8
0
  6
Continuous
 62
     7
100
AcDbCircle
 10
6915.870393025
 20
5264.4710675578
 30
0.0
 40
24.93910558813322
100
AcDbArc
 50
228.1076562282
 51
311.8923437718
  0
ARC
  5
C5
330
1F
100
AcDbEntity
  8
0
  6
Continuous
 62
     7
100
AcDbCircle
 10
6927.8292365818
 20
5229.9561640557
 30
0.0
 40
1.955324800130943
100
AcDbArc
 50
95.612334806
 51
199.2342366778
  0
ARC
  5
C6
330
1F
100
AcDbEntity
  8
0
  6
Continuous
 62
     7
100
AcDbCircle
 10
6927.2242275417
 20
5349.7674484914
 30
0.0
 40
1.932336971152919
100
AcDbArc
 50
159.8904475744
 51
265.2628033414
  0
ARC
  5
C7
330
1F
100
AcDbEntity
  8
0
  6
Continuous
 62
     7
100
AcDbCircle
 10
6926.4820814597
 20
5223.1311920401
 30
0.0
 40
1.955324172027712
100
AcDbArc
 50
95.6123147341
 51
199.2342500297
  0
ARC
  5
C8
330
1F
100
AcDbEntity
  8
0
  6
Continuous
 62
     7
100
AcDbCircle
 10
6925.8771020756
 20
5356.5924372106
 30
0.0
 40
1.932357769866258
100
AcDbArc
 50
159.8912566936
 51
265.261994225
  0
ARC
  5
C9
330
1F
100
AcDbEntity
  8
0
  6
Continuous
 62
     7
100
AcDbCircle
 10
6925.1348965711
 20
5216.3062605853
 30
0.0
 40
1.955280730113426
100
AcDbArc
 50
95.6115414918
 51
199.2359662721
  0
ARC
  5
CA
330
1F
100
AcDbEntity
  8
0
  6
Continuous
 62
     7
100
AcDbCircle
 10
6907.7624222262
 20
5327.0892490307
 30
0.0
 40
3.075909863842757
100
AcDbArc
 50
175.6889846935
 51
266.0977691524
  0
ARC
  5
CB
330
1F
100
AcDbEntity
  8
0
  6
Continuous
 62
     7
100
AcDbCircle
 10
6907.5097748365
 20
5344.6629924884
 30
0.0
 40
2.820799607253031
100
AcDbArc
 50
94.4018057888
 51
183.8116857514
  0
ARC
  5
CC
330
1F
100
AcDbEntity
  8
0
  6
Continuous
 62
     7
100
AcDbCircle
 10
6924.5299025525
 20
5363.4173896899
 30
0.0
 40
1.932321485894897
100
AcDbArc
 50
159.8903018095
 51
265.2632482239
  0
CIRCLE
  5
CD
330
1F
100
AcDbEntity
  8
0
  6
Continuous
 62
     7
100
AcDbCircle
 10
6951.3922256566
 20
5639.9620165158
 30
0.0
 40
2.549999999999272
  0
ARC
  5
CE
330
1F
100
AcDbEntity
  8
0
  6
Continuous
 62
     7
100
AcDbCircle
 10
6923.7877420435
 20
5209.4812882225
 30
0.0
 40
1.955280505755209
100
AcDbArc
 50
95.6115377562
 51
199.2359606579
  0
ARC
  5
CF
330
1F
100
AcDbEntity
  8
0
  6
Continuous
 62
     7
100
AcDbCircle
 10
6923.182731823
 20
5370.2423286099
 30
0.0
 40
1.93228891737448
100
AcDbArc
 50
159.8889590609
 51
265.26365469
  0
ARC
  5
D0
330
1F
100
AcDbEntity
  8
0
  6
Continuous
 62
     7
100
AcDbCircle
 10
6916.5797395355
 20
5224.180933538
 30
0.0
 40
2.01443201093116
100
AcDbArc
 50
97.0763899492
 51
209.7931884223
  0
ARC
  5
D1
330
1F
100
AcDbEntity
  8
0
  6
Continuous
 62
     7
100
AcDbCircle
 10
6916.5797384921
 20
5231.1809337521
 30
0.0
 40
2.014431191183129
100
AcDbArc
 50
97.0763629396
 51
209.7932074289
  0
ARC
  5
D2
330
1F
100
AcDbEntity
  8
0
  6
Continuous
 62
     7
100
AcDbCircle
 10
6916.5797384921
 20
5209.5281272018
 30
0.0
 40
2.014431191182677
100
AcDbArc
 50
97.0763629396
 51
209.7932074288
  0
ARC
  5
D3
330
1F
100
AcDbEntity
  8
0
  6
Continuous
 62
     7
100
AcDbCircle
 10
6916.5797392603
 20
5216.5281268784
 30
0.0
 40
2.014431821205966
100
AcDbArc
 50
97.0763827322
 51
209.79319475
  0
ARC
  5
D4
330
1F
100
AcDbEntity
  8
0
  6
Continuous
 62
     7
100
AcDbCircle
 10
6915.5433334258
 20
5363.2006838977
 30
0.0
 40
1.996018788986828
100
AcDbArc
 50
149.404227672
 51
263.7254193327
  0
ARC
  5
D5
330
1F
100
AcDbEntity
  8
0
  6
Continuous
 62
     7
100
AcDbCircle
 10
6915.5433334259
 20
5370.2006831825
 30
0.0
 40
1.996018788986121
100
AcDbArc
 50
149.4042276752
 51
263.7254193311
  0
ARC
  5
D6
330
1F
100
AcDbEntity
  8
0
  6
Continuous
 62
     7
100
AcDbCircle
 10
6908.8642399158
 20
5209.4200164698
 30
0.0
 40
2.020394001353813
100
AcDbArc
 50
96.5560225133
 51
222.0307892671
  0
ARC
  5
D7
330
1F
100
AcDbEntity
  8
0
  6
Continuous
 62
     7
100
AcDbCircle
 10
6908.2908665155
 20
5370.3238127415
 30
0.0
 40
2.020385965919468
100
AcDbArc
 50
137.96918738
 51
263.4441374142
  0
ARC
  5
D8
330
1F
100
AcDbEntity
  8
0
  6
Continuous
 62
     7
100
AcDbCircle
 10
6907.5171019455
 20
5216.244982841
 30
0.0
 40
2.020402036668706
100
AcDbArc
 50
96.5564647091
 51
222.0303470679
  0
ARC
  5
D9
330
1F
100
AcDbEntity
  8
0
  6
Continuous
 62
     7
100
AcDbCircle
 10
6906.9436864686
 20
5363.4988327936
 30
0.0
 40
2.020373396452991
100
AcDbArc
 50
137.968495635
 51
263.4448291583
  0
ARC
  5
DA
330
1F
100
AcDbEntity
  8
0
  6
Continuous
 62
     7
100
AcDbCircle
 10
6906.1699532557
 20
5223.0699517754
 30
0.0
 40
2.020404137695728
100
AcDbArc
 50
96.5561949016
 51
222.0301722
  0
ARC
  5
DB
330
1F
100
AcDbEntity
  8
0
  6
Continuous
 62
     7
100
AcDbCircle
 10
6905.596581074
 20
5356.6738731856
 30
0.0
 40
2.020402659110652
100
AcDbArc
 50
137.9696497762
 51
263.4439516057
  0
ARC
  5
DC
330
1F
100
AcDbEntity
  8
0
  6
Continuous
 62
     7
100
AcDbCircle
 10
6904.8227937309
 20
5229.8949327625
 30
0.0
 40
2.020395191760357
100
AcDbArc
 50
96.5560771698
 51
222.0307398636
  0
ARC
  5
DD
330
1F
100
AcDbEntity
  8
0
  6
Continuous
 62
     7
100
AcDbCircle
 10
6904.2494281671
 20
5349.8488968409
 30
0.0
 40
2.020396767707751
100
AcDbArc
 50
137.969266319
 51
263.4438903853
  0
ARC
  5
DE
330
1F
100
AcDbEntity
  8
0
  6
Continuous
 62
     7
100
AcDbCircle
 10
6126.9212663367
 20
4239.5318718476
 30
0.0
 40
4.000008106250789
100
AcDbArc
 50
90.0
 51
270.0
  0
ARC
  5
DF
330
1F
100
AcDbEntity
  8
0
  6
Continuous
 62
     7
100
AcDbCircle
 10
6421.1162477925
 20
4239.5318718476
 30
0.0
 40
4.000008106250789
100
AcDbArc
 50
270.0
 51
90.0
  0
ARC
  5
E0
330
1F
100
AcDbEntity
  8
0
  6
Continuous
 62
     7
100
AcDbCircle
 10
6218.0187553361
 20
3658.4312015284
 30
0.0
 40
14.99999966470114
100
AcDbArc
 50
180.0
 51
0.0
  0
ARC
  5
E1
330
1F
100
AcDbEntity
  8
0
  6
Continuous
 62
     7
100
AcDbCircle
 10
6218.0187553361
 20
3658.4312015284
 30
0.0
 40
22.50000000000091
100
AcDbArc
 50
131.8103148958
 51
270.0
  0
ARC
  5
E2
330
1F
100
AcDbEntity
  8
0
  6
Continuous
 62
     7
100
AcDbCircle
 10
6218.0187553361
 20
3658.4312015284
 30
0.0
 40
22.50000000000091
100
AcDbArc
 50
270.0
 51
48.1896851042
  0
ARC
  5
E3
330
1F
100
AcDbEntity
  8
0
  6
Continuous
 62
     7
100
AcDbCircle
 10
6218.0187553361
 20
3658.4312015284
 30
0.0
 40
50.00000000000047
100
AcDbArc
 50
107.4576031237
 51
270.0
  0
ARC
  5
E4
330
1F
100
AcDbEntity
  8
0
  6
Continuous
 62
     7
100
AcDbCircle
 10
6218.0187553361
 20
3658.4312015284
 30
0.0
 40
50.00000000000047
100
AcDbArc
 50
270.0
 51
72.5423968763
  0
ARC
  5
E5
330
1F
100
AcDbEntity
  8
0
  6
Continuous
 62
     7
100
AcDbCircle
 10
6218.0187553361
 20
3658.4312015284
 30
0.0
 40
40.00000000000047
100
AcDbArc
 50
270.0
 51
67.975687163
  0
ARC
  5
E6
330
1F
100
AcDbEntity
  8
0
  6
Continuous
 62
     7
100
AcDbCircle
 10
6218.0187553361
 20
3658.4312015284
 30
0.0
 40
40.0
100
AcDbArc
 50
112.024312837
 51
270.0
  0
ARC
  5
E7
330
1F
100
AcDbEntity
  8
0
  6
Continuous
 62
     7
100
AcDbCircle
 10
6274.0187570647
 20
4239.5318718477
 30
0.0
 40
4.000008106249879
100
AcDbArc
 50
270.0
 51
90.0
  0
ARC
  5
E8
330
1F
100
AcDbEntity
  8
0
  6
Continuous
 62
     7
100
AcDbCircle
 10
6218.0187553361
 20
5572.4693115383
 30
0.0
 40
35.0
100
AcDbArc
 50
31.0027191339
 51
180.0
  0
ARC
  5
E9
330
1F
100
AcDbEntity
  8
0
  6
Continuous
 62
     7
100
AcDbCircle
 10
6218.0187553361
 20
5572.4693115383
 30
0.0
 40
35.00000000000053
100
AcDbArc
 50
295.3769335252
 51
339.0751675724
  0
ARC
  5
EA
330
1F
100
AcDbEntity
  8
0
  6
Continuous
 62
     7
100
AcDbCircle
 10
6218.0187553361
 20
5572.4693115383
 30
0.0
 40
35.0
100
AcDbArc
 50
180.0
 51
244.6230664748
  0
ARC
  5
EB
330
1F
100
AcDbEntity
  8
0
  6
Continuous
 62
     7
100
AcDbCircle
 10
6218.0187553361
 20
5572.4693115383
 30
0.0
 40
27.00000000000066
100
AcDbArc
 50
180.0
 51
236.2510114041
  0
ARC
  5
EC
330
1F
100
AcDbEntity
  8
0
  6
Continuous
 62
     7
100
AcDbCircle
 10
6218.0187553361
 20
5572.4693115383
 30
0.0
 40
27.00000000000066
100
AcDbArc
 50
303.7489885959
 51
332.4215320219
  0
ARC
  5
ED
330
1F
100
AcDbEntity
  8
0
  6
Continuous
 62
     7
100
AcDbCircle
 10
6218.0187553361
 20
5572.4693115383
 30
0.0
 40
26.99999999999964
100
AcDbArc
 50
27.5784679781
 51
180.0
  0
ELLIPSE
  5
EE
330
1F
100
AcDbEntity
  8
0
  6
Continuous
 62
     7
100
AcDbEllipse
 10
6252.6399485486
 20
5355.1254725
 30
0.0
 11
0.0
 21
-5.549999999999272
 31
0.0
210
0.0
220
0.0
230
1.0
 40
0.8918918919
 41
0.0
 42
6.283185307179586
  0
ELLIPSE
  5
EF
330
1F
100
AcDbEntity
  8
0
  6
Continuous
 62
     7
100
AcDbEllipse
 10
6915.5571278004
 20
5355.1254725
 30
0.0
 11
0.0
 21
5.550000000001091
 31
0.0
210
0.0
220
0.0
230
1.0
 40
0.7724010358
 41
0.0
 42
6.283185307179586
  0
ELLIPSE
  5
F0
330
1F
100
AcDbEntity
  8
0
  6
Continuous
 62
     7
100
AcDbEllipse
 10
6915.6071278004
 20
5355.1254725
 30
0.0
 11
0.0
 21
5.550000000001091
 31
0.0
210
0.0
220
0.0
230
1.0
 40
0.7724010358
 41
6.282139298046881
 42
9.42477796076938
  0
LINE
  5
F1
330
1F
100
AcDbEntity
  8
0
  6
Continuous
 62
     7
100
AcDbLine
 10
6268.0187560812
 20
5432.4693109422
 30
0.0
 11
6258.018754442
 21
5442.4693163066
 31
0.0
  0
LINE
  5
F2
330
1F
100
AcDbEntity
  8
0
  6
Continuous
 62
     7
100
AcDbLine
 10
6178.0187562302
 20
5442.4693163066
 30
0.0
 11
6168.018754591
 21
5432.4693109422
 31
0.0
  0
LINE
  5
F3
330
1F
100
AcDbEntity
  8
0
  6
Continuous
 62
     7
100
AcDbLine
 10
6268.0187560812
 20
5422.469320479
 30
0.0
 11
6268.0187560812
 21
5432.4693109422
 31
0.0
  0
LINE
  5
F4
330
1F
100
AcDbEntity
  8
0
  6
Continuous
 62
     7
100
AcDbLine
 10
6168.018754591
 20
5432.4693109422
 30
0.0
 11
6168.018754591
 21
5422.469320479
 31
0.0
  0
LINE
  5
F5
330
1F
100
AcDbEntity
  8
0
  6
Continuous
 62
     7
100
AcDbLine
 10
6240.5187562302
 20
5442.4693163066
 30
0.0
 11
6240.5187562302
 21
5492.4693282276
 31
0.0
  0
LINE
  5
F6
330
1F
100
AcDbEntity
  8
0
  6
Continuous
 62
     7
100
AcDbLine
 10
6195.518754442
 20
5492.4693282276
 30
0.0
 11
6195.518754442
 21
5442.4693163066
 31
0.0
  0
LINE
  5
F7
330
1F
100
AcDbEntity
  8
0
  6
Continuous
 62
     7
100
AcDbLine
 10
6233.0187550008
 20
5492.4693282276
 30
0.0
 11
6233.0187550008
 21
5512.4693091541
 31
0.0
  0
LINE
  5
F8
330
1F
100
AcDbEntity
  8
0
  6
Continuous
 62
     7
100
AcDbLine
 10
6203.0187556714
 20
5512.4693091541
 30
0.0
 11
6203.0187556714
 21
5492.4693282276
 31
0.0
  0
LINE
  5
F9
330
1F
100
AcDbEntity
  8
0
  6
Continuous
 62
     7
100
AcDbLine
 10
6203.0187556714
 20
5572.4693115383
 30
0.0
 11
6203.0187556714
 21
5512.4693091541
 31
0.0
  0
LINE
  5
FA
330
1F
100
AcDbEntity
  8
0
  6
Continuous
 62
     7
100
AcDbLine
 10
6233.0187550008
 20
5512.4693091541
 30
0.0
 11
6233.0187550008
 21
5572.4693115383
 31
0.0
  0
LINE
  5
FB
330
1F
100
AcDbEntity
  8
0
  6
Continuous
 62
     7
100
AcDbLine
 10
6239.6788448289
 20
5559.9693234592
 30
0.0
 11
6260.0187547699
 21
5559.9693234592
 31
0.0
  0
LINE
  5
FC
330
1F
100
AcDbEntity
  8
0
  6
Continuous
 62
     7
100
AcDbLine
 10
6260.0187547699
 20
5584.9693294197
 30
0.0
 11
6259.0187564686
 21
5584.9693294197
 31
0.0
  0
LINE
  5
FD
330
1F
100
AcDbEntity
  8
0
  6
Continuous
 62
     7
100
AcDbLine
 10
6248.0187546655
 20
5584.9693294197
 30
0.0
 11
6239.6944519326
 21
5584.9693294197
 31
0.0
  0
LINE
  5
FE
330
1F
100
AcDbEntity
  8
0
  6
Continuous
 62
     7
100
AcDbLine
 10
6260.5187557831
 20
5635.962026897
 30
0.0
 11
6264.0187554255
 21
5635.962026897
 31
0.0
  0
LINE
  5
FF
330
1F
100
AcDbEntity
  8
0
  6
Continuous
 62
     7
100
AcDbLine
 10
6264.0187554255
 20
5643.9620133071
 30
0.0
 11
6260.5187557831
 21
5643.9620133071
 31
0.0
  0
LINE
  5
100
330
1F
100
AcDbEntity
  8
0
  6
Continuous
 62
     7
100
AcDbLine
 10
6260.5187557831
 20
5643.9620133071
 30
0.0
 11
6259.0687535897
 21
5642.5120111137
 31
0.0
  0
LINE
  5
101
330
1F
100
AcDbEntity
  8
0
  6
Continuous
 62
     7
100
AcDbLine
 10
6259.0687535897
 20
5637.4120290904
 30
0.0
 11
6260.5187557831
 21
5635.962026897
 31
0.0
  0
LINE
  5
102
330
1F
100
AcDbEntity
  8
0
  6
Continuous
 62
     7
100
AcDbLine
 10
6399.0187484884
 20
4775.1539520046
 30
0.0
 11
6149.0187559389
 21
4775.1539520046
 31
0.0
  0
LINE
  5
103
330
1F
100
AcDbEntity
  8
0
  6
Continuous
 62
     7
100
AcDbLine
 10
6149.0187559389
 20
4767.1539660125
 30
0.0
 11
6399.0187484884
 21
4767.1539660125
 31
0.0
  0
LINE
  5
104
330
1F
100
AcDbEntity
  8
0
  6
Continuous
 62
     7
100
AcDbLine
 10
6270.018756409
 20
5171.1539577275
 30
0.0
 11
6270.018756409
 21
4943.8806946903
 31
0.0
  0
LINE
  5
105
330
1F
100
AcDbEntity
  8
0
  6
Continuous
 62
     7
100
AcDbLine
 10
6278.018753995
 20
4943.8806946903
 30
0.0
 11
6278.018753995
 21
5171.1539577275
 31
0.0
  0
LINE
  5
106
330
1F
100
AcDbEntity
  8
0
  6
Continuous
 62
     7
100
AcDbLine
 10
6281.8246558502
 20
4918.1237395435
 30
0.0
 11
6410.8322113946
 21
4806.9613452583
 31
0.0
  0
LINE
  5
107
330
1F
100
AcDbEntity
  8
0
  6
Continuous
 62
     7
100
AcDbLine
 10
6416.0543531373
 20
4813.0218263298
 30
0.0
 11
6287.0467975929
 21
4924.1841908126
 31
0.0
  0
LINE
  5
108
330
1F
100
AcDbEntity
  8
0
  6
Continuous
 62
     7
100
AcDbLine
 10
6278.018753995
 20
5411.1539598136
 30
0.0
 11
6278.018753995
 21
5629.9620147376
 31
0.0
  0
LINE
  5
109
330
1F
100
AcDbEntity
  8
0
  6
Continuous
 62
     7
100
AcDbLine
 10
6270.018756409
 20
5629.9620147376
 30
0.0
 11
6270.018756409
 21
5411.1539598136
 31
0.0
  0
LINE
  5
10A
330
1F
100
AcDbEntity
  8
0
  6
Continuous
 62
     7
100
AcDbLine
 10
6137.2052952841
 20
4806.9613452583
 30
0.0
 11
6266.212858279
 21
4918.1237395435
 31
0.0
  0
LINE
  5
10B
330
1F
100
AcDbEntity
  8
0
  6
Continuous
 62
     7
100
AcDbLine
 10
6260.9907165363
 20
4924.1841908126
 30
0.0
 11
6131.9831535414
 21
4813.0218263298
 31
0.0
  0
LINE
  5
10C
330
1F
100
AcDbEntity
  8
0
  6
Continuous
 62
     7
100
AcDbLine
 10
6259.0687535897
 20
5642.5120111137
 30
0.0
 11
6259.0187564686
 21
5642.5120111137
 31
0.0
  0
LINE
  5
10D
330
1F
100
AcDbEntity
  8
0
  6
Continuous
 62
     7
100
AcDbLine
 10
6258.6601749256
 20
5637.4120290904
 30
0.0
 11
6259.0687535897
 21
5637.4120290904
 31
0.0
  0
LINE
  5
10E
330
1F
100
AcDbEntity
  8
0
  6
Continuous
 62
     7
100
AcDbLine
 10
6218.0187553361
 20
5432.4693109422
 30
0.0
 11
6168.018754591
 21
5432.4693109422
 31
0.0
  0
LINE
  5
10F
330
1F
100
AcDbEntity
  8
0
  6
Continuous
 62
     7
100
AcDbLine
 10
6268.0187560812
 20
5432.4693109422
 30
0.0
 11
6218.0187553361
 21
5432.4693109422
 31
0.0
  0
LINE
  5
110
330
1F
100
AcDbEntity
  8
0
  6
Continuous
 62
     7
100
AcDbLine
 10
6218.0187553361
 20
5442.4693163066
 30
0.0
 11
6258.018754442
 21
5442.4693163066
 31
0.0
  0
LINE
  5
111
330
1F
100
AcDbEntity
  8
0
  6
Continuous
 62
     7
100
AcDbLine
 10
6178.0187562302
 20
5442.4693163066
 30
0.0
 11
6218.0187553361
 21
5442.4693163066
 31
0.0
  0
LINE
  5
112
330
1F
100
AcDbEntity
  8
0
  6
Continuous
 62
     7
100
AcDbLine
 10
6218.0187553361
 20
5422.469320479
 30
0.0
 11
6168.018754591
 21
5422.469320479
 31
0.0
  0
LINE
  5
113
330
1F
100
AcDbEntity
  8
0
  6
Continuous
 62
     7
100
AcDbLine
 10
6268.0187560812
 20
5422.469320479
 30
0.0
 11
6218.0187553361
 21
5422.469320479
 31
0.0
  0
LINE
  5
114
330
1F
100
AcDbEntity
  8
0
  6
Continuous
 62
     7
100
AcDbLine
 10
6218.0187553361
 20
5492.4693282276
 30
0.0
 11
6195.518754442
 21
5492.4693282276
 31
0.0
  0
LINE
  5
115
330
1F
100
AcDbEntity
  8
0
  6
Continuous
 62
     7
100
AcDbLine
 10
6240.5187562302
 20
5492.4693282276
 30
0.0
 11
6218.0187553361
 21
5492.4693282276
 31
0.0
  0
LINE
  5
116
330
1F
100
AcDbEntity
  8
0
  6
Continuous
 62
     7
100
AcDbLine
 10
6253.5187564984
 20
5576.5049334197
 30
0.0
 11
6253.5187564984
 21
5651.8184717327
 31
0.0
  0
LINE
  5
117
330
1F
100
AcDbEntity
  8
0
  6
Continuous
 62
     7
100
AcDbLine
 10
6253.5187564984
 20
5651.8184717327
 30
0.0
 11
6254.5917518631
 21
5651.8994148403
 31
0.0
  0
LINE
  5
118
330
1F
100
AcDbEntity
  8
0
  6
Continuous
 62
     7
100
AcDbLine
 10
6254.5917518631
 20
5651.8994148403
 30
0.0
 11
6255.6235157147
 21
5652.1391745239
 31
0.0
  0
LINE
  5
119
330
1F
100
AcDbEntity
  8
0
  6
Continuous
 62
     7
100
AcDbLine
 10
6255.6235157147
 20
5652.1391745239
 30
0.0
 11
6256.5743923381
 21
5652.5285120635
 31
0.0
  0
LINE
  5
11A
330
1F
100
AcDbEntity
  8
0
  6
Continuous
 62
     7
100
AcDbLine
 10
6256.5743923381
 20
5652.5285120635
 30
0.0
 11
6257.407844086
 21
5653.0524964958
 31
0.0
  0
LINE
  5
11B
330
1F
100
AcDbEntity
  8
0
  6
Continuous
 62
     7
100
AcDbLine
 10
6257.407844086
 20
5653.0524964958
 30
0.0
 11
6258.0918371871
 21
5653.6909516483
 31
0.0
  0
LINE
  5
11C
330
1F
100
AcDbEntity
  8
0
  6
Continuous
 62
     7
100
AcDbLine
 10
6258.0918371871
 20
5653.6909516483
 30
0.0
 11
6258.6000934437
 21
5654.4193800121
 31
0.0
  0
LINE
  5
11D
330
1F
100
AcDbEntity
  8
0
  6
Continuous
 62
     7
100
AcDbLine
 10
6258.6000934437
 20
5654.4193800121
 30
0.0
 11
6258.9130737081
 21
5655.2097376018
 31
0.0
  0
LINE
  5
11E
330
1F
100
AcDbEntity
  8
0
  6
Continuous
 62
     7
100
AcDbLine
 10
6258.9130737081
 20
5655.2097376018
 30
0.0
 11
6259.0187564686
 21
5656.0317154556
 31
0.0
  0
LINE
  5
11F
330
1F
100
AcDbEntity
  8
0
  6
Continuous
 62
     7
100
AcDbLine
 10
6259.0187564686
 20
5656.0317154556
 30
0.0
 11
6259.0187564686
 21
5651.2750859886
 31
0.0
  0
LINE
  5
120
330
1F
100
AcDbEntity
  8
0
  6
Continuous
 62
     7
100
AcDbLine
 10
6259.0187564686
 20
5647.9325767188
 30
0.0
 11
6259.0187564686
 21
5641.6332598358
 31
0.0
  0
LINE
  5
121
330
1F
100
AcDbEntity
  8
0
  6
Continuous
 62
     7
100
AcDbLine
 10
6259.0187564686
 20
5637.4120290904
 30
0.0
 11
6259.0187564686
 21
5581.2350984245
 31
0.0
  0
LINE
  5
122
330
1F
100
AcDbEntity
  8
0
  6
Continuous
 62
     7
100
AcDbLine
 10
6248.0187546655
 20
5651.2750859886
 30
0.0
 11
6248.0187546655
 21
5656.0317154556
 31
0.0
  0
LINE
  5
123
330
1F
100
AcDbEntity
  8
0
  6
Continuous
 62
     7
100
AcDbLine
 10
6248.0187546655
 20
5656.0317154556
 30
0.0
 11
6248.1244355634
 21
5655.2097376018
 31
0.0
  0
LINE
  5
124
330
1F
100
AcDbEntity
  8
0
  6
Continuous
 62
     7
100
AcDbLine
 10
6248.1244355634
 20
5655.2097376018
 30
0.0
 11
6248.4374176905
 21
5654.4193800121
 31
0.0
  0
LINE
  5
125
330
1F
100
AcDbEntity
  8
0
  6
Continuous
 62
     7
100
AcDbLine
 10
6248.4374176905
 20
5654.4193800121
 30
0.0
 11
6248.9456720844
 21
5653.6909516483
 31
0.0
  0
LINE
  5
126
330
1F
100
AcDbEntity
  8
0
  6
Continuous
 62
     7
100
AcDbLine
 10
6248.9456720844
 20
5653.6909516483
 30
0.0
 11
6249.6296689108
 21
5653.0524964958
 31
0.0
  0
LINE
  5
127
330
1F
100
AcDbEntity
  8
0
  6
Continuous
 62
     7
100
AcDbLine
 10
6249.6296689108
 20
5653.0524964958
 30
0.0
 11
6250.4631206587
 21
5652.5285120635
 31
0.0
  0
LINE
  5
128
330
1F
100
AcDbEntity
  8
0
  6
Continuous
 62
     7
100
AcDbLine
 10
6250.4631206587
 20
5652.5285120635
 30
0.0
 11
6251.4139972821
 21
5652.1391745239
 31
0.0
  0
LINE
  5
129
330
1F
100
AcDbEntity
  8
0
  6
Continuous
 62
     7
100
AcDbLine
 10
6251.4139972821
 20
5652.1391745239
 30
0.0
 11
6252.4457574084
 21
5651.8994148403
 31
0.0
  0
LINE
  5
12A
330
1F
100
AcDbEntity
  8
0
  6
Continuous
 62
     7
100
AcDbLine
 10
6252.4457574084
 20
5651.8994148403
 30
0.0
 11
6253.5187564984
 21
5651.8184717327
 31
0.0
  0
LINE
  5
12B
330
1F
100
AcDbEntity
  8
0
  6
Continuous
 62
     7
100
AcDbLine
 10
6248.0187546655
 20
5581.2350984245
 30
0.0
 11
6248.0187546655
 21
5638.2907803684
 31
0.0
  0
LINE
  5
12C
330
1F
100
AcDbEntity
  8
0
  6
Continuous
 62
     7
100
AcDbLine
 10
6248.0187546655
 20
5641.6332598358
 30
0.0
 11
6248.0187546655
 21
5647.9325767188
 31
0.0
  0
LINE
  5
12D
330
1F
100
AcDbEntity
  8
0
  6
Continuous
 62
     7
100
AcDbLine
 10
6253.5187564984
 20
5660.2449591785
 30
0.0
 11
6252.4457574084
 21
5660.1639862686
 31
0.0
  0
LINE
  5
12E
330
1F
100
AcDbEntity
  8
0
  6
Continuous
 62
     7
100
AcDbLine
 10
6252.4457574084
 20
5660.1639862686
 30
0.0
 11
6251.4139972821
 21
5659.924226585
 31
0.0
  0
LINE
  5
12F
330
1F
100
AcDbEntity
  8
0
  6
Continuous
 62
     7
100
AcDbLine
 10
6251.4139972821
 20
5659.924226585
 30
0.0
 11
6250.4631206587
 21
5659.5348890453
 31
0.0
  0
LINE
  5
130
330
1F
100
AcDbEntity
  8
0
  6
Continuous
 62
     7
100
AcDbLine
 10
6250.4631206587
 20
5659.5348890453
 30
0.0
 11
6249.6296689108
 21
5659.0109344154
 31
0.0
  0
LINE
  5
131
330
1F
100
AcDbEntity
  8
0
  6
Continuous
 62
     7
100
AcDbLine
 10
6249.6296689108
 20
5659.0109344154
 30
0.0
 11
6248.9456720844
 21
5658.3724494605
 31
0.0
  0
LINE
  5
132
330
1F
100
AcDbEntity
  8
0
  6
Continuous
 62
     7
100
AcDbLine
 10
6248.9456720844
 20
5658.3724494605
 30
0.0
 11
6248.4374176905
 21
5657.6440508991
 31
0.0
  0
LINE
  5
133
330
1F
100
AcDbEntity
  8
0
  6
Continuous
 62
     7
100
AcDbLine
 10
6248.4374176905
 20
5657.6440508991
 30
0.0
 11
6248.1244355634
 21
5656.853663507
 31
0.0
  0
LINE
  5
134
330
1F
100
AcDbEntity
  8
0
  6
Continuous
 62
     7
100
AcDbLine
 10
6248.1244355634
 20
5656.853663507
 30
0.0
 11
6248.0187546655
 21
5656.0317154556
 31
0.0
  0
LINE
  5
135
330
1F
100
AcDbEntity
  8
0
  6
Continuous
 62
     7
100
AcDbLine
 10
6259.0187564686
 20
5656.0317154556
 30
0.0
 11
6258.9130737081
 21
5656.853663507
 31
0.0
  0
LINE
  5
136
330
1F
100
AcDbEntity
  8
0
  6
Continuous
 62
     7
100
AcDbLine
 10
6258.9130737081
 20
5656.853663507
 30
0.0
 11
6258.6000934437
 21
5657.6440508991
 31
0.0
  0
LINE
  5
137
330
1F
100
AcDbEntity
  8
0
  6
Continuous
 62
     7
100
AcDbLine
 10
6258.6000934437
 20
5657.6440508991
 30
0.0
 11
6258.0918371871
 21
5658.3724494605
 31
0.0
  0
LINE
  5
138
330
1F
100
AcDbEntity
  8
0
  6
Continuous
 62
     7
100
AcDbLine
 10
6258.0918371871
 20
5658.3724494605
 30
0.0
 11
6257.407844086
 21
5659.0109344154
 31
0.0
  0
LINE
  5
139
330
1F
100
AcDbEntity
  8
0
  6
Continuous
 62
     7
100
AcDbLine
 10
6257.407844086
 20
5659.0109344154
 30
0.0
 11
6256.5743923381
 21
5659.5348890453
 31
0.0
  0
LINE
  5
13A
330
1F
100
AcDbEntity
  8
0
  6
Continuous
 62
     7
100
AcDbLine
 10
6256.5743923381
 20
5659.5348890453
 30
0.0
 11
6255.6235157147
 21
5659.924226585
 31
0.0
  0
LINE
  5
13B
330
1F
100
AcDbEntity
  8
0
  6
Continuous
 62
     7
100
AcDbLine
 10
6255.6235157147
 20
5659.924226585
 30
0.0
 11
6254.5917518631
 21
5660.1639862686
 31
0.0
  0
LINE
  5
13C
330
1F
100
AcDbEntity
  8
0
  6
Continuous
 62
     7
100
AcDbLine
 10
6254.5917518631
 20
5660.1639862686
 30
0.0
 11
6253.5187564984
 21
5660.2449591785
 31
0.0
  0
LINE
  5
13D
330
1F
100
AcDbEntity
  8
0
  6
Continuous
 62
     7
100
AcDbLine
 10
6260.0187547699
 20
5584.9693294197
 30
0.0
 11
6260.0187547699
 21
5559.9693234592
 31
0.0
  0
LINE
  5
13E
330
1F
100
AcDbEntity
  8
0
  6
Continuous
 62
     7
100
AcDbLine
 10
6234.0187560961
 20
5286.1539598136
 30
0.0
 11
6314.0187561706
 21
5286.1539598136
 31
0.0
  0
LINE
  5
13F
330
1F
100
AcDbEntity
  8
0
  6
Continuous
 62
     7
100
AcDbLine
 10
6219.0187553836
 20
5191.1539572804
 30
0.0
 11
6219.0187553836
 21
5271.1539592176
 31
0.0
  0
LINE
  5
140
330
1F
100
AcDbEntity
  8
0
  6
Continuous
 62
     7
100
AcDbLine
 10
6314.0187561706
 20
5176.1539566844
 30
0.0
 11
6234.0187560961
 21
5176.1539566844
 31
0.0
  0
LINE
  5
141
330
1F
100
AcDbEntity
  8
0
  6
Continuous
 62
     7
100
AcDbLine
 10
6329.0187554279
 20
5271.1539605563
 30
0.0
 11
6329.0187554279
 21
5191.1539559417
 31
0.0
  0
LINE
  5
142
330
1F
100
AcDbEntity
  8
0
  6
Continuous
 62
     7
100
AcDbLine
 10
6214.0187551461
 20
5411.1539598136
 30
0.0
 11
6214.0187551461
 21
5171.1539577275
 31
0.0
  0
LINE
  5
143
330
1F
100
AcDbEntity
  8
0
  6
Continuous
 62
     7
100
AcDbLine
 10
6214.0187551461
 20
5411.1539598136
 30
0.0
 11
6334.0187519982
 21
5411.1539598136
 31
0.0
  0
LINE
  5
144
330
1F
100
AcDbEntity
  8
0
  6
Continuous
 62
     7
100
AcDbLine
 10
6334.0187519982
 20
5411.1539598136
 30
0.0
 11
6334.0187519982
 21
5171.1539577275
 31
0.0
  0
LINE
  5
145
330
1F
100
AcDbEntity
  8
0
  6
Continuous
 62
     7
100
AcDbLine
 10
6214.0187551461
 20
5171.1539577275
 30
0.0
 11
6334.0187519982
 21
5171.1539577275
 31
0.0
  0
LINE
  5
146
330
1F
100
AcDbEntity
  8
0
  6
Continuous
 62
     7
100
AcDbLine
 10
6314.0187561706
 20
5406.153964582
 30
0.0
 11
6234.0187560961
 21
5406.153964582
 31
0.0
  0
LINE
  5
147
330
1F
100
AcDbEntity
  8
0
  6
Continuous
 62
     7
100
AcDbLine
 10
6219.0187553836
 20
5391.153963986
 30
0.0
 11
6219.0187553836
 21
5311.1539583235
 31
0.0
  0
LINE
  5
148
330
1F
100
AcDbEntity
  8
0
  6
Continuous
 62
     7
100
AcDbLine
 10
6234.0187560961
 20
5296.1539577275
 30
0.0
 11
6314.0187561706
 21
5296.1539577275
 31
0.0
  0
LINE
  5
149
330
1F
100
AcDbEntity
  8
0
  6
Continuous
 62
     7
100
AcDbLine
 10
6329.0187554279
 20
5311.1539569848
 30
0.0
 11
6329.0187554279
 21
5391.1539626473
 31
0.0
  0
LINE
  5
14A
330
1F
100
AcDbEntity
  8
0
  6
Continuous
 62
     7
100
AcDbLine
 10
6224.018756727
 20
5391.153963986
 30
0.0
 11
6224.018756727
 21
5311.1539583235
 31
0.0
  0
LINE
  5
14B
330
1F
100
AcDbEntity
  8
0
  6
Continuous
 62
     7
100
AcDbLine
 10
6314.0187575094
 20
5401.1539544492
 30
0.0
 11
6234.0187574349
 21
5401.1539544492
 31
0.0
  0
LINE
  5
14C
330
1F
100
AcDbEntity
  8
0
  6
Continuous
 62
     7
100
AcDbLine
 10
6324.0187540844
 20
5311.1539569848
 30
0.0
 11
6324.0187540844
 21
5391.1539626473
 31
0.0
  0
LINE
  5
14D
330
1F
100
AcDbEntity
  8
0
  6
Continuous
 62
     7
100
AcDbLine
 10
6234.0187560961
 20
5301.1539590709
 30
0.0
 11
6314.0187561706
 21
5301.1539590709
 31
0.0
  0
LINE
  5
14E
330
1F
100
AcDbEntity
  8
0
  6
Continuous
 62
     7
100
AcDbLine
 10
6305.4040447071
 20
5366.8887491851
 30
0.0
 11
6320.0120330051
 21
5366.8887491851
 31
0.0
  0
LINE
  5
14F
330
1F
100
AcDbEntity
  8
0
  6
Continuous
 62
     7
100
AcDbLine
 10
6320.0120330051
 20
5366.8887491851
 30
0.0
 11
6320.0120330051
 21
5378.5276289611
 31
0.0
  0
LINE
  5
150
330
1F
100
AcDbEntity
  8
0
  6
Continuous
 62
     7
100
AcDbLine
 10
6320.0120330051
 20
5378.5276289611
 30
0.0
 11
6305.4040447071
 21
5378.5276289611
 31
0.0
  0
LINE
  5
151
330
1F
100
AcDbEntity
  8
0
  6
Continuous
 62
     7
100
AcDbLine
 10
6305.4040447071
 20
5378.5276289611
 30
0.0
 11
6305.4040447071
 21
5393.1356247096
 31
0.0
  0
LINE
  5
152
330
1F
100
AcDbEntity
  8
0
  6
Continuous
 62
     7
100
AcDbLine
 10
6305.4040447071
 20
5393.1356247096
 30
0.0
 11
6293.7651574805
 21
5393.1356247096
 31
0.0
  0
LINE
  5
153
330
1F
100
AcDbEntity
  8
0
  6
Continuous
 62
     7
100
AcDbLine
 10
6293.7651574805
 20
5393.1356247096
 30
0.0
 11
6293.7651574805
 21
5378.5276289611
 31
0.0
  0
LINE
  5
154
330
1F
100
AcDbEntity
  8
0
  6
Continuous
 62
     7
100
AcDbLine
 10
6293.7651574805
 20
5378.5276289611
 30
0.0
 11
6279.1571654573
 21
5378.5276289611
 31
0.0
  0
LINE
  5
155
330
1F
100
AcDbEntity
  8
0
  6
Continuous
 62
     7
100
AcDbLine
 10
6279.1571654573
 20
5378.5276289611
 30
0.0
 11
6279.1571654573
 21
5366.8887491851
 31
0.0
  0
LINE
  5
156
330
1F
100
AcDbEntity
  8
0
  6
Continuous
 62
     7
100
AcDbLine
 10
6279.1571654573
 20
5366.8887491851
 30
0.0
 11
6293.7651574805
 21
5366.8887491851
 31
0.0
  0
LINE
  5
157
330
1F
100
AcDbEntity
  8
0
  6
Continuous
 62
     7
100
AcDbLine
 10
6293.7651574805
 20
5366.8887491851
 30
0.0
 11
6293.7651574805
 21
5352.2807534366
 31
0.0
  0
LINE
  5
158
330
1F
100
AcDbEntity
  8
0
  6
Continuous
 62
     7
100
AcDbLine
 10
6293.7651574805
 20
5352.2807534366
 30
0.0
 11
6305.4040447071
 21
5352.2807534366
 31
0.0
  0
LINE
  5
159
330
1F
100
AcDbEntity
  8
0
  6
Continuous
 62
     7
100
AcDbLine
 10
6305.4040447071
 20
5352.2807534366
 30
0.0
 11
6305.4040447071
 21
5366.8887491851
 31
0.0
  0
LINE
  5
15A
330
1F
100
AcDbEntity
  8
0
  6
Continuous
 62
     7
100
AcDbLine
 10
6249.8143911555
 20
5389.2166193157
 30
0.0
 11
6245.0643908426
 21
5382.2166200309
 31
0.0
  0
LINE
  5
15B
330
1F
100
AcDbEntity
  8
0
  6
Continuous
 62
     7
100
AcDbLine
 10
6245.0643908426
 20
5382.2166200309
 30
0.0
 11
6259.564392288
 21
5382.2166200309
 31
0.0
  0
LINE
  5
15C
330
1F
100
AcDbEntity
  8
0
  6
Continuous
 62
     7
100
AcDbLine
 10
6259.564392288
 20
5382.2166200309
 30
0.0
 11
6254.8143901125
 21
5389.2166193157
 31
0.0
  0
LINE
  5
15D
330
1F
100
AcDbEntity
  8
0
  6
Continuous
 62
     7
100
AcDbLine
 10
6254.8143901125
 20
5389.2166193157
 30
0.0
 11
6254.8143901125
 21
5393.2166125207
 31
0.0
  0
LINE
  5
15E
330
1F
100
AcDbEntity
  8
0
  6
Continuous
 62
     7
100
AcDbLine
 10
6259.564392288
 20
5380.7166244417
 30
0.0
 11
6245.0643908426
 21
5380.7166244417
 31
0.0
  0
LINE
  5
15F
330
1F
100
AcDbEntity
  8
0
  6
Continuous
 62
     7
100
AcDbLine
 10
6245.0643908426
 20
5380.7166244417
 30
0.0
 11
6245.0643908426
 21
5377.716618362
 31
0.0
  0
LINE
  5
160
330
1F
100
AcDbEntity
  8
0
  6
Continuous
 62
     7
100
AcDbLine
 10
6245.0643908426
 20
5377.716618362
 30
0.0
 11
6259.564392288
 21
5377.716618362
 31
0.0
  0
LINE
  5
161
330
1F
100
AcDbEntity
  8
0
  6
Continuous
 62
     7
100
AcDbLine
 10
6259.564392288
 20
5377.716618362
 30
0.0
 11
6259.564392288
 21
5380.7166244417
 31
0.0
  0
LINE
  5
162
330
1F
100
AcDbEntity
  8
0
  6
Continuous
 62
     7
100
AcDbLine
 10
6252.3143924966
 20
5367.2166194349
 30
0.0
 11
6250.5823411241
 21
5364.2166133552
 31
0.0
  0
LINE
  5
163
330
1F
100
AcDbEntity
  8
0
  6
Continuous
 62
     7
100
AcDbLine
 10
6252.3143924966
 20
5374.2166187196
 30
0.0
 11
6250.5823411241
 21
5371.2166126399
 31
0.0
  0
LINE
  5
164
330
1F
100
AcDbEntity
  8
0
  6
Continuous
 62
     7
100
AcDbLine
 10
6254.0464401439
 20
5371.2166126399
 30
0.0
 11
6252.3143924966
 21
5374.2166187196
 31
0.0
  0
LINE
  5
165
330
1F
100
AcDbEntity
  8
0
  6
Continuous
 62
     7
100
AcDbLine
 10
6243.2588357672
 20
5367.3916484743
 30
0.0
 11
6240.9034259811
 21
5364.8515518337
 31
0.0
  0
LINE
  5
166
330
1F
100
AcDbEntity
  8
0
  6
Continuous
 62
     7
100
AcDbLine
 10
6244.2809120014
 20
5364.0817578464
 30
0.0
 11
6243.2588357672
 21
5367.3916484743
 31
0.0
  0
LINE
  5
167
330
1F
100
AcDbEntity
  8
0
  6
Continuous
 62
     7
100
AcDbLine
 10
6244.814390336
 20
5374.2166187196
 30
0.0
 11
6242.4589805499
 21
5371.676522079
 31
0.0
  0
LINE
  5
168
330
1F
100
AcDbEntity
  8
0
  6
Continuous
 62
     7
100
AcDbLine
 10
6245.8364665702
 20
5370.9067280918
 30
0.0
 11
6244.814390336
 21
5374.2166187196
 31
0.0
  0
LINE
  5
169
330
1F
100
AcDbEntity
  8
0
  6
Continuous
 62
     7
100
AcDbLine
 10
6240.147724767
 20
5353.7416930824
 30
0.0
 11
6237.7923149809
 21
5351.2016113429
 31
0.0
  0
LINE
  5
16A
330
1F
100
AcDbEntity
  8
0
  6
Continuous
 62
     7
100
AcDbLine
 10
6241.7032793358
 20
5360.5666782289
 30
0.0
 11
6239.3478695497
 21
5358.0265815883
 31
0.0
  0
LINE
  5
16B
330
1F
100
AcDbEntity
  8
0
  6
Continuous
 62
     7
100
AcDbLine
 10
6242.72535557
 20
5357.256787601
 30
0.0
 11
6241.7032793358
 21
5360.5666782289
 31
0.0
  0
LINE
  5
16C
330
1F
100
AcDbEntity
  8
0
  6
Continuous
 62
     7
100
AcDbLine
 10
6261.8699446514
 20
5367.3916484743
 30
0.0
 11
6260.8478702798
 21
5364.0817578464
 31
0.0
  0
LINE
  5
16D
330
1F
100
AcDbEntity
  8
0
  6
Continuous
 62
     7
100
AcDbLine
 10
6264.2253563002
 20
5364.8515518337
 30
0.0
 11
6261.8699446514
 21
5367.3916484743
 31
0.0
  0
LINE
  5
16E
330
1F
100
AcDbEntity
  8
0
  6
Continuous
 62
     7
100
AcDbLine
 10
6260.3143900827
 20
5374.2166187196
 30
0.0
 11
6259.2923157111
 21
5370.9067280918
 31
0.0
  0
LINE
  5
16F
330
1F
100
AcDbEntity
  8
0
  6
Continuous
 62
     7
100
AcDbLine
 10
6262.6698017314
 20
5371.676522079
 30
0.0
 11
6260.3143900827
 21
5374.2166187196
 31
0.0
  0
LINE
  5
170
330
1F
100
AcDbEntity
  8
0
  6
Continuous
 62
     7
100
AcDbLine
 10
6264.9810575142
 20
5353.7416930824
 30
0.0
 11
6263.9589831427
 21
5350.4318173557
 31
0.0
  0
LINE
  5
171
330
1F
100
AcDbEntity
  8
0
  6
Continuous
 62
     7
100
AcDbLine
 10
6267.3364654377
 20
5351.2016113429
 30
0.0
 11
6264.9810575142
 21
5353.7416930824
 31
0.0
  0
LINE
  5
172
330
1F
100
AcDbEntity
  8
0
  6
Continuous
 62
     7
100
AcDbLine
 10
6263.4255029455
 20
5360.5666782289
 30
0.0
 11
6262.4034248486
 21
5357.256787601
 31
0.0
  0
LINE
  5
173
330
1F
100
AcDbEntity
  8
0
  6
Continuous
 62
     7
100
AcDbLine
 10
6265.7809108689
 20
5358.0265815883
 30
0.0
 11
6263.4255029455
 21
5360.5666782289
 31
0.0
  0
LINE
  5
174
330
1F
100
AcDbEntity
  8
0
  6
Continuous
 62
     7
100
AcDbLine
 10
6243.9399492189
 20
5324.0754704504
 30
0.0
 11
6243.9399492189
 21
5340.8754717141
 31
0.0
  0
LINE
  5
175
330
1F
100
AcDbEntity
  8
0
  6
Continuous
 62
     7
100
AcDbLine
 10
6243.9399492189
 20
5340.8754717141
 30
0.0
 11
6246.3399488673
 21
5340.8754717141
 31
0.0
  0
LINE
  5
176
330
1F
100
AcDbEntity
  8
0
  6
Continuous
 62
     7
100
AcDbLine
 10
6246.3399488673
 20
5340.8754717141
 30
0.0
 11
6246.3399488673
 21
5307.2754691868
 31
0.0
  0
LINE
  5
177
330
1F
100
AcDbEntity
  8
0
  6
Continuous
 62
     7
100
AcDbLine
 10
6246.3399488673
 20
5307.2754691868
 30
0.0
 11
6251.5899501935
 21
5307.2754691868
 31
0.0
  0
LINE
  5
178
330
1F
100
AcDbEntity
  8
0
  6
Continuous
 62
     7
100
AcDbLine
 10
6251.5899501935
 20
5307.2754691868
 30
0.0
 11
6251.5899501935
 21
5330.0754751592
 31
0.0
  0
LINE
  5
179
330
1F
100
AcDbEntity
  8
0
  6
Continuous
 62
     7
100
AcDbLine
 10
6251.5899501935
 20
5330.0754751592
 30
0.0
 11
6253.6596693292
 21
5330.0754751592
 31
0.0
  0
LINE
  5
17A
330
1F
100
AcDbEntity
  8
0
  6
Continuous
 62
     7
100
AcDbLine
 10
6253.6596693292
 20
5330.0754751592
 30
0.0
 11
6253.6596693292
 21
5307.2754691868
 31
0.0
  0
LINE
  5
17B
330
1F
100
AcDbEntity
  8
0
  6
Continuous
 62
     7
100
AcDbLine
 10
6253.6596693292
 20
5307.2754691868
 30
0.0
 11
6258.9096687928
 21
5307.2754691868
 31
0.0
  0
LINE
  5
17C
330
1F
100
AcDbEntity
  8
0
  6
Continuous
 62
     7
100
AcDbLine
 10
6258.9096687928
 20
5307.2754691868
 30
0.0
 11
6258.9096687928
 21
5340.8754717141
 31
0.0
  0
LINE
  5
17D
330
1F
100
AcDbEntity
  8
0
  6
Continuous
 62
     7
100
AcDbLine
 10
6258.9096687928
 20
5340.8754717141
 30
0.0
 11
6261.3096721664
 21
5340.8754717141
 31
0.0
  0
LINE
  5
17E
330
1F
100
AcDbEntity
  8
0
  6
Continuous
 62
     7
100
AcDbLine
 10
6261.3096721664
 20
5340.8754717141
 30
0.0
 11
6261.3096721664
 21
5324.0754704504
 31
0.0
  0
LINE
  5
17F
330
1F
100
AcDbEntity
  8
0
  6
Continuous
 62
     7
100
AcDbLine
 10
6265.2399502888
 20
5327.3147221237
 30
0.0
 11
6265.2399502888
 21
5344.4754730492
 31
0.0
  0
LINE
  5
180
330
1F
100
AcDbEntity
  8
0
  6
Continuous
 62
     7
100
AcDbLine
 10
6262.2399479344
 20
5347.4754716783
 30
0.0
 11
6243.0399488851
 21
5347.4754716783
 31
0.0
  0
LINE
  5
181
330
1F
100
AcDbEntity
  8
0
  6
Continuous
 62
     7
100
AcDbLine
 10
6249.8143911555
 20
5393.2166125207
 30
0.0
 11
6249.8143911555
 21
5389.2166193157
 31
0.0
  0
LINE
  5
182
330
1F
100
AcDbEntity
  8
0
  6
Continuous
 62
     7
100
AcDbLine
 10
6240.0399483934
 20
5344.4754730492
 30
0.0
 11
6240.0399483934
 21
5327.3204665213
 31
0.0
  0
LINE
  5
183
330
1F
100
AcDbEntity
  8
0
  6
Continuous
 62
     7
100
AcDbLine
 10
6241.1697991386
 20
5350.4318173557
 30
0.0
 11
6240.147724767
 21
5353.7416930824
 31
0.0
  0
LINE
  5
184
330
1F
100
AcDbEntity
  8
0
  6
Continuous
 62
     7
100
AcDbLine
 10
6254.0464401439
 20
5364.2166133552
 30
0.0
 11
6252.3143924966
 21
5367.2166194349
 31
0.0
  0
LINE
  5
185
330
1F
100
AcDbEntity
  8
0
  6
Continuous
 62
     7
100
AcDbLine
 10
6254.8143901125
 20
5393.2166125207
 30
0.0
 11
6249.8143911555
 21
5393.2166125207
 31
0.0
  0
LINE
  5
186
330
1F
100
AcDbEntity
  8
0
  6
Continuous
 62
     7
100
AcDbLine
 10
6324.0187540844
 20
5271.1539578788
 30
0.0
 11
6324.0187540844
 21
5191.1539559417
 31
0.0
  0
LINE
  5
187
330
1F
100
AcDbEntity
  8
0
  6
Continuous
 62
     7
100
AcDbLine
 10
6314.0187561706
 20
5181.1539580279
 30
0.0
 11
6234.0187560961
 21
5181.1539580279
 31
0.0
  0
LINE
  5
188
330
1F
100
AcDbEntity
  8
0
  6
Continuous
 62
     7
100
AcDbLine
 10
6234.0187560961
 20
5281.1539584701
 30
0.0
 11
6314.0187561706
 21
5281.1539584701
 31
0.0
  0
LINE
  5
189
330
1F
100
AcDbEntity
  8
0
  6
Continuous
 62
     7
100
AcDbLine
 10
6255.9764608934
 20
5190.5272144406
 30
0.0
 11
6260.7264593437
 21
5197.5272137254
 31
0.0
  0
LINE
  5
18A
330
1F
100
AcDbEntity
  8
0
  6
Continuous
 62
     7
100
AcDbLine
 10
6260.7264593437
 20
5197.5272137254
 30
0.0
 11
6246.226459761
 21
5197.5272137254
 31
0.0
  0
LINE
  5
18B
330
1F
100
AcDbEntity
  8
0
  6
Continuous
 62
     7
100
AcDbLine
 10
6246.226459761
 20
5197.5272137254
 30
0.0
 11
6250.9764619365
 21
5190.5272144406
 31
0.0
  0
LINE
  5
18C
330
1F
100
AcDbEntity
  8
0
  6
Continuous
 62
     7
100
AcDbLine
 10
6250.9764619365
 20
5190.5272144406
 30
0.0
 11
6250.9764619365
 21
5186.527213785
 31
0.0
  0
LINE
  5
18D
330
1F
100
AcDbEntity
  8
0
  6
Continuous
 62
     7
100
AcDbLine
 10
6250.9764619365
 20
5186.527213785
 30
0.0
 11
6255.9764608934
 21
5186.527213785
 31
0.0
  0
LINE
  5
18E
330
1F
100
AcDbEntity
  8
0
  6
Continuous
 62
     7
100
AcDbLine
 10
6255.9764608934
 20
5186.527213785
 30
0.0
 11
6255.9764608934
 21
5190.5272144406
 31
0.0
  0
LINE
  5
18F
330
1F
100
AcDbEntity
  8
0
  6
Continuous
 62
     7
100
AcDbLine
 10
6246.226459761
 20
5199.0272149026
 30
0.0
 11
6260.7264593437
 21
5199.0272149026
 31
0.0
  0
LINE
  5
190
330
1F
100
AcDbEntity
  8
0
  6
Continuous
 62
     7
100
AcDbLine
 10
6260.7264593437
 20
5199.0272149026
 30
0.0
 11
6260.7264593437
 21
5202.0272153943
 31
0.0
  0
LINE
  5
191
330
1F
100
AcDbEntity
  8
0
  6
Continuous
 62
     7
100
AcDbLine
 10
6253.4764595523
 20
5212.5272143214
 30
0.0
 11
6255.2085109249
 21
5215.5272143475
 31
0.0
  0
LINE
  5
192
330
1F
100
AcDbEntity
  8
0
  6
Continuous
 62
     7
100
AcDbLine
 10
6251.7444081798
 20
5215.5272143475
 30
0.0
 11
6253.4764595523
 21
5212.5272143214
 31
0.0
  0
LINE
  5
193
330
1F
100
AcDbEntity
  8
0
  6
Continuous
 62
     7
100
AcDbLine
 10
6253.4764595523
 20
5205.5272150367
 30
0.0
 11
6255.2085109249
 21
5208.5272145971
 31
0.0
  0
LINE
  5
194
330
1F
100
AcDbEntity
  8
0
  6
Continuous
 62
     7
100
AcDbLine
 10
6251.7444081798
 20
5208.5272145971
 30
0.0
 11
6253.4764595523
 21
5205.5272150367
 31
0.0
  0
LINE
  5
195
330
1F
100
AcDbEntity
  8
0
  6
Continuous
 62
     7
100
AcDbLine
 10
6253.4764595523
 20
5227.1800211213
 30
0.0
 11
6255.2085109249
 21
5230.1800211474
 31
0.0
  0
LINE
  5
196
330
1F
100
AcDbEntity
  8
0
  6
Continuous
 62
     7
100
AcDbLine
 10
6251.7444081798
 20
5230.1800211474
 30
0.0
 11
6253.4764595523
 21
5227.1800211213
 31
0.0
  0
LINE
  5
197
330
1F
100
AcDbEntity
  8
0
  6
Continuous
 62
     7
100
AcDbLine
 10
6262.5320144191
 20
5212.3521871447
 30
0.0
 11
6264.8874260679
 21
5214.8922749377
 31
0.0
  0
LINE
  5
198
330
1F
100
AcDbEntity
  8
0
  6
Continuous
 62
     7
100
AcDbLine
 10
6261.5099400476
 20
5215.6620749786
 30
0.0
 11
6262.5320144191
 21
5212.3521871447
 31
0.0
  0
LINE
  5
199
330
1F
100
AcDbEntity
  8
0
  6
Continuous
 62
     7
100
AcDbLine
 10
6253.4764595523
 20
5220.180021138
 30
0.0
 11
6255.2085109249
 21
5223.1800211059
 31
0.0
  0
LINE
  5
19A
330
1F
100
AcDbEntity
  8
0
  6
Continuous
 62
     7
100
AcDbLine
 10
6251.7444081798
 20
5223.1800211059
 30
0.0
 11
6253.4764595523
 21
5220.180021138
 31
0.0
  0
LINE
  5
19B
330
1F
100
AcDbEntity
  8
0
  6
Continuous
 62
     7
100
AcDbLine
 10
6260.9764598504
 20
5205.5272150367
 30
0.0
 11
6263.3318714991
 21
5208.067302364
 31
0.0
  0
LINE
  5
19C
330
1F
100
AcDbEntity
  8
0
  6
Continuous
 62
     7
100
AcDbLine
 10
6259.9543854788
 20
5208.8371028706
 30
0.0
 11
6260.9764598504
 21
5205.5272150367
 31
0.0
  0
LINE
  5
19D
330
1F
100
AcDbEntity
  8
0
  6
Continuous
 62
     7
100
AcDbLine
 10
6265.643127282
 20
5226.0021313607
 30
0.0
 11
6267.9985352054
 21
5228.5422191537
 31
0.0
  0
LINE
  5
19E
330
1F
100
AcDbEntity
  8
0
  6
Continuous
 62
     7
100
AcDbLine
 10
6264.6210529104
 20
5229.3120196602
 30
0.0
 11
6265.643127282
 21
5226.0021313607
 31
0.0
  0
LINE
  5
19F
330
1F
100
AcDbEntity
  8
0
  6
Continuous
 62
     7
100
AcDbLine
 10
6264.0875727132
 20
5219.1771590199
 30
0.0
 11
6266.4429806367
 21
5221.7172470457
 31
0.0
  0
LINE
  5
1A0
330
1F
100
AcDbEntity
  8
0
  6
Continuous
 62
     7
100
AcDbLine
 10
6263.0654946163
 20
5222.4870474213
 30
0.0
 11
6264.0875727132
 21
5219.1771590199
 31
0.0
  0
LINE
  5
1A1
330
1F
100
AcDbEntity
  8
0
  6
Continuous
 62
     7
100
AcDbLine
 10
6243.9209055349
 20
5212.3521871447
 30
0.0
 11
6244.9429817691
 21
5215.6620749786
 31
0.0
  0
LINE
  5
1A2
330
1F
100
AcDbEntity
  8
0
  6
Continuous
 62
     7
100
AcDbLine
 10
6241.5654957488
 20
5214.8922749377
 30
0.0
 11
6243.9209055349
 21
5212.3521871447
 31
0.0
  0
LINE
  5
1A3
330
1F
100
AcDbEntity
  8
0
  6
Continuous
 62
     7
100
AcDbLine
 10
6245.4764601037
 20
5205.5272150367
 30
0.0
 11
6246.4985363379
 21
5208.8371028706
 31
0.0
  0
LINE
  5
1A4
330
1F
100
AcDbEntity
  8
0
  6
Continuous
 62
     7
100
AcDbLine
 10
6240.8097945347
 20
5226.0021313607
 30
0.0
 11
6241.831870769
 21
5229.3120196602
 31
0.0
  0
LINE
  5
1A5
330
1F
100
AcDbEntity
  8
0
  6
Continuous
 62
     7
100
AcDbLine
 10
6242.3653491035
 20
5219.1771590199
 30
0.0
 11
6243.3874253377
 21
5222.4870474213
 31
0.0
  0
LINE
  5
1A6
330
1F
100
AcDbEntity
  8
0
  6
Continuous
 62
     7
100
AcDbLine
 10
6305.8680594161
 20
5247.1587702214
 30
0.0
 11
6320.476047714
 21
5247.1587702214
 31
0.0
  0
LINE
  5
1A7
330
1F
100
AcDbEntity
  8
0
  6
Continuous
 62
     7
100
AcDbLine
 10
6320.476047714
 20
5247.1587702214
 30
0.0
 11
6320.476047714
 21
5258.7976555853
 31
0.0
  0
LINE
  5
1A8
330
1F
100
AcDbEntity
  8
0
  6
Continuous
 62
     7
100
AcDbLine
 10
6320.476047714
 20
5258.7976555853
 30
0.0
 11
6305.8680594161
 21
5258.7976555853
 31
0.0
  0
LINE
  5
1A9
330
1F
100
AcDbEntity
  8
0
  6
Continuous
 62
     7
100
AcDbLine
 10
6305.8680594161
 20
5258.7976555853
 30
0.0
 11
6305.8680594161
 21
5273.4056438833
 31
0.0
  0
LINE
  5
1AA
330
1F
100
AcDbEntity
  8
0
  6
Continuous
 62
     7
100
AcDbLine
 10
6305.8680594161
 20
5273.4056438833
 30
0.0
 11
6294.2291721895
 21
5273.4056438833
 31
0.0
  0
LINE
  5
1AB
330
1F
100
AcDbEntity
  8
0
  6
Continuous
 62
     7
100
AcDbLine
 10
6294.2291721895
 20
5273.4056438833
 30
0.0
 11
6294.2291721895
 21
5258.7976555853
 31
0.0
  0
LINE
  5
1AC
330
1F
100
AcDbEntity
  8
0
  6
Continuous
 62
     7
100
AcDbLine
 10
6294.2291721895
 20
5258.7976555853
 30
0.0
 11
6279.6211876169
 21
5258.7976555853
 31
0.0
  0
LINE
  5
1AD
330
1F
100
AcDbEntity
  8
0
  6
Continuous
 62
     7
100
AcDbLine
 10
6279.6211876169
 20
5258.7976555853
 30
0.0
 11
6279.6211876169
 21
5247.1587702214
 31
0.0
  0
LINE
  5
1AE
330
1F
100
AcDbEntity
  8
0
  6
Continuous
 62
     7
100
AcDbLine
 10
6279.6211876169
 20
5247.1587702214
 30
0.0
 11
6294.2291721895
 21
5247.1587702214
 31
0.0
  0
LINE
  5
1AF
330
1F
100
AcDbEntity
  8
0
  6
Continuous
 62
     7
100
AcDbLine
 10
6294.2291721895
 20
5247.1587702214
 30
0.0
 11
6294.2291721895
 21
5232.5507800608
 31
0.0
  0
LINE
  5
1B0
330
1F
100
AcDbEntity
  8
0
  6
Continuous
 62
     7
100
AcDbLine
 10
6294.2291721895
 20
5232.5507800608
 30
0.0
 11
6305.8680594161
 21
5232.5507800608
 31
0.0
  0
LINE
  5
1B1
330
1F
100
AcDbEntity
  8
0
  6
Continuous
 62
     7
100
AcDbLine
 10
6305.8680594161
 20
5232.5507800608
 30
0.0
 11
6305.8680594161
 21
5247.1587702214
 31
0.0
  0
LINE
  5
1B2
330
1F
100
AcDbEntity
  8
0
  6
Continuous
 62
     7
100
AcDbLine
 10
6240.0099393174
 20
5221.7172470457
 30
0.0
 11
6242.3653491035
 21
5219.1771590199
 31
0.0
  0
LINE
  5
1B3
330
1F
100
AcDbEntity
  8
0
  6
Continuous
 62
     7
100
AcDbLine
 10
6238.4543847486
 20
5228.5422191537
 30
0.0
 11
6240.8097945347
 21
5226.0021313607
 31
0.0
  0
LINE
  5
1B4
330
1F
100
AcDbEntity
  8
0
  6
Continuous
 62
     7
100
AcDbLine
 10
6260.7264593437
 20
5202.0272153943
 30
0.0
 11
6246.226459761
 21
5202.0272153943
 31
0.0
  0
LINE
  5
1B5
330
1F
100
AcDbEntity
  8
0
  6
Continuous
 62
     7
100
AcDbLine
 10
6224.018756727
 20
5191.1539572804
 30
0.0
 11
6224.018756727
 21
5271.1539592176
 31
0.0
  0
LINE
  5
1B6
330
1F
100
AcDbEntity
  8
0
  6
Continuous
 62
     7
100
AcDbLine
 10
6246.226459761
 20
5202.0272153943
 30
0.0
 11
6246.226459761
 21
5199.0272149026
 31
0.0
  0
LINE
  5
1B7
330
1F
100
AcDbEntity
  8
0
  6
Continuous
 62
     7
100
AcDbLine
 10
6243.1210503176
 20
5208.067302364
 30
0.0
 11
6245.4764601037
 21
5205.5272150367
 31
0.0
  0
LINE
  5
1B8
330
1F
100
AcDbEntity
  8
0
  6
Continuous
 62
     7
100
AcDbLine
 10
6260.5187557831
 20
5639.9620052009
 30
0.0
 11
6260.5187557831
 21
5635.962026897
 31
0.0
  0
LINE
  5
1B9
330
1F
100
AcDbEntity
  8
0
  6
Continuous
 62
     7
100
AcDbLine
 10
6260.5187557831
 20
5643.9620133071
 30
0.0
 11
6260.5187557831
 21
5639.9620052009
 31
0.0
  0
LINE
  5
1BA
330
1F
100
AcDbEntity
  8
0
  6
Continuous
 62
     7
100
AcDbLine
 10
6259.0687535897
 20
5637.4120290904
 30
0.0
 11
6259.0687535897
 21
5642.5120111137
 31
0.0
  0
LINE
  5
1BB
330
1F
100
AcDbEntity
  8
0
  6
Continuous
 62
     7
100
AcDbLine
 10
6281.8246558502
 20
4918.1237395435
 30
0.0
 11
6281.8901166514
 21
4918.1997056632
 31
0.0
  0
LINE
  5
1BC
330
1F
100
AcDbEntity
  8
0
  6
Continuous
 62
     7
100
AcDbLine
 10
6281.8901166514
 20
4918.1997056632
 30
0.0
 11
6282.1744680598
 21
4918.529706779
 31
0.0
  0
LINE
  5
1BD
330
1F
100
AcDbEntity
  8
0
  6
Continuous
 62
     7
100
AcDbLine
 10
6282.1744680598
 20
4918.529706779
 30
0.0
 11
6282.6597467259
 21
4919.0928812652
 31
0.0
  0
LINE
  5
1BE
330
1F
100
AcDbEntity
  8
0
  6
Continuous
 62
     7
100
AcDbLine
 10
6282.6597467259
 20
4919.0928812652
 30
0.0
 11
6283.3028212383
 21
4919.8391910224
 31
0.0
  0
LINE
  5
1BF
330
1F
100
AcDbEntity
  8
0
  6
Continuous
 62
     7
100
AcDbLine
 10
6283.3028212383
 20
4919.8391910224
 30
0.0
 11
6284.0465679958
 21
4920.7023258834
 31
0.0
  0
LINE
  5
1C0
330
1F
100
AcDbEntity
  8
0
  6
Continuous
 62
     7
100
AcDbLine
 10
6284.0465679958
 20
4920.7023258834
 30
0.0
 11
6284.8248854473
 21
4921.6056044727
 31
0.0
  0
LINE
  5
1C1
330
1F
100
AcDbEntity
  8
0
  6
Continuous
 62
     7
100
AcDbLine
 10
6284.8248854473
 20
4921.6056044727
 30
0.0
 11
6285.5686247542
 21
4922.4687393337
 31
0.0
  0
LINE
  5
1C2
330
1F
100
AcDbEntity
  8
0
  6
Continuous
 62
     7
100
AcDbLine
 10
6285.5686247542
 20
4922.4687393337
 30
0.0
 11
6286.2117067173
 21
4923.2150490909
 31
0.0
  0
LINE
  5
1C3
330
1F
100
AcDbEntity
  8
0
  6
Continuous
 62
     7
100
AcDbLine
 10
6286.2117067173
 20
4923.2150490909
 30
0.0
 11
6286.6969779327
 21
4923.7782235771
 31
0.0
  0
LINE
  5
1C4
330
1F
100
AcDbEntity
  8
0
  6
Continuous
 62
     7
100
AcDbLine
 10
6286.6969779327
 20
4923.7782235771
 30
0.0
 11
6286.9813293412
 21
4924.1082246929
 31
0.0
  0
LINE
  5
1C5
330
1F
100
AcDbEntity
  8
0
  6
Continuous
 62
     7
100
AcDbLine
 10
6286.9813293412
 20
4924.1082246929
 30
0.0
 11
6287.0467975929
 21
4924.1841908126
 31
0.0
  0
LINE
  5
1C6
330
1F
100
AcDbEntity
  8
0
  6
Continuous
 62
     7
100
AcDbLine
 10
6203.0187556714
 20
5512.4693091541
 30
0.0
 11
6233.0187550008
 21
5512.4693091541
 31
0.0
  0
LINE
  5
1C7
330
1F
100
AcDbEntity
  8
0
  6
Continuous
 62
     7
100
AcDbLine
 10
6264.0187554255
 20
5639.9620052009
 30
0.0
 11
6264.0187554255
 21
5643.9620133071
 31
0.0
  0
LINE
  5
1C8
330
1F
100
AcDbEntity
  8
0
  6
Continuous
 62
     7
100
AcDbLine
 10
6264.0187554255
 20
5635.962026897
 30
0.0
 11
6264.0187554255
 21
5639.9620052009
 31
0.0
  0
LINE
  5
1C9
330
1F
100
AcDbEntity
  8
0
  6
Continuous
 62
     7
100
AcDbLine
 10
6149.0187559389
 20
4775.1539520046
 30
0.0
 11
6149.0187559389
 21
4767.1539660125
 31
0.0
  0
LINE
  5
1CA
330
1F
100
AcDbEntity
  8
0
  6
Continuous
 62
     7
100
AcDbLine
 10
6137.2052952841
 20
4806.9613452583
 30
0.0
 11
6137.139834483
 21
4807.037311378
 31
0.0
  0
LINE
  5
1CB
330
1F
100
AcDbEntity
  8
0
  6
Continuous
 62
     7
100
AcDbLine
 10
6137.139834483
 20
4807.037311378
 30
0.0
 11
6136.8554830745
 21
4807.3673124938
 31
0.0
  0
LINE
  5
1CC
330
1F
100
AcDbEntity
  8
0
  6
Continuous
 62
     7
100
AcDbLine
 10
6136.8554830745
 20
4807.3673124938
 30
0.0
 11
6136.3702044085
 21
4807.93048698
 31
0.0
  0
LINE
  5
1CD
330
1F
100
AcDbEntity
  8
0
  6
Continuous
 62
     7
100
AcDbLine
 10
6136.3702044085
 20
4807.93048698
 30
0.0
 11
6135.727129896
 21
4808.6768265396
 31
0.0
  0
LINE
  5
1CE
330
1F
100
AcDbEntity
  8
0
  6
Continuous
 62
     7
100
AcDbLine
 10
6135.727129896
 20
4808.6768265396
 30
0.0
 11
6134.9833905891
 21
4809.5399614006
 31
0.0
  0
LINE
  5
1CF
330
1F
100
AcDbEntity
  8
0
  6
Continuous
 62
     7
100
AcDbLine
 10
6134.9833905891
 20
4809.5399614006
 30
0.0
 11
6134.205065687
 21
4810.4432101875
 31
0.0
  0
LINE
  5
1D0
330
1F
100
AcDbEntity
  8
0
  6
Continuous
 62
     7
100
AcDbLine
 10
6134.205065687
 20
4810.4432101875
 30
0.0
 11
6133.4613263801
 21
4811.3063450485
 31
0.0
  0
LINE
  5
1D1
330
1F
100
AcDbEntity
  8
0
  6
Continuous
 62
     7
100
AcDbLine
 10
6133.4613263801
 20
4811.3063450485
 30
0.0
 11
6132.8182518676
 21
4812.0526548057
 31
0.0
  0
LINE
  5
1D2
330
1F
100
AcDbEntity
  8
0
  6
Continuous
 62
     7
100
AcDbLine
 10
6132.8182518676
 20
4812.0526548057
 30
0.0
 11
6132.3329732016
 21
4812.6158292919
 31
0.0
  0
LINE
  5
1D3
330
1F
100
AcDbEntity
  8
0
  6
Continuous
 62
     7
100
AcDbLine
 10
6132.3329732016
 20
4812.6158292919
 30
0.0
 11
6132.0486217931
 21
4812.9458304077
 31
0.0
  0
LINE
  5
1D4
330
1F
100
AcDbEntity
  8
0
  6
Continuous
 62
     7
100
AcDbLine
 10
6132.0486217931
 20
4812.9458304077
 30
0.0
 11
6131.9831535414
 21
4813.0218263298
 31
0.0
  0
LINE
  5
1D5
330
1F
100
AcDbEntity
  8
0
  6
Continuous
 62
     7
100
AcDbLine
 10
6399.0187484884
 20
4775.1539520046
 30
0.0
 11
6399.0187484884
 21
4767.1539660125
 31
0.0
  0
LINE
  5
1D6
330
1F
100
AcDbEntity
  8
0
  6
Continuous
 62
     7
100
AcDbLine
 10
6274.0187570646
 20
5629.9620147376
 30
0.0
 11
6278.018753995
 21
5629.9620147376
 31
0.0
  0
LINE
  5
1D7
330
1F
100
AcDbEntity
  8
0
  6
Continuous
 62
     7
100
AcDbLine
 10
6270.018756409
 20
5629.9620147376
 30
0.0
 11
6274.0187570646
 21
5629.9620147376
 31
0.0
  0
LINE
  5
1D8
330
1F
100
AcDbEntity
  8
0
  6
Continuous
 62
     7
100
AcDbLine
 10
6278.018753995
 20
4943.8806946903
 30
0.0
 11
6270.018756409
 21
4943.8806946903
 31
0.0
  0
LINE
  5
1D9
330
1F
100
AcDbEntity
  8
0
  6
Continuous
 62
     7
100
AcDbLine
 10
6410.8322113946
 20
4806.9613452583
 30
0.0
 11
6410.8976721957
 21
4807.037311378
 31
0.0
  0
LINE
  5
1DA
330
1F
100
AcDbEntity
  8
0
  6
Continuous
 62
     7
100
AcDbLine
 10
6410.8976721957
 20
4807.037311378
 30
0.0
 11
6411.1820310548
 21
4807.3673124938
 31
0.0
  0
LINE
  5
1DB
330
1F
100
AcDbEntity
  8
0
  6
Continuous
 62
     7
100
AcDbLine
 10
6411.1820310548
 20
4807.3673124938
 30
0.0
 11
6411.6673022702
 21
4807.93048698
 31
0.0
  0
LINE
  5
1DC
330
1F
100
AcDbEntity
  8
0
  6
Continuous
 62
     7
100
AcDbLine
 10
6411.6673022702
 20
4807.93048698
 30
0.0
 11
6412.3103767827
 21
4808.6768265396
 31
0.0
  0
LINE
  5
1DD
330
1F
100
AcDbEntity
  8
0
  6
Continuous
 62
     7
100
AcDbLine
 10
6412.3103767827
 20
4808.6768265396
 30
0.0
 11
6413.0541235402
 21
4809.5399614006
 31
0.0
  0
LINE
  5
1DE
330
1F
100
AcDbEntity
  8
0
  6
Continuous
 62
     7
100
AcDbLine
 10
6413.0541235402
 20
4809.5399614006
 30
0.0
 11
6413.8324409917
 21
4810.4432101875
 31
0.0
  0
LINE
  5
1DF
330
1F
100
AcDbEntity
  8
0
  6
Continuous
 62
     7
100
AcDbLine
 10
6413.8324409917
 20
4810.4432101875
 30
0.0
 11
6414.5761877492
 21
4811.3063450485
 31
0.0
  0
LINE
  5
1E0
330
1F
100
AcDbEntity
  8
0
  6
Continuous
 62
     7
100
AcDbLine
 10
6414.5761877492
 20
4811.3063450485
 30
0.0
 11
6415.2192622617
 21
4812.0526548057
 31
0.0
  0
LINE
  5
1E1
330
1F
100
AcDbEntity
  8
0
  6
Continuous
 62
     7
100
AcDbLine
 10
6415.2192622617
 20
4812.0526548057
 30
0.0
 11
6415.7045334771
 21
4812.6158292919
 31
0.0
  0
LINE
  5
1E2
330
1F
100
AcDbEntity
  8
0
  6
Continuous
 62
     7
100
AcDbLine
 10
6415.7045334771
 20
4812.6158292919
 30
0.0
 11
6415.9888923362
 21
4812.9458304077
 31
0.0
  0
LINE
  5
1E3
330
1F
100
AcDbEntity
  8
0
  6
Continuous
 62
     7
100
AcDbLine
 10
6415.9888923362
 20
4812.9458304077
 30
0.0
 11
6416.0543531373
 21
4813.0218263298
 31
0.0
  0
LINE
  5
1E4
330
1F
100
AcDbEntity
  8
0
  6
Continuous
 62
     7
100
AcDbLine
 10
6266.212858279
 20
4918.1237395435
 30
0.0
 11
6266.1473900273
 21
4918.1997056632
 31
0.0
  0
LINE
  5
1E5
330
1F
100
AcDbEntity
  8
0
  6
Continuous
 62
     7
100
AcDbLine
 10
6266.1473900273
 20
4918.1997056632
 30
0.0
 11
6265.8630386189
 21
4918.529706779
 31
0.0
  0
LINE
  5
1E6
330
1F
100
AcDbEntity
  8
0
  6
Continuous
 62
     7
100
AcDbLine
 10
6265.8630386189
 20
4918.529706779
 30
0.0
 11
6265.3777636781
 21
4919.0928812652
 31
0.0
  0
LINE
  5
1E7
330
1F
100
AcDbEntity
  8
0
  6
Continuous
 62
     7
100
AcDbLine
 10
6265.3777636781
 20
4919.0928812652
 30
0.0
 11
6264.7346854404
 21
4919.8391910224
 31
0.0
  0
LINE
  5
1E8
330
1F
100
AcDbEntity
  8
0
  6
Continuous
 62
     7
100
AcDbLine
 10
6264.7346854404
 20
4919.8391910224
 30
0.0
 11
6263.9909461334
 21
4920.7023258834
 31
0.0
  0
LINE
  5
1E9
330
1F
100
AcDbEntity
  8
0
  6
Continuous
 62
     7
100
AcDbLine
 10
6263.9909461334
 20
4920.7023258834
 30
0.0
 11
6263.2126249567
 21
4921.6056044727
 31
0.0
  0
LINE
  5
1EA
330
1F
100
AcDbEntity
  8
0
  6
Continuous
 62
     7
100
AcDbLine
 10
6263.2126249567
 20
4921.6056044727
 30
0.0
 11
6262.4688856497
 21
4922.4687393337
 31
0.0
  0
LINE
  5
1EB
330
1F
100
AcDbEntity
  8
0
  6
Continuous
 62
     7
100
AcDbLine
 10
6262.4688856497
 20
4922.4687393337
 30
0.0
 11
6261.825807412
 21
4923.2150490909
 31
0.0
  0
LINE
  5
1EC
330
1F
100
AcDbEntity
  8
0
  6
Continuous
 62
     7
100
AcDbLine
 10
6261.825807412
 20
4923.2150490909
 30
0.0
 11
6261.3405324712
 21
4923.7782235771
 31
0.0
  0
LINE
  5
1ED
330
1F
100
AcDbEntity
  8
0
  6
Continuous
 62
     7
100
AcDbLine
 10
6261.3405324712
 20
4923.7782235771
 30
0.0
 11
6261.0561810628
 21
4924.1082246929
 31
0.0
  0
LINE
  5
1EE
330
1F
100
AcDbEntity
  8
0
  6
Continuous
 62
     7
100
AcDbLine
 10
6261.0561810628
 20
4924.1082246929
 30
0.0
 11
6260.9907165363
 21
4924.1841908126
 31
0.0
  0
LINE
  5
1EF
330
1F
100
AcDbEntity
  8
0
  6
Continuous
 62
     7
100
AcDbLine
 10
7582.4928752652
 20
5422.469320479
 30
0.0
 11
7582.4928752652
 21
5432.4693109422
 31
0.0
  0
LINE
  5
1F0
330
1F
100
AcDbEntity
  8
0
  6
Continuous
 62
     7
100
AcDbLine
 10
7482.492911028
 20
5432.4693109422
 30
0.0
 11
7482.492911028
 21
5422.469320479
 31
0.0
  0
LINE
  5
1F1
330
1F
100
AcDbEntity
  8
0
  6
Continuous
 62
     7
100
AcDbLine
 10
7582.4928752652
 20
5432.4693109422
 30
0.0
 11
7572.4928848019
 21
5442.4693163066
 31
0.0
  0
LINE
  5
1F2
330
1F
100
AcDbEntity
  8
0
  6
Continuous
 62
     7
100
AcDbLine
 10
7492.4929014912
 20
5442.4693163066
 30
0.0
 11
7482.492911028
 21
5432.4693109422
 31
0.0
  0
LINE
  5
1F3
330
1F
100
AcDbEntity
  8
0
  6
Continuous
 62
     7
100
AcDbLine
 10
6852.492885994
 20
5547.4693055778
 30
0.0
 11
6892.4928925506
 21
5547.4693055778
 31
0.0
  0
LINE
  5
1F4
330
1F
100
AcDbEntity
  8
0
  6
Continuous
 62
     7
100
AcDbLine
 10
6892.4928925506
 20
5597.4693174987
 30
0.0
 11
6852.492885994
 21
5597.4693174987
 31
0.0
  0
LINE
  5
1F5
330
1F
100
AcDbEntity
  8
0
  6
Continuous
 62
     7
100
AcDbLine
 10
7554.9929014912
 20
5442.4693163066
 30
0.0
 11
7554.9929014912
 21
5492.4693282276
 31
0.0
  0
LINE
  5
1F6
330
1F
100
AcDbEntity
  8
0
  6
Continuous
 62
     7
100
AcDbLine
 10
7509.9928848019
 20
5492.4693282276
 30
0.0
 11
7509.9928848019
 21
5442.4693163066
 31
0.0
  0
LINE
  5
1F7
330
1F
100
AcDbEntity
  8
0
  6
Continuous
 62
     7
100
AcDbLine
 10
6837.492885398
 20
5552.4693306117
 30
0.0
 11
6852.492885994
 21
5552.4693306117
 31
0.0
  0
LINE
  5
1F8
330
1F
100
AcDbEntity
  8
0
  6
Continuous
 62
     7
100
AcDbLine
 10
6852.492885994
 20
5592.4693222671
 30
0.0
 11
6837.492885398
 21
5592.4693222671
 31
0.0
  0
LINE
  5
1F9
330
1F
100
AcDbEntity
  8
0
  6
Continuous
 62
     7
100
AcDbLine
 10
6892.4928925506
 20
5552.4693306117
 30
0.0
 11
6907.4928931466
 21
5552.4693306117
 31
0.0
  0
LINE
  5
1FA
330
1F
100
AcDbEntity
  8
0
  6
Continuous
 62
     7
100
AcDbLine
 10
6907.4928931466
 20
5592.4693222671
 30
0.0
 11
6892.4928925506
 21
5592.4693222671
 31
0.0
  0
LINE
  5
1FB
330
1F
100
AcDbEntity
  8
0
  6
Continuous
 62
     7
100
AcDbLine
 10
6812.4928943387
 20
5557.4693258434
 30
0.0
 11
6837.492885398
 21
5557.4693258434
 31
0.0
  0
LINE
  5
1FC
330
1F
100
AcDbEntity
  8
0
  6
Continuous
 62
     7
100
AcDbLine
 10
6837.492885398
 20
5587.4693270355
 30
0.0
 11
6812.4928943387
 21
5587.4693270355
 31
0.0
  0
LINE
  5
1FD
330
1F
100
AcDbEntity
  8
0
  6
Continuous
 62
     7
100
AcDbLine
 10
6907.4928931466
 20
5557.4693258434
 30
0.0
 11
7472.4929205647
 21
5557.4693258434
 31
0.0
  0
LINE
  5
1FE
330
1F
100
AcDbEntity
  8
0
  6
Continuous
 62
     7
100
AcDbLine
 10
7472.4929205647
 20
5587.4693270355
 30
0.0
 11
6907.4928931466
 21
5587.4693270355
 31
0.0
  0
LINE
  5
1FF
330
1F
100
AcDbEntity
  8
0
  6
Continuous
 62
     7
100
AcDbLine
 10
7547.4929086438
 20
5492.4693282276
 30
0.0
 11
7547.4929086438
 21
5512.4693091541
 31
0.0
  0
LINE
  5
200
330
1F
100
AcDbEntity
  8
0
  6
Continuous
 62
     7
100
AcDbLine
 10
7517.4928776494
 20
5512.4693091541
 30
0.0
 11
7517.4928776494
 21
5492.4693282276
 31
0.0
  0
LINE
  5
201
330
1F
100
AcDbEntity
  8
0
  6
Continuous
 62
     7
100
AcDbLine
 10
6947.3922125569
 20
4809.991585794
 30
0.0
 11
6947.3922125569
 21
4771.1539579903
 31
0.0
  0
LINE
  5
202
330
1F
100
AcDbEntity
  8
0
  6
Continuous
 62
     7
100
AcDbLine
 10
6955.3922287694
 20
4771.1539579903
 30
0.0
 11
6955.3922287694
 21
4809.991585794
 31
0.0
  0
LINE
  5
203
330
1F
100
AcDbEntity
  8
0
  6
Continuous
 62
     7
100
AcDbLine
 10
6955.3922287694
 20
4809.991585794
 30
0.0
 11
6955.3922287694
 21
4921.1539502769
 31
0.0
  0
LINE
  5
204
330
1F
100
AcDbEntity
  8
0
  6
Continuous
 62
     7
100
AcDbLine
 10
6947.3922125569
 20
4921.1539502769
 30
0.0
 11
6947.3922125569
 21
4809.991585794
 31
0.0
  0
LINE
  5
205
330
1F
100
AcDbEntity
  8
0
  6
Continuous
 62
     7
100
AcDbLine
 10
6915.8703855744
 20
5239.4967626362
 30
0.0
 11
6915.9203938714
 21
5239.4967626362
 31
0.0
  0
LINE
  5
206
330
1F
100
AcDbEntity
  8
0
  6
Continuous
 62
     7
100
AcDbLine
 10
6986.0457352868
 20
5360.6754716068
 30
0.0
 11
6986.0332481137
 21
5360.6754716068
 31
0.0
  0
LINE
  5
207
330
1F
100
AcDbEntity
  8
0
  6
Continuous
 62
     7
100
AcDbLine
 10
6916.4381496182
 20
5245.1540834784
 30
0.0
 11
6916.4881579152
 21
5245.1540834784
 31
0.0
  0
LINE
  5
208
330
1F
100
AcDbEntity
  8
0
  6
Continuous
 62
     7
100
AcDbLine
 10
6916.4881579152
 20
5252.3964315235
 30
0.0
 11
6916.4381496182
 21
5252.3964315235
 31
0.0
  0
LINE
  5
209
330
1F
100
AcDbEntity
  8
0
  6
Continuous
 62
     7
100
AcDbLine
 10
6955.3922287694
 20
4921.1539502769
 30
0.0
 11
6955.3922287694
 21
4943.8806946903
 31
0.0
  0
LINE
  5
20A
330
1F
100
AcDbEntity
  8
0
  6
Continuous
 62
     7
100
AcDbLine
 10
6947.3922125569
 20
4943.8806946903
 30
0.0
 11
6947.3922125569
 21
4921.1539502769
 31
0.0
  0
LINE
  5
20B
330
1F
100
AcDbEntity
  8
0
  6
Continuous
 62
     7
100
AcDbLine
 10
6955.3922287694
 20
5629.9620147376
 30
0.0
 11
6955.3922287694
 21
5636.1386652618
 31
0.0
  0
LINE
  5
20C
330
1F
100
AcDbEntity
  8
0
  6
Continuous
 62
     7
100
AcDbLine
 10
6955.3922287694
 20
5411.1539598136
 30
0.0
 11
6955.3922287694
 21
5557.4693258434
 31
0.0
  0
LINE
  5
20D
330
1F
100
AcDbEntity
  8
0
  6
Continuous
 62
     7
100
AcDbLine
 10
6955.3922287694
 20
5587.4693270355
 30
0.0
 11
6955.3922287694
 21
5629.9620147376
 31
0.0
  0
LINE
  5
20E
330
1F
100
AcDbEntity
  8
0
  6
Continuous
 62
     7
100
AcDbLine
 10
6947.3922125569
 20
5629.4258709579
 30
0.0
 11
6947.3922125569
 21
5587.4693270355
 31
0.0
  0
LINE
  5
20F
330
1F
100
AcDbEntity
  8
0
  6
Continuous
 62
     7
100
AcDbLine
 10
6947.3922125569
 20
5557.4693258434
 30
0.0
 11
6947.3922125569
 21
5411.1539598136
 31
0.0
  0
LINE
  5
210
330
1F
100
AcDbEntity
  8
0
  6
Continuous
 62
     7
100
AcDbLine
 10
6947.3922125569
 20
5171.1539577275
 30
0.0
 11
6947.3922125569
 21
4943.8806946903
 31
0.0
  0
LINE
  5
211
330
1F
100
AcDbEntity
  8
0
  6
Continuous
 62
     7
100
AcDbLine
 10
6955.3922287694
 20
4943.8806946903
 30
0.0
 11
6955.3922287694
 21
5171.1539577275
 31
0.0
  0
LINE
  5
212
330
1F
100
AcDbEntity
  8
0
  6
Continuous
 62
     7
100
AcDbLine
 10
7582.4928752652
 20
5422.469320479
 30
0.0
 11
7482.492911028
 21
5422.469320479
 31
0.0
  0
LINE
  5
213
330
1F
100
AcDbEntity
  8
0
  6
Continuous
 62
     7
100
AcDbLine
 10
7582.4928752652
 20
5432.4693109422
 30
0.0
 11
7482.492911028
 21
5432.4693109422
 31
0.0
  0
LINE
  5
214
330
1F
100
AcDbEntity
  8
0
  6
Continuous
 62
     7
100
AcDbLine
 10
7492.4929014912
 20
5442.4693163066
 30
0.0
 11
7572.4928848019
 21
5442.4693163066
 31
0.0
  0
LINE
  5
215
330
1F
100
AcDbEntity
  8
0
  6
Continuous
 62
     7
100
AcDbLine
 10
6852.492885994
 20
5597.4693174987
 30
0.0
 11
6852.492885994
 21
5547.4693055778
 31
0.0
  0
LINE
  5
216
330
1F
100
AcDbEntity
  8
0
  6
Continuous
 62
     7
100
AcDbLine
 10
6892.4928925506
 20
5597.4693174987
 30
0.0
 11
6892.4928925506
 21
5547.4693055778
 31
0.0
  0
LINE
  5
217
330
1F
100
AcDbEntity
  8
0
  6
Continuous
 62
     7
100
AcDbLine
 10
7554.9929014912
 20
5492.4693282276
 30
0.0
 11
7509.9928848019
 21
5492.4693282276
 31
0.0
  0
LINE
  5
218
330
1F
100
AcDbEntity
  8
0
  6
Continuous
 62
     7
100
AcDbLine
 10
6837.492885398
 20
5592.4693222671
 30
0.0
 11
6837.492885398
 21
5552.4693306117
 31
0.0
  0
LINE
  5
219
330
1F
100
AcDbEntity
  8
0
  6
Continuous
 62
     7
100
AcDbLine
 10
6907.4928931466
 20
5592.4693222671
 30
0.0
 11
6907.4928931466
 21
5552.4693306117
 31
0.0
  0
LINE
  5
21A
330
1F
100
AcDbEntity
  8
0
  6
Continuous
 62
     7
100
AcDbLine
 10
6812.4928943387
 20
5572.4693115383
 30
0.0
 11
6812.4928943387
 21
5555.4693217903
 31
0.0
  0
LINE
  5
21B
330
1F
100
AcDbEntity
  8
0
  6
Continuous
 62
     7
100
AcDbLine
 10
6812.4928943387
 20
5589.4693310886
 30
0.0
 11
6812.4928943387
 21
5572.4693115383
 31
0.0
  0
LINE
  5
21C
330
1F
100
AcDbEntity
  8
0
  6
Continuous
 62
     7
100
AcDbLine
 10
6967.0080117455
 20
5660.2449591785
 30
0.0
 11
6892.1949140302
 21
5597.4693174987
 31
0.0
  0
LINE
  5
21D
330
1F
100
AcDbEntity
  8
0
  6
Continuous
 62
     7
100
AcDbLine
 10
6967.0080117455
 20
5660.2449591785
 30
0.0
 11
6967.0759312383
 21
5660.1639862686
 31
0.0
  0
LINE
  5
21E
330
1F
100
AcDbEntity
  8
0
  6
Continuous
 62
     7
100
AcDbLine
 10
6967.0759312383
 20
5660.1639862686
 30
0.0
 11
6967.2771267167
 21
5659.924226585
 31
0.0
  0
LINE
  5
21F
330
1F
100
AcDbEntity
  8
0
  6
Continuous
 62
     7
100
AcDbLine
 10
6967.2771267167
 20
5659.924226585
 30
0.0
 11
6967.6038197747
 21
5659.5348890453
 31
0.0
  0
LINE
  5
220
330
1F
100
AcDbEntity
  8
0
  6
Continuous
 62
     7
100
AcDbLine
 10
6967.6038197747
 20
5659.5348890453
 30
0.0
 11
6968.0434934369
 21
5659.0109344154
 31
0.0
  0
LINE
  5
221
330
1F
100
AcDbEntity
  8
0
  6
Continuous
 62
     7
100
AcDbLine
 10
6968.0434934369
 20
5659.0109344154
 30
0.0
 11
6968.5792199841
 21
5658.3724494605
 31
0.0
  0
LINE
  5
222
330
1F
100
AcDbEntity
  8
0
  6
Continuous
 62
     7
100
AcDbLine
 10
6968.5792199841
 20
5658.3724494605
 30
0.0
 11
6969.190435814
 21
5657.6440508991
 31
0.0
  0
LINE
  5
223
330
1F
100
AcDbEntity
  8
0
  6
Continuous
 62
     7
100
AcDbLine
 10
6969.190435814
 20
5657.6440508991
 30
0.0
 11
6969.8536268941
 21
5656.853663507
 31
0.0
  0
LINE
  5
224
330
1F
100
AcDbEntity
  8
0
  6
Continuous
 62
     7
100
AcDbLine
 10
6969.8536268941
 20
5656.853663507
 30
0.0
 11
6970.5433420411
 21
5656.0317154556
 31
0.0
  0
LINE
  5
225
330
1F
100
AcDbEntity
  8
0
  6
Continuous
 62
     7
100
AcDbLine
 10
6964.8746124974
 20
5651.2750859886
 30
0.0
 11
6970.5433420411
 21
5656.0317154556
 31
0.0
  0
LINE
  5
226
330
1F
100
AcDbEntity
  8
0
  6
Continuous
 62
     7
100
AcDbLine
 10
6953.3839396706
 20
5641.6332598358
 30
0.0
 11
6960.8911744824
 21
5647.9325767188
 31
0.0
  0
LINE
  5
227
330
1F
100
AcDbEntity
  8
0
  6
Continuous
 62
     7
100
AcDbLine
 10
6970.5433420411
 20
5656.0317154556
 30
0.0
 11
6971.2330571881
 21
5655.2097376018
 31
0.0
  0
LINE
  5
228
330
1F
100
AcDbEntity
  8
0
  6
Continuous
 62
     7
100
AcDbLine
 10
6971.2330571881
 20
5655.2097376018
 30
0.0
 11
6971.8962482682
 21
5654.4193800121
 31
0.0
  0
LINE
  5
229
330
1F
100
AcDbEntity
  8
0
  6
Continuous
 62
     7
100
AcDbLine
 10
6971.8962482682
 20
5654.4193800121
 30
0.0
 11
6972.5074640981
 21
5653.6909516483
 31
0.0
  0
LINE
  5
22A
330
1F
100
AcDbEntity
  8
0
  6
Continuous
 62
     7
100
AcDbLine
 10
6972.5074640981
 20
5653.6909516483
 30
0.0
 11
6973.0431906453
 21
5653.0524964958
 31
0.0
  0
LINE
  5
22B
330
1F
100
AcDbEntity
  8
0
  6
Continuous
 62
     7
100
AcDbLine
 10
6973.0431906453
 20
5653.0524964958
 30
0.0
 11
6973.4828643075
 21
5652.5285120635
 31
0.0
  0
LINE
  5
22C
330
1F
100
AcDbEntity
  8
0
  6
Continuous
 62
     7
100
AcDbLine
 10
6973.4828643075
 20
5652.5285120635
 30
0.0
 11
6973.8095573655
 21
5652.1391745239
 31
0.0
  0
LINE
  5
22D
330
1F
100
AcDbEntity
  8
0
  6
Continuous
 62
     7
100
AcDbLine
 10
6973.8095573655
 20
5652.1391745239
 30
0.0
 11
6974.0107528439
 21
5651.8994148403
 31
0.0
  0
LINE
  5
22E
330
1F
100
AcDbEntity
  8
0
  6
Continuous
 62
     7
100
AcDbLine
 10
6974.0107528439
 20
5651.8994148403
 30
0.0
 11
6974.0786723367
 21
5651.8184717327
 31
0.0
  0
LINE
  5
22F
330
1F
100
AcDbEntity
  8
0
  6
Continuous
 62
     7
100
AcDbLine
 10
6903.3491186372
 20
5592.4693222671
 30
0.0
 11
6974.0786723367
 21
5651.8184717327
 31
0.0
  0
LINE
  5
230
330
1F
100
AcDbEntity
  8
0
  6
Continuous
 62
     7
100
AcDbLine
 10
6899.4306943885
 20
5286.1539598136
 30
0.0
 11
6968.7127343884
 21
5286.1539598136
 31
0.0
  0
LINE
  5
231
330
1F
100
AcDbEntity
  8
0
  6
Continuous
 62
     7
100
AcDbLine
 10
6886.4403239957
 20
5271.1539592176
 30
0.0
 11
6886.6002581588
 21
5273.5004748731
 31
0.0
  0
LINE
  5
232
330
1F
100
AcDbEntity
  8
0
  6
Continuous
 62
     7
100
AcDbLine
 10
6886.6002581588
 20
5273.5004748731
 30
0.0
 11
6887.0761118403
 21
5275.7892112761
 31
0.0
  0
LINE
  5
233
330
1F
100
AcDbEntity
  8
0
  6
Continuous
 62
     7
100
AcDbLine
 10
6887.0761118403
 20
5275.7892112761
 30
0.0
 11
6887.8561876288
 21
5277.9638159602
 31
0.0
  0
LINE
  5
234
330
1F
100
AcDbEntity
  8
0
  6
Continuous
 62
     7
100
AcDbLine
 10
6887.8561876288
 20
5277.9638159602
 30
0.0
 11
6888.9212630263
 21
5279.9707378774
 31
0.0
  0
LINE
  5
235
330
1F
100
AcDbEntity
  8
0
  6
Continuous
 62
     7
100
AcDbLine
 10
6888.9212630263
 20
5279.9707378774
 30
0.0
 11
6890.2451119891
 21
5281.7605610519
 31
0.0
  0
LINE
  5
236
330
1F
100
AcDbEntity
  8
0
  6
Continuous
 62
     7
100
AcDbLine
 10
6890.2451119891
 20
5281.7605610519
 30
0.0
 11
6891.7951456776
 21
5283.2892115741
 31
0.0
  0
LINE
  5
237
330
1F
100
AcDbEntity
  8
0
  6
Continuous
 62
     7
100
AcDbLine
 10
6891.7951456776
 20
5283.2892115741
 30
0.0
 11
6893.533187317
 21
5284.5190565615
 31
0.0
  0
LINE
  5
238
330
1F
100
AcDbEntity
  8
0
  6
Continuous
 62
     7
100
AcDbLine
 10
6893.533187317
 20
5284.5190565615
 30
0.0
 11
6895.4164556733
 21
5285.4198094039
 31
0.0
  0
LINE
  5
239
330
1F
100
AcDbEntity
  8
0
  6
Continuous
 62
     7
100
AcDbLine
 10
6895.4164556733
 20
5285.4198094039
 30
0.0
 11
6897.3985634318
 21
5285.9692822724
 31
0.0
  0
LINE
  5
23A
330
1F
100
AcDbEntity
  8
0
  6
Continuous
 62
     7
100
AcDbLine
 10
6897.3985634318
 20
5285.9692822724
 30
0.0
 11
6899.4306943885
 21
5286.1539598136
 31
0.0
  0
LINE
  5
23B
330
1F
100
AcDbEntity
  8
0
  6
Continuous
 62
     7
100
AcDbLine
 10
6886.4403239957
 20
5191.1539572804
 30
0.0
 11
6886.4403239957
 21
5271.1539592176
 31
0.0
  0
LINE
  5
23C
330
1F
100
AcDbEntity
  8
0
  6
Continuous
 62
     7
100
AcDbLine
 10
6899.4306943885
 20
5176.1539566844
 30
0.0
 11
6897.3985634318
 21
5176.3386342256
 31
0.0
  0
LINE
  5
23D
330
1F
100
AcDbEntity
  8
0
  6
Continuous
 62
     7
100
AcDbLine
 10
6897.3985634318
 20
5176.3386342256
 30
0.0
 11
6895.4164556733
 21
5176.8881108194
 31
0.0
  0
LINE
  5
23E
330
1F
100
AcDbEntity
  8
0
  6
Continuous
 62
     7
100
AcDbLine
 10
6895.4164556733
 20
5176.8881108194
 30
0.0
 11
6893.533187317
 21
5177.7888599365
 31
0.0
  0
LINE
  5
23F
330
1F
100
AcDbEntity
  8
0
  6
Continuous
 62
     7
100
AcDbLine
 10
6893.533187317
 20
5177.7888599365
 30
0.0
 11
6891.7951456776
 21
5179.0187049239
 31
0.0
  0
LINE
  5
240
330
1F
100
AcDbEntity
  8
0
  6
Continuous
 62
     7
100
AcDbLine
 10
6891.7951456776
 20
5179.0187049239
 30
0.0
 11
6890.2451119891
 21
5180.5473554461
 31
0.0
  0
LINE
  5
241
330
1F
100
AcDbEntity
  8
0
  6
Continuous
 62
     7
100
AcDbLine
 10
6890.2451119891
 20
5180.5473554461
 30
0.0
 11
6888.9212630263
 21
5182.3371786206
 31
0.0
  0
LINE
  5
242
330
1F
100
AcDbEntity
  8
0
  6
Continuous
 62
     7
100
AcDbLine
 10
6888.9212630263
 20
5182.3371786206
 30
0.0
 11
6887.8561876288
 21
5184.3441005378
 31
0.0
  0
LINE
  5
243
330
1F
100
AcDbEntity
  8
0
  6
Continuous
 62
     7
100
AcDbLine
 10
6887.8561876288
 20
5184.3441005378
 30
0.0
 11
6887.0761118403
 21
5186.5187014966
 31
0.0
  0
LINE
  5
244
330
1F
100
AcDbEntity
  8
0
  6
Continuous
 62
     7
100
AcDbLine
 10
6887.0761118403
 20
5186.5187014966
 30
0.0
 11
6886.6002581588
 21
5188.8074416249
 31
0.0
  0
LINE
  5
245
330
1F
100
AcDbEntity
  8
0
  6
Continuous
 62
     7
100
AcDbLine
 10
6886.6002581588
 20
5188.8074416249
 30
0.0
 11
6886.4403239957
 21
5191.1539572804
 31
0.0
  0
LINE
  5
246
330
1F
100
AcDbEntity
  8
0
  6
Continuous
 62
     7
100
AcDbLine
 10
6968.7127343884
 20
5176.1539566844
 30
0.0
 11
6899.4306943885
 21
5176.1539566844
 31
0.0
  0
LINE
  5
247
330
1F
100
AcDbEntity
  8
0
  6
Continuous
 62
     7
100
AcDbLine
 10
6981.7031196824
 20
5191.1539572804
 30
0.0
 11
6981.5431706181
 21
5188.8074416249
 31
0.0
  0
LINE
  5
248
330
1F
100
AcDbEntity
  8
0
  6
Continuous
 62
     7
100
AcDbLine
 10
6981.5431706181
 20
5188.8074416249
 30
0.0
 11
6981.0673169366
 21
5186.5187014966
 31
0.0
  0
LINE
  5
249
330
1F
100
AcDbEntity
  8
0
  6
Continuous
 62
     7
100
AcDbLine
 10
6981.0673169366
 20
5186.5187014966
 30
0.0
 11
6980.2872411481
 21
5184.3441005378
 31
0.0
  0
LINE
  5
24A
330
1F
100
AcDbEntity
  8
0
  6
Continuous
 62
     7
100
AcDbLine
 10
6980.2872411481
 20
5184.3441005378
 30
0.0
 11
6979.2221657506
 21
5182.3371786206
 31
0.0
  0
LINE
  5
24B
330
1F
100
AcDbEntity
  8
0
  6
Continuous
 62
     7
100
AcDbLine
 10
6979.2221657506
 20
5182.3371786206
 30
0.0
 11
6977.8983167878
 21
5180.5473554461
 31
0.0
  0
LINE
  5
24C
330
1F
100
AcDbEntity
  8
0
  6
Continuous
 62
     7
100
AcDbLine
 10
6977.8983167878
 20
5180.5473554461
 30
0.0
 11
6976.3482980004
 21
5179.0187049239
 31
0.0
  0
LINE
  5
24D
330
1F
100
AcDbEntity
  8
0
  6
Continuous
 62
     7
100
AcDbLine
 10
6976.3482980004
 20
5179.0187049239
 30
0.0
 11
6974.6102563611
 21
5177.7888599365
 31
0.0
  0
LINE
  5
24E
330
1F
100
AcDbEntity
  8
0
  6
Continuous
 62
     7
100
AcDbLine
 10
6974.6102563611
 20
5177.7888599365
 30
0.0
 11
6972.7269880048
 21
5176.8881108194
 31
0.0
  0
LINE
  5
24F
330
1F
100
AcDbEntity
  8
0
  6
Continuous
 62
     7
100
AcDbLine
 10
6972.7269880048
 20
5176.8881108194
 30
0.0
 11
6970.7448653451
 21
5176.3386342256
 31
0.0
  0
LINE
  5
250
330
1F
100
AcDbEntity
  8
0
  6
Continuous
 62
     7
100
AcDbLine
 10
6970.7448653451
 20
5176.3386342256
 30
0.0
 11
6968.7127343884
 21
5176.1539566844
 31
0.0
  0
LINE
  5
251
330
1F
100
AcDbEntity
  8
0
  6
Continuous
 62
     7
100
AcDbLine
 10
6981.7031196824
 20
5271.1539592176
 30
0.0
 11
6981.7031196824
 21
5191.1539572804
 31
0.0
  0
LINE
  5
252
330
1F
100
AcDbEntity
  8
0
  6
Continuous
 62
     7
100
AcDbLine
 10
6968.7127343884
 20
5286.1539598136
 30
0.0
 11
6970.7448653451
 21
5285.9692822724
 31
0.0
  0
LINE
  5
253
330
1F
100
AcDbEntity
  8
0
  6
Continuous
 62
     7
100
AcDbLine
 10
6970.7448653451
 20
5285.9692822724
 30
0.0
 11
6972.7269880048
 21
5285.4198094039
 31
0.0
  0
LINE
  5
254
330
1F
100
AcDbEntity
  8
0
  6
Continuous
 62
     7
100
AcDbLine
 10
6972.7269880048
 20
5285.4198094039
 30
0.0
 11
6974.6102563611
 21
5284.5190565615
 31
0.0
  0
LINE
  5
255
330
1F
100
AcDbEntity
  8
0
  6
Continuous
 62
     7
100
AcDbLine
 10
6974.6102563611
 20
5284.5190565615
 30
0.0
 11
6976.3482980004
 21
5283.2892115741
 31
0.0
  0
LINE
  5
256
330
1F
100
AcDbEntity
  8
0
  6
Continuous
 62
     7
100
AcDbLine
 10
6976.3482980004
 20
5283.2892115741
 30
0.0
 11
6977.8983167878
 21
5281.7605610519
 31
0.0
  0
LINE
  5
257
330
1F
100
AcDbEntity
  8
0
  6
Continuous
 62
     7
100
AcDbLine
 10
6977.8983167878
 20
5281.7605610519
 30
0.0
 11
6979.2221657506
 21
5279.9707378774
 31
0.0
  0
LINE
  5
258
330
1F
100
AcDbEntity
  8
0
  6
Continuous
 62
     7
100
AcDbLine
 10
6979.2221657506
 20
5279.9707378774
 30
0.0
 11
6980.2872411481
 21
5277.9638159602
 31
0.0
  0
LINE
  5
259
330
1F
100
AcDbEntity
  8
0
  6
Continuous
 62
     7
100
AcDbLine
 10
6980.2872411481
 20
5277.9638159602
 30
0.0
 11
6981.0673169366
 21
5275.7892112761
 31
0.0
  0
LINE
  5
25A
330
1F
100
AcDbEntity
  8
0
  6
Continuous
 62
     7
100
AcDbLine
 10
6981.0673169366
 20
5275.7892112761
 30
0.0
 11
6981.5431706181
 21
5273.5004748731
 31
0.0
  0
LINE
  5
25B
330
1F
100
AcDbEntity
  8
0
  6
Continuous
 62
     7
100
AcDbLine
 10
6981.5431706181
 20
5273.5004748731
 30
0.0
 11
6981.7031196824
 21
5271.1539592176
 31
0.0
  0
LINE
  5
25C
330
1F
100
AcDbEntity
  8
0
  6
Continuous
 62
     7
100
AcDbLine
 10
6882.1101955644
 20
5411.1539598136
 30
0.0
 11
6882.1101955644
 21
5171.1539577275
 31
0.0
  0
LINE
  5
25D
330
1F
100
AcDbEntity
  8
0
  6
Continuous
 62
     7
100
AcDbLine
 10
6882.1101955644
 20
5411.1539598136
 30
0.0
 11
6986.0332481137
 21
5411.1539598136
 31
0.0
  0
LINE
  5
25E
330
1F
100
AcDbEntity
  8
0
  6
Continuous
 62
     7
100
AcDbLine
 10
6986.0332481137
 20
5411.1539598136
 30
0.0
 11
6986.0332481137
 21
5171.1539577275
 31
0.0
  0
LINE
  5
25F
330
1F
100
AcDbEntity
  8
0
  6
Continuous
 62
     7
100
AcDbLine
 10
6981.7031196824
 20
5391.153963986
 30
0.0
 11
6981.5431706181
 21
5393.5004796415
 31
0.0
  0
LINE
  5
260
330
1F
100
AcDbEntity
  8
0
  6
Continuous
 62
     7
100
AcDbLine
 10
6981.5431706181
 20
5393.5004796415
 30
0.0
 11
6981.0673169366
 21
5395.7892085939
 31
0.0
  0
LINE
  5
261
330
1F
100
AcDbEntity
  8
0
  6
Continuous
 62
     7
100
AcDbLine
 10
6981.0673169366
 20
5395.7892085939
 30
0.0
 11
6980.2872411481
 21
5397.9638095527
 31
0.0
  0
LINE
  5
262
330
1F
100
AcDbEntity
  8
0
  6
Continuous
 62
     7
100
AcDbLine
 10
6980.2872411481
 20
5397.9638095527
 30
0.0
 11
6979.2221657506
 21
5399.9707426458
 31
0.0
  0
LINE
  5
263
330
1F
100
AcDbEntity
  8
0
  6
Continuous
 62
     7
100
AcDbLine
 10
6979.2221657506
 20
5399.9707426458
 30
0.0
 11
6977.8983167878
 21
5401.7605658203
 31
0.0
  0
LINE
  5
264
330
1F
100
AcDbEntity
  8
0
  6
Continuous
 62
     7
100
AcDbLine
 10
6977.8983167878
 20
5401.7605658203
 30
0.0
 11
6976.3482980004
 21
5403.2892163425
 31
0.0
  0
LINE
  5
265
330
1F
100
AcDbEntity
  8
0
  6
Continuous
 62
     7
100
AcDbLine
 10
6976.3482980004
 20
5403.2892163425
 30
0.0
 11
6974.6102563611
 21
5404.5190538793
 31
0.0
  0
LINE
  5
266
330
1F
100
AcDbEntity
  8
0
  6
Continuous
 62
     7
100
AcDbLine
 10
6974.6102563611
 20
5404.5190538793
 30
0.0
 11
6972.7269880048
 21
5405.4197992711
 31
0.0
  0
LINE
  5
267
330
1F
100
AcDbEntity
  8
0
  6
Continuous
 62
     7
100
AcDbLine
 10
6972.7269880048
 20
5405.4197992711
 30
0.0
 11
6970.7448653451
 21
5405.9692795902
 31
0.0
  0
LINE
  5
268
330
1F
100
AcDbEntity
  8
0
  6
Continuous
 62
     7
100
AcDbLine
 10
6970.7448653451
 20
5405.9692795902
 30
0.0
 11
6968.7127343884
 21
5406.153964582
 31
0.0
  0
LINE
  5
269
330
1F
100
AcDbEntity
  8
0
  6
Continuous
 62
     7
100
AcDbLine
 10
6968.7127343884
 20
5406.153964582
 30
0.0
 11
6899.4306943885
 21
5406.153964582
 31
0.0
  0
LINE
  5
26A
330
1F
100
AcDbEntity
  8
0
  6
Continuous
 62
     7
100
AcDbLine
 10
6899.4306943885
 20
5406.153964582
 30
0.0
 11
6897.3985634318
 21
5405.9692795902
 31
0.0
  0
LINE
  5
26B
330
1F
100
AcDbEntity
  8
0
  6
Continuous
 62
     7
100
AcDbLine
 10
6897.3985634318
 20
5405.9692795902
 30
0.0
 11
6895.4164556733
 21
5405.4197992711
 31
0.0
  0
LINE
  5
26C
330
1F
100
AcDbEntity
  8
0
  6
Continuous
 62
     7
100
AcDbLine
 10
6895.4164556733
 20
5405.4197992711
 30
0.0
 11
6893.533187317
 21
5404.5190538793
 31
0.0
  0
LINE
  5
26D
330
1F
100
AcDbEntity
  8
0
  6
Continuous
 62
     7
100
AcDbLine
 10
6893.533187317
 20
5404.5190538793
 30
0.0
 11
6891.7951456776
 21
5403.2892163425
 31
0.0
  0
LINE
  5
26E
330
1F
100
AcDbEntity
  8
0
  6
Continuous
 62
     7
100
AcDbLine
 10
6891.7951456776
 20
5403.2892163425
 30
0.0
 11
6890.2451119891
 21
5401.7605658203
 31
0.0
  0
LINE
  5
26F
330
1F
100
AcDbEntity
  8
0
  6
Continuous
 62
     7
100
AcDbLine
 10
6890.2451119891
 20
5401.7605658203
 30
0.0
 11
6888.9212630263
 21
5399.9707426458
 31
0.0
  0
LINE
  5
270
330
1F
100
AcDbEntity
  8
0
  6
Continuous
 62
     7
100
AcDbLine
 10
6888.9212630263
 20
5399.9707426458
 30
0.0
 11
6887.8561876288
 21
5397.9638095527
 31
0.0
  0
LINE
  5
271
330
1F
100
AcDbEntity
  8
0
  6
Continuous
 62
     7
100
AcDbLine
 10
6887.8561876288
 20
5397.9638095527
 30
0.0
 11
6887.0761118403
 21
5395.7892085939
 31
0.0
  0
LINE
  5
272
330
1F
100
AcDbEntity
  8
0
  6
Continuous
 62
     7
100
AcDbLine
 10
6887.0761118403
 20
5395.7892085939
 30
0.0
 11
6886.6002581588
 21
5393.5004796415
 31
0.0
  0
LINE
  5
273
330
1F
100
AcDbEntity
  8
0
  6
Continuous
 62
     7
100
AcDbLine
 10
6886.6002581588
 20
5393.5004796415
 30
0.0
 11
6886.4403239957
 21
5391.153963986
 31
0.0
  0
LINE
  5
274
330
1F
100
AcDbEntity
  8
0
  6
Continuous
 62
     7
100
AcDbLine
 10
6886.4403239957
 20
5391.153963986
 30
0.0
 11
6886.4403239957
 21
5311.1539583235
 31
0.0
  0
LINE
  5
275
330
1F
100
AcDbEntity
  8
0
  6
Continuous
 62
     7
100
AcDbLine
 10
6886.4403239957
 20
5311.1539583235
 30
0.0
 11
6886.6002581588
 21
5308.807442668
 31
0.0
  0
LINE
  5
276
330
1F
100
AcDbEntity
  8
0
  6
Continuous
 62
     7
100
AcDbLine
 10
6886.6002581588
 20
5308.807442668
 30
0.0
 11
6887.0761118403
 21
5306.518706265
 31
0.0
  0
LINE
  5
277
330
1F
100
AcDbEntity
  8
0
  6
Continuous
 62
     7
100
AcDbLine
 10
6887.0761118403
 20
5306.518706265
 30
0.0
 11
6887.8561876288
 21
5304.3440978556
 31
0.0
  0
LINE
  5
278
330
1F
100
AcDbEntity
  8
0
  6
Continuous
 62
     7
100
AcDbLine
 10
6887.8561876288
 20
5304.3440978556
 30
0.0
 11
6888.9212630263
 21
5302.3371796637
 31
0.0
  0
LINE
  5
279
330
1F
100
AcDbEntity
  8
0
  6
Continuous
 62
     7
100
AcDbLine
 10
6888.9212630263
 20
5302.3371796637
 30
0.0
 11
6890.2451119891
 21
5300.5473564892
 31
0.0
  0
LINE
  5
27A
330
1F
100
AcDbEntity
  8
0
  6
Continuous
 62
     7
100
AcDbLine
 10
6890.2451119891
 20
5300.5473564892
 30
0.0
 11
6891.7951456776
 21
5299.018705967
 31
0.0
  0
LINE
  5
27B
330
1F
100
AcDbEntity
  8
0
  6
Continuous
 62
     7
100
AcDbLine
 10
6891.7951456776
 20
5299.018705967
 30
0.0
 11
6893.533187317
 21
5297.7888609796
 31
0.0
  0
LINE
  5
27C
330
1F
100
AcDbEntity
  8
0
  6
Continuous
 62
     7
100
AcDbLine
 10
6893.533187317
 20
5297.7888609796
 30
0.0
 11
6895.4164556733
 21
5296.8881081372
 31
0.0
  0
LINE
  5
27D
330
1F
100
AcDbEntity
  8
0
  6
Continuous
 62
     7
100
AcDbLine
 10
6895.4164556733
 20
5296.8881081372
 30
0.0
 11
6897.3985634318
 21
5296.3386352687
 31
0.0
  0
LINE
  5
27E
330
1F
100
AcDbEntity
  8
0
  6
Continuous
 62
     7
100
AcDbLine
 10
6897.3985634318
 20
5296.3386352687
 30
0.0
 11
6899.4306943885
 21
5296.1539577275
 31
0.0
  0
LINE
  5
27F
330
1F
100
AcDbEntity
  8
0
  6
Continuous
 62
     7
100
AcDbLine
 10
6899.4306943885
 20
5296.1539577275
 30
0.0
 11
6968.7127343884
 21
5296.1539577275
 31
0.0
  0
LINE
  5
280
330
1F
100
AcDbEntity
  8
0
  6
Continuous
 62
     7
100
AcDbLine
 10
6968.7127343884
 20
5296.1539577275
 30
0.0
 11
6970.7448653451
 21
5296.3386352687
 31
0.0
  0
LINE
  5
281
330
1F
100
AcDbEntity
  8
0
  6
Continuous
 62
     7
100
AcDbLine
 10
6970.7448653451
 20
5296.3386352687
 30
0.0
 11
6972.7269880048
 21
5296.8881081372
 31
0.0
  0
LINE
  5
282
330
1F
100
AcDbEntity
  8
0
  6
Continuous
 62
     7
100
AcDbLine
 10
6972.7269880048
 20
5296.8881081372
 30
0.0
 11
6974.6102563611
 21
5297.7888609796
 31
0.0
  0
LINE
  5
283
330
1F
100
AcDbEntity
  8
0
  6
Continuous
 62
     7
100
AcDbLine
 10
6974.6102563611
 20
5297.7888609796
 30
0.0
 11
6976.3482980004
 21
5299.018705967
 31
0.0
  0
LINE
  5
284
330
1F
100
AcDbEntity
  8
0
  6
Continuous
 62
     7
100
AcDbLine
 10
6976.3482980004
 20
5299.018705967
 30
0.0
 11
6977.8983167878
 21
5300.5473564892
 31
0.0
  0
LINE
  5
285
330
1F
100
AcDbEntity
  8
0
  6
Continuous
 62
     7
100
AcDbLine
 10
6977.8983167878
 20
5300.5473564892
 30
0.0
 11
6979.2221657506
 21
5302.3371796637
 31
0.0
  0
LINE
  5
286
330
1F
100
AcDbEntity
  8
0
  6
Continuous
 62
     7
100
AcDbLine
 10
6979.2221657506
 20
5302.3371796637
 30
0.0
 11
6980.2872411481
 21
5304.3440978556
 31
0.0
  0
LINE
  5
287
330
1F
100
AcDbEntity
  8
0
  6
Continuous
 62
     7
100
AcDbLine
 10
6980.2872411481
 20
5304.3440978556
 30
0.0
 11
6981.0673169366
 21
5306.518706265
 31
0.0
  0
LINE
  5
288
330
1F
100
AcDbEntity
  8
0
  6
Continuous
 62
     7
100
AcDbLine
 10
6981.0673169366
 20
5306.518706265
 30
0.0
 11
6981.5431706181
 21
5308.807442668
 31
0.0
  0
LINE
  5
289
330
1F
100
AcDbEntity
  8
0
  6
Continuous
 62
     7
100
AcDbLine
 10
6981.5431706181
 20
5308.807442668
 30
0.0
 11
6981.7031196824
 21
5311.1539583235
 31
0.0
  0
LINE
  5
28A
330
1F
100
AcDbEntity
  8
0
  6
Continuous
 62
     7
100
AcDbLine
 10
6981.7031196824
 20
5311.1539583235
 30
0.0
 11
6981.7031196824
 21
5391.153963986
 31
0.0
  0
LINE
  5
28B
330
1F
100
AcDbEntity
  8
0
  6
Continuous
 62
     7
100
AcDbLine
 10
6882.1101955644
 20
5171.1539577275
 30
0.0
 11
6986.0332481137
 21
5171.1539577275
 31
0.0
  0
LINE
  5
28C
330
1F
100
AcDbEntity
  8
0
  6
Continuous
 62
     7
100
AcDbLine
 10
6977.422999548
 20
5191.1539572804
 30
0.0
 11
6977.2565833798
 21
5189.2030562787
 31
0.0
  0
LINE
  5
28D
330
1F
100
AcDbEntity
  8
0
  6
Continuous
 62
     7
100
AcDbLine
 10
6977.2565833798
 20
5189.2030562787
 30
0.0
 11
6976.7637721768
 21
5187.327123019
 31
0.0
  0
LINE
  5
28E
330
1F
100
AcDbEntity
  8
0
  6
Continuous
 62
     7
100
AcDbLine
 10
6976.7637721768
 20
5187.327123019
 30
0.0
 11
6975.9634606114
 21
5185.5982567697
 31
0.0
  0
LINE
  5
28F
330
1F
100
AcDbEntity
  8
0
  6
Continuous
 62
     7
100
AcDbLine
 10
6975.9634606114
 20
5185.5982567697
 30
0.0
 11
6974.886464285
 21
5184.0828906327
 31
0.0
  0
LINE
  5
290
330
1F
100
AcDbEntity
  8
0
  6
Continuous
 62
     7
100
AcDbLine
 10
6974.886464285
 20
5184.0828906327
 30
0.0
 11
6973.5741190186
 21
5182.8392620712
 31
0.0
  0
LINE
  5
291
330
1F
100
AcDbEntity
  8
0
  6
Continuous
 62
     7
100
AcDbLine
 10
6973.5741190186
 20
5182.8392620712
 30
0.0
 11
6972.0768801442
 21
5181.9151628344
 31
0.0
  0
LINE
  5
292
330
1F
100
AcDbEntity
  8
0
  6
Continuous
 62
     7
100
AcDbLine
 10
6972.0768801442
 20
5181.9151628344
 30
0.0
 11
6970.4522661439
 21
5181.3461061149
 31
0.0
  0
LINE
  5
293
330
1F
100
AcDbEntity
  8
0
  6
Continuous
 62
     7
100
AcDbLine
 10
6970.4522661439
 20
5181.3461061149
 30
0.0
 11
6968.7627426854
 21
5181.1539593666
 31
0.0
  0
LINE
  5
294
330
1F
100
AcDbEntity
  8
0
  6
Continuous
 62
     7
100
AcDbLine
 10
6977.422999548
 20
5271.1539592176
 30
0.0
 11
6977.422999548
 21
5191.1539572804
 31
0.0
  0
LINE
  5
295
330
1F
100
AcDbEntity
  8
0
  6
Continuous
 62
     7
100
AcDbLine
 10
6968.7627426854
 20
5281.1539571314
 30
0.0
 11
6970.4522661439
 21
5280.9618103831
 31
0.0
  0
LINE
  5
296
330
1F
100
AcDbEntity
  8
0
  6
Continuous
 62
     7
100
AcDbLine
 10
6970.4522661439
 20
5280.9618103831
 30
0.0
 11
6972.0768801442
 21
5280.3927536636
 31
0.0
  0
LINE
  5
297
330
1F
100
AcDbEntity
  8
0
  6
Continuous
 62
     7
100
AcDbLine
 10
6972.0768801442
 20
5280.3927536636
 30
0.0
 11
6973.5741190186
 21
5279.4686544269
 31
0.0
  0
LINE
  5
298
330
1F
100
AcDbEntity
  8
0
  6
Continuous
 62
     7
100
AcDbLine
 10
6973.5741190186
 20
5279.4686544269
 30
0.0
 11
6974.886464285
 21
5278.2250258654
 31
0.0
  0
LINE
  5
299
330
1F
100
AcDbEntity
  8
0
  6
Continuous
 62
     7
100
AcDbLine
 10
6974.886464285
 20
5278.2250258654
 30
0.0
 11
6975.9634606114
 21
5276.7096597283
 31
0.0
  0
LINE
  5
29A
330
1F
100
AcDbEntity
  8
0
  6
Continuous
 62
     7
100
AcDbLine
 10
6975.9634606114
 20
5276.7096597283
 30
0.0
 11
6976.7637721768
 21
5274.980793479
 31
0.0
  0
LINE
  5
29B
330
1F
100
AcDbEntity
  8
0
  6
Continuous
 62
     7
100
AcDbLine
 10
6976.7637721768
 20
5274.980793479
 30
0.0
 11
6977.2565833798
 21
5273.1048602193
 31
0.0
  0
LINE
  5
29C
330
1F
100
AcDbEntity
  8
0
  6
Continuous
 62
     7
100
AcDbLine
 10
6977.2565833798
 20
5273.1048602193
 30
0.0
 11
6977.422999548
 21
5271.1539592176
 31
0.0
  0
LINE
  5
29D
330
1F
100
AcDbEntity
  8
0
  6
Continuous
 62
     7
100
AcDbLine
 10
6899.4807026854
 20
5176.1539566844
 30
0.0
 11
6897.4485568276
 21
5176.3386342256
 31
0.0
  0
LINE
  5
29E
330
1F
100
AcDbEntity
  8
0
  6
Continuous
 62
     7
100
AcDbLine
 10
6897.4485568276
 20
5176.3386342256
 30
0.0
 11
6895.4664490691
 21
5176.8881108194
 31
0.0
  0
LINE
  5
29F
330
1F
100
AcDbEntity
  8
0
  6
Continuous
 62
     7
100
AcDbLine
 10
6895.4664490691
 20
5176.8881108194
 30
0.0
 11
6893.5831956139
 21
5177.7888599365
 31
0.0
  0
LINE
  5
2A0
330
1F
100
AcDbEntity
  8
0
  6
Continuous
 62
     7
100
AcDbLine
 10
6893.5831956139
 20
5177.7888599365
 30
0.0
 11
6891.8451539746
 21
5179.0187049239
 31
0.0
  0
LINE
  5
2A1
330
1F
100
AcDbEntity
  8
0
  6
Continuous
 62
     7
100
AcDbLine
 10
6891.8451539746
 20
5179.0187049239
 30
0.0
 11
6890.2951202861
 21
5180.5473554461
 31
0.0
  0
LINE
  5
2A2
330
1F
100
AcDbEntity
  8
0
  6
Continuous
 62
     7
100
AcDbLine
 10
6890.2951202861
 20
5180.5473554461
 30
0.0
 11
6888.9712564221
 21
5182.3371786206
 31
0.0
  0
LINE
  5
2A3
330
1F
100
AcDbEntity
  8
0
  6
Continuous
 62
     7
100
AcDbLine
 10
6888.9712564221
 20
5182.3371786206
 30
0.0
 11
6887.9061810246
 21
5184.3441005378
 31
0.0
  0
LINE
  5
2A4
330
1F
100
AcDbEntity
  8
0
  6
Continuous
 62
     7
100
AcDbLine
 10
6887.9061810246
 20
5184.3441005378
 30
0.0
 11
6887.1261201373
 21
5186.5187014966
 31
0.0
  0
LINE
  5
2A5
330
1F
100
AcDbEntity
  8
0
  6
Continuous
 62
     7
100
AcDbLine
 10
6887.1261201373
 20
5186.5187014966
 30
0.0
 11
6886.6502515546
 21
5188.8074416249
 31
0.0
  0
LINE
  5
2A6
330
1F
100
AcDbEntity
  8
0
  6
Continuous
 62
     7
100
AcDbLine
 10
6886.6502515546
 20
5188.8074416249
 30
0.0
 11
6886.4903173915
 21
5191.1539572804
 31
0.0
  0
LINE
  5
2A7
330
1F
100
AcDbEntity
  8
0
  6
Continuous
 62
     7
100
AcDbLine
 10
6886.4903173915
 20
5191.1539572804
 30
0.0
 11
6886.4903173915
 21
5271.1539592176
 31
0.0
  0
LINE
  5
2A8
330
1F
100
AcDbEntity
  8
0
  6
Continuous
 62
     7
100
AcDbLine
 10
6886.4903173915
 20
5271.1539592176
 30
0.0
 11
6886.6502515546
 21
5273.5004748731
 31
0.0
  0
LINE
  5
2A9
330
1F
100
AcDbEntity
  8
0
  6
Continuous
 62
     7
100
AcDbLine
 10
6886.6502515546
 20
5273.5004748731
 30
0.0
 11
6887.1261201373
 21
5275.7892112761
 31
0.0
  0
LINE
  5
2AA
330
1F
100
AcDbEntity
  8
0
  6
Continuous
 62
     7
100
AcDbLine
 10
6887.1261201373
 20
5275.7892112761
 30
0.0
 11
6887.9061810246
 21
5277.9638159602
 31
0.0
  0
LINE
  5
2AB
330
1F
100
AcDbEntity
  8
0
  6
Continuous
 62
     7
100
AcDbLine
 10
6887.9061810246
 20
5277.9638159602
 30
0.0
 11
6888.9712564221
 21
5279.9707378774
 31
0.0
  0
LINE
  5
2AC
330
1F
100
AcDbEntity
  8
0
  6
Continuous
 62
     7
100
AcDbLine
 10
6888.9712564221
 20
5279.9707378774
 30
0.0
 11
6890.2951202861
 21
5281.7605610519
 31
0.0
  0
LINE
  5
2AD
330
1F
100
AcDbEntity
  8
0
  6
Continuous
 62
     7
100
AcDbLine
 10
6890.2951202861
 20
5281.7605610519
 30
0.0
 11
6891.8451539746
 21
5283.2892115741
 31
0.0
  0
LINE
  5
2AE
330
1F
100
AcDbEntity
  8
0
  6
Continuous
 62
     7
100
AcDbLine
 10
6891.8451539746
 20
5283.2892115741
 30
0.0
 11
6893.5831956139
 21
5284.5190565615
 31
0.0
  0
LINE
  5
2AF
330
1F
100
AcDbEntity
  8
0
  6
Continuous
 62
     7
100
AcDbLine
 10
6893.5831956139
 20
5284.5190565615
 30
0.0
 11
6895.4664490691
 21
5285.4198094039
 31
0.0
  0
LINE
  5
2B0
330
1F
100
AcDbEntity
  8
0
  6
Continuous
 62
     7
100
AcDbLine
 10
6895.4664490691
 20
5285.4198094039
 30
0.0
 11
6897.4485568276
 21
5285.9692822724
 31
0.0
  0
LINE
  5
2B1
330
1F
100
AcDbEntity
  8
0
  6
Continuous
 62
     7
100
AcDbLine
 10
6897.4485568276
 20
5285.9692822724
 30
0.0
 11
6899.4807026854
 21
5286.1539598136
 31
0.0
  0
LINE
  5
2B2
330
1F
100
AcDbEntity
  8
0
  6
Continuous
 62
     7
100
AcDbLine
 10
6886.4903173915
 20
5311.1539583235
 30
0.0
 11
6886.6502515546
 21
5308.807442668
 31
0.0
  0
LINE
  5
2B3
330
1F
100
AcDbEntity
  8
0
  6
Continuous
 62
     7
100
AcDbLine
 10
6886.6502515546
 20
5308.807442668
 30
0.0
 11
6887.1261201373
 21
5306.518706265
 31
0.0
  0
LINE
  5
2B4
330
1F
100
AcDbEntity
  8
0
  6
Continuous
 62
     7
100
AcDbLine
 10
6887.1261201373
 20
5306.518706265
 30
0.0
 11
6887.9061810246
 21
5304.3440978556
 31
0.0
  0
LINE
  5
2B5
330
1F
100
AcDbEntity
  8
0
  6
Continuous
 62
     7
100
AcDbLine
 10
6887.9061810246
 20
5304.3440978556
 30
0.0
 11
6888.9712564221
 21
5302.3371796637
 31
0.0
  0
LINE
  5
2B6
330
1F
100
AcDbEntity
  8
0
  6
Continuous
 62
     7
100
AcDbLine
 10
6888.9712564221
 20
5302.3371796637
 30
0.0
 11
6890.2951202861
 21
5300.5473564892
 31
0.0
  0
LINE
  5
2B7
330
1F
100
AcDbEntity
  8
0
  6
Continuous
 62
     7
100
AcDbLine
 10
6890.2951202861
 20
5300.5473564892
 30
0.0
 11
6891.8451539746
 21
5299.018705967
 31
0.0
  0
LINE
  5
2B8
330
1F
100
AcDbEntity
  8
0
  6
Continuous
 62
     7
100
AcDbLine
 10
6891.8451539746
 20
5299.018705967
 30
0.0
 11
6893.5831956139
 21
5297.7888609796
 31
0.0
  0
LINE
  5
2B9
330
1F
100
AcDbEntity
  8
0
  6
Continuous
 62
     7
100
AcDbLine
 10
6893.5831956139
 20
5297.7888609796
 30
0.0
 11
6895.4664490691
 21
5296.8881081372
 31
0.0
  0
LINE
  5
2BA
330
1F
100
AcDbEntity
  8
0
  6
Continuous
 62
     7
100
AcDbLine
 10
6895.4664490691
 20
5296.8881081372
 30
0.0
 11
6897.4485568276
 21
5296.3386352687
 31
0.0
  0
LINE
  5
2BB
330
1F
100
AcDbEntity
  8
0
  6
Continuous
 62
     7
100
AcDbLine
 10
6897.4485568276
 20
5296.3386352687
 30
0.0
 11
6899.4807026854
 21
5296.1539577275
 31
0.0
  0
LINE
  5
2BC
330
1F
100
AcDbEntity
  8
0
  6
Continuous
 62
     7
100
AcDbLine
 10
6886.4903173915
 20
5391.153963986
 30
0.0
 11
6886.4903173915
 21
5311.1539583235
 31
0.0
  0
LINE
  5
2BD
330
1F
100
AcDbEntity
  8
0
  6
Continuous
 62
     7
100
AcDbLine
 10
6899.4807026854
 20
5406.153964582
 30
0.0
 11
6897.4485568276
 21
5405.9692795902
 31
0.0
  0
LINE
  5
2BE
330
1F
100
AcDbEntity
  8
0
  6
Continuous
 62
     7
100
AcDbLine
 10
6897.4485568276
 20
5405.9692795902
 30
0.0
 11
6895.4664490691
 21
5405.4197992711
 31
0.0
  0
LINE
  5
2BF
330
1F
100
AcDbEntity
  8
0
  6
Continuous
 62
     7
100
AcDbLine
 10
6895.4664490691
 20
5405.4197992711
 30
0.0
 11
6893.5831956139
 21
5404.5190538793
 31
0.0
  0
LINE
  5
2C0
330
1F
100
AcDbEntity
  8
0
  6
Continuous
 62
     7
100
AcDbLine
 10
6893.5831956139
 20
5404.5190538793
 30
0.0
 11
6891.8451539746
 21
5403.2892163425
 31
0.0
  0
LINE
  5
2C1
330
1F
100
AcDbEntity
  8
0
  6
Continuous
 62
     7
100
AcDbLine
 10
6891.8451539746
 20
5403.2892163425
 30
0.0
 11
6890.2951202861
 21
5401.7605658203
 31
0.0
  0
LINE
  5
2C2
330
1F
100
AcDbEntity
  8
0
  6
Continuous
 62
     7
100
AcDbLine
 10
6890.2951202861
 20
5401.7605658203
 30
0.0
 11
6888.9712564221
 21
5399.9707426458
 31
0.0
  0
LINE
  5
2C3
330
1F
100
AcDbEntity
  8
0
  6
Continuous
 62
     7
100
AcDbLine
 10
6888.9712564221
 20
5399.9707426458
 30
0.0
 11
6887.9061810246
 21
5397.9638095527
 31
0.0
  0
LINE
  5
2C4
330
1F
100
AcDbEntity
  8
0
  6
Continuous
 62
     7
100
AcDbLine
 10
6887.9061810246
 20
5397.9638095527
 30
0.0
 11
6887.1261201373
 21
5395.7892085939
 31
0.0
  0
LINE
  5
2C5
330
1F
100
AcDbEntity
  8
0
  6
Continuous
 62
     7
100
AcDbLine
 10
6887.1261201373
 20
5395.7892085939
 30
0.0
 11
6886.6502515546
 21
5393.5004796415
 31
0.0
  0
LINE
  5
2C6
330
1F
100
AcDbEntity
  8
0
  6
Continuous
 62
     7
100
AcDbLine
 10
6886.6502515546
 20
5393.5004796415
 30
0.0
 11
6886.4903173915
 21
5391.153963986
 31
0.0
  0
LINE
  5
2C7
330
1F
100
AcDbEntity
  8
0
  6
Continuous
 62
     7
100
AcDbLine
 10
6968.7627426854
 20
5301.1539604097
 30
0.0
 11
6970.4522661439
 21
5301.3461034327
 31
0.0
  0
LINE
  5
2C8
330
1F
100
AcDbEntity
  8
0
  6
Continuous
 62
     7
100
AcDbLine
 10
6970.4522661439
 20
5301.3461034327
 30
0.0
 11
6972.0768801442
 21
5301.9151638775
 31
0.0
  0
LINE
  5
2C9
330
1F
100
AcDbEntity
  8
0
  6
Continuous
 62
     7
100
AcDbLine
 10
6972.0768801442
 20
5301.9151638775
 30
0.0
 11
6973.5741190186
 21
5302.839259389
 31
0.0
  0
LINE
  5
2CA
330
1F
100
AcDbEntity
  8
0
  6
Continuous
 62
     7
100
AcDbLine
 10
6973.5741190186
 20
5302.839259389
 30
0.0
 11
6974.886464285
 21
5304.0828879505
 31
0.0
  0
LINE
  5
2CB
330
1F
100
AcDbEntity
  8
0
  6
Continuous
 62
     7
100
AcDbLine
 10
6974.886464285
 20
5304.0828879505
 30
0.0
 11
6975.9634606114
 21
5305.5982540875
 31
0.0
  0
LINE
  5
2CC
330
1F
100
AcDbEntity
  8
0
  6
Continuous
 62
     7
100
AcDbLine
 10
6975.9634606114
 20
5305.5982540875
 30
0.0
 11
6976.7637721768
 21
5307.3271240621
 31
0.0
  0
LINE
  5
2CD
330
1F
100
AcDbEntity
  8
0
  6
Continuous
 62
     7
100
AcDbLine
 10
6976.7637721768
 20
5307.3271240621
 30
0.0
 11
6977.2565833798
 21
5309.2030535965
 31
0.0
  0
LINE
  5
2CE
330
1F
100
AcDbEntity
  8
0
  6
Continuous
 62
     7
100
AcDbLine
 10
6977.2565833798
 20
5309.2030535965
 30
0.0
 11
6977.422999548
 21
5311.1539583235
 31
0.0
  0
LINE
  5
2CF
330
1F
100
AcDbEntity
  8
0
  6
Continuous
 62
     7
100
AcDbLine
 10
6977.422999548
 20
5311.1539583235
 30
0.0
 11
6977.422999548
 21
5391.153963986
 31
0.0
  0
LINE
  5
2D0
330
1F
100
AcDbEntity
  8
0
  6
Continuous
 62
     7
100
AcDbLine
 10
6977.422999548
 20
5391.153963986
 30
0.0
 11
6977.2565833798
 21
5393.1048538118
 31
0.0
  0
LINE
  5
2D1
330
1F
100
AcDbEntity
  8
0
  6
Continuous
 62
     7
100
AcDbLine
 10
6977.2565833798
 20
5393.1048538118
 30
0.0
 11
6976.7637721768
 21
5394.9807907968
 31
0.0
  0
LINE
  5
2D2
330
1F
100
AcDbEntity
  8
0
  6
Continuous
 62
     7
100
AcDbLine
 10
6976.7637721768
 20
5394.9807907968
 30
0.0
 11
6975.9634606114
 21
5396.7096533208
 31
0.0
  0
LINE
  5
2D3
330
1F
100
AcDbEntity
  8
0
  6
Continuous
 62
     7
100
AcDbLine
 10
6975.9634606114
 20
5396.7096533208
 30
0.0
 11
6974.886464285
 21
5398.2250269084
 31
0.0
  0
LINE
  5
2D4
330
1F
100
AcDbEntity
  8
0
  6
Continuous
 62
     7
100
AcDbLine
 10
6974.886464285
 20
5398.2250269084
 30
0.0
 11
6973.5741190186
 21
5399.4686480194
 31
0.0
  0
LINE
  5
2D5
330
1F
100
AcDbEntity
  8
0
  6
Continuous
 62
     7
100
AcDbLine
 10
6973.5741190186
 20
5399.4686480194
 30
0.0
 11
6972.0768801442
 21
5400.392758432
 31
0.0
  0
LINE
  5
2D6
330
1F
100
AcDbEntity
  8
0
  6
Continuous
 62
     7
100
AcDbLine
 10
6972.0768801442
 20
5400.392758432
 30
0.0
 11
6970.4522661439
 21
5400.9618039756
 31
0.0
  0
LINE
  5
2D7
330
1F
100
AcDbEntity
  8
0
  6
Continuous
 62
     7
100
AcDbLine
 10
6970.4522661439
 20
5400.9618039756
 30
0.0
 11
6968.7627426854
 21
5401.1539544492
 31
0.0
  0
LINE
  5
2D8
330
1F
100
AcDbEntity
  8
0
  6
Continuous
 62
     7
100
AcDbLine
 10
6968.7127343884
 20
5281.1539571314
 30
0.0
 11
6970.4022578469
 21
5280.9618103831
 31
0.0
  0
LINE
  5
2D9
330
1F
100
AcDbEntity
  8
0
  6
Continuous
 62
     7
100
AcDbLine
 10
6970.4022578469
 20
5280.9618103831
 30
0.0
 11
6972.0268718472
 21
5280.3927536636
 31
0.0
  0
LINE
  5
2DA
330
1F
100
AcDbEntity
  8
0
  6
Continuous
 62
     7
100
AcDbLine
 10
6972.0268718472
 20
5280.3927536636
 30
0.0
 11
6973.5241107217
 21
5279.4686544269
 31
0.0
  0
LINE
  5
2DB
330
1F
100
AcDbEntity
  8
0
  6
Continuous
 62
     7
100
AcDbLine
 10
6973.5241107217
 20
5279.4686544269
 30
0.0
 11
6974.836455988
 21
5278.2250258654
 31
0.0
  0
LINE
  5
2DC
330
1F
100
AcDbEntity
  8
0
  6
Continuous
 62
     7
100
AcDbLine
 10
6974.836455988
 20
5278.2250258654
 30
0.0
 11
6975.9134821168
 21
5276.7096597283
 31
0.0
  0
LINE
  5
2DD
330
1F
100
AcDbEntity
  8
0
  6
Continuous
 62
     7
100
AcDbLine
 10
6975.9134821168
 20
5276.7096597283
 30
0.0
 11
6976.7137638799
 21
5274.980793479
 31
0.0
  0
LINE
  5
2DE
330
1F
100
AcDbEntity
  8
0
  6
Continuous
 62
     7
100
AcDbLine
 10
6976.7137638799
 20
5274.980793479
 30
0.0
 11
6977.2065750829
 21
5273.1048602193
 31
0.0
  0
LINE
  5
2DF
330
1F
100
AcDbEntity
  8
0
  6
Continuous
 62
     7
100
AcDbLine
 10
6977.2065750829
 20
5273.1048602193
 30
0.0
 11
6977.3729912511
 21
5271.1539592176
 31
0.0
  0
LINE
  5
2E0
330
1F
100
AcDbEntity
  8
0
  6
Continuous
 62
     7
100
AcDbLine
 10
6977.3729912511
 20
5271.1539592176
 30
0.0
 11
6977.3729912511
 21
5191.1539572804
 31
0.0
  0
LINE
  5
2E1
330
1F
100
AcDbEntity
  8
0
  6
Continuous
 62
     7
100
AcDbLine
 10
6977.3729912511
 20
5191.1539572804
 30
0.0
 11
6977.2065750829
 21
5189.2030562787
 31
0.0
  0
LINE
  5
2E2
330
1F
100
AcDbEntity
  8
0
  6
Continuous
 62
     7
100
AcDbLine
 10
6977.2065750829
 20
5189.2030562787
 30
0.0
 11
6976.7137638799
 21
5187.327123019
 31
0.0
  0
LINE
  5
2E3
330
1F
100
AcDbEntity
  8
0
  6
Continuous
 62
     7
100
AcDbLine
 10
6976.7137638799
 20
5187.327123019
 30
0.0
 11
6975.9134821168
 21
5185.5982567697
 31
0.0
  0
LINE
  5
2E4
330
1F
100
AcDbEntity
  8
0
  6
Continuous
 62
     7
100
AcDbLine
 10
6975.9134821168
 20
5185.5982567697
 30
0.0
 11
6974.836455988
 21
5184.0828906327
 31
0.0
  0
LINE
  5
2E5
330
1F
100
AcDbEntity
  8
0
  6
Continuous
 62
     7
100
AcDbLine
 10
6974.836455988
 20
5184.0828906327
 30
0.0
 11
6973.5241107217
 21
5182.8392620712
 31
0.0
  0
LINE
  5
2E6
330
1F
100
AcDbEntity
  8
0
  6
Continuous
 62
     7
100
AcDbLine
 10
6973.5241107217
 20
5182.8392620712
 30
0.0
 11
6972.0268718472
 21
5181.9151628344
 31
0.0
  0
LINE
  5
2E7
330
1F
100
AcDbEntity
  8
0
  6
Continuous
 62
     7
100
AcDbLine
 10
6972.0268718472
 20
5181.9151628344
 30
0.0
 11
6970.4022578469
 21
5181.3461061149
 31
0.0
  0
LINE
  5
2E8
330
1F
100
AcDbEntity
  8
0
  6
Continuous
 62
     7
100
AcDbLine
 10
6970.4022578469
 20
5181.3461061149
 30
0.0
 11
6968.7127343884
 21
5181.1539593666
 31
0.0
  0
LINE
  5
2E9
330
1F
100
AcDbEntity
  8
0
  6
Continuous
 62
     7
100
AcDbLine
 10
6968.7127343884
 20
5181.1539593666
 30
0.0
 11
6899.4306943885
 21
5181.1539593666
 31
0.0
  0
LINE
  5
2EA
330
1F
100
AcDbEntity
  8
0
  6
Continuous
 62
     7
100
AcDbLine
 10
6899.4306943885
 20
5181.1539593666
 30
0.0
 11
6897.74117093
 21
5181.3461061149
 31
0.0
  0
LINE
  5
2EB
330
1F
100
AcDbEntity
  8
0
  6
Continuous
 62
     7
100
AcDbLine
 10
6897.74117093
 20
5181.3461061149
 30
0.0
 11
6896.1165718308
 21
5181.9151628344
 31
0.0
  0
LINE
  5
2EC
330
1F
100
AcDbEntity
  8
0
  6
Continuous
 62
     7
100
AcDbLine
 10
6896.1165718308
 20
5181.9151628344
 30
0.0
 11
6894.6193180552
 21
5182.8392620712
 31
0.0
  0
LINE
  5
2ED
330
1F
100
AcDbEntity
  8
0
  6
Continuous
 62
     7
100
AcDbLine
 10
6894.6193180552
 20
5182.8392620712
 30
0.0
 11
6893.3069727889
 21
5184.0828906327
 31
0.0
  0
LINE
  5
2EE
330
1F
100
AcDbEntity
  8
0
  6
Continuous
 62
     7
100
AcDbLine
 10
6893.3069727889
 20
5184.0828906327
 30
0.0
 11
6892.2299615613
 21
5185.5982567697
 31
0.0
  0
LINE
  5
2EF
330
1F
100
AcDbEntity
  8
0
  6
Continuous
 62
     7
100
AcDbLine
 10
6892.2299615613
 20
5185.5982567697
 30
0.0
 11
6891.429664897
 21
5187.327123019
 31
0.0
  0
LINE
  5
2F0
330
1F
100
AcDbEntity
  8
0
  6
Continuous
 62
     7
100
AcDbLine
 10
6891.429664897
 20
5187.327123019
 30
0.0
 11
6890.936853694
 21
5189.2030562787
 31
0.0
  0
LINE
  5
2F1
330
1F
100
AcDbEntity
  8
0
  6
Continuous
 62
     7
100
AcDbLine
 10
6890.936853694
 20
5189.2030562787
 30
0.0
 11
6890.770452427
 21
5191.1539572804
 31
0.0
  0
LINE
  5
2F2
330
1F
100
AcDbEntity
  8
0
  6
Continuous
 62
     7
100
AcDbLine
 10
6890.770452427
 20
5191.1539572804
 30
0.0
 11
6890.770452427
 21
5271.1539592176
 31
0.0
  0
LINE
  5
2F3
330
1F
100
AcDbEntity
  8
0
  6
Continuous
 62
     7
100
AcDbLine
 10
6890.770452427
 20
5271.1539592176
 30
0.0
 11
6890.936853694
 21
5273.1048602193
 31
0.0
  0
LINE
  5
2F4
330
1F
100
AcDbEntity
  8
0
  6
Continuous
 62
     7
100
AcDbLine
 10
6890.936853694
 20
5273.1048602193
 30
0.0
 11
6891.429664897
 21
5274.980793479
 31
0.0
  0
LINE
  5
2F5
330
1F
100
AcDbEntity
  8
0
  6
Continuous
 62
     7
100
AcDbLine
 10
6891.429664897
 20
5274.980793479
 30
0.0
 11
6892.2299615613
 21
5276.7096597283
 31
0.0
  0
LINE
  5
2F6
330
1F
100
AcDbEntity
  8
0
  6
Continuous
 62
     7
100
AcDbLine
 10
6892.2299615613
 20
5276.7096597283
 30
0.0
 11
6893.3069727889
 21
5278.2250258654
 31
0.0
  0
LINE
  5
2F7
330
1F
100
AcDbEntity
  8
0
  6
Continuous
 62
     7
100
AcDbLine
 10
6893.3069727889
 20
5278.2250258654
 30
0.0
 11
6894.6193180552
 21
5279.4686544269
 31
0.0
  0
LINE
  5
2F8
330
1F
100
AcDbEntity
  8
0
  6
Continuous
 62
     7
100
AcDbLine
 10
6894.6193180552
 20
5279.4686544269
 30
0.0
 11
6896.1165718308
 21
5280.3927536636
 31
0.0
  0
LINE
  5
2F9
330
1F
100
AcDbEntity
  8
0
  6
Continuous
 62
     7
100
AcDbLine
 10
6896.1165718308
 20
5280.3927536636
 30
0.0
 11
6897.74117093
 21
5280.9618103831
 31
0.0
  0
LINE
  5
2FA
330
1F
100
AcDbEntity
  8
0
  6
Continuous
 62
     7
100
AcDbLine
 10
6897.74117093
 20
5280.9618103831
 30
0.0
 11
6899.4306943885
 21
5281.1539571314
 31
0.0
  0
LINE
  5
2FB
330
1F
100
AcDbEntity
  8
0
  6
Continuous
 62
     7
100
AcDbLine
 10
6899.4306943885
 20
5281.1539571314
 30
0.0
 11
6968.7127343884
 21
5281.1539571314
 31
0.0
  0
LINE
  5
2FC
330
1F
100
AcDbEntity
  8
0
  6
Continuous
 62
     7
100
AcDbLine
 10
6918.4466175309
 20
5190.5272144406
 30
0.0
 11
6922.5602618924
 21
5197.5272137254
 31
0.0
  0
LINE
  5
2FD
330
1F
100
AcDbEntity
  8
0
  6
Continuous
 62
     7
100
AcDbLine
 10
6922.5602618924
 20
5197.5272137254
 30
0.0
 11
6910.0028894416
 21
5197.5272137254
 31
0.0
  0
LINE
  5
2FE
330
1F
100
AcDbEntity
  8
0
  6
Continuous
 62
     7
100
AcDbLine
 10
6910.0028894416
 20
5197.5272137254
 30
0.0
 11
6914.1165189019
 21
5190.5272144406
 31
0.0
  0
LINE
  5
2FF
330
1F
100
AcDbEntity
  8
0
  6
Continuous
 62
     7
100
AcDbLine
 10
6914.1165189019
 20
5190.5272144406
 30
0.0
 11
6914.1165189019
 21
5186.527213785
 31
0.0
  0
LINE
  5
300
330
1F
100
AcDbEntity
  8
0
  6
Continuous
 62
     7
100
AcDbLine
 10
6914.1165189019
 20
5186.527213785
 30
0.0
 11
6918.4466175309
 21
5186.527213785
 31
0.0
  0
LINE
  5
301
330
1F
100
AcDbEntity
  8
0
  6
Continuous
 62
     7
100
AcDbLine
 10
6918.4466175309
 20
5186.527213785
 30
0.0
 11
6918.4466175309
 21
5190.5272144406
 31
0.0
  0
LINE
  5
302
330
1F
100
AcDbEntity
  8
0
  6
Continuous
 62
     7
100
AcDbLine
 10
6910.0028894416
 20
5199.0272149026
 30
0.0
 11
6922.5602618924
 21
5199.0272149026
 31
0.0
  0
LINE
  5
303
330
1F
100
AcDbEntity
  8
0
  6
Continuous
 62
     7
100
AcDbLine
 10
6922.5602618924
 20
5199.0272149026
 30
0.0
 11
6922.5602618924
 21
5202.0272153943
 31
0.0
  0
LINE
  5
304
330
1F
100
AcDbEntity
  8
0
  6
Continuous
 62
     7
100
AcDbLine
 10
6922.5602618924
 20
5202.0272153943
 30
0.0
 11
6910.0028894416
 21
5202.0272153943
 31
0.0
  0
LINE
  5
305
330
1F
100
AcDbEntity
  8
0
  6
Continuous
 62
     7
100
AcDbLine
 10
6910.0028894416
 20
5202.0272153943
 30
0.0
 11
6910.0028894416
 21
5199.0272149026
 31
0.0
  0
LINE
  5
306
330
1F
100
AcDbEntity
  8
0
  6
Continuous
 62
     7
100
AcDbLine
 10
6916.2815682164
 20
5212.5272143214
 30
0.0
 11
6917.7815787068
 21
5215.5272143475
 31
0.0
  0
LINE
  5
307
330
1F
100
AcDbEntity
  8
0
  6
Continuous
 62
     7
100
AcDbLine
 10
6917.7815787068
 20
5215.5272143475
 30
0.0
 11
6918.0041424504
 21
5216.3181577391
 31
0.0
  0
LINE
  5
308
330
1F
100
AcDbEntity
  8
0
  6
Continuous
 62
     7
100
AcDbLine
 10
6918.0041424504
 20
5216.3181577391
 30
0.0
 11
6917.9288319817
 21
5217.1452485538
 31
0.0
  0
LINE
  5
309
330
1F
100
AcDbEntity
  8
0
  6
Continuous
 62
     7
100
AcDbLine
 10
6917.9288319817
 20
5217.1452485538
 30
0.0
 11
6917.5687305203
 21
5217.865475691
 31
0.0
  0
LINE
  5
30A
330
1F
100
AcDbEntity
  8
0
  6
Continuous
 62
     7
100
AcDbLine
 10
6917.5687305203
 20
5217.865475691
 30
0.0
 11
6916.9860653153
 21
5218.35430549
 31
0.0
  0
LINE
  5
30B
330
1F
100
AcDbEntity
  8
0
  6
Continuous
 62
     7
100
AcDbLine
 10
6916.9860653153
 20
5218.35430549
 30
0.0
 11
6916.2815682164
 21
5218.5272143736
 31
0.0
  0
LINE
  5
30C
330
1F
100
AcDbEntity
  8
0
  6
Continuous
 62
     7
100
AcDbLine
 10
6916.2815682164
 20
5218.5272143736
 30
0.0
 11
6915.5770711175
 21
5218.35430549
 31
0.0
  0
LINE
  5
30D
330
1F
100
AcDbEntity
  8
0
  6
Continuous
 62
     7
100
AcDbLine
 10
6915.5770711175
 20
5218.35430549
 30
0.0
 11
6914.9944059125
 21
5217.865475691
 31
0.0
  0
LINE
  5
30E
330
1F
100
AcDbEntity
  8
0
  6
Continuous
 62
     7
100
AcDbLine
 10
6914.9944059125
 20
5217.865475691
 30
0.0
 11
6914.6343044511
 21
5217.1452485538
 31
0.0
  0
LINE
  5
30F
330
1F
100
AcDbEntity
  8
0
  6
Continuous
 62
     7
100
AcDbLine
 10
6914.6343044511
 20
5217.1452485538
 30
0.0
 11
6914.5589939824
 21
5216.3181577391
 31
0.0
  0
LINE
  5
310
330
1F
100
AcDbEntity
  8
0
  6
Continuous
 62
     7
100
AcDbLine
 10
6914.5589939824
 20
5216.3181577391
 30
0.0
 11
6914.781557726
 21
5215.5272143475
 31
0.0
  0
LINE
  5
311
330
1F
100
AcDbEntity
  8
0
  6
Continuous
 62
     7
100
AcDbLine
 10
6914.781557726
 20
5215.5272143475
 30
0.0
 11
6916.2815682164
 21
5212.5272143214
 31
0.0
  0
LINE
  5
312
330
1F
100
AcDbEntity
  8
0
  6
Continuous
 62
     7
100
AcDbLine
 10
6916.2815682164
 20
5205.5272150367
 30
0.0
 11
6917.7815787068
 21
5208.5272145971
 31
0.0
  0
LINE
  5
313
330
1F
100
AcDbEntity
  8
0
  6
Continuous
 62
     7
100
AcDbLine
 10
6917.7815787068
 20
5208.5272145971
 30
0.0
 11
6918.0041424504
 21
5209.3181579887
 31
0.0
  0
LINE
  5
314
330
1F
100
AcDbEntity
  8
0
  6
Continuous
 62
     7
100
AcDbLine
 10
6918.0041424504
 20
5209.3181579887
 30
0.0
 11
6917.9288319817
 21
5210.1452488034
 31
0.0
  0
LINE
  5
315
330
1F
100
AcDbEntity
  8
0
  6
Continuous
 62
     7
100
AcDbLine
 10
6917.9288319817
 20
5210.1452488034
 30
0.0
 11
6917.5687305203
 21
5210.8654759406
 31
0.0
  0
LINE
  5
316
330
1F
100
AcDbEntity
  8
0
  6
Continuous
 62
     7
100
AcDbLine
 10
6917.5687305203
 20
5210.8654759406
 30
0.0
 11
6916.9860653153
 21
5211.3543057396
 31
0.0
  0
LINE
  5
317
330
1F
100
AcDbEntity
  8
0
  6
Continuous
 62
     7
100
AcDbLine
 10
6916.9860653153
 20
5211.3543057396
 30
0.0
 11
6916.2815682164
 21
5211.5272141575
 31
0.0
  0
LINE
  5
318
330
1F
100
AcDbEntity
  8
0
  6
Continuous
 62
     7
100
AcDbLine
 10
6916.2815682164
 20
5211.5272141575
 30
0.0
 11
6915.5770711175
 21
5211.3543057396
 31
0.0
  0
LINE
  5
319
330
1F
100
AcDbEntity
  8
0
  6
Continuous
 62
     7
100
AcDbLine
 10
6915.5770711175
 20
5211.3543057396
 30
0.0
 11
6914.9944059125
 21
5210.8654759406
 31
0.0
  0
LINE
  5
31A
330
1F
100
AcDbEntity
  8
0
  6
Continuous
 62
     7
100
AcDbLine
 10
6914.9944059125
 20
5210.8654759406
 30
0.0
 11
6914.6343044511
 21
5210.1452488034
 31
0.0
  0
LINE
  5
31B
330
1F
100
AcDbEntity
  8
0
  6
Continuous
 62
     7
100
AcDbLine
 10
6914.6343044511
 20
5210.1452488034
 30
0.0
 11
6914.5589939824
 21
5209.3181579887
 31
0.0
  0
LINE
  5
31C
330
1F
100
AcDbEntity
  8
0
  6
Continuous
 62
     7
100
AcDbLine
 10
6914.5589939824
 20
5209.3181579887
 30
0.0
 11
6914.781557726
 21
5208.5272145971
 31
0.0
  0
LINE
  5
31D
330
1F
100
AcDbEntity
  8
0
  6
Continuous
 62
     7
100
AcDbLine
 10
6914.781557726
 20
5208.5272145971
 30
0.0
 11
6916.2815682164
 21
5205.5272150367
 31
0.0
  0
LINE
  5
31E
330
1F
100
AcDbEntity
  8
0
  6
Continuous
 62
     7
100
AcDbLine
 10
6916.2815682164
 20
5227.1800211213
 30
0.0
 11
6917.7815787068
 21
5230.1800211474
 31
0.0
  0
LINE
  5
31F
330
1F
100
AcDbEntity
  8
0
  6
Continuous
 62
     7
100
AcDbLine
 10
6917.7815787068
 20
5230.1800211474
 30
0.0
 11
6918.0041424504
 21
5230.970964539
 31
0.0
  0
LINE
  5
320
330
1F
100
AcDbEntity
  8
0
  6
Continuous
 62
     7
100
AcDbLine
 10
6918.0041424504
 20
5230.970964539
 30
0.0
 11
6917.9288319817
 21
5231.7980553537
 31
0.0
  0
LINE
  5
321
330
1F
100
AcDbEntity
  8
0
  6
Continuous
 62
     7
100
AcDbLine
 10
6917.9288319817
 20
5231.7980553537
 30
0.0
 11
6917.5687305203
 21
5232.5182824909
 31
0.0
  0
LINE
  5
322
330
1F
100
AcDbEntity
  8
0
  6
Continuous
 62
     7
100
AcDbLine
 10
6917.5687305203
 20
5232.5182824909
 30
0.0
 11
6916.9860653153
 21
5233.0071122899
 31
0.0
  0
LINE
  5
323
330
1F
100
AcDbEntity
  8
0
  6
Continuous
 62
     7
100
AcDbLine
 10
6916.9860653153
 20
5233.0071122899
 30
0.0
 11
6916.2815682164
 21
5233.1800207078
 31
0.0
  0
LINE
  5
324
330
1F
100
AcDbEntity
  8
0
  6
Continuous
 62
     7
100
AcDbLine
 10
6916.2815682164
 20
5233.1800207078
 30
0.0
 11
6915.5770711175
 21
5233.0071122899
 31
0.0
  0
LINE
  5
325
330
1F
100
AcDbEntity
  8
0
  6
Continuous
 62
     7
100
AcDbLine
 10
6915.5770711175
 20
5233.0071122899
 30
0.0
 11
6914.9944059125
 21
5232.5182824909
 31
0.0
  0
LINE
  5
326
330
1F
100
AcDbEntity
  8
0
  6
Continuous
 62
     7
100
AcDbLine
 10
6914.9944059125
 20
5232.5182824909
 30
0.0
 11
6914.6343044511
 21
5231.7980553537
 31
0.0
  0
LINE
  5
327
330
1F
100
AcDbEntity
  8
0
  6
Continuous
 62
     7
100
AcDbLine
 10
6914.6343044511
 20
5231.7980553537
 30
0.0
 11
6914.5589939824
 21
5230.970964539
 31
0.0
  0
LINE
  5
328
330
1F
100
AcDbEntity
  8
0
  6
Continuous
 62
     7
100
AcDbLine
 10
6914.5589939824
 20
5230.970964539
 30
0.0
 11
6914.781557726
 21
5230.1800211474
 31
0.0
  0
LINE
  5
329
330
1F
100
AcDbEntity
  8
0
  6
Continuous
 62
     7
100
AcDbLine
 10
6914.781557726
 20
5230.1800211474
 30
0.0
 11
6916.2815682164
 21
5227.1800211213
 31
0.0
  0
LINE
  5
32A
330
1F
100
AcDbEntity
  8
0
  6
Continuous
 62
     7
100
AcDbLine
 10
6924.1239003411
 20
5212.3521871447
 30
0.0
 11
6926.1637500993
 21
5214.8922749377
 31
0.0
  0
LINE
  5
32B
330
1F
100
AcDbEntity
  8
0
  6
Continuous
 62
     7
100
AcDbLine
 10
6926.1637500993
 20
5214.8922749377
 30
0.0
 11
6926.5329710713
 21
5215.6063315972
 31
0.0
  0
LINE
  5
32C
330
1F
100
AcDbEntity
  8
0
  6
Continuous
 62
     7
100
AcDbLine
 10
6926.5329710713
 20
5215.6063315972
 30
0.0
 11
6926.6187421552
 21
5216.432059887
 31
0.0
  0
LINE
  5
32D
330
1F
100
AcDbEntity
  8
0
  6
Continuous
 62
     7
100
AcDbLine
 10
6926.6187421552
 20
5216.432059887
 30
0.0
 11
6926.4062515965
 21
5217.2266838654
 31
0.0
  0
LINE
  5
32E
330
1F
100
AcDbEntity
  8
0
  6
Continuous
 62
     7
100
AcDbLine
 10
6926.4062515965
 20
5217.2266838654
 30
0.0
 11
6925.9322158566
 21
5217.8528055131
 31
0.0
  0
LINE
  5
32F
330
1F
100
AcDbEntity
  8
0
  6
Continuous
 62
     7
100
AcDbLine
 10
6925.9322158566
 20
5217.8528055131
 30
0.0
 11
6925.2786211243
 21
5218.2021632373
 31
0.0
  0
LINE
  5
330
330
1F
100
AcDbEntity
  8
0
  6
Continuous
 62
     7
100
AcDbLine
 10
6925.2786211243
 20
5218.2021632373
 30
0.0
 11
6924.5584480039
 21
5218.2143491275
 31
0.0
  0
LINE
  5
331
330
1F
100
AcDbEntity
  8
0
  6
Continuous
 62
     7
100
AcDbLine
 10
6924.5584480039
 20
5218.2143491275
 30
0.0
 11
6923.8962702027
 21
5217.8872569977
 31
0.0
  0
LINE
  5
332
330
1F
100
AcDbEntity
  8
0
  6
Continuous
 62
     7
100
AcDbLine
 10
6923.8962702027
 20
5217.8872569977
 30
0.0
 11
6923.4065584412
 21
5217.277443274
 31
0.0
  0
LINE
  5
333
330
1F
100
AcDbEntity
  8
0
  6
Continuous
 62
     7
100
AcDbLine
 10
6923.4065584412
 20
5217.277443274
 30
0.0
 11
6923.1739811173
 21
5216.4903509013
 31
0.0
  0
LINE
  5
334
330
1F
100
AcDbEntity
  8
0
  6
Continuous
 62
     7
100
AcDbLine
 10
6923.1739811173
 20
5216.4903509013
 30
0.0
 11
6923.2387713662
 21
5215.6620749786
 31
0.0
  0
LINE
  5
335
330
1F
100
AcDbEntity
  8
0
  6
Continuous
 62
     7
100
AcDbLine
 10
6923.2387713662
 20
5215.6620749786
 30
0.0
 11
6924.1239003411
 21
5212.3521871447
 31
0.0
  0
LINE
  5
336
330
1F
100
AcDbEntity
  8
0
  6
Continuous
 62
     7
100
AcDbLine
 10
6916.2815682164
 20
5220.180021138
 30
0.0
 11
6917.7815787068
 21
5223.1800211059
 31
0.0
  0
LINE
  5
337
330
1F
100
AcDbEntity
  8
0
  6
Continuous
 62
     7
100
AcDbLine
 10
6917.7815787068
 20
5223.1800211059
 30
0.0
 11
6918.0041424504
 21
5223.9709642065
 31
0.0
  0
LINE
  5
338
330
1F
100
AcDbEntity
  8
0
  6
Continuous
 62
     7
100
AcDbLine
 10
6918.0041424504
 20
5223.9709642065
 30
0.0
 11
6917.9288319817
 21
5224.7980551376
 31
0.0
  0
LINE
  5
339
330
1F
100
AcDbEntity
  8
0
  6
Continuous
 62
     7
100
AcDbLine
 10
6917.9288319817
 20
5224.7980551376
 30
0.0
 11
6917.5687305203
 21
5225.5182822748
 31
0.0
  0
LINE
  5
33A
330
1F
100
AcDbEntity
  8
0
  6
Continuous
 62
     7
100
AcDbLine
 10
6917.5687305203
 20
5225.5182822748
 30
0.0
 11
6916.9860653153
 21
5226.0071120738
 31
0.0
  0
LINE
  5
33B
330
1F
100
AcDbEntity
  8
0
  6
Continuous
 62
     7
100
AcDbLine
 10
6916.9860653153
 20
5226.0071120738
 30
0.0
 11
6916.2815682164
 21
5226.1800211902
 31
0.0
  0
LINE
  5
33C
330
1F
100
AcDbEntity
  8
0
  6
Continuous
 62
     7
100
AcDbLine
 10
6916.2815682164
 20
5226.1800211902
 30
0.0
 11
6915.5770711175
 21
5226.0071120738
 31
0.0
  0
LINE
  5
33D
330
1F
100
AcDbEntity
  8
0
  6
Continuous
 62
     7
100
AcDbLine
 10
6915.5770711175
 20
5226.0071120738
 30
0.0
 11
6914.9944059125
 21
5225.5182822748
 31
0.0
  0
LINE
  5
33E
330
1F
100
AcDbEntity
  8
0
  6
Continuous
 62
     7
100
AcDbLine
 10
6914.9944059125
 20
5225.5182822748
 30
0.0
 11
6914.6343044511
 21
5224.7980551376
 31
0.0
  0
LINE
  5
33F
330
1F
100
AcDbEntity
  8
0
  6
Continuous
 62
     7
100
AcDbLine
 10
6914.6343044511
 20
5224.7980551376
 30
0.0
 11
6914.5589939824
 21
5223.9709642065
 31
0.0
  0
LINE
  5
340
330
1F
100
AcDbEntity
  8
0
  6
Continuous
 62
     7
100
AcDbLine
 10
6914.5589939824
 20
5223.9709642065
 30
0.0
 11
6914.781557726
 21
5223.1800211059
 31
0.0
  0
LINE
  5
341
330
1F
100
AcDbEntity
  8
0
  6
Continuous
 62
     7
100
AcDbLine
 10
6914.781557726
 20
5223.1800211059
 30
0.0
 11
6916.2815682164
 21
5220.180021138
 31
0.0
  0
LINE
  5
342
330
1F
100
AcDbEntity
  8
0
  6
Continuous
 62
     7
100
AcDbLine
 10
6922.7767459622
 20
5205.5272150367
 30
0.0
 11
6924.8165957204
 21
5208.067302364
 31
0.0
  0
LINE
  5
343
330
1F
100
AcDbEntity
  8
0
  6
Continuous
 62
     7
100
AcDbLine
 10
6924.8165957204
 20
5208.067302364
 30
0.0
 11
6925.1858166924
 21
5208.7813594892
 31
0.0
  0
LINE
  5
344
330
1F
100
AcDbEntity
  8
0
  6
Continuous
 62
     7
100
AcDbLine
 10
6925.1858166924
 20
5208.7813594892
 30
0.0
 11
6925.2715877763
 21
5209.607087779
 31
0.0
  0
LINE
  5
345
330
1F
100
AcDbEntity
  8
0
  6
Continuous
 62
     7
100
AcDbLine
 10
6925.2715877763
 20
5209.607087779
 30
0.0
 11
6925.0590972176
 21
5210.4017117574
 31
0.0
  0
LINE
  5
346
330
1F
100
AcDbEntity
  8
0
  6
Continuous
 62
     7
100
AcDbLine
 10
6925.0590972176
 20
5210.4017117574
 30
0.0
 11
6924.5850614777
 21
5211.0278334051
 31
0.0
  0
LINE
  5
347
330
1F
100
AcDbEntity
  8
0
  6
Continuous
 62
     7
100
AcDbLine
 10
6924.5850614777
 20
5211.0278334051
 30
0.0
 11
6923.9314667455
 21
5211.3771911292
 31
0.0
  0
LINE
  5
348
330
1F
100
AcDbEntity
  8
0
  6
Continuous
 62
     7
100
AcDbLine
 10
6923.9314667455
 20
5211.3771911292
 30
0.0
 11
6923.2113234273
 21
5211.3893765538
 31
0.0
  0
LINE
  5
349
330
1F
100
AcDbEntity
  8
0
  6
Continuous
 62
     7
100
AcDbLine
 10
6923.2113234273
 20
5211.3893765538
 30
0.0
 11
6922.5491158238
 21
5211.0622848897
 31
0.0
  0
LINE
  5
34A
330
1F
100
AcDbEntity
  8
0
  6
Continuous
 62
     7
100
AcDbLine
 10
6922.5491158238
 20
5211.0622848897
 30
0.0
 11
6922.0594040624
 21
5210.4524707004
 31
0.0
  0
LINE
  5
34B
330
1F
100
AcDbEntity
  8
0
  6
Continuous
 62
     7
100
AcDbLine
 10
6922.0594040624
 20
5210.4524707004
 30
0.0
 11
6921.8268267384
 21
5209.6653783276
 31
0.0
  0
LINE
  5
34C
330
1F
100
AcDbEntity
  8
0
  6
Continuous
 62
     7
100
AcDbLine
 10
6921.8268267384
 20
5209.6653783276
 30
0.0
 11
6921.8916169873
 21
5208.8371028706
 31
0.0
  0
LINE
  5
34D
330
1F
100
AcDbEntity
  8
0
  6
Continuous
 62
     7
100
AcDbLine
 10
6921.8916169873
 20
5208.8371028706
 30
0.0
 11
6922.7767459622
 21
5205.5272150367
 31
0.0
  0
LINE
  5
34E
330
1F
100
AcDbEntity
  8
0
  6
Continuous
 62
     7
100
AcDbLine
 10
6926.8182090989
 20
5226.0021313607
 30
0.0
 11
6928.858058857
 21
5228.5422191537
 31
0.0
  0
LINE
  5
34F
330
1F
100
AcDbEntity
  8
0
  6
Continuous
 62
     7
100
AcDbLine
 10
6928.858058857
 20
5228.5422191537
 30
0.0
 11
6929.2272798291
 21
5229.2562762789
 31
0.0
  0
LINE
  5
350
330
1F
100
AcDbEntity
  8
0
  6
Continuous
 62
     7
100
AcDbLine
 10
6929.2272798291
 20
5229.2562762789
 30
0.0
 11
6929.3130509129
 21
5230.0820045686
 31
0.0
  0
LINE
  5
351
330
1F
100
AcDbEntity
  8
0
  6
Continuous
 62
     7
100
AcDbLine
 10
6929.3130509129
 20
5230.0820045686
 30
0.0
 11
6929.100530552
 21
5230.8766280814
 31
0.0
  0
LINE
  5
352
330
1F
100
AcDbEntity
  8
0
  6
Continuous
 62
     7
100
AcDbLine
 10
6929.100530552
 20
5230.8766280814
 30
0.0
 11
6928.6264948121
 21
5231.5027497291
 31
0.0
  0
LINE
  5
353
330
1F
100
AcDbEntity
  8
0
  6
Continuous
 62
     7
100
AcDbLine
 10
6928.6264948121
 20
5231.5027497291
 30
0.0
 11
6927.9729000798
 21
5231.8521074533
 31
0.0
  0
LINE
  5
354
330
1F
100
AcDbEntity
  8
0
  6
Continuous
 62
     7
100
AcDbLine
 10
6927.9729000798
 20
5231.8521074533
 30
0.0
 11
6927.2527567616
 21
5231.8642938092
 31
0.0
  0
LINE
  5
355
330
1F
100
AcDbEntity
  8
0
  6
Continuous
 62
     7
100
AcDbLine
 10
6927.2527567616
 20
5231.8642938092
 30
0.0
 11
6926.5905789605
 21
5231.5372012138
 31
0.0
  0
LINE
  5
356
330
1F
100
AcDbEntity
  8
0
  6
Continuous
 62
     7
100
AcDbLine
 10
6926.5905789605
 20
5231.5372012138
 30
0.0
 11
6926.100867199
 21
5230.9273879557
 31
0.0
  0
LINE
  5
357
330
1F
100
AcDbEntity
  8
0
  6
Continuous
 62
     7
100
AcDbLine
 10
6926.100867199
 20
5230.9273879557
 30
0.0
 11
6925.8682898751
 21
5230.1402955829
 31
0.0
  0
LINE
  5
358
330
1F
100
AcDbEntity
  8
0
  6
Continuous
 62
     7
100
AcDbLine
 10
6925.8682898751
 20
5230.1402955829
 30
0.0
 11
6925.933080124
 21
5229.3120196602
 31
0.0
  0
LINE
  5
359
330
1F
100
AcDbEntity
  8
0
  6
Continuous
 62
     7
100
AcDbLine
 10
6925.933080124
 20
5229.3120196602
 30
0.0
 11
6926.8182090989
 21
5226.0021313607
 31
0.0
  0
LINE
  5
35A
330
1F
100
AcDbEntity
  8
0
  6
Continuous
 62
     7
100
AcDbLine
 10
6925.47105472
 20
5219.1771590199
 30
0.0
 11
6927.5109044782
 21
5221.7172470457
 31
0.0
  0
LINE
  5
35B
330
1F
100
AcDbEntity
  8
0
  6
Continuous
 62
     7
100
AcDbLine
 10
6927.5109044782
 20
5221.7172470457
 30
0.0
 11
6927.8801254502
 21
5222.4313038762
 31
0.0
  0
LINE
  5
35C
330
1F
100
AcDbEntity
  8
0
  6
Continuous
 62
     7
100
AcDbLine
 10
6927.8801254502
 20
5222.4313038762
 30
0.0
 11
6927.965896534
 21
5223.2570321696
 31
0.0
  0
LINE
  5
35D
330
1F
100
AcDbEntity
  8
0
  6
Continuous
 62
     7
100
AcDbLine
 10
6927.965896534
 20
5223.2570321696
 30
0.0
 11
6927.7533761731
 21
5224.0516560898
 31
0.0
  0
LINE
  5
35E
330
1F
100
AcDbEntity
  8
0
  6
Continuous
 62
     7
100
AcDbLine
 10
6927.7533761731
 20
5224.0516560898
 30
0.0
 11
6927.2793702355
 21
5224.6777778539
 31
0.0
  0
LINE
  5
35F
330
1F
100
AcDbEntity
  8
0
  6
Continuous
 62
     7
100
AcDbLine
 10
6927.2793702355
 20
5224.6777778539
 30
0.0
 11
6926.6257755032
 21
5225.0271353453
 31
0.0
  0
LINE
  5
360
330
1F
100
AcDbEntity
  8
0
  6
Continuous
 62
     7
100
AcDbLine
 10
6926.6257755032
 20
5225.0271353453
 30
0.0
 11
6925.9056023827
 21
5225.0393214683
 31
0.0
  0
LINE
  5
361
330
1F
100
AcDbEntity
  8
0
  6
Continuous
 62
     7
100
AcDbLine
 10
6925.9056023827
 20
5225.0393214683
 30
0.0
 11
6925.2434245816
 21
5224.7122293386
 31
0.0
  0
LINE
  5
362
330
1F
100
AcDbEntity
  8
0
  6
Continuous
 62
     7
100
AcDbLine
 10
6925.2434245816
 20
5224.7122293386
 30
0.0
 11
6924.7537128201
 21
5224.1024157313
 31
0.0
  0
LINE
  5
363
330
1F
100
AcDbEntity
  8
0
  6
Continuous
 62
     7
100
AcDbLine
 10
6924.7537128201
 20
5224.1024157313
 30
0.0
 11
6924.5211354962
 21
5223.3153233585
 31
0.0
  0
LINE
  5
364
330
1F
100
AcDbEntity
  8
0
  6
Continuous
 62
     7
100
AcDbLine
 10
6924.5211354962
 20
5223.3153233585
 30
0.0
 11
6924.5859257451
 21
5222.4870474213
 31
0.0
  0
LINE
  5
365
330
1F
100
AcDbEntity
  8
0
  6
Continuous
 62
     7
100
AcDbLine
 10
6924.5859257451
 20
5222.4870474213
 30
0.0
 11
6925.47105472
 21
5219.1771590199
 31
0.0
  0
LINE
  5
366
330
1F
100
AcDbEntity
  8
0
  6
Continuous
 62
     7
100
AcDbLine
 10
6908.0062083474
 20
5212.3521871447
 30
0.0
 11
6908.8913522235
 21
5215.6620749786
 31
0.0
  0
LINE
  5
367
330
1F
100
AcDbEntity
  8
0
  6
Continuous
 62
     7
100
AcDbLine
 10
6908.8913522235
 20
5215.6620749786
 30
0.0
 11
6908.9561424723
 21
5216.4903509013
 31
0.0
  0
LINE
  5
368
330
1F
100
AcDbEntity
  8
0
  6
Continuous
 62
     7
100
AcDbLine
 10
6908.9561424723
 20
5216.4903509013
 30
0.0
 11
6908.7235651484
 21
5217.277443274
 31
0.0
  0
LINE
  5
369
330
1F
100
AcDbEntity
  8
0
  6
Continuous
 62
     7
100
AcDbLine
 10
6908.7235651484
 20
5217.277443274
 30
0.0
 11
6908.233853387
 21
5217.8872569977
 31
0.0
  0
LINE
  5
36A
330
1F
100
AcDbEntity
  8
0
  6
Continuous
 62
     7
100
AcDbLine
 10
6908.233853387
 20
5217.8872569977
 30
0.0
 11
6907.5716606847
 21
5218.2143491275
 31
0.0
  0
LINE
  5
36B
330
1F
100
AcDbEntity
  8
0
  6
Continuous
 62
     7
100
AcDbLine
 10
6907.5716606847
 20
5218.2143491275
 30
0.0
 11
6906.8515173665
 21
5218.2021632373
 31
0.0
  0
LINE
  5
36C
330
1F
100
AcDbEntity
  8
0
  6
Continuous
 62
     7
100
AcDbLine
 10
6906.8515173665
 20
5218.2021632373
 30
0.0
 11
6906.1979226342
 21
5217.8528055131
 31
0.0
  0
LINE
  5
36D
330
1F
100
AcDbEntity
  8
0
  6
Continuous
 62
     7
100
AcDbLine
 10
6906.1979226342
 20
5217.8528055131
 30
0.0
 11
6905.7238868943
 21
5217.2266838654
 31
0.0
  0
LINE
  5
36E
330
1F
100
AcDbEntity
  8
0
  6
Continuous
 62
     7
100
AcDbLine
 10
6905.7238868943
 20
5217.2266838654
 30
0.0
 11
6905.5113814345
 21
5216.432059887
 31
0.0
  0
LINE
  5
36F
330
1F
100
AcDbEntity
  8
0
  6
Continuous
 62
     7
100
AcDbLine
 10
6905.5113814345
 20
5216.432059887
 30
0.0
 11
6905.5971525184
 21
5215.6063315972
 31
0.0
  0
LINE
  5
370
330
1F
100
AcDbEntity
  8
0
  6
Continuous
 62
     7
100
AcDbLine
 10
6905.5971525184
 20
5215.6063315972
 30
0.0
 11
6905.9663734904
 21
5214.8922749377
 31
0.0
  0
LINE
  5
371
330
1F
100
AcDbEntity
  8
0
  6
Continuous
 62
     7
100
AcDbLine
 10
6905.9663734904
 20
5214.8922749377
 30
0.0
 11
6908.0062083474
 21
5212.3521871447
 31
0.0
  0
LINE
  5
372
330
1F
100
AcDbEntity
  8
0
  6
Continuous
 62
     7
100
AcDbLine
 10
6909.3533627263
 20
5205.5272150367
 30
0.0
 11
6910.2385066024
 21
5208.8371028706
 31
0.0
  0
LINE
  5
373
330
1F
100
AcDbEntity
  8
0
  6
Continuous
 62
     7
100
AcDbLine
 10
6910.2385066024
 20
5208.8371028706
 30
0.0
 11
6910.3032968512
 21
5209.6653783276
 31
0.0
  0
LINE
  5
374
330
1F
100
AcDbEntity
  8
0
  6
Continuous
 62
     7
100
AcDbLine
 10
6910.3032968512
 20
5209.6653783276
 30
0.0
 11
6910.0707195273
 21
5210.4524707004
 31
0.0
  0
LINE
  5
375
330
1F
100
AcDbEntity
  8
0
  6
Continuous
 62
     7
100
AcDbLine
 10
6910.0707195273
 20
5210.4524707004
 30
0.0
 11
6909.5809928647
 21
5211.0622848897
 31
0.0
  0
LINE
  5
376
330
1F
100
AcDbEntity
  8
0
  6
Continuous
 62
     7
100
AcDbLine
 10
6909.5809928647
 20
5211.0622848897
 30
0.0
 11
6908.9188150636
 21
5211.3893765538
 31
0.0
  0
LINE
  5
377
330
1F
100
AcDbEntity
  8
0
  6
Continuous
 62
     7
100
AcDbLine
 10
6908.9188150636
 20
5211.3893765538
 30
0.0
 11
6908.1986717454
 21
5211.3771911292
 31
0.0
  0
LINE
  5
378
330
1F
100
AcDbEntity
  8
0
  6
Continuous
 62
     7
100
AcDbLine
 10
6908.1986717454
 20
5211.3771911292
 30
0.0
 11
6907.5450621119
 21
5211.0278334051
 31
0.0
  0
LINE
  5
379
330
1F
100
AcDbEntity
  8
0
  6
Continuous
 62
     7
100
AcDbLine
 10
6907.5450621119
 20
5211.0278334051
 30
0.0
 11
6907.0710412732
 21
5210.4017117574
 31
0.0
  0
LINE
  5
37A
330
1F
100
AcDbEntity
  8
0
  6
Continuous
 62
     7
100
AcDbLine
 10
6907.0710412732
 20
5210.4017117574
 30
0.0
 11
6906.8585358134
 21
5209.607087779
 31
0.0
  0
LINE
  5
37B
330
1F
100
AcDbEntity
  8
0
  6
Continuous
 62
     7
100
AcDbLine
 10
6906.8585358134
 20
5209.607087779
 30
0.0
 11
6906.9443068972
 21
5208.7813594892
 31
0.0
  0
LINE
  5
37C
330
1F
100
AcDbEntity
  8
0
  6
Continuous
 62
     7
100
AcDbLine
 10
6906.9443068972
 20
5208.7813594892
 30
0.0
 11
6907.3135278693
 21
5208.067302364
 31
0.0
  0
LINE
  5
37D
330
1F
100
AcDbEntity
  8
0
  6
Continuous
 62
     7
100
AcDbLine
 10
6907.3135278693
 20
5208.067302364
 30
0.0
 11
6909.3533627263
 21
5205.5272150367
 31
0.0
  0
LINE
  5
37E
330
1F
100
AcDbEntity
  8
0
  6
Continuous
 62
     7
100
AcDbLine
 10
6905.3119144908
 20
5226.0021313607
 30
0.0
 11
6906.1970583669
 21
5229.3120196602
 31
0.0
  0
LINE
  5
37F
330
1F
100
AcDbEntity
  8
0
  6
Continuous
 62
     7
100
AcDbLine
 10
6906.1970583669
 20
5229.3120196602
 30
0.0
 11
6906.2618337146
 21
5230.1402955829
 31
0.0
  0
LINE
  5
380
330
1F
100
AcDbEntity
  8
0
  6
Continuous
 62
     7
100
AcDbLine
 10
6906.2618337146
 20
5230.1402955829
 30
0.0
 11
6906.0292563907
 21
5230.9273879557
 31
0.0
  0
LINE
  5
381
330
1F
100
AcDbEntity
  8
0
  6
Continuous
 62
     7
100
AcDbLine
 10
6906.0292563907
 20
5230.9273879557
 30
0.0
 11
6905.5395446292
 21
5231.5372012138
 31
0.0
  0
LINE
  5
382
330
1F
100
AcDbEntity
  8
0
  6
Continuous
 62
     7
100
AcDbLine
 10
6905.5395446292
 20
5231.5372012138
 30
0.0
 11
6904.877366828
 21
5231.8642938092
 31
0.0
  0
LINE
  5
383
330
1F
100
AcDbEntity
  8
0
  6
Continuous
 62
     7
100
AcDbLine
 10
6904.877366828
 20
5231.8642938092
 30
0.0
 11
6904.1572086087
 21
5231.8521074533
 31
0.0
  0
LINE
  5
384
330
1F
100
AcDbEntity
  8
0
  6
Continuous
 62
     7
100
AcDbLine
 10
6904.1572086087
 20
5231.8521074533
 30
0.0
 11
6903.5036138764
 21
5231.5027497291
 31
0.0
  0
LINE
  5
385
330
1F
100
AcDbEntity
  8
0
  6
Continuous
 62
     7
100
AcDbLine
 10
6903.5036138764
 20
5231.5027497291
 30
0.0
 11
6903.0295781365
 21
5230.8766280814
 31
0.0
  0
LINE
  5
386
330
1F
100
AcDbEntity
  8
0
  6
Continuous
 62
     7
100
AcDbLine
 10
6903.0295781365
 20
5230.8766280814
 30
0.0
 11
6902.8170875779
 21
5230.0820045686
 31
0.0
  0
LINE
  5
387
330
1F
100
AcDbEntity
  8
0
  6
Continuous
 62
     7
100
AcDbLine
 10
6902.8170875779
 20
5230.0820045686
 30
0.0
 11
6902.9028586617
 21
5229.2562762789
 31
0.0
  0
LINE
  5
388
330
1F
100
AcDbEntity
  8
0
  6
Continuous
 62
     7
100
AcDbLine
 10
6902.9028586617
 20
5229.2562762789
 30
0.0
 11
6903.2720647326
 21
5228.5422191537
 31
0.0
  0
LINE
  5
389
330
1F
100
AcDbEntity
  8
0
  6
Continuous
 62
     7
100
AcDbLine
 10
6903.2720647326
 20
5228.5422191537
 30
0.0
 11
6905.3119144908
 21
5226.0021313607
 31
0.0
  0
LINE
  5
38A
330
1F
100
AcDbEntity
  8
0
  6
Continuous
 62
     7
100
AcDbLine
 10
6906.6590688697
 20
5219.1771590199
 30
0.0
 11
6907.5442127457
 21
5222.4870474213
 31
0.0
  0
LINE
  5
38B
330
1F
100
AcDbEntity
  8
0
  6
Continuous
 62
     7
100
AcDbLine
 10
6907.5442127457
 20
5222.4870474213
 30
0.0
 11
6907.6089880935
 21
5223.3153233585
 31
0.0
  0
LINE
  5
38C
330
1F
100
AcDbEntity
  8
0
  6
Continuous
 62
     7
100
AcDbLine
 10
6907.6089880935
 20
5223.3153233585
 30
0.0
 11
6907.3764107695
 21
5224.1024157313
 31
0.0
  0
LINE
  5
38D
330
1F
100
AcDbEntity
  8
0
  6
Continuous
 62
     7
100
AcDbLine
 10
6907.3764107695
 20
5224.1024157313
 30
0.0
 11
6906.8866990081
 21
5224.7122293386
 31
0.0
  0
LINE
  5
38E
330
1F
100
AcDbEntity
  8
0
  6
Continuous
 62
     7
100
AcDbLine
 10
6906.8866990081
 20
5224.7122293386
 30
0.0
 11
6906.2245063058
 21
5225.0393214683
 31
0.0
  0
LINE
  5
38F
330
1F
100
AcDbEntity
  8
0
  6
Continuous
 62
     7
100
AcDbLine
 10
6906.2245063058
 20
5225.0393214683
 30
0.0
 11
6905.5043629876
 21
5225.0271353453
 31
0.0
  0
LINE
  5
390
330
1F
100
AcDbEntity
  8
0
  6
Continuous
 62
     7
100
AcDbLine
 10
6905.5043629876
 20
5225.0271353453
 30
0.0
 11
6904.8507682553
 21
5224.6777778539
 31
0.0
  0
LINE
  5
391
330
1F
100
AcDbEntity
  8
0
  6
Continuous
 62
     7
100
AcDbLine
 10
6904.8507682553
 20
5224.6777778539
 30
0.0
 11
6904.3767325154
 21
5224.0516560898
 31
0.0
  0
LINE
  5
392
330
1F
100
AcDbEntity
  8
0
  6
Continuous
 62
     7
100
AcDbLine
 10
6904.3767325154
 20
5224.0516560898
 30
0.0
 11
6904.1642270556
 21
5223.2570321696
 31
0.0
  0
LINE
  5
393
330
1F
100
AcDbEntity
  8
0
  6
Continuous
 62
     7
100
AcDbLine
 10
6904.1642270556
 20
5223.2570321696
 30
0.0
 11
6904.2499981395
 21
5222.4313038762
 31
0.0
  0
LINE
  5
394
330
1F
100
AcDbEntity
  8
0
  6
Continuous
 62
     7
100
AcDbLine
 10
6904.2499981395
 20
5222.4313038762
 30
0.0
 11
6904.6192191115
 21
5221.7172470457
 31
0.0
  0
LINE
  5
395
330
1F
100
AcDbEntity
  8
0
  6
Continuous
 62
     7
100
AcDbLine
 10
6904.6192191115
 20
5221.7172470457
 30
0.0
 11
6906.6590688697
 21
5219.1771590199
 31
0.0
  0
LINE
  5
396
330
1F
100
AcDbEntity
  8
0
  6
Continuous
 62
     7
100
AcDbLine
 10
6961.6540245286
 20
5247.1587702214
 30
0.0
 11
6974.3049017659
 21
5247.1587702214
 31
0.0
  0
LINE
  5
397
330
1F
100
AcDbEntity
  8
0
  6
Continuous
 62
     7
100
AcDbLine
 10
6974.3049017659
 20
5247.1587702214
 30
0.0
 11
6974.3049017659
 21
5258.7976555853
 31
0.0
  0
LINE
  5
398
330
1F
100
AcDbEntity
  8
0
  6
Continuous
 62
     7
100
AcDbLine
 10
6974.3049017659
 20
5258.7976555853
 30
0.0
 11
6961.6540245286
 21
5258.7976555853
 31
0.0
  0
LINE
  5
399
330
1F
100
AcDbEntity
  8
0
  6
Continuous
 62
     7
100
AcDbLine
 10
6961.6540245286
 20
5258.7976555853
 30
0.0
 11
6961.6540245286
 21
5273.4056438833
 31
0.0
  0
LINE
  5
39A
330
1F
100
AcDbEntity
  8
0
  6
Continuous
 62
     7
100
AcDbLine
 10
6961.6540245286
 20
5273.4056438833
 30
0.0
 11
6951.5744618646
 21
5273.4056438833
 31
0.0
  0
LINE
  5
39B
330
1F
100
AcDbEntity
  8
0
  6
Continuous
 62
     7
100
AcDbLine
 10
6951.5744618646
 20
5273.4056438833
 30
0.0
 11
6951.5744618646
 21
5258.7976555853
 31
0.0
  0
LINE
  5
39C
330
1F
100
AcDbEntity
  8
0
  6
Continuous
 62
     7
100
AcDbLine
 10
6951.5744618646
 20
5258.7976555853
 30
0.0
 11
6938.9235548249
 21
5258.7976555853
 31
0.0
  0
LINE
  5
39D
330
1F
100
AcDbEntity
  8
0
  6
Continuous
 62
     7
100
AcDbLine
 10
6938.9235548249
 20
5258.7976555853
 30
0.0
 11
6938.9235548249
 21
5247.1587702214
 31
0.0
  0
LINE
  5
39E
330
1F
100
AcDbEntity
  8
0
  6
Continuous
 62
     7
100
AcDbLine
 10
6938.9235548249
 20
5247.1587702214
 30
0.0
 11
6951.5744618646
 21
5247.1587702214
 31
0.0
  0
LINE
  5
39F
330
1F
100
AcDbEntity
  8
0
  6
Continuous
 62
     7
100
AcDbLine
 10
6951.5744618646
 20
5247.1587702214
 30
0.0
 11
6951.5744618646
 21
5232.5507800608
 31
0.0
  0
LINE
  5
3A0
330
1F
100
AcDbEntity
  8
0
  6
Continuous
 62
     7
100
AcDbLine
 10
6951.5744618646
 20
5232.5507800608
 30
0.0
 11
6961.6540245286
 21
5232.5507800608
 31
0.0
  0
LINE
  5
3A1
330
1F
100
AcDbEntity
  8
0
  6
Continuous
 62
     7
100
AcDbLine
 10
6961.6540245286
 20
5232.5507800608
 30
0.0
 11
6961.6540245286
 21
5247.1587702214
 31
0.0
  0
LINE
  5
3A2
330
1F
100
AcDbEntity
  8
0
  6
Continuous
 62
     7
100
AcDbLine
 10
6890.770452427
 20
5391.153963986
 30
0.0
 11
6890.770452427
 21
5311.1539583235
 31
0.0
  0
LINE
  5
3A3
330
1F
100
AcDbEntity
  8
0
  6
Continuous
 62
     7
100
AcDbLine
 10
6899.4306943885
 20
5401.1539544492
 30
0.0
 11
6897.74117093
 21
5400.9618039756
 31
0.0
  0
LINE
  5
3A4
330
1F
100
AcDbEntity
  8
0
  6
Continuous
 62
     7
100
AcDbLine
 10
6897.74117093
 20
5400.9618039756
 30
0.0
 11
6896.1165718308
 21
5400.392758432
 31
0.0
  0
LINE
  5
3A5
330
1F
100
AcDbEntity
  8
0
  6
Continuous
 62
     7
100
AcDbLine
 10
6896.1165718308
 20
5400.392758432
 30
0.0
 11
6894.6193180552
 21
5399.4686480194
 31
0.0
  0
LINE
  5
3A6
330
1F
100
AcDbEntity
  8
0
  6
Continuous
 62
     7
100
AcDbLine
 10
6894.6193180552
 20
5399.4686480194
 30
0.0
 11
6893.3069727889
 21
5398.2250269084
 31
0.0
  0
LINE
  5
3A7
330
1F
100
AcDbEntity
  8
0
  6
Continuous
 62
     7
100
AcDbLine
 10
6893.3069727889
 20
5398.2250269084
 30
0.0
 11
6892.2299615613
 21
5396.7096533208
 31
0.0
  0
LINE
  5
3A8
330
1F
100
AcDbEntity
  8
0
  6
Continuous
 62
     7
100
AcDbLine
 10
6892.2299615613
 20
5396.7096533208
 30
0.0
 11
6891.429664897
 21
5394.9807907968
 31
0.0
  0
LINE
  5
3A9
330
1F
100
AcDbEntity
  8
0
  6
Continuous
 62
     7
100
AcDbLine
 10
6891.429664897
 20
5394.9807907968
 30
0.0
 11
6890.936853694
 21
5393.1048538118
 31
0.0
  0
LINE
  5
3AA
330
1F
100
AcDbEntity
  8
0
  6
Continuous
 62
     7
100
AcDbLine
 10
6890.936853694
 20
5393.1048538118
 30
0.0
 11
6890.770452427
 21
5391.153963986
 31
0.0
  0
LINE
  5
3AB
330
1F
100
AcDbEntity
  8
0
  6
Continuous
 62
     7
100
AcDbLine
 10
6968.7127343884
 20
5401.1539544492
 30
0.0
 11
6899.4306943885
 21
5401.1539544492
 31
0.0
  0
LINE
  5
3AC
330
1F
100
AcDbEntity
  8
0
  6
Continuous
 62
     7
100
AcDbLine
 10
6977.3729912511
 20
5391.153963986
 30
0.0
 11
6977.2065750829
 21
5393.1048538118
 31
0.0
  0
LINE
  5
3AD
330
1F
100
AcDbEntity
  8
0
  6
Continuous
 62
     7
100
AcDbLine
 10
6977.2065750829
 20
5393.1048538118
 30
0.0
 11
6976.7137638799
 21
5394.9807907968
 31
0.0
  0
LINE
  5
3AE
330
1F
100
AcDbEntity
  8
0
  6
Continuous
 62
     7
100
AcDbLine
 10
6976.7137638799
 20
5394.9807907968
 30
0.0
 11
6975.9134821168
 21
5396.7096533208
 31
0.0
  0
LINE
  5
3AF
330
1F
100
AcDbEntity
  8
0
  6
Continuous
 62
     7
100
AcDbLine
 10
6975.9134821168
 20
5396.7096533208
 30
0.0
 11
6974.836455988
 21
5398.2250269084
 31
0.0
  0
LINE
  5
3B0
330
1F
100
AcDbEntity
  8
0
  6
Continuous
 62
     7
100
AcDbLine
 10
6974.836455988
 20
5398.2250269084
 30
0.0
 11
6973.5241107217
 21
5399.4686480194
 31
0.0
  0
LINE
  5
3B1
330
1F
100
AcDbEntity
  8
0
  6
Continuous
 62
     7
100
AcDbLine
 10
6973.5241107217
 20
5399.4686480194
 30
0.0
 11
6972.0268718472
 21
5400.392758432
 31
0.0
  0
LINE
  5
3B2
330
1F
100
AcDbEntity
  8
0
  6
Continuous
 62
     7
100
AcDbLine
 10
6972.0268718472
 20
5400.392758432
 30
0.0
 11
6970.4022578469
 21
5400.9618039756
 31
0.0
  0
LINE
  5
3B3
330
1F
100
AcDbEntity
  8
0
  6
Continuous
 62
     7
100
AcDbLine
 10
6970.4022578469
 20
5400.9618039756
 30
0.0
 11
6968.7127343884
 21
5401.1539544492
 31
0.0
  0
LINE
  5
3B4
330
1F
100
AcDbEntity
  8
0
  6
Continuous
 62
     7
100
AcDbLine
 10
6977.3729912511
 20
5311.1539583235
 30
0.0
 11
6977.3729912511
 21
5391.153963986
 31
0.0
  0
LINE
  5
3B5
330
1F
100
AcDbEntity
  8
0
  6
Continuous
 62
     7
100
AcDbLine
 10
6968.7127343884
 20
5301.1539604097
 30
0.0
 11
6970.4022578469
 21
5301.3461034327
 31
0.0
  0
LINE
  5
3B6
330
1F
100
AcDbEntity
  8
0
  6
Continuous
 62
     7
100
AcDbLine
 10
6970.4022578469
 20
5301.3461034327
 30
0.0
 11
6972.0268718472
 21
5301.9151638775
 31
0.0
  0
LINE
  5
3B7
330
1F
100
AcDbEntity
  8
0
  6
Continuous
 62
     7
100
AcDbLine
 10
6972.0268718472
 20
5301.9151638775
 30
0.0
 11
6973.5241107217
 21
5302.839259389
 31
0.0
  0
LINE
  5
3B8
330
1F
100
AcDbEntity
  8
0
  6
Continuous
 62
     7
100
AcDbLine
 10
6973.5241107217
 20
5302.839259389
 30
0.0
 11
6974.836455988
 21
5304.0828879505
 31
0.0
  0
LINE
  5
3B9
330
1F
100
AcDbEntity
  8
0
  6
Continuous
 62
     7
100
AcDbLine
 10
6974.836455988
 20
5304.0828879505
 30
0.0
 11
6975.9134821168
 21
5305.5982540875
 31
0.0
  0
LINE
  5
3BA
330
1F
100
AcDbEntity
  8
0
  6
Continuous
 62
     7
100
AcDbLine
 10
6975.9134821168
 20
5305.5982540875
 30
0.0
 11
6976.7137638799
 21
5307.3271240621
 31
0.0
  0
LINE
  5
3BB
330
1F
100
AcDbEntity
  8
0
  6
Continuous
 62
     7
100
AcDbLine
 10
6976.7137638799
 20
5307.3271240621
 30
0.0
 11
6977.2065750829
 21
5309.2030535965
 31
0.0
  0
LINE
  5
3BC
330
1F
100
AcDbEntity
  8
0
  6
Continuous
 62
     7
100
AcDbLine
 10
6977.2065750829
 20
5309.2030535965
 30
0.0
 11
6977.3729912511
 21
5311.1539583235
 31
0.0
  0
LINE
  5
3BD
330
1F
100
AcDbEntity
  8
0
  6
Continuous
 62
     7
100
AcDbLine
 10
6899.4306943885
 20
5301.1539604097
 30
0.0
 11
6968.7127343884
 21
5301.1539604097
 31
0.0
  0
LINE
  5
3BE
330
1F
100
AcDbEntity
  8
0
  6
Continuous
 62
     7
100
AcDbLine
 10
6890.770452427
 20
5311.1539583235
 30
0.0
 11
6890.936853694
 21
5309.2030535965
 31
0.0
  0
LINE
  5
3BF
330
1F
100
AcDbEntity
  8
0
  6
Continuous
 62
     7
100
AcDbLine
 10
6890.936853694
 20
5309.2030535965
 30
0.0
 11
6891.429664897
 21
5307.3271240621
 31
0.0
  0
LINE
  5
3C0
330
1F
100
AcDbEntity
  8
0
  6
Continuous
 62
     7
100
AcDbLine
 10
6891.429664897
 20
5307.3271240621
 30
0.0
 11
6892.2299615613
 21
5305.5982540875
 31
0.0
  0
LINE
  5
3C1
330
1F
100
AcDbEntity
  8
0
  6
Continuous
 62
     7
100
AcDbLine
 10
6892.2299615613
 20
5305.5982540875
 30
0.0
 11
6893.3069727889
 21
5304.0828879505
 31
0.0
  0
LINE
  5
3C2
330
1F
100
AcDbEntity
  8
0
  6
Continuous
 62
     7
100
AcDbLine
 10
6893.3069727889
 20
5304.0828879505
 30
0.0
 11
6894.6193180552
 21
5302.839259389
 31
0.0
  0
LINE
  5
3C3
330
1F
100
AcDbEntity
  8
0
  6
Continuous
 62
     7
100
AcDbLine
 10
6894.6193180552
 20
5302.839259389
 30
0.0
 11
6896.1165718308
 21
5301.9151638775
 31
0.0
  0
LINE
  5
3C4
330
1F
100
AcDbEntity
  8
0
  6
Continuous
 62
     7
100
AcDbLine
 10
6896.1165718308
 20
5301.9151638775
 30
0.0
 11
6897.74117093
 21
5301.3461034327
 31
0.0
  0
LINE
  5
3C5
330
1F
100
AcDbEntity
  8
0
  6
Continuous
 62
     7
100
AcDbLine
 10
6897.74117093
 20
5301.3461034327
 30
0.0
 11
6899.4306943885
 21
5301.1539604097
 31
0.0
  0
LINE
  5
3C6
330
1F
100
AcDbEntity
  8
0
  6
Continuous
 62
     7
100
AcDbLine
 10
6961.2521700135
 20
5366.8887491851
 30
0.0
 11
6973.9030770532
 21
5366.8887491851
 31
0.0
  0
LINE
  5
3C7
330
1F
100
AcDbEntity
  8
0
  6
Continuous
 62
     7
100
AcDbLine
 10
6973.9030770532
 20
5366.8887491851
 30
0.0
 11
6973.9030770532
 21
5378.5276289611
 31
0.0
  0
LINE
  5
3C8
330
1F
100
AcDbEntity
  8
0
  6
Continuous
 62
     7
100
AcDbLine
 10
6973.9030770532
 20
5378.5276289611
 30
0.0
 11
6961.2521700135
 21
5378.5276289611
 31
0.0
  0
LINE
  5
3C9
330
1F
100
AcDbEntity
  8
0
  6
Continuous
 62
     7
100
AcDbLine
 10
6961.2521700135
 20
5378.5276289611
 30
0.0
 11
6961.2521700135
 21
5393.1356247096
 31
0.0
  0
LINE
  5
3CA
330
1F
100
AcDbEntity
  8
0
  6
Continuous
 62
     7
100
AcDbLine
 10
6961.2521700135
 20
5393.1356247096
 30
0.0
 11
6951.1726073495
 21
5393.1356247096
 31
0.0
  0
LINE
  5
3CB
330
1F
100
AcDbEntity
  8
0
  6
Continuous
 62
     7
100
AcDbLine
 10
6951.1726073495
 20
5393.1356247096
 30
0.0
 11
6951.1726073495
 21
5378.5276289611
 31
0.0
  0
LINE
  5
3CC
330
1F
100
AcDbEntity
  8
0
  6
Continuous
 62
     7
100
AcDbLine
 10
6951.1726073495
 20
5378.5276289611
 30
0.0
 11
6938.5217003098
 21
5378.5276289611
 31
0.0
  0
LINE
  5
3CD
330
1F
100
AcDbEntity
  8
0
  6
Continuous
 62
     7
100
AcDbLine
 10
6938.5217003098
 20
5378.5276289611
 30
0.0
 11
6938.5217003098
 21
5366.8887491851
 31
0.0
  0
LINE
  5
3CE
330
1F
100
AcDbEntity
  8
0
  6
Continuous
 62
     7
100
AcDbLine
 10
6938.5217003098
 20
5366.8887491851
 30
0.0
 11
6951.1726073495
 21
5366.8887491851
 31
0.0
  0
LINE
  5
3CF
330
1F
100
AcDbEntity
  8
0
  6
Continuous
 62
     7
100
AcDbLine
 10
6951.1726073495
 20
5366.8887491851
 30
0.0
 11
6951.1726073495
 21
5352.2807534366
 31
0.0
  0
LINE
  5
3D0
330
1F
100
AcDbEntity
  8
0
  6
Continuous
 62
     7
100
AcDbLine
 10
6951.1726073495
 20
5352.2807534366
 30
0.0
 11
6961.2521700135
 21
5352.2807534366
 31
0.0
  0
LINE
  5
3D1
330
1F
100
AcDbEntity
  8
0
  6
Continuous
 62
     7
100
AcDbLine
 10
6961.2521700135
 20
5352.2807534366
 30
0.0
 11
6961.2521700135
 21
5366.8887491851
 31
0.0
  0
LINE
  5
3D2
330
1F
100
AcDbEntity
  8
0
  6
Continuous
 62
     7
100
AcDbLine
 10
6913.1101242772
 20
5389.2166193157
 30
0.0
 11
6908.9964948169
 21
5382.2166200309
 31
0.0
  0
LINE
  5
3D3
330
1F
100
AcDbEntity
  8
0
  6
Continuous
 62
     7
100
AcDbLine
 10
6908.9964948169
 20
5382.2166200309
 30
0.0
 11
6921.5538672677
 21
5382.2166200309
 31
0.0
  0
LINE
  5
3D4
330
1F
100
AcDbEntity
  8
0
  6
Continuous
 62
     7
100
AcDbLine
 10
6921.5538672677
 20
5382.2166200309
 30
0.0
 11
6917.4402527085
 21
5389.2166193157
 31
0.0
  0
LINE
  5
3D5
330
1F
100
AcDbEntity
  8
0
  6
Continuous
 62
     7
100
AcDbLine
 10
6917.4402527085
 20
5389.2166193157
 30
0.0
 11
6917.4402527085
 21
5393.2166125207
 31
0.0
  0
LINE
  5
3D6
330
1F
100
AcDbEntity
  8
0
  6
Continuous
 62
     7
100
AcDbLine
 10
6917.4402527085
 20
5393.2166125207
 30
0.0
 11
6913.1101242772
 21
5393.2166125207
 31
0.0
  0
LINE
  5
3D7
330
1F
100
AcDbEntity
  8
0
  6
Continuous
 62
     7
100
AcDbLine
 10
6913.1101242772
 20
5393.2166125207
 30
0.0
 11
6913.1101242772
 21
5389.2166193157
 31
0.0
  0
LINE
  5
3D8
330
1F
100
AcDbEntity
  8
0
  6
Continuous
 62
     7
100
AcDbLine
 10
6921.5538672677
 20
5380.7166244417
 30
0.0
 11
6908.9964948169
 21
5380.7166244417
 31
0.0
  0
LINE
  5
3D9
330
1F
100
AcDbEntity
  8
0
  6
Continuous
 62
     7
100
AcDbLine
 10
6908.9964948169
 20
5380.7166244417
 30
0.0
 11
6908.9964948169
 21
5377.716618362
 31
0.0
  0
LINE
  5
3DA
330
1F
100
AcDbEntity
  8
0
  6
Continuous
 62
     7
100
AcDbLine
 10
6908.9964948169
 20
5377.716618362
 30
0.0
 11
6921.5538672677
 21
5377.716618362
 31
0.0
  0
LINE
  5
3DB
330
1F
100
AcDbEntity
  8
0
  6
Continuous
 62
     7
100
AcDbLine
 10
6921.5538672677
 20
5377.716618362
 30
0.0
 11
6921.5538672677
 21
5380.7166244417
 31
0.0
  0
LINE
  5
3DC
330
1F
100
AcDbEntity
  8
0
  6
Continuous
 62
     7
100
AcDbLine
 10
6915.2751735917
 20
5367.2166194349
 30
0.0
 11
6913.7751929036
 21
5364.2166133552
 31
0.0
  0
LINE
  5
3DD
330
1F
100
AcDbEntity
  8
0
  6
Continuous
 62
     7
100
AcDbLine
 10
6913.7751929036
 20
5364.2166133552
 30
0.0
 11
6913.55262916
 21
5363.4256746202
 31
0.0
  0
LINE
  5
3DE
330
1F
100
AcDbEntity
  8
0
  6
Continuous
 62
     7
100
AcDbLine
 10
6913.55262916
 20
5363.4256746202
 30
0.0
 11
6913.6279098264
 21
5362.5985856681
 31
0.0
  0
LINE
  5
3DF
330
1F
100
AcDbEntity
  8
0
  6
Continuous
 62
     7
100
AcDbLine
 10
6913.6279098264
 20
5362.5985856681
 30
0.0
 11
6913.9880112878
 21
5361.878352943
 31
0.0
  0
LINE
  5
3E0
330
1F
100
AcDbEntity
  8
0
  6
Continuous
 62
     7
100
AcDbLine
 10
6913.9880112878
 20
5361.878352943
 30
0.0
 11
6914.5707062951
 21
5361.38952035
 31
0.0
  0
LINE
  5
3E1
330
1F
100
AcDbEntity
  8
0
  6
Continuous
 62
     7
100
AcDbLine
 10
6914.5707062951
 20
5361.38952035
 30
0.0
 11
6915.2751735917
 21
5361.2166221767
 31
0.0
  0
LINE
  5
3E2
330
1F
100
AcDbEntity
  8
0
  6
Continuous
 62
     7
100
AcDbLine
 10
6915.2751735917
 20
5361.2166221767
 30
0.0
 11
6915.9796706906
 21
5361.38952035
 31
0.0
  0
LINE
  5
3E3
330
1F
100
AcDbEntity
  8
0
  6
Continuous
 62
     7
100
AcDbLine
 10
6915.9796706906
 20
5361.38952035
 30
0.0
 11
6916.5623656979
 21
5361.878352943
 31
0.0
  0
LINE
  5
3E4
330
1F
100
AcDbEntity
  8
0
  6
Continuous
 62
     7
100
AcDbLine
 10
6916.5623656979
 20
5361.878352943
 30
0.0
 11
6916.9224671594
 21
5362.5985856681
 31
0.0
  0
LINE
  5
3E5
330
1F
100
AcDbEntity
  8
0
  6
Continuous
 62
     7
100
AcDbLine
 10
6916.9224671594
 20
5362.5985856681
 30
0.0
 11
6916.9977478257
 21
5363.4256746202
 31
0.0
  0
LINE
  5
3E6
330
1F
100
AcDbEntity
  8
0
  6
Continuous
 62
     7
100
AcDbLine
 10
6916.9977478257
 20
5363.4256746202
 30
0.0
 11
6916.7751840821
 21
5364.2166133552
 31
0.0
  0
LINE
  5
3E7
330
1F
100
AcDbEntity
  8
0
  6
Continuous
 62
     7
100
AcDbLine
 10
6916.7751840821
 20
5364.2166133552
 30
0.0
 11
6915.2751735917
 21
5367.2166194349
 31
0.0
  0
LINE
  5
3E8
330
1F
100
AcDbEntity
  8
0
  6
Continuous
 62
     7
100
AcDbLine
 10
6915.2751735917
 20
5374.2166187196
 30
0.0
 11
6913.7751929036
 21
5371.2166126399
 31
0.0
  0
LINE
  5
3E9
330
1F
100
AcDbEntity
  8
0
  6
Continuous
 62
     7
100
AcDbLine
 10
6913.7751929036
 20
5371.2166126399
 30
0.0
 11
6913.55262916
 21
5370.4256739049
 31
0.0
  0
LINE
  5
3EA
330
1F
100
AcDbEntity
  8
0
  6
Continuous
 62
     7
100
AcDbLine
 10
6913.55262916
 20
5370.4256739049
 30
0.0
 11
6913.6279098264
 21
5369.5985849529
 31
0.0
  0
LINE
  5
3EB
330
1F
100
AcDbEntity
  8
0
  6
Continuous
 62
     7
100
AcDbLine
 10
6913.6279098264
 20
5369.5985849529
 30
0.0
 11
6913.9880112878
 21
5368.8783522277
 31
0.0
  0
LINE
  5
3EC
330
1F
100
AcDbEntity
  8
0
  6
Continuous
 62
     7
100
AcDbLine
 10
6913.9880112878
 20
5368.8783522277
 30
0.0
 11
6914.5707062951
 21
5368.3895196348
 31
0.0
  0
LINE
  5
3ED
330
1F
100
AcDbEntity
  8
0
  6
Continuous
 62
     7
100
AcDbLine
 10
6914.5707062951
 20
5368.3895196348
 30
0.0
 11
6915.2751735917
 21
5368.2166214614
 31
0.0
  0
LINE
  5
3EE
330
1F
100
AcDbEntity
  8
0
  6
Continuous
 62
     7
100
AcDbLine
 10
6915.2751735917
 20
5368.2166214614
 30
0.0
 11
6915.9796706906
 21
5368.3895196348
 31
0.0
  0
LINE
  5
3EF
330
1F
100
AcDbEntity
  8
0
  6
Continuous
 62
     7
100
AcDbLine
 10
6915.9796706906
 20
5368.3895196348
 30
0.0
 11
6916.5623656979
 21
5368.8783522277
 31
0.0
  0
LINE
  5
3F0
330
1F
100
AcDbEntity
  8
0
  6
Continuous
 62
     7
100
AcDbLine
 10
6916.5623656979
 20
5368.8783522277
 30
0.0
 11
6916.9224671594
 21
5369.5985849529
 31
0.0
  0
LINE
  5
3F1
330
1F
100
AcDbEntity
  8
0
  6
Continuous
 62
     7
100
AcDbLine
 10
6916.9224671594
 20
5369.5985849529
 30
0.0
 11
6916.9977478257
 21
5370.4256739049
 31
0.0
  0
LINE
  5
3F2
330
1F
100
AcDbEntity
  8
0
  6
Continuous
 62
     7
100
AcDbLine
 10
6916.9977478257
 20
5370.4256739049
 30
0.0
 11
6916.7751840821
 21
5371.2166126399
 31
0.0
  0
LINE
  5
3F3
330
1F
100
AcDbEntity
  8
0
  6
Continuous
 62
     7
100
AcDbLine
 10
6916.7751840821
 20
5371.2166126399
 30
0.0
 11
6915.2751735917
 21
5374.2166187196
 31
0.0
  0
LINE
  5
3F4
330
1F
100
AcDbEntity
  8
0
  6
Continuous
 62
     7
100
AcDbLine
 10
6907.432841467
 20
5367.3916484743
 30
0.0
 11
6905.39300661
 21
5364.8515518337
 31
0.0
  0
LINE
  5
3F5
330
1F
100
AcDbEntity
  8
0
  6
Continuous
 62
     7
100
AcDbLine
 10
6905.39300661
 20
5364.8515518337
 30
0.0
 11
6905.0237856379
 21
5364.1375030904
 31
0.0
  0
LINE
  5
3F6
330
1F
100
AcDbEntity
  8
0
  6
Continuous
 62
     7
100
AcDbLine
 10
6905.0237856379
 20
5364.1375030904
 30
0.0
 11
6904.9380145541
 21
5363.311770144
 31
0.0
  0
LINE
  5
3F7
330
1F
100
AcDbEntity
  8
0
  6
Continuous
 62
     7
100
AcDbLine
 10
6904.9380145541
 20
5363.311770144
 30
0.0
 11
6905.1505200139
 21
5362.5171508222
 31
0.0
  0
LINE
  5
3F8
330
1F
100
AcDbEntity
  8
0
  6
Continuous
 62
     7
100
AcDbLine
 10
6905.1505200139
 20
5362.5171508222
 30
0.0
 11
6905.6245408526
 21
5361.89101893
 31
0.0
  0
LINE
  5
3F9
330
1F
100
AcDbEntity
  8
0
  6
Continuous
 62
     7
100
AcDbLine
 10
6905.6245408526
 20
5361.89101893
 30
0.0
 11
6906.2781504861
 21
5361.5416612058
 31
0.0
  0
LINE
  5
3FA
330
1F
100
AcDbEntity
  8
0
  6
Continuous
 62
     7
100
AcDbLine
 10
6906.2781504861
 20
5361.5416612058
 30
0.0
 11
6906.9982938043
 21
5361.5294869571
 31
0.0
  0
LINE
  5
3FB
330
1F
100
AcDbEntity
  8
0
  6
Continuous
 62
     7
100
AcDbLine
 10
6906.9982938043
 20
5361.5294869571
 30
0.0
 11
6907.6604716054
 21
5361.8565674453
 31
0.0
  0
LINE
  5
3FC
330
1F
100
AcDbEntity
  8
0
  6
Continuous
 62
     7
100
AcDbLine
 10
6907.6604716054
 20
5361.8565674453
 30
0.0
 11
6908.150198268
 21
5362.466382566
 31
0.0
  0
LINE
  5
3FD
330
1F
100
AcDbEntity
  8
0
  6
Continuous
 62
     7
100
AcDbLine
 10
6908.150198268
 20
5362.466382566
 30
0.0
 11
6908.3827755919
 21
5363.2534768014
 31
0.0
  0
LINE
  5
3FE
330
1F
100
AcDbEntity
  8
0
  6
Continuous
 62
     7
100
AcDbLine
 10
6908.3827755919
 20
5363.2534768014
 30
0.0
 11
6908.3179853431
 21
5364.0817578464
 31
0.0
  0
LINE
  5
3FF
330
1F
100
AcDbEntity
  8
0
  6
Continuous
 62
     7
100
AcDbLine
 10
6908.3179853431
 20
5364.0817578464
 30
0.0
 11
6907.432841467
 21
5367.3916484743
 31
0.0
  0
LINE
  5
400
330
1F
100
AcDbEntity
  8
0
  6
Continuous
 62
     7
100
AcDbLine
 10
6908.7799958459
 20
5374.2166187196
 30
0.0
 11
6906.7401460877
 21
5371.676522079
 31
0.0
  0
LINE
  5
401
330
1F
100
AcDbEntity
  8
0
  6
Continuous
 62
     7
100
AcDbLine
 10
6906.7401460877
 20
5371.676522079
 30
0.0
 11
6906.3709400168
 21
5370.9624733358
 31
0.0
  0
LINE
  5
402
330
1F
100
AcDbEntity
  8
0
  6
Continuous
 62
     7
100
AcDbLine
 10
6906.3709400168
 20
5370.9624733358
 30
0.0
 11
6906.285168933
 21
5370.1367403894
 31
0.0
  0
LINE
  5
403
330
1F
100
AcDbEntity
  8
0
  6
Continuous
 62
     7
100
AcDbLine
 10
6906.285168933
 20
5370.1367403894
 30
0.0
 11
6906.4976594916
 21
5369.3421210676
 31
0.0
  0
LINE
  5
404
330
1F
100
AcDbEntity
  8
0
  6
Continuous
 62
     7
100
AcDbLine
 10
6906.4976594916
 20
5369.3421210676
 30
0.0
 11
6906.9716952315
 21
5368.7160040765
 31
0.0
  0
LINE
  5
405
330
1F
100
AcDbEntity
  8
0
  6
Continuous
 62
     7
100
AcDbLine
 10
6906.9716952315
 20
5368.7160040765
 30
0.0
 11
6907.6252899638
 21
5368.3666463523
 31
0.0
  0
LINE
  5
406
330
1F
100
AcDbEntity
  8
0
  6
Continuous
 62
     7
100
AcDbLine
 10
6907.6252899638
 20
5368.3666463523
 30
0.0
 11
6908.3454481831
 21
5368.3544572025
 31
0.0
  0
LINE
  5
407
330
1F
100
AcDbEntity
  8
0
  6
Continuous
 62
     7
100
AcDbLine
 10
6908.3454481831
 20
5368.3544572025
 30
0.0
 11
6909.0076259843
 21
5368.6815525918
 31
0.0
  0
LINE
  5
408
330
1F
100
AcDbEntity
  8
0
  6
Continuous
 62
     7
100
AcDbLine
 10
6909.0076259843
 20
5368.6815525918
 30
0.0
 11
6909.4973377457
 21
5369.2913677125
 31
0.0
  0
LINE
  5
409
330
1F
100
AcDbEntity
  8
0
  6
Continuous
 62
     7
100
AcDbLine
 10
6909.4973377457
 20
5369.2913677125
 30
0.0
 11
6909.7299150697
 21
5370.0784470468
 31
0.0
  0
LINE
  5
40A
330
1F
100
AcDbEntity
  8
0
  6
Continuous
 62
     7
100
AcDbLine
 10
6909.7299150697
 20
5370.0784470468
 30
0.0
 11
6909.665139722
 21
5370.9067280918
 31
0.0
  0
LINE
  5
40B
330
1F
100
AcDbEntity
  8
0
  6
Continuous
 62
     7
100
AcDbLine
 10
6909.665139722
 20
5370.9067280918
 30
0.0
 11
6908.7799958459
 21
5374.2166187196
 31
0.0
  0
LINE
  5
40C
330
1F
100
AcDbEntity
  8
0
  6
Continuous
 62
     7
100
AcDbLine
 10
6904.7385476104
 20
5353.7416930824
 30
0.0
 11
6902.6986978522
 21
5351.2016113429
 31
0.0
  0
LINE
  5
40D
330
1F
100
AcDbEntity
  8
0
  6
Continuous
 62
     7
100
AcDbLine
 10
6902.6986978522
 20
5351.2016113429
 30
0.0
 11
6902.3294917813
 21
5350.4875625997
 31
0.0
  0
LINE
  5
40E
330
1F
100
AcDbEntity
  8
0
  6
Continuous
 62
     7
100
AcDbLine
 10
6902.3294917813
 20
5350.4875625997
 30
0.0
 11
6902.2437057963
 21
5349.6618296533
 31
0.0
  0
LINE
  5
40F
330
1F
100
AcDbEntity
  8
0
  6
Continuous
 62
     7
100
AcDbLine
 10
6902.2437057963
 20
5349.6618296533
 30
0.0
 11
6902.4562112561
 21
5348.8672103315
 31
0.0
  0
LINE
  5
410
330
1F
100
AcDbEntity
  8
0
  6
Continuous
 62
     7
100
AcDbLine
 10
6902.4562112561
 20
5348.8672103315
 30
0.0
 11
6902.930246996
 21
5348.2410784393
 31
0.0
  0
LINE
  5
411
330
1F
100
AcDbEntity
  8
0
  6
Continuous
 62
     7
100
AcDbLine
 10
6902.930246996
 20
5348.2410784393
 30
0.0
 11
6903.5838417283
 21
5347.8917207151
 31
0.0
  0
LINE
  5
412
330
1F
100
AcDbEntity
  8
0
  6
Continuous
 62
     7
100
AcDbLine
 10
6903.5838417283
 20
5347.8917207151
 30
0.0
 11
6904.3039999476
 21
5347.8795315652
 31
0.0
  0
LINE
  5
413
330
1F
100
AcDbEntity
  8
0
  6
Continuous
 62
     7
100
AcDbLine
 10
6904.3039999476
 20
5347.8795315652
 30
0.0
 11
6904.9661777488
 21
5348.2066269546
 31
0.0
  0
LINE
  5
414
330
1F
100
AcDbEntity
  8
0
  6
Continuous
 62
     7
100
AcDbLine
 10
6904.9661777488
 20
5348.2066269546
 30
0.0
 11
6905.4558895102
 21
5348.8164420753
 31
0.0
  0
LINE
  5
415
330
1F
100
AcDbEntity
  8
0
  6
Continuous
 62
     7
100
AcDbLine
 10
6905.4558895102
 20
5348.8164420753
 30
0.0
 11
6905.6884668341
 21
5349.6035363107
 31
0.0
  0
LINE
  5
416
330
1F
100
AcDbEntity
  8
0
  6
Continuous
 62
     7
100
AcDbLine
 10
6905.6884668341
 20
5349.6035363107
 30
0.0
 11
6905.6236914864
 21
5350.4318173557
 31
0.0
  0
LINE
  5
417
330
1F
100
AcDbEntity
  8
0
  6
Continuous
 62
     7
100
AcDbLine
 10
6905.6236914864
 20
5350.4318173557
 30
0.0
 11
6904.7385476104
 21
5353.7416930824
 31
0.0
  0
LINE
  5
418
330
1F
100
AcDbEntity
  8
0
  6
Continuous
 62
     7
100
AcDbLine
 10
6906.0857019893
 20
5360.5666782289
 30
0.0
 11
6904.0458522311
 21
5358.0265815883
 31
0.0
  0
LINE
  5
419
330
1F
100
AcDbEntity
  8
0
  6
Continuous
 62
     7
100
AcDbLine
 10
6904.0458522311
 20
5358.0265815883
 30
0.0
 11
6903.676631259
 21
5357.3125328451
 31
0.0
  0
LINE
  5
41A
330
1F
100
AcDbEntity
  8
0
  6
Continuous
 62
     7
100
AcDbLine
 10
6903.676631259
 20
5357.3125328451
 30
0.0
 11
6903.5908601752
 21
5356.4867998987
 31
0.0
  0
LINE
  5
41B
330
1F
100
AcDbEntity
  8
0
  6
Continuous
 62
     7
100
AcDbLine
 10
6903.5908601752
 20
5356.4867998987
 30
0.0
 11
6903.803365635
 21
5355.6921805768
 31
0.0
  0
LINE
  5
41C
330
1F
100
AcDbEntity
  8
0
  6
Continuous
 62
     7
100
AcDbLine
 10
6903.803365635
 20
5355.6921805768
 30
0.0
 11
6904.2774013749
 21
5355.0660486846
 31
0.0
  0
LINE
  5
41D
330
1F
100
AcDbEntity
  8
0
  6
Continuous
 62
     7
100
AcDbLine
 10
6904.2774013749
 20
5355.0660486846
 30
0.0
 11
6904.9309961072
 21
5354.7166909604
 31
0.0
  0
LINE
  5
41E
330
1F
100
AcDbEntity
  8
0
  6
Continuous
 62
     7
100
AcDbLine
 10
6904.9309961072
 20
5354.7166909604
 30
0.0
 11
6905.6511394254
 21
5354.7045167118
 31
0.0
  0
LINE
  5
41F
330
1F
100
AcDbEntity
  8
0
  6
Continuous
 62
     7
100
AcDbLine
 10
6905.6511394254
 20
5354.7045167118
 30
0.0
 11
6906.3133321277
 21
5355.0315972
 31
0.0
  0
LINE
  5
420
330
1F
100
AcDbEntity
  8
0
  6
Continuous
 62
     7
100
AcDbLine
 10
6906.3133321277
 20
5355.0315972
 30
0.0
 11
6906.8030438891
 21
5355.6414123207
 31
0.0
  0
LINE
  5
421
330
1F
100
AcDbEntity
  8
0
  6
Continuous
 62
     7
100
AcDbLine
 10
6906.8030438891
 20
5355.6414123207
 30
0.0
 11
6907.035621213
 21
5356.4285065561
 31
0.0
  0
LINE
  5
422
330
1F
100
AcDbEntity
  8
0
  6
Continuous
 62
     7
100
AcDbLine
 10
6907.035621213
 20
5356.4285065561
 30
0.0
 11
6906.9708309642
 21
5357.256787601
 31
0.0
  0
LINE
  5
423
330
1F
100
AcDbEntity
  8
0
  6
Continuous
 62
     7
100
AcDbLine
 10
6906.9708309642
 20
5357.256787601
 30
0.0
 11
6906.0857019893
 21
5360.5666782289
 31
0.0
  0
LINE
  5
424
330
1F
100
AcDbEntity
  8
0
  6
Continuous
 62
     7
100
AcDbLine
 10
6923.5505334607
 20
5367.3916484743
 30
0.0
 11
6922.6654044858
 21
5364.0817578464
 31
0.0
  0
LINE
  5
425
330
1F
100
AcDbEntity
  8
0
  6
Continuous
 62
     7
100
AcDbLine
 10
6922.6654044858
 20
5364.0817578464
 30
0.0
 11
6922.6006142369
 21
5363.2534768014
 31
0.0
  0
LINE
  5
426
330
1F
100
AcDbEntity
  8
0
  6
Continuous
 62
     7
100
AcDbLine
 10
6922.6006142369
 20
5363.2534768014
 30
0.0
 11
6922.8331915608
 21
5362.466382566
 31
0.0
  0
LINE
  5
427
330
1F
100
AcDbEntity
  8
0
  6
Continuous
 62
     7
100
AcDbLine
 10
6922.8331915608
 20
5362.466382566
 30
0.0
 11
6923.3229033223
 21
5361.8565674453
 31
0.0
  0
LINE
  5
428
330
1F
100
AcDbEntity
  8
0
  6
Continuous
 62
     7
100
AcDbLine
 10
6923.3229033223
 20
5361.8565674453
 30
0.0
 11
6923.9850811234
 21
5361.5294869571
 31
0.0
  0
LINE
  5
429
330
1F
100
AcDbEntity
  8
0
  6
Continuous
 62
     7
100
AcDbLine
 10
6923.9850811234
 20
5361.5294869571
 30
0.0
 11
6924.7052542439
 21
5361.5416612058
 31
0.0
  0
LINE
  5
42A
330
1F
100
AcDbEntity
  8
0
  6
Continuous
 62
     7
100
AcDbLine
 10
6924.7052542439
 20
5361.5416612058
 30
0.0
 11
6925.3588489762
 21
5361.89101893
 31
0.0
  0
LINE
  5
42B
330
1F
100
AcDbEntity
  8
0
  6
Continuous
 62
     7
100
AcDbLine
 10
6925.3588489762
 20
5361.89101893
 30
0.0
 11
6925.8328549138
 21
5362.5171508222
 31
0.0
  0
LINE
  5
42C
330
1F
100
AcDbEntity
  8
0
  6
Continuous
 62
     7
100
AcDbLine
 10
6925.8328549138
 20
5362.5171508222
 30
0.0
 11
6926.0453752747
 21
5363.311770144
 31
0.0
  0
LINE
  5
42D
330
1F
100
AcDbEntity
  8
0
  6
Continuous
 62
     7
100
AcDbLine
 10
6926.0453752747
 20
5363.311770144
 30
0.0
 11
6925.9596041909
 21
5364.1375030904
 31
0.0
  0
LINE
  5
42E
330
1F
100
AcDbEntity
  8
0
  6
Continuous
 62
     7
100
AcDbLine
 10
6925.9596041909
 20
5364.1375030904
 30
0.0
 11
6925.5903832188
 21
5364.8515518337
 31
0.0
  0
LINE
  5
42F
330
1F
100
AcDbEntity
  8
0
  6
Continuous
 62
     7
100
AcDbLine
 10
6925.5903832188
 20
5364.8515518337
 30
0.0
 11
6923.5505334607
 21
5367.3916484743
 31
0.0
  0
LINE
  5
430
330
1F
100
AcDbEntity
  8
0
  6
Continuous
 62
     7
100
AcDbLine
 10
6922.2033790818
 20
5374.2166187196
 30
0.0
 11
6921.3182501069
 21
5370.9067280918
 31
0.0
  0
LINE
  5
431
330
1F
100
AcDbEntity
  8
0
  6
Continuous
 62
     7
100
AcDbLine
 10
6921.3182501069
 20
5370.9067280918
 30
0.0
 11
6921.253459858
 21
5370.0784470468
 31
0.0
  0
LINE
  5
432
330
1F
100
AcDbEntity
  8
0
  6
Continuous
 62
     7
100
AcDbLine
 10
6921.253459858
 20
5370.0784470468
 30
0.0
 11
6921.4860371819
 21
5369.2913677125
 31
0.0
  0
LINE
  5
433
330
1F
100
AcDbEntity
  8
0
  6
Continuous
 62
     7
100
AcDbLine
 10
6921.4860371819
 20
5369.2913677125
 30
0.0
 11
6921.9757489434
 21
5368.6815525918
 31
0.0
  0
LINE
  5
434
330
1F
100
AcDbEntity
  8
0
  6
Continuous
 62
     7
100
AcDbLine
 10
6921.9757489434
 20
5368.6815525918
 30
0.0
 11
6922.6379267445
 21
5368.3544572025
 31
0.0
  0
LINE
  5
435
330
1F
100
AcDbEntity
  8
0
  6
Continuous
 62
     7
100
AcDbLine
 10
6922.6379267445
 20
5368.3544572025
 30
0.0
 11
6923.358099865
 21
5368.3666463523
 31
0.0
  0
LINE
  5
436
330
1F
100
AcDbEntity
  8
0
  6
Continuous
 62
     7
100
AcDbLine
 10
6923.358099865
 20
5368.3666463523
 30
0.0
 11
6924.0116945973
 21
5368.7160040765
 31
0.0
  0
LINE
  5
437
330
1F
100
AcDbEntity
  8
0
  6
Continuous
 62
     7
100
AcDbLine
 10
6924.0116945973
 20
5368.7160040765
 30
0.0
 11
6924.4857303372
 21
5369.3421210676
 31
0.0
  0
LINE
  5
438
330
1F
100
AcDbEntity
  8
0
  6
Continuous
 62
     7
100
AcDbLine
 10
6924.4857303372
 20
5369.3421210676
 30
0.0
 11
6924.6982208958
 21
5370.1367403894
 31
0.0
  0
LINE
  5
439
330
1F
100
AcDbEntity
  8
0
  6
Continuous
 62
     7
100
AcDbLine
 10
6924.6982208958
 20
5370.1367403894
 30
0.0
 11
6924.612449812
 21
5370.9624733358
 31
0.0
  0
LINE
  5
43A
330
1F
100
AcDbEntity
  8
0
  6
Continuous
 62
     7
100
AcDbLine
 10
6924.612449812
 20
5370.9624733358
 30
0.0
 11
6924.24322884
 21
5371.676522079
 31
0.0
  0
LINE
  5
43B
330
1F
100
AcDbEntity
  8
0
  6
Continuous
 62
     7
100
AcDbLine
 10
6924.24322884
 20
5371.676522079
 30
0.0
 11
6922.2033790818
 21
5374.2166187196
 31
0.0
  0
LINE
  5
43C
330
1F
100
AcDbEntity
  8
0
  6
Continuous
 62
     7
100
AcDbLine
 10
6926.2448422185
 20
5353.7416930824
 30
0.0
 11
6925.3596834412
 21
5350.4318173557
 31
0.0
  0
LINE
  5
43D
330
1F
100
AcDbEntity
  8
0
  6
Continuous
 62
     7
100
AcDbLine
 10
6925.3596834412
 20
5350.4318173557
 30
0.0
 11
6925.2949229947
 21
5349.6035363107
 31
0.0
  0
LINE
  5
43E
330
1F
100
AcDbEntity
  8
0
  6
Continuous
 62
     7
100
AcDbLine
 10
6925.2949229947
 20
5349.6035363107
 30
0.0
 11
6925.5275003186
 21
5348.8164420753
 31
0.0
  0
LINE
  5
43F
330
1F
100
AcDbEntity
  8
0
  6
Continuous
 62
     7
100
AcDbLine
 10
6925.5275003186
 20
5348.8164420753
 30
0.0
 11
6926.0172120801
 21
5348.2066269546
 31
0.0
  0
LINE
  5
440
330
1F
100
AcDbEntity
  8
0
  6
Continuous
 62
     7
100
AcDbLine
 10
6926.0172120801
 20
5348.2066269546
 30
0.0
 11
6926.6793898812
 21
5347.8795315652
 31
0.0
  0
LINE
  5
441
330
1F
100
AcDbEntity
  8
0
  6
Continuous
 62
     7
100
AcDbLine
 10
6926.6793898812
 20
5347.8795315652
 30
0.0
 11
6927.3995331994
 21
5347.8917207151
 31
0.0
  0
LINE
  5
442
330
1F
100
AcDbEntity
  8
0
  6
Continuous
 62
     7
100
AcDbLine
 10
6927.3995331994
 20
5347.8917207151
 30
0.0
 11
6928.0531279317
 21
5348.2410784393
 31
0.0
  0
LINE
  5
443
330
1F
100
AcDbEntity
  8
0
  6
Continuous
 62
     7
100
AcDbLine
 10
6928.0531279317
 20
5348.2410784393
 30
0.0
 11
6928.5271636716
 21
5348.8672103315
 31
0.0
  0
LINE
  5
444
330
1F
100
AcDbEntity
  8
0
  6
Continuous
 62
     7
100
AcDbLine
 10
6928.5271636716
 20
5348.8672103315
 30
0.0
 11
6928.7396840325
 21
5349.6618296533
 31
0.0
  0
LINE
  5
445
330
1F
100
AcDbEntity
  8
0
  6
Continuous
 62
     7
100
AcDbLine
 10
6928.7396840325
 20
5349.6618296533
 30
0.0
 11
6928.6539129487
 21
5350.4875625997
 31
0.0
  0
LINE
  5
446
330
1F
100
AcDbEntity
  8
0
  6
Continuous
 62
     7
100
AcDbLine
 10
6928.6539129487
 20
5350.4875625997
 30
0.0
 11
6928.2846919766
 21
5351.2016113429
 31
0.0
  0
LINE
  5
447
330
1F
100
AcDbEntity
  8
0
  6
Continuous
 62
     7
100
AcDbLine
 10
6928.2846919766
 20
5351.2016113429
 30
0.0
 11
6926.2448422185
 21
5353.7416930824
 31
0.0
  0
LINE
  5
448
330
1F
100
AcDbEntity
  8
0
  6
Continuous
 62
     7
100
AcDbLine
 10
6924.8976878396
 20
5360.5666782289
 30
0.0
 11
6924.0125588647
 21
5357.256787601
 31
0.0
  0
LINE
  5
449
330
1F
100
AcDbEntity
  8
0
  6
Continuous
 62
     7
100
AcDbLine
 10
6924.0125588647
 20
5357.256787601
 30
0.0
 11
6923.9477686158
 21
5356.4285065561
 31
0.0
  0
LINE
  5
44A
330
1F
100
AcDbEntity
  8
0
  6
Continuous
 62
     7
100
AcDbLine
 10
6923.9477686158
 20
5356.4285065561
 30
0.0
 11
6924.1803459397
 21
5355.6414123207
 31
0.0
  0
LINE
  5
44B
330
1F
100
AcDbEntity
  8
0
  6
Continuous
 62
     7
100
AcDbLine
 10
6924.1803459397
 20
5355.6414123207
 30
0.0
 11
6924.6700577012
 21
5355.0315972
 31
0.0
  0
LINE
  5
44C
330
1F
100
AcDbEntity
  8
0
  6
Continuous
 62
     7
100
AcDbLine
 10
6924.6700577012
 20
5355.0315972
 30
0.0
 11
6925.3322355023
 21
5354.7045167118
 31
0.0
  0
LINE
  5
44D
330
1F
100
AcDbEntity
  8
0
  6
Continuous
 62
     7
100
AcDbLine
 10
6925.3322355023
 20
5354.7045167118
 30
0.0
 11
6926.0523788205
 21
5354.7166909604
 31
0.0
  0
LINE
  5
44E
330
1F
100
AcDbEntity
  8
0
  6
Continuous
 62
     7
100
AcDbLine
 10
6926.0523788205
 20
5354.7166909604
 30
0.0
 11
6926.7060033551
 21
5355.0660486846
 31
0.0
  0
LINE
  5
44F
330
1F
100
AcDbEntity
  8
0
  6
Continuous
 62
     7
100
AcDbLine
 10
6926.7060033551
 20
5355.0660486846
 30
0.0
 11
6927.1800092927
 21
5355.6921805768
 31
0.0
  0
LINE
  5
450
330
1F
100
AcDbEntity
  8
0
  6
Continuous
 62
     7
100
AcDbLine
 10
6927.1800092927
 20
5355.6921805768
 30
0.0
 11
6927.3925296536
 21
5356.4867998987
 31
0.0
  0
LINE
  5
451
330
1F
100
AcDbEntity
  8
0
  6
Continuous
 62
     7
100
AcDbLine
 10
6927.3925296536
 20
5356.4867998987
 30
0.0
 11
6927.3067585698
 21
5357.3125328451
 31
0.0
  0
LINE
  5
452
330
1F
100
AcDbEntity
  8
0
  6
Continuous
 62
     7
100
AcDbLine
 10
6927.3067585698
 20
5357.3125328451
 30
0.0
 11
6926.9375375977
 21
5358.0265815883
 31
0.0
  0
LINE
  5
453
330
1F
100
AcDbEntity
  8
0
  6
Continuous
 62
     7
100
AcDbLine
 10
6926.9375375977
 20
5358.0265815883
 30
0.0
 11
6924.8976878396
 21
5360.5666782289
 31
0.0
  0
LINE
  5
454
330
1F
100
AcDbEntity
  8
0
  6
Continuous
 62
     7
100
AcDbLine
 10
6908.0227039328
 20
5324.0754704504
 30
0.0
 11
6908.0227039328
 21
5340.8754717141
 31
0.0
  0
LINE
  5
455
330
1F
100
AcDbEntity
  8
0
  6
Continuous
 62
     7
100
AcDbLine
 10
6908.0227039328
 20
5340.8754717141
 30
0.0
 11
6910.1011625996
 21
5340.8754717141
 31
0.0
  0
LINE
  5
456
330
1F
100
AcDbEntity
  8
0
  6
Continuous
 62
     7
100
AcDbLine
 10
6910.1011625996
 20
5340.8754717141
 30
0.0
 11
6910.1011625996
 21
5307.2754691868
 31
0.0
  0
LINE
  5
457
330
1F
100
AcDbEntity
  8
0
  6
Continuous
 62
     7
100
AcDbLine
 10
6910.1011625996
 20
5307.2754691868
 30
0.0
 11
6914.6478049031
 21
5307.2754691868
 31
0.0
  0
LINE
  5
458
330
1F
100
AcDbEntity
  8
0
  6
Continuous
 62
     7
100
AcDbLine
 10
6914.6478049031
 20
5307.2754691868
 30
0.0
 11
6914.6478049031
 21
5330.0754751592
 31
0.0
  0
LINE
  5
459
330
1F
100
AcDbEntity
  8
0
  6
Continuous
 62
     7
100
AcDbLine
 10
6914.6478049031
 20
5330.0754751592
 30
0.0
 11
6916.4402357808
 21
5330.0754751592
 31
0.0
  0
LINE
  5
45A
330
1F
100
AcDbEntity
  8
0
  6
Continuous
 62
     7
100
AcDbLine
 10
6916.4402357808
 20
5330.0754751592
 30
0.0
 11
6916.4402357808
 21
5307.2754691868
 31
0.0
  0
LINE
  5
45B
330
1F
100
AcDbEntity
  8
0
  6
Continuous
 62
     7
100
AcDbLine
 10
6916.4402357808
 20
5307.2754691868
 30
0.0
 11
6920.9868780843
 21
5307.2754691868
 31
0.0
  0
LINE
  5
45C
330
1F
100
AcDbEntity
  8
0
  6
Continuous
 62
     7
100
AcDbLine
 10
6920.9868780843
 20
5307.2754691868
 30
0.0
 11
6920.9868780843
 21
5340.8754717141
 31
0.0
  0
LINE
  5
45D
330
1F
100
AcDbEntity
  8
0
  6
Continuous
 62
     7
100
AcDbLine
 10
6920.9868780843
 20
5340.8754717141
 30
0.0
 11
6923.0653218499
 21
5340.8754717141
 31
0.0
  0
LINE
  5
45E
330
1F
100
AcDbEntity
  8
0
  6
Continuous
 62
     7
100
AcDbLine
 10
6923.0653218499
 20
5340.8754717141
 30
0.0
 11
6923.0653218499
 21
5324.0754704504
 31
0.0
  0
LINE
  5
45F
330
1F
100
AcDbEntity
  8
0
  6
Continuous
 62
     7
100
AcDbLine
 10
6926.4690450898
 20
5327.3147221237
 30
0.0
 11
6926.4690450898
 21
5344.4754730492
 31
0.0
  0
LINE
  5
460
330
1F
100
AcDbEntity
  8
0
  6
Continuous
 62
     7
100
AcDbLine
 10
6923.870968031
 20
5347.4754716783
 30
0.0
 11
6907.2432837954
 21
5347.4754716783
 31
0.0
  0
LINE
  5
461
330
1F
100
AcDbEntity
  8
0
  6
Continuous
 62
     7
100
AcDbLine
 10
6904.6452067366
 20
5344.4754730492
 30
0.0
 11
6904.6452067366
 21
5327.3204665213
 31
0.0
  0
LINE
  5
462
330
1F
100
AcDbEntity
  8
0
  6
Continuous
 62
     7
100
AcDbLine
 10
6977.422999548
 20
5191.1539572804
 30
0.0
 11
6977.3729912511
 21
5191.1539572804
 31
0.0
  0
LINE
  5
463
330
1F
100
AcDbEntity
  8
0
  6
Continuous
 62
     7
100
AcDbLine
 10
6968.7627426854
 20
5181.1539593666
 30
0.0
 11
6968.7127343884
 21
5181.1539593666
 31
0.0
  0
LINE
  5
464
330
1F
100
AcDbEntity
  8
0
  6
Continuous
 62
     7
100
AcDbLine
 10
6968.7627426854
 20
5401.1539544492
 30
0.0
 11
6968.7127343884
 21
5401.1539544492
 31
0.0
  0
LINE
  5
465
330
1F
100
AcDbEntity
  8
0
  6
Continuous
 62
     7
100
AcDbLine
 10
6977.422999548
 20
5391.153963986
 30
0.0
 11
6977.3729912511
 21
5391.153963986
 31
0.0
  0
LINE
  5
466
330
1F
100
AcDbEntity
  8
0
  6
Continuous
 62
     7
100
AcDbLine
 10
6968.7627426854
 20
5281.1539571314
 30
0.0
 11
6968.7127343884
 21
5281.1539571314
 31
0.0
  0
LINE
  5
467
330
1F
100
AcDbEntity
  8
0
  6
Continuous
 62
     7
100
AcDbLine
 10
6977.422999548
 20
5271.1539592176
 30
0.0
 11
6977.3729912511
 21
5271.1539592176
 31
0.0
  0
LINE
  5
468
330
1F
100
AcDbEntity
  8
0
  6
Continuous
 62
     7
100
AcDbLine
 10
6977.422999548
 20
5311.1539583235
 30
0.0
 11
6977.3729912511
 21
5311.1539583235
 31
0.0
  0
LINE
  5
469
330
1F
100
AcDbEntity
  8
0
  6
Continuous
 62
     7
100
AcDbLine
 10
6968.7627426854
 20
5301.1539604097
 30
0.0
 11
6968.7127343884
 21
5301.1539604097
 31
0.0
  0
LINE
  5
46A
330
1F
100
AcDbEntity
  8
0
  6
Continuous
 62
     7
100
AcDbLine
 10
6951.6244403592
 20
5247.1587702214
 30
0.0
 11
6951.6244403592
 21
5232.5507800608
 31
0.0
  0
LINE
  5
46B
330
1F
100
AcDbEntity
  8
0
  6
Continuous
 62
     7
100
AcDbLine
 10
6938.9735631219
 20
5258.7976555853
 30
0.0
 11
6938.9735631219
 21
5247.1587702214
 31
0.0
  0
LINE
  5
46C
330
1F
100
AcDbEntity
  8
0
  6
Continuous
 62
     7
100
AcDbLine
 10
6951.6244403592
 20
5273.4056438833
 30
0.0
 11
6951.6244403592
 21
5258.7976555853
 31
0.0
  0
LINE
  5
46D
330
1F
100
AcDbEntity
  8
0
  6
Continuous
 62
     7
100
AcDbLine
 10
6951.2226156464
 20
5366.8887491851
 30
0.0
 11
6951.2226156464
 21
5352.2807534366
 31
0.0
  0
LINE
  5
46E
330
1F
100
AcDbEntity
  8
0
  6
Continuous
 62
     7
100
AcDbLine
 10
6938.5717086068
 20
5378.5276289611
 30
0.0
 11
6938.5717086068
 21
5366.8887491851
 31
0.0
  0
LINE
  5
46F
330
1F
100
AcDbEntity
  8
0
  6
Continuous
 62
     7
100
AcDbLine
 10
6951.2226156464
 20
5393.1356247096
 30
0.0
 11
6951.2226156464
 21
5378.5276289611
 31
0.0
  0
LINE
  5
470
330
1F
100
AcDbEntity
  8
0
  6
Continuous
 62
     7
100
AcDbLine
 10
6951.6244403592
 20
5258.7976555853
 30
0.0
 11
6951.5744618646
 21
5258.7976555853
 31
0.0
  0
LINE
  5
471
330
1F
100
AcDbEntity
  8
0
  6
Continuous
 62
     7
100
AcDbLine
 10
6951.6244403592
 20
5247.1587702214
 30
0.0
 11
6951.5744618646
 21
5247.1587702214
 31
0.0
  0
LINE
  5
472
330
1F
100
AcDbEntity
  8
0
  6
Continuous
 62
     7
100
AcDbLine
 10
6951.2226156464
 20
5366.8887491851
 30
0.0
 11
6951.1726073495
 21
5366.8887491851
 31
0.0
  0
LINE
  5
473
330
1F
100
AcDbEntity
  8
0
  6
Continuous
 62
     7
100
AcDbLine
 10
6951.2226156464
 20
5378.5276289611
 30
0.0
 11
6951.1726073495
 21
5378.5276289611
 31
0.0
  0
LINE
  5
474
330
1F
100
AcDbEntity
  8
0
  6
Continuous
 62
     7
100
AcDbLine
 10
6894.0939627162
 20
5245.7713454544
 30
0.0
 11
6894.0439544192
 21
5245.7713454543
 31
0.0
  0
LINE
  5
475
330
1F
100
AcDbEntity
  8
0
  6
Continuous
 62
     7
100
AcDbLine
 10
6916.4881579152
 20
5241.3744244307
 30
0.0
 11
6916.329043316
 21
5241.376706171
 31
0.0
  0
LINE
  5
476
330
1F
100
AcDbEntity
  8
0
  6
Continuous
 62
     7
100
AcDbLine
 10
6916.329043316
 20
5241.376706171
 30
0.0
 11
6914.9039260617
 21
5241.6040718137
 31
0.0
  0
LINE
  5
477
330
1F
100
AcDbEntity
  8
0
  6
Continuous
 62
     7
100
AcDbLine
 10
6914.9039260617
 20
5241.6040718137
 30
0.0
 11
6913.5586194268
 21
5242.1927552252
 31
0.0
  0
LINE
  5
478
330
1F
100
AcDbEntity
  8
0
  6
Continuous
 62
     7
100
AcDbLine
 10
6913.5586194268
 20
5242.1927552252
 30
0.0
 11
6912.3609087935
 21
5243.1130919187
 31
0.0
  0
LINE
  5
479
330
1F
100
AcDbEntity
  8
0
  6
Continuous
 62
     7
100
AcDbLine
 10
6912.3609087935
 20
5243.1130919187
 30
0.0
 11
6911.3711587659
 21
5244.318713206
 31
0.0
  0
LINE
  5
47A
330
1F
100
AcDbEntity
  8
0
  6
Continuous
 62
     7
100
AcDbLine
 10
6911.3711587659
 20
5244.318713206
 30
0.0
 11
6910.6392286292
 21
5245.7488763659
 31
0.0
  0
LINE
  5
47B
330
1F
100
AcDbEntity
  8
0
  6
Continuous
 62
     7
100
AcDbLine
 10
6910.6392286292
 20
5245.7488763659
 30
0.0
 11
6910.2019838563
 21
5247.3315193831
 31
0.0
  0
LINE
  5
47C
330
1F
100
AcDbEntity
  8
0
  6
Continuous
 62
     7
100
AcDbLine
 10
6910.2019838563
 20
5247.3315193831
 30
0.0
 11
6910.0814781657
 21
5248.9869061439
 31
0.0
  0
LINE
  5
47D
330
1F
100
AcDbEntity
  8
0
  6
Continuous
 62
     7
100
AcDbLine
 10
6910.0814781657
 20
5248.9869061439
 30
0.0
 11
6910.2837465278
 21
5250.6316273987
 31
0.0
  0
LINE
  5
47E
330
1F
100
AcDbEntity
  8
0
  6
Continuous
 62
     7
100
AcDbLine
 10
6910.2837465278
 20
5250.6316273987
 30
0.0
 11
6910.7986412516
 21
5252.1828177898
 31
0.0
  0
LINE
  5
47F
330
1F
100
AcDbEntity
  8
0
  6
Continuous
 62
     7
100
AcDbLine
 10
6922.2671560517
 20
5251.8525186508
 30
0.0
 11
6922.7147273293
 21
5250.2737294465
 31
0.0
  0
LINE
  5
480
330
1F
100
AcDbEntity
  8
0
  6
Continuous
 62
     7
100
AcDbLine
 10
6922.7147273293
 20
5250.2737294465
 30
0.0
 11
6922.8460363618
 21
5248.6194397836
 31
0.0
  0
LINE
  5
481
330
1F
100
AcDbEntity
  8
0
  6
Continuous
 62
     7
100
AcDbLine
 10
6922.8460363618
 20
5248.6194397836
 30
0.0
 11
6922.6545266381
 21
5246.9730030327
 31
0.0
  0
LINE
  5
482
330
1F
100
AcDbEntity
  8
0
  6
Continuous
 62
     7
100
AcDbLine
 10
6922.6545266381
 20
5246.9730030327
 30
0.0
 11
6922.1497945062
 21
5245.4173702329
 31
0.0
  0
LINE
  5
483
330
1F
100
AcDbEntity
  8
0
  6
Continuous
 62
     7
100
AcDbLine
 10
6922.1497945062
 20
5245.4173702329
 30
0.0
 11
6921.3572613469
 21
5244.0309233545
 31
0.0
  0
LINE
  5
484
330
1F
100
AcDbEntity
  8
0
  6
Continuous
 62
     7
100
AcDbLine
 10
6921.3572613469
 20
5244.0309233545
 30
0.0
 11
6920.316921877
 21
5242.8835153162
 31
0.0
  0
LINE
  5
485
330
1F
100
AcDbEntity
  8
0
  6
Continuous
 62
     7
100
AcDbLine
 10
6920.316921877
 20
5242.8835153162
 30
0.0
 11
6919.0811387769
 21
5242.0329588979
 31
0.0
  0
LINE
  5
486
330
1F
100
AcDbEntity
  8
0
  6
Continuous
 62
     7
100
AcDbLine
 10
6919.0811387769
 20
5242.0329588979
 30
0.0
 11
6917.712169098
 21
5241.5221098392
 31
0.0
  0
LINE
  5
487
330
1F
100
AcDbEntity
  8
0
  6
Continuous
 62
     7
100
AcDbLine
 10
6917.712169098
 20
5241.5221098392
 30
0.0
 11
6916.279035019
 21
5241.376706171
 31
0.0
  0
LINE
  5
488
330
1F
100
AcDbEntity
  8
0
  6
Continuous
 62
     7
100
AcDbLine
 10
6916.279035019
 20
5241.376706171
 30
0.0
 11
6914.8539177647
 21
5241.6040718137
 31
0.0
  0
LINE
  5
489
330
1F
100
AcDbEntity
  8
0
  6
Continuous
 62
     7
100
AcDbLine
 10
6914.8539177647
 20
5241.6040718137
 30
0.0
 11
6913.5086111298
 21
5242.1927552252
 31
0.0
  0
LINE
  5
48A
330
1F
100
AcDbEntity
  8
0
  6
Continuous
 62
     7
100
AcDbLine
 10
6913.5086111298
 20
5242.1927552252
 30
0.0
 11
6912.3109153977
 21
5243.1130919187
 31
0.0
  0
LINE
  5
48B
330
1F
100
AcDbEntity
  8
0
  6
Continuous
 62
     7
100
AcDbLine
 10
6912.3109153977
 20
5243.1130919187
 30
0.0
 11
6911.3211653701
 21
5244.318713206
 31
0.0
  0
LINE
  5
48C
330
1F
100
AcDbEntity
  8
0
  6
Continuous
 62
     7
100
AcDbLine
 10
6911.3211653701
 20
5244.318713206
 30
0.0
 11
6910.5892203322
 21
5245.7488763659
 31
0.0
  0
LINE
  5
48D
330
1F
100
AcDbEntity
  8
0
  6
Continuous
 62
     7
100
AcDbLine
 10
6910.5892203322
 20
5245.7488763659
 30
0.0
 11
6910.1519904605
 21
5247.3315193831
 31
0.0
  0
LINE
  5
48E
330
1F
100
AcDbEntity
  8
0
  6
Continuous
 62
     7
100
AcDbLine
 10
6910.1519904605
 20
5247.3315193831
 30
0.0
 11
6910.0314698687
 21
5248.9869061439
 31
0.0
  0
LINE
  5
48F
330
1F
100
AcDbEntity
  8
0
  6
Continuous
 62
     7
100
AcDbLine
 10
6910.0314698687
 20
5248.9869061439
 30
0.0
 11
6910.2337531319
 21
5250.6316273987
 31
0.0
  0
LINE
  5
490
330
1F
100
AcDbEntity
  8
0
  6
Continuous
 62
     7
100
AcDbLine
 10
6910.2337531319
 20
5250.6316273987
 30
0.0
 11
6910.7486329547
 21
5252.1828177898
 31
0.0
  0
LINE
  5
491
330
1F
100
AcDbEntity
  8
0
  6
Continuous
 62
     7
100
AcDbLine
 10
6932.5730673543
 20
5245.9063779145
 30
0.0
 11
6932.5230590573
 21
5245.9063779145
 31
0.0
  0
LINE
  5
492
330
1F
100
AcDbEntity
  8
0
  6
Continuous
 62
     7
100
AcDbLine
 10
6922.3171345464
 20
5251.8525186508
 30
0.0
 11
6922.2671560517
 21
5251.8525186508
 31
0.0
  0
LINE
  5
493
330
1F
100
AcDbEntity
  8
0
  6
Continuous
 62
     7
100
AcDbLine
 10
6925.9830586186
 20
5229.3120196602
 30
0.0
 11
6925.933080124
 21
5229.3120196602
 31
0.0
  0
LINE
  5
494
330
1F
100
AcDbEntity
  8
0
  6
Continuous
 62
     7
100
AcDbLine
 10
6925.9830586186
 20
5229.3120196602
 30
0.0
 11
6926.8557302228
 21
5226.0488392833
 31
0.0
  0
LINE
  5
495
330
1F
100
AcDbEntity
  8
0
  6
Continuous
 62
     7
100
AcDbLine
 10
6925.4096917382
 20
5350.4318173557
 30
0.0
 11
6925.3596834412
 21
5350.4318173557
 31
0.0
  0
LINE
  5
496
330
1F
100
AcDbEntity
  8
0
  6
Continuous
 62
     7
100
AcDbLine
 10
6926.2823633424
 20
5353.6949928432
 30
0.0
 11
6925.4096917382
 21
5350.4318173557
 31
0.0
  0
LINE
  5
497
330
1F
100
AcDbEntity
  8
0
  6
Continuous
 62
     7
100
AcDbLine
 10
6924.6359042397
 20
5222.4870474213
 30
0.0
 11
6924.5859257451
 21
5222.4870474213
 31
0.0
  0
LINE
  5
498
330
1F
100
AcDbEntity
  8
0
  6
Continuous
 62
     7
100
AcDbLine
 10
6924.6359042397
 20
5222.4870474213
 30
0.0
 11
6925.5085758439
 21
5219.2238669424
 31
0.0
  0
LINE
  5
499
330
1F
100
AcDbEntity
  8
0
  6
Continuous
 62
     7
100
AcDbLine
 10
6924.0625373593
 20
5357.256787601
 30
0.0
 11
6924.0125588647
 21
5357.256787601
 31
0.0
  0
LINE
  5
49A
330
1F
100
AcDbEntity
  8
0
  6
Continuous
 62
     7
100
AcDbLine
 10
6924.9352089635
 20
5360.5199630886
 30
0.0
 11
6924.0625373593
 21
5357.256787601
 31
0.0
  0
LINE
  5
49B
330
1F
100
AcDbEntity
  8
0
  6
Continuous
 62
     7
100
AcDbLine
 10
6923.2887796632
 20
5215.6620749786
 30
0.0
 11
6923.2387713662
 21
5215.6620749786
 31
0.0
  0
LINE
  5
49C
330
1F
100
AcDbEntity
  8
0
  6
Continuous
 62
     7
100
AcDbLine
 10
6923.2887796632
 20
5215.6620749786
 30
0.0
 11
6924.161421465
 21
5212.3988948344
 31
0.0
  0
LINE
  5
49D
330
1F
100
AcDbEntity
  8
0
  6
Continuous
 62
     7
100
AcDbLine
 10
6923.1153301469
 20
5324.0754704504
 30
0.0
 11
6923.0653218499
 21
5324.0754704504
 31
0.0
  0
LINE
  5
49E
330
1F
100
AcDbEntity
  8
0
  6
Continuous
 62
     7
100
AcDbLine
 10
6923.1153301469
 20
5324.0754704504
 30
0.0
 11
6923.6611596814
 21
5324.0147258668
 31
0.0
  0
LINE
  5
49F
330
1F
100
AcDbEntity
  8
0
  6
Continuous
 62
     7
100
AcDbLine
 10
6923.1153301469
 20
5340.8754717141
 30
0.0
 11
6923.1153301469
 21
5324.0754704504
 31
0.0
  0
LINE
  5
4A0
330
1F
100
AcDbEntity
  8
0
  6
Continuous
 62
     7
100
AcDbLine
 10
6916.4902440778
 20
5330.0754751592
 30
0.0
 11
6916.4902440778
 21
5307.2754691868
 31
0.0
  0
LINE
  5
4A1
330
1F
100
AcDbEntity
  8
0
  6
Continuous
 62
     7
100
AcDbLine
 10
6910.1511708966
 20
5340.8754717141
 30
0.0
 11
6910.1511708966
 21
5307.2754691868
 31
0.0
  0
LINE
  5
4A2
330
1F
100
AcDbEntity
  8
0
  6
Continuous
 62
     7
100
AcDbLine
 10
6904.6952150336
 20
5344.4754730492
 30
0.0
 11
6904.6952150336
 21
5327.3204665213
 31
0.0
  0
LINE
  5
4A3
330
1F
100
AcDbEntity
  8
0
  6
Continuous
 62
     7
100
AcDbLine
 10
6922.7153829804
 20
5364.0817578464
 30
0.0
 11
6922.6654044858
 21
5364.0817578464
 31
0.0
  0
LINE
  5
4A4
330
1F
100
AcDbEntity
  8
0
  6
Continuous
 62
     7
100
AcDbLine
 10
6923.5880545846
 20
5367.3449333339
 30
0.0
 11
6922.7153829804
 21
5364.0817578464
 31
0.0
  0
LINE
  5
4A5
330
1F
100
AcDbEntity
  8
0
  6
Continuous
 62
     7
100
AcDbLine
 10
6921.9416252843
 20
5208.8371028706
 30
0.0
 11
6921.8916169873
 21
5208.8371028706
 31
0.0
  0
LINE
  5
4A6
330
1F
100
AcDbEntity
  8
0
  6
Continuous
 62
     7
100
AcDbLine
 10
6921.9416252843
 20
5208.8371028706
 30
0.0
 11
6922.8142670861
 21
5205.5739227264
 31
0.0
  0
LINE
  5
4A7
330
1F
100
AcDbEntity
  8
0
  6
Continuous
 62
     7
100
AcDbLine
 10
6921.3682584039
 20
5370.9067280918
 30
0.0
 11
6921.3182501069
 21
5370.9067280918
 31
0.0
  0
LINE
  5
4A8
330
1F
100
AcDbEntity
  8
0
  6
Continuous
 62
     7
100
AcDbLine
 10
6922.2409002057
 20
5374.1699035793
 30
0.0
 11
6921.3682584039
 21
5370.9067280918
 31
0.0
  0
LINE
  5
4A9
330
1F
100
AcDbEntity
  8
0
  6
Continuous
 62
     7
100
AcDbLine
 10
6923.1153301469
 20
5340.8754717141
 30
0.0
 11
6923.0653218499
 21
5340.8754717141
 31
0.0
  0
LINE
  5
4AA
330
1F
100
AcDbEntity
  8
0
  6
Continuous
 62
     7
100
AcDbLine
 10
6910.7986412516
 20
5252.1828177898
 30
0.0
 11
6910.7486329547
 21
5252.1828177898
 31
0.0
  0
LINE
  5
4AB
330
1F
100
AcDbEntity
  8
0
  6
Continuous
 62
     7
100
AcDbLine
 10
6914.1664973966
 20
5190.5272144406
 30
0.0
 11
6914.1664973966
 21
5186.527213785
 31
0.0
  0
LINE
  5
4AC
330
1F
100
AcDbEntity
  8
0
  6
Continuous
 62
     7
100
AcDbLine
 10
6910.0528828374
 20
5197.5272137254
 30
0.0
 11
6914.1664973966
 21
5190.5272144406
 31
0.0
  0
LINE
  5
4AD
330
1F
100
AcDbEntity
  8
0
  6
Continuous
 62
     7
100
AcDbLine
 10
6910.0528828374
 20
5202.0272153943
 30
0.0
 11
6910.0528828374
 21
5199.0272149026
 31
0.0
  0
LINE
  5
4AE
330
1F
100
AcDbEntity
  8
0
  6
Continuous
 62
     7
100
AcDbLine
 10
6913.160117673
 20
5389.2166193157
 30
0.0
 11
6909.0465031138
 21
5382.2166200309
 31
0.0
  0
LINE
  5
4AF
330
1F
100
AcDbEntity
  8
0
  6
Continuous
 62
     7
100
AcDbLine
 10
6913.160117673
 20
5393.2166125207
 30
0.0
 11
6913.160117673
 21
5389.2166193157
 31
0.0
  0
LINE
  5
4B0
330
1F
100
AcDbEntity
  8
0
  6
Continuous
 62
     7
100
AcDbLine
 10
6909.0465031138
 20
5380.7166244417
 30
0.0
 11
6909.0465031138
 21
5377.716618362
 31
0.0
  0
LINE
  5
4B1
330
1F
100
AcDbEntity
  8
0
  6
Continuous
 62
     7
100
AcDbLine
 10
6919.5741883984
 20
5248.7752575009
 30
0.0
 11
6919.4207064381
 21
5249.8942620634
 31
0.0
  0
LINE
  5
4B2
330
1F
100
AcDbEntity
  8
0
  6
Continuous
 62
     7
100
AcDbLine
 10
6919.4207064381
 20
5249.8942620634
 30
0.0
 11
6918.9752511254
 21
5250.9037300526
 31
0.0
  0
LINE
  5
4B3
330
1F
100
AcDbEntity
  8
0
  6
Continuous
 62
     7
100
AcDbLine
 10
6918.9752511254
 20
5250.9037300526
 30
0.0
 11
6918.2814828626
 21
5251.7048481434
 31
0.0
  0
LINE
  5
4B4
330
1F
100
AcDbEntity
  8
0
  6
Continuous
 62
     7
100
AcDbLine
 10
6918.2814828626
 20
5251.7048481434
 30
0.0
 11
6917.4072317353
 21
5252.2191989749
 31
0.0
  0
LINE
  5
4B5
330
1F
100
AcDbEntity
  8
0
  6
Continuous
 62
     7
100
AcDbLine
 10
6917.4072317353
 20
5252.2191989749
 30
0.0
 11
6916.4381496182
 21
5252.3964315235
 31
0.0
  0
LINE
  5
4B6
330
1F
100
AcDbEntity
  8
0
  6
Continuous
 62
     7
100
AcDbLine
 10
6916.4381496182
 20
5252.3964315235
 30
0.0
 11
6915.4690675011
 21
5252.2191989749
 31
0.0
  0
LINE
  5
4B7
330
1F
100
AcDbEntity
  8
0
  6
Continuous
 62
     7
100
AcDbLine
 10
6915.4690675011
 20
5252.2191989749
 30
0.0
 11
6914.5948461762
 21
5251.7048481434
 31
0.0
  0
LINE
  5
4B8
330
1F
100
AcDbEntity
  8
0
  6
Continuous
 62
     7
100
AcDbLine
 10
6914.5948461762
 20
5251.7048481434
 30
0.0
 11
6913.901048111
 21
5250.9037300526
 31
0.0
  0
LINE
  5
4B9
330
1F
100
AcDbEntity
  8
0
  6
Continuous
 62
     7
100
AcDbLine
 10
6913.901048111
 20
5250.9037300526
 30
0.0
 11
6913.4556226006
 21
5249.8942620634
 31
0.0
  0
LINE
  5
4BA
330
1F
100
AcDbEntity
  8
0
  6
Continuous
 62
     7
100
AcDbLine
 10
6913.4556226006
 20
5249.8942620634
 30
0.0
 11
6913.3021406403
 21
5248.7752575009
 31
0.0
  0
LINE
  5
4BB
330
1F
100
AcDbEntity
  8
0
  6
Continuous
 62
     7
100
AcDbLine
 10
6913.3021406403
 20
5248.7752575009
 30
0.0
 11
6913.4556226006
 21
5247.6562529384
 31
0.0
  0
LINE
  5
4BC
330
1F
100
AcDbEntity
  8
0
  6
Continuous
 62
     7
100
AcDbLine
 10
6913.4556226006
 20
5247.6562529384
 30
0.0
 11
6913.901048111
 21
5246.6467830866
 31
0.0
  0
LINE
  5
4BD
330
1F
100
AcDbEntity
  8
0
  6
Continuous
 62
     7
100
AcDbLine
 10
6913.901048111
 20
5246.6467830866
 30
0.0
 11
6914.5948461762
 21
5245.8456649958
 31
0.0
  0
LINE
  5
4BE
330
1F
100
AcDbEntity
  8
0
  6
Continuous
 62
     7
100
AcDbLine
 10
6914.5948461762
 20
5245.8456649958
 30
0.0
 11
6915.4690675011
 21
5245.331316027
 31
0.0
  0
LINE
  5
4BF
330
1F
100
AcDbEntity
  8
0
  6
Continuous
 62
     7
100
AcDbLine
 10
6915.4690675011
 20
5245.331316027
 30
0.0
 11
6916.4381496182
 21
5245.1540834784
 31
0.0
  0
LINE
  5
4C0
330
1F
100
AcDbEntity
  8
0
  6
Continuous
 62
     7
100
AcDbLine
 10
6916.4381496182
 20
5245.1540834784
 30
0.0
 11
6917.4072317353
 21
5245.331316027
 31
0.0
  0
LINE
  5
4C1
330
1F
100
AcDbEntity
  8
0
  6
Continuous
 62
     7
100
AcDbLine
 10
6917.4072317353
 20
5245.331316027
 30
0.0
 11
6918.2814828626
 21
5245.8456649958
 31
0.0
  0
LINE
  5
4C2
330
1F
100
AcDbEntity
  8
0
  6
Continuous
 62
     7
100
AcDbLine
 10
6918.2814828626
 20
5245.8456649958
 30
0.0
 11
6918.9752511254
 21
5246.6467830866
 31
0.0
  0
LINE
  5
4C3
330
1F
100
AcDbEntity
  8
0
  6
Continuous
 62
     7
100
AcDbLine
 10
6918.9752511254
 20
5246.6467830866
 30
0.0
 11
6919.4207064381
 21
5247.6562529384
 31
0.0
  0
LINE
  5
4C4
330
1F
100
AcDbEntity
  8
0
  6
Continuous
 62
     7
100
AcDbLine
 10
6919.4207064381
 20
5247.6562529384
 30
0.0
 11
6919.5741883984
 21
5248.7752575009
 31
0.0
  0
LINE
  5
4C5
330
1F
100
AcDbEntity
  8
0
  6
Continuous
 62
     7
100
AcDbLine
 10
6914.831566023
 20
5223.1800211059
 30
0.0
 11
6914.781557726
 21
5223.1800211059
 31
0.0
  0
LINE
  5
4C6
330
1F
100
AcDbEntity
  8
0
  6
Continuous
 62
     7
100
AcDbLine
 10
6914.831566023
 20
5230.1800211474
 30
0.0
 11
6914.781557726
 21
5230.1800211474
 31
0.0
  0
LINE
  5
4C7
330
1F
100
AcDbEntity
  8
0
  6
Continuous
 62
     7
100
AcDbLine
 10
6914.831566023
 20
5208.5272145971
 30
0.0
 11
6914.781557726
 21
5208.5272145971
 31
0.0
  0
LINE
  5
4C8
330
1F
100
AcDbEntity
  8
0
  6
Continuous
 62
     7
100
AcDbLine
 10
6914.831566023
 20
5215.5272143475
 30
0.0
 11
6914.781557726
 21
5215.5272143475
 31
0.0
  0
LINE
  5
4C9
330
1F
100
AcDbEntity
  8
0
  6
Continuous
 62
     7
100
AcDbLine
 10
6914.831566023
 20
5223.1800211059
 30
0.0
 11
6916.3065723649
 21
5220.2300210531
 31
0.0
  0
LINE
  5
4CA
330
1F
100
AcDbEntity
  8
0
  6
Continuous
 62
     7
100
AcDbLine
 10
6914.831566023
 20
5230.1800211474
 30
0.0
 11
6916.3065723649
 21
5227.2300210363
 31
0.0
  0
LINE
  5
4CB
330
1F
100
AcDbEntity
  8
0
  6
Continuous
 62
     7
100
AcDbLine
 10
6914.831566023
 20
5208.5272145971
 30
0.0
 11
6916.3065723649
 21
5205.5772140204
 31
0.0
  0
LINE
  5
4CC
330
1F
100
AcDbEntity
  8
0
  6
Continuous
 62
     7
100
AcDbLine
 10
6914.831566023
 20
5215.5272143475
 30
0.0
 11
6916.3065723649
 21
5212.5772142365
 31
0.0
  0
LINE
  5
4CD
330
1F
100
AcDbEntity
  8
0
  6
Continuous
 62
     7
100
AcDbLine
 10
6913.8252012006
 20
5364.2166133552
 30
0.0
 11
6913.7751929036
 21
5364.2166133552
 31
0.0
  0
LINE
  5
4CE
330
1F
100
AcDbEntity
  8
0
  6
Continuous
 62
     7
100
AcDbLine
 10
6913.8252012006
 20
5371.2166126399
 30
0.0
 11
6913.7751929036
 21
5371.2166126399
 31
0.0
  0
LINE
  5
4CF
330
1F
100
AcDbEntity
  8
0
  6
Continuous
 62
     7
100
AcDbLine
 10
6915.3001777402
 20
5367.1666111379
 30
0.0
 11
6913.8252012006
 21
5364.2166133552
 31
0.0
  0
LINE
  5
4D0
330
1F
100
AcDbEntity
  8
0
  6
Continuous
 62
     7
100
AcDbLine
 10
6915.3001777402
 20
5374.1666104227
 30
0.0
 11
6913.8252012006
 21
5371.2166126399
 31
0.0
  0
LINE
  5
4D1
330
1F
100
AcDbEntity
  8
0
  6
Continuous
 62
     7
100
AcDbLine
 10
6916.4902440778
 20
5330.0754751592
 30
0.0
 11
6916.4402357808
 21
5330.0754751592
 31
0.0
  0
LINE
  5
4D2
330
1F
100
AcDbEntity
  8
0
  6
Continuous
 62
     7
100
AcDbLine
 10
6914.1664973966
 20
5190.5272144406
 30
0.0
 11
6914.1165189019
 21
5190.5272144406
 31
0.0
  0
LINE
  5
4D3
330
1F
100
AcDbEntity
  8
0
  6
Continuous
 62
     7
100
AcDbLine
 10
6913.160117673
 20
5389.2166193157
 30
0.0
 11
6913.1101242772
 21
5389.2166193157
 31
0.0
  0
LINE
  5
4D4
330
1F
100
AcDbEntity
  8
0
  6
Continuous
 62
     7
100
AcDbLine
 10
6907.3635212651
 20
5208.067302364
 30
0.0
 11
6907.3135278693
 21
5208.067302364
 31
0.0
  0
LINE
  5
4D5
330
1F
100
AcDbEntity
  8
0
  6
Continuous
 62
     7
100
AcDbLine
 10
6907.3635212651
 20
5208.067302364
 30
0.0
 11
6909.3658498994
 21
5205.5739227264
 31
0.0
  0
LINE
  5
4D6
330
1F
100
AcDbEntity
  8
0
  6
Continuous
 62
     7
100
AcDbLine
 10
6910.1511708966
 20
5340.8754717141
 30
0.0
 11
6910.1011625996
 21
5340.8754717141
 31
0.0
  0
LINE
  5
4D7
330
1F
100
AcDbEntity
  8
0
  6
Continuous
 62
     7
100
AcDbLine
 10
6906.7901543847
 20
5371.676522079
 30
0.0
 11
6906.7401460877
 21
5371.676522079
 31
0.0
  0
LINE
  5
4D8
330
1F
100
AcDbEntity
  8
0
  6
Continuous
 62
     7
100
AcDbLine
 10
6908.792483019
 20
5374.1699035793
 30
0.0
 11
6906.7901543847
 21
5371.676522079
 31
0.0
  0
LINE
  5
4D9
330
1F
100
AcDbEntity
  8
0
  6
Continuous
 62
     7
100
AcDbLine
 10
6906.0163668862
 20
5214.8922749377
 30
0.0
 11
6905.9663734904
 21
5214.8922749377
 31
0.0
  0
LINE
  5
4DA
330
1F
100
AcDbEntity
  8
0
  6
Continuous
 62
     7
100
AcDbLine
 10
6906.0163668862
 20
5214.8922749377
 30
0.0
 11
6908.0187104216
 21
5212.3988948344
 31
0.0
  0
LINE
  5
4DB
330
1F
100
AcDbEntity
  8
0
  6
Continuous
 62
     7
100
AcDbLine
 10
6905.4430000058
 20
5364.8515518337
 30
0.0
 11
6905.39300661
 21
5364.8515518337
 31
0.0
  0
LINE
  5
4DC
330
1F
100
AcDbEntity
  8
0
  6
Continuous
 62
     7
100
AcDbLine
 10
6907.4453286401
 20
5367.3449333339
 30
0.0
 11
6905.4430000058
 21
5364.8515518337
 31
0.0
  0
LINE
  5
4DD
330
1F
100
AcDbEntity
  8
0
  6
Continuous
 62
     7
100
AcDbLine
 10
6904.6952150336
 20
5327.3204665213
 30
0.0
 11
6904.6452067366
 21
5327.3204665213
 31
0.0
  0
LINE
  5
4DE
330
1F
100
AcDbEntity
  8
0
  6
Continuous
 62
     7
100
AcDbLine
 10
6904.6692125073
 20
5221.7172470457
 30
0.0
 11
6904.6192191115
 21
5221.7172470457
 31
0.0
  0
LINE
  5
4DF
330
1F
100
AcDbEntity
  8
0
  6
Continuous
 62
     7
100
AcDbLine
 10
6904.6692125073
 20
5221.7172470457
 30
0.0
 11
6906.6715560428
 21
5219.2238669424
 31
0.0
  0
LINE
  5
4E0
330
1F
100
AcDbEntity
  8
0
  6
Continuous
 62
     7
100
AcDbLine
 10
6904.6952150336
 20
5344.4754730492
 30
0.0
 11
6904.6452067366
 21
5344.4754730492
 31
0.0
  0
LINE
  5
4E1
330
1F
100
AcDbEntity
  8
0
  6
Continuous
 62
     7
100
AcDbLine
 10
6904.0958456269
 20
5358.0265815883
 30
0.0
 11
6904.0458522311
 21
5358.0265815883
 31
0.0
  0
LINE
  5
4E2
330
1F
100
AcDbEntity
  8
0
  6
Continuous
 62
     7
100
AcDbLine
 10
6906.0981891623
 20
5360.5199630886
 30
0.0
 11
6904.0958456269
 21
5358.0265815883
 31
0.0
  0
LINE
  5
4E3
330
1F
100
AcDbEntity
  8
0
  6
Continuous
 62
     7
100
AcDbLine
 10
6903.3220730296
 20
5228.5422191537
 30
0.0
 11
6903.2720647326
 21
5228.5422191537
 31
0.0
  0
LINE
  5
4E4
330
1F
100
AcDbEntity
  8
0
  6
Continuous
 62
     7
100
AcDbLine
 10
6903.3220730296
 20
5228.5422191537
 30
0.0
 11
6905.3244016639
 21
5226.0488392833
 31
0.0
  0
LINE
  5
4E5
330
1F
100
AcDbEntity
  8
0
  6
Continuous
 62
     7
100
AcDbLine
 10
6902.7487061492
 20
5351.2016113429
 30
0.0
 11
6902.6986978522
 21
5351.2016113429
 31
0.0
  0
LINE
  5
4E6
330
1F
100
AcDbEntity
  8
0
  6
Continuous
 62
     7
100
AcDbLine
 10
6904.7510347834
 20
5353.6949928432
 30
0.0
 11
6902.7487061492
 21
5351.2016113429
 31
0.0
  0
LINE
  5
4E7
330
1F
100
AcDbEntity
  8
0
  6
Continuous
 62
     7
100
AcDbLine
 10
6886.4903173915
 20
5391.153963986
 30
0.0
 11
6886.4403239957
 21
5391.153963986
 31
0.0
  0
LINE
  5
4E8
330
1F
100
AcDbEntity
  8
0
  6
Continuous
 62
     7
100
AcDbLine
 10
6886.4903173915
 20
5311.1539583235
 30
0.0
 11
6886.4403239957
 21
5311.1539583235
 31
0.0
  0
LINE
  5
4E9
330
1F
100
AcDbEntity
  8
0
  6
Continuous
 62
     7
100
AcDbLine
 10
6886.4903173915
 20
5271.1539592176
 30
0.0
 11
6886.4403239957
 21
5271.1539592176
 31
0.0
  0
LINE
  5
4EA
330
1F
100
AcDbEntity
  8
0
  6
Continuous
 62
     7
100
AcDbLine
 10
6886.4903173915
 20
5191.1539572804
 30
0.0
 11
6886.4403239957
 21
5191.1539572804
 31
0.0
  0
LINE
  5
4EB
330
1F
100
AcDbEntity
  8
0
  6
Continuous
 62
     7
100
AcDbLine
 10
7472.4929205647
 20
5572.4693115383
 30
0.0
 11
7472.4929205647
 21
5587.4693270355
 31
0.0
  0
LINE
  5
4EC
330
1F
100
AcDbEntity
  8
0
  6
Continuous
 62
     7
100
AcDbLine
 10
7472.4929205647
 20
5557.4693258434
 30
0.0
 11
7472.4929205647
 21
5572.4693115383
 31
0.0
  0
LINE
  5
4ED
330
1F
100
AcDbEntity
  8
0
  6
Continuous
 62
     7
100
AcDbLine
 10
7532.4928633443
 20
5512.4693091541
 30
0.0
 11
7547.4929086438
 21
5512.4693091541
 31
0.0
  0
LINE
  5
4EE
330
1F
100
AcDbEntity
  8
0
  6
Continuous
 62
     7
100
AcDbLine
 10
7517.4928776494
 20
5512.4693091541
 30
0.0
 11
7532.4928633443
 21
5512.4693091541
 31
0.0
  0
LINE
  5
4EF
330
1F
100
AcDbEntity
  8
0
  6
Continuous
 62
     7
100
AcDbLine
 10
6894.7926334611
 20
5592.4693222671
 30
0.0
 11
6949.4005016557
 21
5638.2907803684
 31
0.0
  0
LINE
  5
4F0
330
1F
100
AcDbEntity
  8
0
  6
Continuous
 62
     7
100
AcDbLine
 10
6955.3922287694
 20
4809.991585794
 30
0.0
 11
6955.3475550881
 21
4810.4432101875
 31
0.0
  0
LINE
  5
4F1
330
1F
100
AcDbEntity
  8
0
  6
Continuous
 62
     7
100
AcDbLine
 10
6955.3475550881
 20
4810.4432101875
 30
0.0
 11
6954.9960963002
 21
4811.3063450485
 31
0.0
  0
LINE
  5
4F2
330
1F
100
AcDbEntity
  8
0
  6
Continuous
 62
     7
100
AcDbLine
 10
6954.9960963002
 20
4811.3063450485
 30
0.0
 11
6954.3244413606
 21
4812.0526548057
 31
0.0
  0
LINE
  5
4F3
330
1F
100
AcDbEntity
  8
0
  6
Continuous
 62
     7
100
AcDbLine
 10
6954.3244413606
 20
4812.0526548057
 30
0.0
 11
6953.3922247163
 21
4812.6158292919
 31
0.0
  0
LINE
  5
4F4
330
1F
100
AcDbEntity
  8
0
  6
Continuous
 62
     7
100
AcDbLine
 10
6953.3922247163
 20
4812.6158292919
 30
0.0
 11
6952.2822968236
 21
4812.9458304077
 31
0.0
  0
LINE
  5
4F5
330
1F
100
AcDbEntity
  8
0
  6
Continuous
 62
     7
100
AcDbLine
 10
6952.2822968236
 20
4812.9458304077
 30
0.0
 11
6951.0933033696
 21
4813.0133326679
 31
0.0
  0
LINE
  5
4F6
330
1F
100
AcDbEntity
  8
0
  6
Continuous
 62
     7
100
AcDbLine
 10
6951.0933033696
 20
4813.0133326679
 30
0.0
 11
6949.9308637849
 21
4812.8123458057
 31
0.0
  0
LINE
  5
4F7
330
1F
100
AcDbEntity
  8
0
  6
Continuous
 62
     7
100
AcDbLine
 10
6949.9308637849
 20
4812.8123458057
 30
0.0
 11
6948.8982729188
 21
4812.3607214122
 31
0.0
  0
LINE
  5
4F8
330
1F
100
AcDbEntity
  8
0
  6
Continuous
 62
     7
100
AcDbLine
 10
6948.8982729188
 20
4812.3607214122
 30
0.0
 11
6948.0872623196
 21
4811.6985734134
 31
0.0
  0
LINE
  5
4F9
330
1F
100
AcDbEntity
  8
0
  6
Continuous
 62
     7
100
AcDbLine
 10
6948.0872623196
 20
4811.6985734134
 30
0.0
 11
6947.5699238053
 21
4810.884761396
 31
0.0
  0
LINE
  5
4FA
330
1F
100
AcDbEntity
  8
0
  6
Continuous
 62
     7
100
AcDbLine
 10
6947.5699238053
 20
4810.884761396
 30
0.0
 11
6947.3922125569
 21
4809.991585794
 31
0.0
  0
LINE
  5
4FB
330
1F
100
AcDbEntity
  8
0
  6
Continuous
 62
     7
100
AcDbLine
 10
6955.3922287694
 20
4921.1539502769
 30
0.0
 11
6955.3475550881
 21
4921.6056044727
 31
0.0
  0
LINE
  5
4FC
330
1F
100
AcDbEntity
  8
0
  6
Continuous
 62
     7
100
AcDbLine
 10
6955.3475550881
 20
4921.6056044727
 30
0.0
 11
6954.9960963002
 21
4922.4687393337
 31
0.0
  0
LINE
  5
4FD
330
1F
100
AcDbEntity
  8
0
  6
Continuous
 62
     7
100
AcDbLine
 10
6954.9960963002
 20
4922.4687393337
 30
0.0
 11
6954.3244413606
 21
4923.2150490909
 31
0.0
  0
LINE
  5
4FE
330
1F
100
AcDbEntity
  8
0
  6
Continuous
 62
     7
100
AcDbLine
 10
6954.3244413606
 20
4923.2150490909
 30
0.0
 11
6953.3922247163
 21
4923.7782235771
 31
0.0
  0
LINE
  5
4FF
330
1F
100
AcDbEntity
  8
0
  6
Continuous
 62
     7
100
AcDbLine
 10
6953.3922247163
 20
4923.7782235771
 30
0.0
 11
6952.2822968236
 21
4924.1082246929
 31
0.0
  0
LINE
  5
500
330
1F
100
AcDbEntity
  8
0
  6
Continuous
 62
     7
100
AcDbLine
 10
6952.2822968236
 20
4924.1082246929
 30
0.0
 11
6951.0933033696
 21
4924.1757269531
 31
0.0
  0
LINE
  5
501
330
1F
100
AcDbEntity
  8
0
  6
Continuous
 62
     7
100
AcDbLine
 10
6951.0933033696
 20
4924.1757269531
 30
0.0
 11
6949.9308637849
 21
4923.9747102886
 31
0.0
  0
LINE
  5
502
330
1F
100
AcDbEntity
  8
0
  6
Continuous
 62
     7
100
AcDbLine
 10
6949.9308637849
 20
4923.9747102886
 30
0.0
 11
6948.8982729188
 21
4923.5230858951
 31
0.0
  0
LINE
  5
503
330
1F
100
AcDbEntity
  8
0
  6
Continuous
 62
     7
100
AcDbLine
 10
6948.8982729188
 20
4923.5230858951
 30
0.0
 11
6948.0872623196
 21
4922.8609378963
 31
0.0
  0
LINE
  5
504
330
1F
100
AcDbEntity
  8
0
  6
Continuous
 62
     7
100
AcDbLine
 10
6948.0872623196
 20
4922.8609378963
 30
0.0
 11
6947.5699238053
 21
4922.0471258789
 31
0.0
  0
LINE
  5
505
330
1F
100
AcDbEntity
  8
0
  6
Continuous
 62
     7
100
AcDbLine
 10
6947.5699238053
 20
4922.0471258789
 30
0.0
 11
6947.3922125569
 21
4921.1539502769
 31
0.0
  0
LINE
  5
506
330
1F
100
AcDbEntity
  8
0
  6
Continuous
 62
     7
100
AcDbLine
 10
6955.3922287694
 20
4943.8806946903
 30
0.0
 11
6947.3922125569
 21
4943.8806946903
 31
0.0
  0
LINE
  5
507
330
1F
100
AcDbEntity
  8
0
  6
Continuous
 62
     7
100
AcDbLine
 10
6948.0311743489
 20
5629.9620147376
 30
0.0
 11
6955.3922287694
 21
5629.9620147376
 31
0.0
  0
LINE
  5
508
330
1F
100
AcDbEntity
  8
0
  6
Continuous
 62
     7
100
AcDbLine
 10
6193.0187549636
 20
4338.4312065167
 30
0.0
 11
6193.0187549636
 21
4298.4311999602
 31
0.0
  0
LINE
  5
509
330
1F
100
AcDbEntity
  8
0
  6
Continuous
 62
     7
100
AcDbLine
 10
6243.0187557086
 20
4330.8892818017
 30
0.0
 11
6243.0187557086
 21
4338.4312065167
 31
0.0
  0
LINE
  5
50A
330
1F
100
AcDbEntity
  8
0
  6
Continuous
 62
     7
100
AcDbLine
 10
6243.0187557086
 20
4298.4311999602
 30
0.0
 11
6243.0187557086
 21
4305.9312077088
 31
0.0
  0
LINE
  5
50B
330
1F
100
AcDbEntity
  8
0
  6
Continuous
 62
     7
100
AcDbLine
 10
6198.0187557831
 20
4298.4311999602
 30
0.0
 11
6198.0187557831
 21
4283.4311993642
 31
0.0
  0
LINE
  5
50C
330
1F
100
AcDbEntity
  8
0
  6
Continuous
 62
     7
100
AcDbLine
 10
6238.0187548891
 20
4283.4311993642
 30
0.0
 11
6238.0187548891
 21
4298.4311999602
 31
0.0
  0
LINE
  5
50D
330
1F
100
AcDbEntity
  8
0
  6
Continuous
 62
     7
100
AcDbLine
 10
6198.0187557831
 20
4353.4312071128
 30
0.0
 11
6198.0187557831
 21
4338.4312065167
 31
0.0
  0
LINE
  5
50E
330
1F
100
AcDbEntity
  8
0
  6
Continuous
 62
     7
100
AcDbLine
 10
6238.0187548891
 20
4338.4312065167
 30
0.0
 11
6238.0187548891
 21
4353.4312071128
 31
0.0
  0
LINE
  5
50F
330
1F
100
AcDbEntity
  8
0
  6
Continuous
 62
     7
100
AcDbLine
 10
6203.0187556714
 20
3718.4311719461
 30
0.0
 11
6203.0187556714
 21
3658.4312015284
 31
0.0
  0
LINE
  5
510
330
1F
100
AcDbEntity
  8
0
  6
Continuous
 62
     7
100
AcDbLine
 10
6233.0187550008
 20
3658.4312015284
 30
0.0
 11
6233.0187550008
 21
3718.4311719461
 31
0.0
  0
LINE
  5
511
330
1F
100
AcDbEntity
  8
0
  6
Continuous
 62
     7
100
AcDbLine
 10
6203.0187556714
 20
4283.4311993642
 30
0.0
 11
6203.0187556714
 21
3718.4311719461
 31
0.0
  0
LINE
  5
512
330
1F
100
AcDbEntity
  8
0
  6
Continuous
 62
     7
100
AcDbLine
 10
6233.0187550008
 20
3718.4311719461
 30
0.0
 11
6233.0187550008
 21
4283.4311993642
 31
0.0
  0
LINE
  5
513
330
1F
100
AcDbEntity
  8
0
  6
Continuous
 62
     7
100
AcDbLine
 10
6203.0187556714
 20
4378.4311981721
 30
0.0
 11
6203.0187556714
 21
4353.4312071128
 31
0.0
  0
LINE
  5
514
330
1F
100
AcDbEntity
  8
0
  6
Continuous
 62
     7
100
AcDbLine
 10
6233.0187550008
 20
4353.4312071128
 30
0.0
 11
6233.0187550008
 21
4378.4311981721
 31
0.0
  0
LINE
  5
515
330
1F
100
AcDbEntity
  8
0
  6
Continuous
 62
     7
100
AcDbLine
 10
6243.0187557086
 20
4305.9312077088
 30
0.0
 11
6248.0187546655
 21
4305.9312077088
 31
0.0
  0
LINE
  5
516
330
1F
100
AcDbEntity
  8
0
  6
Continuous
 62
     7
100
AcDbLine
 10
6259.0187564686
 20
4305.9312077088
 30
0.0
 11
6260.0187547699
 21
4305.9312077088
 31
0.0
  0
LINE
  5
517
330
1F
100
AcDbEntity
  8
0
  6
Continuous
 62
     7
100
AcDbLine
 10
6260.0187547699
 20
4330.9311987681
 30
0.0
 11
6242.9978288904
 21
4330.9311987681
 31
0.0
  0
LINE
  5
518
330
1F
100
AcDbEntity
  8
0
  6
Continuous
 62
     7
100
AcDbLine
 10
6260.5187557832
 20
4243.531879954
 30
0.0
 11
6259.0687535897
 21
4242.0818777604
 31
0.0
  0
LINE
  5
519
330
1F
100
AcDbEntity
  8
0
  6
Continuous
 62
     7
100
AcDbLine
 10
6259.0687535897
 20
4236.9818659349
 30
0.0
 11
6260.5187557832
 21
4235.5318637415
 31
0.0
  0
LINE
  5
51A
330
1F
100
AcDbEntity
  8
0
  6
Continuous
 62
     7
100
AcDbLine
 10
6260.5187557832
 20
4235.5318637415
 30
0.0
 11
6264.0187554256
 21
4235.5318637415
 31
0.0
  0
LINE
  5
51B
330
1F
100
AcDbEntity
  8
0
  6
Continuous
 62
     7
100
AcDbLine
 10
6264.0187554256
 20
4243.531879954
 30
0.0
 11
6260.5187557832
 21
4243.531879954
 31
0.0
  0
LINE
  5
51C
330
1F
100
AcDbEntity
  8
0
  6
Continuous
 62
     7
100
AcDbLine
 10
6274.0187570647
 20
4243.531879954
 30
0.0
 11
6264.0187554256
 21
4243.531879954
 31
0.0
  0
LINE
  5
51D
330
1F
100
AcDbEntity
  8
0
  6
Continuous
 62
     7
100
AcDbLine
 10
6264.0187554256
 20
4235.5318637415
 30
0.0
 11
6274.0187570647
 21
4235.5318637415
 31
0.0
  0
LINE
  5
51E
330
1F
100
AcDbEntity
  8
0
  6
Continuous
 62
     7
100
AcDbLine
 10
6259.0687535897
 20
4242.0818777604
 30
0.0
 11
6258.6436048344
 21
4242.0818777604
 31
0.0
  0
LINE
  5
51F
330
1F
100
AcDbEntity
  8
0
  6
Continuous
 62
     7
100
AcDbLine
 10
6259.0187564686
 20
4236.9818659349
 30
0.0
 11
6259.0687535897
 21
4236.9818659349
 31
0.0
  0
LINE
  5
520
330
1F
100
AcDbEntity
  8
0
  6
Continuous
 62
     7
100
AcDbLine
 10
6247.6899493679
 20
4204.8908443971
 30
0.0
 11
6247.6899493679
 21
4204.878357224
 31
0.0
  0
LINE
  5
521
330
1F
100
AcDbEntity
  8
0
  6
Continuous
 62
     7
100
AcDbLine
 10
6134.5942244127
 20
4235.5318637414
 30
0.0
 11
6203.0187556714
 21
4235.5318637414
 31
0.0
  0
LINE
  5
522
330
1F
100
AcDbEntity
  8
0
  6
Continuous
 62
     7
100
AcDbLine
 10
6236.3281566843
 20
4243.5318799539
 30
0.0
 11
6233.0187550008
 21
4243.5318799539
 31
0.0
  0
LINE
  5
523
330
1F
100
AcDbEntity
  8
0
  6
Continuous
 62
     7
100
AcDbLine
 10
6203.0187556714
 20
4243.5318799539
 30
0.0
 11
6134.5942244127
 21
4243.5318799539
 31
0.0
  0
LINE
  5
524
330
1F
100
AcDbEntity
  8
0
  6
Continuous
 62
     7
100
AcDbLine
 10
6316.3281530335
 20
4235.5318637414
 30
0.0
 11
6413.443282266
 21
4235.5318637414
 31
0.0
  0
LINE
  5
525
330
1F
100
AcDbEntity
  8
0
  6
Continuous
 62
     7
100
AcDbLine
 10
6413.443282266
 20
4243.5318799539
 30
0.0
 11
6311.709351857
 21
4243.5318799539
 31
0.0
  0
LINE
  5
526
330
1F
100
AcDbEntity
  8
0
  6
Continuous
 62
     7
100
AcDbLine
 10
6134.5942244127
 20
4243.5318799539
 30
0.0
 11
6126.9212663367
 21
4243.5318799539
 31
0.0
  0
LINE
  5
527
330
1F
100
AcDbEntity
  8
0
  6
Continuous
 62
     7
100
AcDbLine
 10
6126.9212663367
 20
4235.5318637414
 30
0.0
 11
6134.5942244127
 21
4235.5318637414
 31
0.0
  0
LINE
  5
528
330
1F
100
AcDbEntity
  8
0
  6
Continuous
 62
     7
100
AcDbLine
 10
6421.1162477925
 20
4243.5318799539
 30
0.0
 11
6413.443282266
 21
4243.5318799539
 31
0.0
  0
LINE
  5
529
330
1F
100
AcDbEntity
  8
0
  6
Continuous
 62
     7
100
AcDbLine
 10
6413.443282266
 20
4235.5318637414
 30
0.0
 11
6421.1162477925
 21
4235.5318637414
 31
0.0
  0
LINE
  5
52A
330
1F
100
AcDbEntity
  8
0
  6
Continuous
 62
     7
100
AcDbLine
 10
6253.5187564984
 20
4216.8454201741
 30
0.0
 11
6254.5917518631
 21
4216.9133396668
 31
0.0
  0
LINE
  5
52B
330
1F
100
AcDbEntity
  8
0
  6
Continuous
 62
     7
100
AcDbLine
 10
6254.5917518631
 20
4216.9133396668
 30
0.0
 11
6255.6235157147
 21
4217.1145351453
 31
0.0
  0
LINE
  5
52C
330
1F
100
AcDbEntity
  8
0
  6
Continuous
 62
     7
100
AcDbLine
 10
6255.6235157147
 20
4217.1145351453
 30
0.0
 11
6256.5743923381
 21
4217.4412282033
 31
0.0
  0
LINE
  5
52D
330
1F
100
AcDbEntity
  8
0
  6
Continuous
 62
     7
100
AcDbLine
 10
6256.5743923381
 20
4217.4412282033
 30
0.0
 11
6257.407844086
 21
4217.8809018655
 31
0.0
  0
LINE
  5
52E
330
1F
100
AcDbEntity
  8
0
  6
Continuous
 62
     7
100
AcDbLine
 10
6257.407844086
 20
4217.8809018655
 30
0.0
 11
6258.0918371871
 21
4218.4166284127
 31
0.0
  0
LINE
  5
52F
330
1F
100
AcDbEntity
  8
0
  6
Continuous
 62
     7
100
AcDbLine
 10
6258.0918371871
 20
4218.4166284127
 30
0.0
 11
6258.6000934437
 21
4219.0278442426
 31
0.0
  0
LINE
  5
530
330
1F
100
AcDbEntity
  8
0
  6
Continuous
 62
     7
100
AcDbLine
 10
6258.6000934437
 20
4219.0278442426
 30
0.0
 11
6258.9130737081
 21
4219.6910353227
 31
0.0
  0
LINE
  5
531
330
1F
100
AcDbEntity
  8
0
  6
Continuous
 62
     7
100
AcDbLine
 10
6258.9130737081
 20
4219.6910353227
 30
0.0
 11
6259.0187564686
 21
4220.3807504697
 31
0.0
  0
LINE
  5
532
330
1F
100
AcDbEntity
  8
0
  6
Continuous
 62
     7
100
AcDbLine
 10
6248.0187546655
 20
4220.3807504697
 30
0.0
 11
6248.1244355634
 21
4219.6910353227
 31
0.0
  0
LINE
  5
533
330
1F
100
AcDbEntity
  8
0
  6
Continuous
 62
     7
100
AcDbLine
 10
6248.1244355634
 20
4219.6910353227
 30
0.0
 11
6248.4374176905
 21
4219.0278442426
 31
0.0
  0
LINE
  5
534
330
1F
100
AcDbEntity
  8
0
  6
Continuous
 62
     7
100
AcDbLine
 10
6248.4374176905
 20
4219.0278442426
 30
0.0
 11
6248.9456720844
 21
4218.4166284127
 31
0.0
  0
LINE
  5
535
330
1F
100
AcDbEntity
  8
0
  6
Continuous
 62
     7
100
AcDbLine
 10
6248.9456720844
 20
4218.4166284127
 30
0.0
 11
6249.6296689108
 21
4217.8809018655
 31
0.0
  0
LINE
  5
536
330
1F
100
AcDbEntity
  8
0
  6
Continuous
 62
     7
100
AcDbLine
 10
6249.6296689108
 20
4217.8809018655
 30
0.0
 11
6250.4631206587
 21
4217.4412282033
 31
0.0
  0
LINE
  5
537
330
1F
100
AcDbEntity
  8
0
  6
Continuous
 62
     7
100
AcDbLine
 10
6250.4631206587
 20
4217.4412282033
 30
0.0
 11
6251.4139972821
 21
4217.1145351453
 31
0.0
  0
LINE
  5
538
330
1F
100
AcDbEntity
  8
0
  6
Continuous
 62
     7
100
AcDbLine
 10
6251.4139972821
 20
4217.1145351453
 30
0.0
 11
6252.4457574084
 21
4216.9133396668
 31
0.0
  0
LINE
  5
539
330
1F
100
AcDbEntity
  8
0
  6
Continuous
 62
     7
100
AcDbLine
 10
6252.4457574084
 20
4216.9133396668
 30
0.0
 11
6253.5187564984
 21
4216.8454201741
 31
0.0
  0
LINE
  5
53A
330
1F
100
AcDbEntity
  8
0
  6
Continuous
 62
     7
100
AcDbLine
 10
6253.5187564984
 20
4223.9160807653
 30
0.0
 11
6252.4457574084
 21
4223.8481612725
 31
0.0
  0
LINE
  5
53B
330
1F
100
AcDbEntity
  8
0
  6
Continuous
 62
     7
100
AcDbLine
 10
6252.4457574084
 20
4223.8481612725
 30
0.0
 11
6251.4139972821
 21
4223.6469657941
 31
0.0
  0
LINE
  5
53C
330
1F
100
AcDbEntity
  8
0
  6
Continuous
 62
     7
100
AcDbLine
 10
6251.4139972821
 20
4223.6469657941
 30
0.0
 11
6250.4631206587
 21
4223.3202727361
 31
0.0
  0
LINE
  5
53D
330
1F
100
AcDbEntity
  8
0
  6
Continuous
 62
     7
100
AcDbLine
 10
6250.4631206587
 20
4223.3202727361
 30
0.0
 11
6249.6296689108
 21
4222.8805990739
 31
0.0
  0
LINE
  5
53E
330
1F
100
AcDbEntity
  8
0
  6
Continuous
 62
     7
100
AcDbLine
 10
6249.6296689108
 20
4222.8805990739
 30
0.0
 11
6248.9456720844
 21
4222.3448725266
 31
0.0
  0
LINE
  5
53F
330
1F
100
AcDbEntity
  8
0
  6
Continuous
 62
     7
100
AcDbLine
 10
6248.9456720844
 20
4222.3448725266
 30
0.0
 11
6248.4374176905
 21
4221.7336566968
 31
0.0
  0
LINE
  5
540
330
1F
100
AcDbEntity
  8
0
  6
Continuous
 62
     7
100
AcDbLine
 10
6248.4374176905
 20
4221.7336566968
 30
0.0
 11
6248.1244355634
 21
4221.0704656167
 31
0.0
  0
LINE
  5
541
330
1F
100
AcDbEntity
  8
0
  6
Continuous
 62
     7
100
AcDbLine
 10
6248.1244355634
 20
4221.0704656167
 30
0.0
 11
6248.0187546655
 21
4220.3807504697
 31
0.0
  0
LINE
  5
542
330
1F
100
AcDbEntity
  8
0
  6
Continuous
 62
     7
100
AcDbLine
 10
6259.0187564686
 20
4220.3807504697
 30
0.0
 11
6258.9130737081
 21
4221.0704656167
 31
0.0
  0
LINE
  5
543
330
1F
100
AcDbEntity
  8
0
  6
Continuous
 62
     7
100
AcDbLine
 10
6258.9130737081
 20
4221.0704656167
 30
0.0
 11
6258.6000934437
 21
4221.7336566968
 31
0.0
  0
LINE
  5
544
330
1F
100
AcDbEntity
  8
0
  6
Continuous
 62
     7
100
AcDbLine
 10
6258.6000934437
 20
4221.7336566968
 30
0.0
 11
6258.0918371871
 21
4222.3448725266
 31
0.0
  0
LINE
  5
545
330
1F
100
AcDbEntity
  8
0
  6
Continuous
 62
     7
100
AcDbLine
 10
6258.0918371871
 20
4222.3448725266
 30
0.0
 11
6257.407844086
 21
4222.8805990739
 31
0.0
  0
LINE
  5
546
330
1F
100
AcDbEntity
  8
0
  6
Continuous
 62
     7
100
AcDbLine
 10
6257.407844086
 20
4222.8805990739
 30
0.0
 11
6256.5743923381
 21
4223.3202727361
 31
0.0
  0
LINE
  5
547
330
1F
100
AcDbEntity
  8
0
  6
Continuous
 62
     7
100
AcDbLine
 10
6256.5743923381
 20
4223.3202727361
 30
0.0
 11
6255.6235157147
 21
4223.6469657941
 31
0.0
  0
LINE
  5
548
330
1F
100
AcDbEntity
  8
0
  6
Continuous
 62
     7
100
AcDbLine
 10
6255.6235157147
 20
4223.6469657941
 30
0.0
 11
6254.5917518631
 21
4223.8481612725
 31
0.0
  0
LINE
  5
549
330
1F
100
AcDbEntity
  8
0
  6
Continuous
 62
     7
100
AcDbLine
 10
6254.5917518631
 20
4223.8481612725
 30
0.0
 11
6253.5187564984
 21
4223.9160807653
 31
0.0
  0
LINE
  5
54A
330
1F
100
AcDbEntity
  8
0
  6
Continuous
 62
     7
100
AcDbLine
 10
6253.5187564984
 20
4223.9160807653
 30
0.0
 11
6253.5187564984
 21
4314.4156755729
 31
0.0
  0
LINE
  5
54B
330
1F
100
AcDbEntity
  8
0
  6
Continuous
 62
     7
100
AcDbLine
 10
6248.0187546655
 20
4226.0494800134
 30
0.0
 11
6248.0187546655
 21
4220.3807504697
 31
0.0
  0
LINE
  5
54C
330
1F
100
AcDbEntity
  8
0
  6
Continuous
 62
     7
100
AcDbLine
 10
6248.0187546655
 20
4237.5401528401
 30
0.0
 11
6248.0187546655
 21
4230.0329180284
 31
0.0
  0
LINE
  5
54D
330
1F
100
AcDbEntity
  8
0
  6
Continuous
 62
     7
100
AcDbLine
 10
6248.0187546655
 20
4309.5198990626
 30
0.0
 11
6248.0187546655
 21
4241.5235908551
 31
0.0
  0
LINE
  5
54E
330
1F
100
AcDbEntity
  8
0
  6
Continuous
 62
     7
100
AcDbLine
 10
6259.0187564686
 20
4220.3807504697
 30
0.0
 11
6259.0187564686
 21
4226.0494800134
 31
0.0
  0
LINE
  5
54F
330
1F
100
AcDbEntity
  8
0
  6
Continuous
 62
     7
100
AcDbLine
 10
6259.0187564686
 20
4242.0818777604
 30
0.0
 11
6259.0187564686
 21
4309.5198990626
 31
0.0
  0
LINE
  5
550
330
1F
100
AcDbEntity
  8
0
  6
Continuous
 62
     7
100
AcDbLine
 10
6259.0187564686
 20
4230.0329180284
 30
0.0
 11
6259.0187564686
 21
4237.5401528401
 31
0.0
  0
LINE
  5
551
330
1F
100
AcDbEntity
  8
0
  6
Continuous
 62
     7
100
AcDbLine
 10
6243.0187557086
 20
4338.4312065167
 30
0.0
 11
6193.0187549636
 21
4338.4312065167
 31
0.0
  0
LINE
  5
552
330
1F
100
AcDbEntity
  8
0
  6
Continuous
 62
     7
100
AcDbLine
 10
6243.0187557086
 20
4298.4311999602
 30
0.0
 11
6193.0187549636
 21
4298.4311999602
 31
0.0
  0
LINE
  5
553
330
1F
100
AcDbEntity
  8
0
  6
Continuous
 62
     7
100
AcDbLine
 10
6238.0187548891
 20
4283.4311993642
 30
0.0
 11
6198.0187557831
 21
4283.4311993642
 31
0.0
  0
LINE
  5
554
330
1F
100
AcDbEntity
  8
0
  6
Continuous
 62
     7
100
AcDbLine
 10
6238.0187548891
 20
4353.4312071128
 30
0.0
 11
6198.0187557831
 21
4353.4312071128
 31
0.0
  0
LINE
  5
555
330
1F
100
AcDbEntity
  8
0
  6
Continuous
 62
     7
100
AcDbLine
 10
6235.01875626
 20
4378.4311981721
 30
0.0
 11
6201.0187544122
 21
4378.4311981721
 31
0.0
  0
LINE
  5
556
330
1F
100
AcDbEntity
  8
0
  6
Continuous
 62
     7
100
AcDbLine
 10
6260.0187547699
 20
4330.9311987681
 30
0.0
 11
6260.0187547699
 21
4305.9312077088
 31
0.0
  0
LINE
  5
557
330
1F
100
AcDbEntity
  8
0
  6
Continuous
 62
     7
100
AcDbLine
 10
6259.0687535897
 20
4236.9818659349
 30
0.0
 11
6259.0687535897
 21
4242.0818777604
 31
0.0
  0
LINE
  5
558
330
1F
100
AcDbEntity
  8
0
  6
Continuous
 62
     7
100
AcDbLine
 10
6260.5187557832
 20
4243.531879954
 30
0.0
 11
6260.5187557832
 21
4235.5318637415
 31
0.0
  0
LINE
  5
559
330
1F
100
AcDbEntity
  8
0
  6
Continuous
 62
     7
100
AcDbLine
 10
6233.0187550008
 20
4204.8908443971
 30
0.0
 11
6334.0187519982
 21
4204.8908443971
 31
0.0
  0
LINE
  5
55A
330
1F
100
AcDbEntity
  8
0
  6
Continuous
 62
     7
100
AcDbLine
 10
6274.0187570646
 20
4308.8138969464
 30
0.0
 11
6259.0187564686
 21
4282.8331412597
 31
0.0
  0
LINE
  5
55B
330
1F
100
AcDbEntity
  8
0
  6
Continuous
 62
     7
100
AcDbLine
 10
6248.0187546655
 20
4263.780591063
 30
0.0
 11
6233.0187550008
 21
4237.7998204751
 31
0.0
  0
LINE
  5
55C
330
1F
100
AcDbEntity
  8
0
  6
Continuous
 62
     7
100
AcDbLine
 10
6334.0187519982
 20
4204.8908443971
 30
0.0
 11
6274.0187570646
 21
4308.8138969464
 31
0.0
  0
LINE
  5
55D
330
1F
100
AcDbEntity
  8
0
  6
Continuous
 62
     7
100
AcDbLine
 10
6203.0187556714
 20
3718.4311719461
 30
0.0
 11
6233.0187550008
 21
3718.4311719461
 31
0.0
  0
LINE
  5
55E
330
1F
100
AcDbEntity
  8
0
  6
Continuous
 62
     7
100
AcDbLine
 10
6264.0187554256
 20
4235.5318637415
 30
0.0
 11
6264.0187554256
 21
4243.531879954
 31
0.0
  0
LINE
  5
55F
330
1F
100
AcDbEntity
  8
0
  6
Continuous
 62
     7
100
AcDbLine
 10
6134.5942244127
 20
4235.5318637414
 30
0.0
 11
6134.205065687
 21
4235.5765374227
 31
0.0
  0
LINE
  5
560
330
1F
100
AcDbEntity
  8
0
  6
Continuous
 62
     7
100
AcDbLine
 10
6134.205065687
 20
4235.5765374227
 30
0.0
 11
6133.4613263801
 21
4235.9279962106
 31
0.0
  0
LINE
  5
561
330
1F
100
AcDbEntity
  8
0
  6
Continuous
 62
     7
100
AcDbLine
 10
6133.4613263801
 20
4235.9279962106
 30
0.0
 11
6132.8182518676
 21
4236.5996511502
 31
0.0
  0
LINE
  5
562
330
1F
100
AcDbEntity
  8
0
  6
Continuous
 62
     7
100
AcDbLine
 10
6132.8182518676
 20
4236.5996511502
 30
0.0
 11
6132.3329732016
 21
4237.5318677945
 31
0.0
  0
LINE
  5
563
330
1F
100
AcDbEntity
  8
0
  6
Continuous
 62
     7
100
AcDbLine
 10
6132.3329732016
 20
4237.5318677945
 30
0.0
 11
6132.0486217931
 21
4238.6417956872
 31
0.0
  0
LINE
  5
564
330
1F
100
AcDbEntity
  8
0
  6
Continuous
 62
     7
100
AcDbLine
 10
6132.0486217931
 20
4238.6417956872
 30
0.0
 11
6131.9904551104
 21
4239.8307891412
 31
0.0
  0
LINE
  5
565
330
1F
100
AcDbEntity
  8
0
  6
Continuous
 62
     7
100
AcDbLine
 10
6131.9904551104
 20
4239.8307891412
 30
0.0
 11
6132.1636513069
 21
4240.9932287259
 31
0.0
  0
LINE
  5
566
330
1F
100
AcDbEntity
  8
0
  6
Continuous
 62
     7
100
AcDbLine
 10
6132.1636513069
 20
4240.9932287259
 30
0.0
 11
6132.5528100327
 21
4242.025819592
 31
0.0
  0
LINE
  5
567
330
1F
100
AcDbEntity
  8
0
  6
Continuous
 62
     7
100
AcDbLine
 10
6132.5528100327
 20
4242.025819592
 30
0.0
 11
6133.1233605936
 21
4242.8368301911
 31
0.0
  0
LINE
  5
568
330
1F
100
AcDbEntity
  8
0
  6
Continuous
 62
     7
100
AcDbLine
 10
6133.1233605936
 20
4242.8368301911
 30
0.0
 11
6133.8246017888
 21
4243.3541687055
 31
0.0
  0
LINE
  5
569
330
1F
100
AcDbEntity
  8
0
  6
Continuous
 62
     7
100
AcDbLine
 10
6133.8246017888
 20
4243.3541687055
 30
0.0
 11
6134.5942244127
 21
4243.5318799539
 31
0.0
  0
LINE
  5
56A
330
1F
100
AcDbEntity
  8
0
  6
Continuous
 62
     7
100
AcDbLine
 10
6413.443282266
 20
4235.5318637414
 30
0.0
 11
6413.8324409917
 21
4235.5765374227
 31
0.0
  0
LINE
  5
56B
330
1F
100
AcDbEntity
  8
0
  6
Continuous
 62
     7
100
AcDbLine
 10
6413.8324409917
 20
4235.5765374227
 30
0.0
 11
6414.5761877492
 21
4235.9279962106
 31
0.0
  0
LINE
  5
56C
330
1F
100
AcDbEntity
  8
0
  6
Continuous
 62
     7
100
AcDbLine
 10
6414.5761877492
 20
4235.9279962106
 30
0.0
 11
6415.2192622617
 21
4236.5996511502
 31
0.0
  0
LINE
  5
56D
330
1F
100
AcDbEntity
  8
0
  6
Continuous
 62
     7
100
AcDbLine
 10
6415.2192622617
 20
4236.5996511502
 30
0.0
 11
6415.7045334771
 21
4237.5318677945
 31
0.0
  0
LINE
  5
56E
330
1F
100
AcDbEntity
  8
0
  6
Continuous
 62
     7
100
AcDbLine
 10
6415.7045334771
 20
4237.5318677945
 30
0.0
 11
6415.9888923362
 21
4238.6417956872
 31
0.0
  0
LINE
  5
56F
330
1F
100
AcDbEntity
  8
0
  6
Continuous
 62
     7
100
AcDbLine
 10
6415.9888923362
 20
4238.6417956872
 30
0.0
 11
6416.0470515683
 21
4239.8307891412
 31
0.0
  0
LINE
  5
570
330
1F
100
AcDbEntity
  8
0
  6
Continuous
 62
     7
100
AcDbLine
 10
6416.0470515683
 20
4239.8307891412
 30
0.0
 11
6415.8738553718
 21
4240.9932287259
 31
0.0
  0
LINE
  5
571
330
1F
100
AcDbEntity
  8
0
  6
Continuous
 62
     7
100
AcDbLine
 10
6415.8738553718
 20
4240.9932287259
 30
0.0
 11
6415.484696646
 21
4242.025819592
 31
0.0
  0
LINE
  5
572
330
1F
100
AcDbEntity
  8
0
  6
Continuous
 62
     7
100
AcDbLine
 10
6415.484696646
 20
4242.025819592
 30
0.0
 11
6414.9141460851
 21
4242.8368301911
 31
0.0
  0
LINE
  5
573
330
1F
100
AcDbEntity
  8
0
  6
Continuous
 62
     7
100
AcDbLine
 10
6414.9141460851
 20
4242.8368301911
 30
0.0
 11
6414.2129123405
 21
4243.3541687055
 31
0.0
  0
LINE
  5
574
330
1F
100
AcDbEntity
  8
0
  6
Continuous
 62
     7
100
AcDbLine
 10
6414.2129123405
 20
4243.3541687055
 30
0.0
 11
6413.443282266
 21
4243.5318799539
 31
0.0
  0
LINE
  5
575
330
1F
100
AcDbEntity
  8
0
  6
Continuous
 62
     7
100
AcDbLine
 10
6807.8740921852
 20
5537.4693115383
 30
0.0
 11
6812.4928943387
 21
5545.4693115383
 31
0.0
  0
LINE
  5
576
330
1F
100
AcDbEntity
  8
0
  6
Continuous
 62
     7
100
AcDbLine
 10
6812.4928943387
 20
5599.4693115383
 30
0.0
 11
6807.8740921852
 21
5607.4693115383
 31
0.0
  0
LINE
  5
577
330
1F
100
AcDbEntity
  8
0
  6
Continuous
 62
     7
100
AcDbLine
 10
6762.4928943387
 20
5537.4693115383
 30
0.0
 11
6807.8740921852
 21
5537.4693115383
 31
0.0
  0
LINE
  5
578
330
1F
100
AcDbEntity
  8
0
  6
Continuous
 62
     7
100
AcDbLine
 10
6807.8740921852
 20
5607.4693115383
 30
0.0
 11
6762.4928943387
 21
5607.4693115383
 31
0.0
  0
LINE
  5
579
330
1F
100
AcDbEntity
  8
0
  6
Continuous
 62
     7
100
AcDbLine
 10
6747.4303943346
 20
5560.4693115383
 30
0.0
 11
6762.4928943387
 21
5560.4693115383
 31
0.0
  0
LINE
  5
57A
330
1F
100
AcDbEntity
  8
0
  6
Continuous
 62
     7
100
AcDbLine
 10
6745.9303943346
 20
5560.4693115383
 30
0.0
 11
6746.1178943387
 21
5560.4693115383
 31
0.0
  0
LINE
  5
57B
330
1F
100
AcDbEntity
  8
0
  6
Continuous
 62
     7
100
AcDbLine
 10
6744.4303943346
 20
5560.4693115383
 30
0.0
 11
6744.6178943387
 21
5560.4693115383
 31
0.0
  0
LINE
  5
57C
330
1F
100
AcDbEntity
  8
0
  6
Continuous
 62
     7
100
AcDbLine
 10
6742.9303943346
 20
5560.4693115383
 30
0.0
 11
6743.1178943387
 21
5560.4693115383
 31
0.0
  0
LINE
  5
57D
330
1F
100
AcDbEntity
  8
0
  6
Continuous
 62
     7
100
AcDbLine
 10
6741.4303943346
 20
5560.4693115383
 30
0.0
 11
6741.6178943387
 21
5560.4693115383
 31
0.0
  0
LINE
  5
57E
330
1F
100
AcDbEntity
  8
0
  6
Continuous
 62
     7
100
AcDbLine
 10
6739.9303943346
 20
5560.4693115383
 30
0.0
 11
6740.1178943387
 21
5560.4693115383
 31
0.0
  0
LINE
  5
57F
330
1F
100
AcDbEntity
  8
0
  6
Continuous
 62
     7
100
AcDbLine
 10
6738.4303943346
 20
5560.4693115383
 30
0.0
 11
6738.6178943387
 21
5560.4693115383
 31
0.0
  0
LINE
  5
580
330
1F
100
AcDbEntity
  8
0
  6
Continuous
 62
     7
100
AcDbLine
 10
6736.9303943346
 20
5560.4693115383
 30
0.0
 11
6737.1178943387
 21
5560.4693115383
 31
0.0
  0
LINE
  5
581
330
1F
100
AcDbEntity
  8
0
  6
Continuous
 62
     7
100
AcDbLine
 10
6735.4303943346
 20
5560.4693115383
 30
0.0
 11
6735.6178943387
 21
5560.4693115383
 31
0.0
  0
LINE
  5
582
330
1F
100
AcDbEntity
  8
0
  6
Continuous
 62
     7
100
AcDbLine
 10
6733.9303943346
 20
5560.4693115383
 30
0.0
 11
6734.1178943387
 21
5560.4693115383
 31
0.0
  0
LINE
  5
583
330
1F
100
AcDbEntity
  8
0
  6
Continuous
 62
     7
100
AcDbLine
 10
6733.3678943387
 20
5584.4693115383
 30
0.0
 11
6733.1803943346
 21
5584.4693115383
 31
0.0
  0
LINE
  5
584
330
1F
100
AcDbEntity
  8
0
  6
Continuous
 62
     7
100
AcDbLine
 10
6734.8678943387
 20
5584.4693115383
 30
0.0
 11
6734.6803943346
 21
5584.4693115383
 31
0.0
  0
LINE
  5
585
330
1F
100
AcDbEntity
  8
0
  6
Continuous
 62
     7
100
AcDbLine
 10
6736.3678943387
 20
5584.4693115383
 30
0.0
 11
6736.1803943346
 21
5584.4693115383
 31
0.0
  0
LINE
  5
586
330
1F
100
AcDbEntity
  8
0
  6
Continuous
 62
     7
100
AcDbLine
 10
6737.8678943387
 20
5584.4693115383
 30
0.0
 11
6737.6803943346
 21
5584.4693115383
 31
0.0
  0
LINE
  5
587
330
1F
100
AcDbEntity
  8
0
  6
Continuous
 62
     7
100
AcDbLine
 10
6739.3678943387
 20
5584.4693115383
 30
0.0
 11
6739.1803943346
 21
5584.4693115383
 31
0.0
  0
LINE
  5
588
330
1F
100
AcDbEntity
  8
0
  6
Continuous
 62
     7
100
AcDbLine
 10
6740.8678943387
 20
5584.4693115383
 30
0.0
 11
6740.6803943346
 21
5584.4693115383
 31
0.0
  0
LINE
  5
589
330
1F
100
AcDbEntity
  8
0
  6
Continuous
 62
     7
100
AcDbLine
 10
6742.3678943387
 20
5584.4693115383
 30
0.0
 11
6742.1803943346
 21
5584.4693115383
 31
0.0
  0
LINE
  5
58A
330
1F
100
AcDbEntity
  8
0
  6
Continuous
 62
     7
100
AcDbLine
 10
6743.8678943387
 20
5584.4693115383
 30
0.0
 11
6743.6803943346
 21
5584.4693115383
 31
0.0
  0
LINE
  5
58B
330
1F
100
AcDbEntity
  8
0
  6
Continuous
 62
     7
100
AcDbLine
 10
6745.3678943387
 20
5584.4693115383
 30
0.0
 11
6745.1803943346
 21
5584.4693115383
 31
0.0
  0
LINE
  5
58C
330
1F
100
AcDbEntity
  8
0
  6
Continuous
 62
     7
100
AcDbLine
 10
6762.4928943387
 20
5584.4693115383
 30
0.0
 11
6746.6803943346
 21
5584.4693115383
 31
0.0
  0
LINE
  5
58D
330
1F
100
AcDbEntity
  8
0
  6
Continuous
 62
     7
100
AcDbLine
 10
6734.5866201991
 20
5561.2812104144
 30
0.0
 11
6734.9576257385
 21
5561.2812104144
 31
0.0
  0
LINE
  5
58E
330
1F
100
AcDbEntity
  8
0
  6
Continuous
 62
     7
100
AcDbLine
 10
6736.0866201991
 20
5561.2812104144
 30
0.0
 11
6736.4576257385
 21
5561.2812104144
 31
0.0
  0
LINE
  5
58F
330
1F
100
AcDbEntity
  8
0
  6
Continuous
 62
     7
100
AcDbLine
 10
6737.5866201991
 20
5561.2812104144
 30
0.0
 11
6737.9576257385
 21
5561.2812104144
 31
0.0
  0
LINE
  5
590
330
1F
100
AcDbEntity
  8
0
  6
Continuous
 62
     7
100
AcDbLine
 10
6739.0866201991
 20
5561.2812104144
 30
0.0
 11
6739.4576257385
 21
5561.2812104144
 31
0.0
  0
LINE
  5
591
330
1F
100
AcDbEntity
  8
0
  6
Continuous
 62
     7
100
AcDbLine
 10
6740.5866201991
 20
5561.2812104144
 30
0.0
 11
6740.9576257385
 21
5561.2812104144
 31
0.0
  0
LINE
  5
592
330
1F
100
AcDbEntity
  8
0
  6
Continuous
 62
     7
100
AcDbLine
 10
6742.0866201991
 20
5561.2812104144
 30
0.0
 11
6742.4576257385
 21
5561.2812104144
 31
0.0
  0
LINE
  5
593
330
1F
100
AcDbEntity
  8
0
  6
Continuous
 62
     7
100
AcDbLine
 10
6743.5866201991
 20
5561.2812104144
 30
0.0
 11
6743.9576257385
 21
5561.2812104144
 31
0.0
  0
LINE
  5
594
330
1F
100
AcDbEntity
  8
0
  6
Continuous
 62
     7
100
AcDbLine
 10
6745.0866201991
 20
5561.2812104144
 30
0.0
 11
6745.4576257385
 21
5561.2812104144
 31
0.0
  0
LINE
  5
595
330
1F
100
AcDbEntity
  8
0
  6
Continuous
 62
     7
100
AcDbLine
 10
6746.5866201991
 20
5561.2812104144
 30
0.0
 11
6746.9576257385
 21
5561.2812104144
 31
0.0
  0
LINE
  5
596
330
1F
100
AcDbEntity
  8
0
  6
Continuous
 62
     7
100
AcDbLine
 10
6734.2116201991
 20
5583.6574126622
 30
0.0
 11
6733.8401959498
 21
5583.6574126622
 31
0.0
  0
LINE
  5
597
330
1F
100
AcDbEntity
  8
0
  6
Continuous
 62
     7
100
AcDbLine
 10
6735.7116201991
 20
5583.6574126622
 30
0.0
 11
6735.3401959498
 21
5583.6574126622
 31
0.0
  0
LINE
  5
598
330
1F
100
AcDbEntity
  8
0
  6
Continuous
 62
     7
100
AcDbLine
 10
6737.2116201991
 20
5583.6574126622
 30
0.0
 11
6736.8401959498
 21
5583.6574126622
 31
0.0
  0
LINE
  5
599
330
1F
100
AcDbEntity
  8
0
  6
Continuous
 62
     7
100
AcDbLine
 10
6738.7116201991
 20
5583.6574126622
 30
0.0
 11
6738.3401959498
 21
5583.6574126622
 31
0.0
  0
LINE
  5
59A
330
1F
100
AcDbEntity
  8
0
  6
Continuous
 62
     7
100
AcDbLine
 10
6740.2116201991
 20
5583.6574126622
 30
0.0
 11
6739.8401959498
 21
5583.6574126622
 31
0.0
  0
LINE
  5
59B
330
1F
100
AcDbEntity
  8
0
  6
Continuous
 62
     7
100
AcDbLine
 10
6741.7116201991
 20
5583.6574126622
 30
0.0
 11
6741.3401959498
 21
5583.6574126622
 31
0.0
  0
LINE
  5
59C
330
1F
100
AcDbEntity
  8
0
  6
Continuous
 62
     7
100
AcDbLine
 10
6743.2116201991
 20
5583.6574126622
 30
0.0
 11
6742.8401959498
 21
5583.6574126622
 31
0.0
  0
LINE
  5
59D
330
1F
100
AcDbEntity
  8
0
  6
Continuous
 62
     7
100
AcDbLine
 10
6744.7116201991
 20
5583.6574126622
 30
0.0
 11
6744.3401959498
 21
5583.6574126622
 31
0.0
  0
LINE
  5
59E
330
1F
100
AcDbEntity
  8
0
  6
Continuous
 62
     7
100
AcDbLine
 10
6746.2116201991
 20
5583.6574126622
 30
0.0
 11
6745.8401959498
 21
5583.6574126622
 31
0.0
  0
LINE
  5
59F
330
1F
100
AcDbEntity
  8
0
  6
Continuous
 62
     7
100
AcDbLine
 10
6732.7116201991
 20
5583.6574126622
 30
0.0
 11
6732.4928943387
 21
5583.6574126622
 31
0.0
  0
LINE
  5
5A0
330
1F
100
AcDbEntity
  8
0
  6
Continuous
 62
     7
100
AcDbLine
 10
6733.0866201991
 20
5561.2812104144
 30
0.0
 11
6733.4576257385
 21
5561.2812104144
 31
0.0
  0
LINE
  5
5A1
330
1F
100
AcDbEntity
  8
0
  6
Continuous
 62
     7
100
AcDbLine
 10
6807.8740921852
 20
5572.4693115383
 30
0.0
 11
6807.8740921852
 21
5607.4693115383
 31
0.0
  0
LINE
  5
5A2
330
1F
100
AcDbEntity
  8
0
  6
Continuous
 62
     7
100
AcDbLine
 10
6807.8740921852
 20
5537.4693115383
 30
0.0
 11
6807.8740921852
 21
5572.4693115383
 31
0.0
  0
LINE
  5
5A3
330
1F
100
AcDbEntity
  8
0
  6
Continuous
 62
     7
100
AcDbLine
 10
6812.4928943387
 20
5572.4693115383
 30
0.0
 11
6812.4928943387
 21
5545.4693115383
 31
0.0
  0
LINE
  5
5A4
330
1F
100
AcDbEntity
  8
0
  6
Continuous
 62
     7
100
AcDbLine
 10
6812.4928943387
 20
5599.4693115383
 30
0.0
 11
6812.4928943387
 21
5572.4693115383
 31
0.0
  0
LINE
  5
5A5
330
1F
100
AcDbEntity
  8
0
  6
Continuous
 62
     7
100
AcDbLine
 10
6762.4928943387
 20
5572.4693115383
 30
0.0
 11
6762.4928943387
 21
5607.4693115383
 31
0.0
  0
LINE
  5
5A6
330
1F
100
AcDbEntity
  8
0
  6
Continuous
 62
     7
100
AcDbLine
 10
6762.4928943387
 20
5537.4693115383
 30
0.0
 11
6762.4928943387
 21
5572.4693115383
 31
0.0
  0
LINE
  5
5A7
330
1F
100
AcDbEntity
  8
0
  6
Continuous
 62
     7
100
AcDbLine
 10
6183.0187553361
 20
4428.4311981721
 30
0.0
 11
6183.0187553361
 21
4383.0500003256
 31
0.0
  0
LINE
  5
5A8
330
1F
100
AcDbEntity
  8
0
  6
Continuous
 62
     7
100
AcDbLine
 10
6253.0187553361
 20
4383.0500003256
 30
0.0
 11
6253.0187553361
 21
4428.4311981721
 31
0.0
  0
LINE
  5
5A9
330
1F
100
AcDbEntity
  8
0
  6
Continuous
 62
     7
100
AcDbLine
 10
6183.0187553361
 20
4383.0500003256
 30
0.0
 11
6191.0187553361
 21
4378.4311981721
 31
0.0
  0
LINE
  5
5AA
330
1F
100
AcDbEntity
  8
0
  6
Continuous
 62
     7
100
AcDbLine
 10
6245.0187553361
 20
4378.4311981721
 30
0.0
 11
6253.0187553361
 21
4383.0500003256
 31
0.0
  0
LINE
  5
5AB
330
1F
100
AcDbEntity
  8
0
  6
Continuous
 62
     7
100
AcDbLine
 10
6206.4464388158
 20
4458.4311981721
 30
0.0
 11
6206.8306542123
 21
4458.2084290527
 31
0.0
  0
LINE
  5
5AC
330
1F
100
AcDbEntity
  8
0
  6
Continuous
 62
     7
100
AcDbLine
 10
6206.0187553361
 20
4443.8686981762
 30
0.0
 11
6206.0187553361
 21
4428.4311981721
 31
0.0
  0
LINE
  5
5AD
330
1F
100
AcDbEntity
  8
0
  6
Continuous
 62
     7
100
AcDbLine
 10
6206.0187553361
 20
4445.3686981762
 30
0.0
 11
6206.0187553361
 21
4445.1811981721
 31
0.0
  0
LINE
  5
5AE
330
1F
100
AcDbEntity
  8
0
  6
Continuous
 62
     7
100
AcDbLine
 10
6206.0187553361
 20
4446.8686981762
 30
0.0
 11
6206.0187553361
 21
4446.6811981721
 31
0.0
  0
LINE
  5
5AF
330
1F
100
AcDbEntity
  8
0
  6
Continuous
 62
     7
100
AcDbLine
 10
6206.0187553361
 20
4448.3686981762
 30
0.0
 11
6206.0187553361
 21
4448.1811981721
 31
0.0
  0
LINE
  5
5B0
330
1F
100
AcDbEntity
  8
0
  6
Continuous
 62
     7
100
AcDbLine
 10
6206.0187553361
 20
4449.8686981762
 30
0.0
 11
6206.0187553361
 21
4449.6811981721
 31
0.0
  0
LINE
  5
5B1
330
1F
100
AcDbEntity
  8
0
  6
Continuous
 62
     7
100
AcDbLine
 10
6206.0187553361
 20
4451.3686981762
 30
0.0
 11
6206.0187553361
 21
4451.1811981721
 31
0.0
  0
LINE
  5
5B2
330
1F
100
AcDbEntity
  8
0
  6
Continuous
 62
     7
100
AcDbLine
 10
6206.0187553361
 20
4452.8686981762
 30
0.0
 11
6206.0187553361
 21
4452.6811981721
 31
0.0
  0
LINE
  5
5B3
330
1F
100
AcDbEntity
  8
0
  6
Continuous
 62
     7
100
AcDbLine
 10
6206.0187553361
 20
4454.3686981762
 30
0.0
 11
6206.0187553361
 21
4454.1811981721
 31
0.0
  0
LINE
  5
5B4
330
1F
100
AcDbEntity
  8
0
  6
Continuous
 62
     7
100
AcDbLine
 10
6206.0187553361
 20
4455.8686981762
 30
0.0
 11
6206.0187553361
 21
4455.6811981721
 31
0.0
  0
LINE
  5
5B5
330
1F
100
AcDbEntity
  8
0
  6
Continuous
 62
     7
100
AcDbLine
 10
6206.0187553361
 20
4457.3686981762
 30
0.0
 11
6206.0187553361
 21
4457.1811981721
 31
0.0
  0
LINE
  5
5B6
330
1F
100
AcDbEntity
  8
0
  6
Continuous
 62
     7
100
AcDbLine
 10
6230.0187553361
 20
4457.9311981721
 30
0.0
 11
6230.0187553361
 21
4458.1186981762
 31
0.0
  0
LINE
  5
5B7
330
1F
100
AcDbEntity
  8
0
  6
Continuous
 62
     7
100
AcDbLine
 10
6230.0187553361
 20
4456.4311981721
 30
0.0
 11
6230.0187553361
 21
4456.6186981762
 31
0.0
  0
LINE
  5
5B8
330
1F
100
AcDbEntity
  8
0
  6
Continuous
 62
     7
100
AcDbLine
 10
6230.0187553361
 20
4454.9311981721
 30
0.0
 11
6230.0187553361
 21
4455.1186981762
 31
0.0
  0
LINE
  5
5B9
330
1F
100
AcDbEntity
  8
0
  6
Continuous
 62
     7
100
AcDbLine
 10
6230.0187553361
 20
4453.4311981721
 30
0.0
 11
6230.0187553361
 21
4453.6186981762
 31
0.0
  0
LINE
  5
5BA
330
1F
100
AcDbEntity
  8
0
  6
Continuous
 62
     7
100
AcDbLine
 10
6230.0187553361
 20
4451.9311981721
 30
0.0
 11
6230.0187553361
 21
4452.1186981762
 31
0.0
  0
LINE
  5
5BB
330
1F
100
AcDbEntity
  8
0
  6
Continuous
 62
     7
100
AcDbLine
 10
6230.0187553361
 20
4450.4311981721
 30
0.0
 11
6230.0187553361
 21
4450.6186981762
 31
0.0
  0
LINE
  5
5BC
330
1F
100
AcDbEntity
  8
0
  6
Continuous
 62
     7
100
AcDbLine
 10
6230.0187553361
 20
4448.9311981721
 30
0.0
 11
6230.0187553361
 21
4449.1186981762
 31
0.0
  0
LINE
  5
5BD
330
1F
100
AcDbEntity
  8
0
  6
Continuous
 62
     7
100
AcDbLine
 10
6230.0187553361
 20
4447.4311981721
 30
0.0
 11
6230.0187553361
 21
4447.6186981762
 31
0.0
  0
LINE
  5
5BE
330
1F
100
AcDbEntity
  8
0
  6
Continuous
 62
     7
100
AcDbLine
 10
6230.0187553361
 20
4445.9311981721
 30
0.0
 11
6230.0187553361
 21
4446.1186981762
 31
0.0
  0
LINE
  5
5BF
330
1F
100
AcDbEntity
  8
0
  6
Continuous
 62
     7
100
AcDbLine
 10
6230.0187553361
 20
4444.4311981721
 30
0.0
 11
6230.0187553361
 21
4444.6186981762
 31
0.0
  0
LINE
  5
5C0
330
1F
100
AcDbEntity
  8
0
  6
Continuous
 62
     7
100
AcDbLine
 10
6230.0187553361
 20
4428.4311981721
 30
0.0
 11
6230.0187553361
 21
4443.1186981762
 31
0.0
  0
LINE
  5
5C1
330
1F
100
AcDbEntity
  8
0
  6
Continuous
 62
     7
100
AcDbLine
 10
6206.8306542123
 20
4456.7124723118
 30
0.0
 11
6206.8306542123
 21
4456.3414667723
 31
0.0
  0
LINE
  5
5C2
330
1F
100
AcDbEntity
  8
0
  6
Continuous
 62
     7
100
AcDbLine
 10
6206.8306542123
 20
4455.2124723118
 30
0.0
 11
6206.8306542123
 21
4454.8414667723
 31
0.0
  0
LINE
  5
5C3
330
1F
100
AcDbEntity
  8
0
  6
Continuous
 62
     7
100
AcDbLine
 10
6206.8306542123
 20
4453.7124723118
 30
0.0
 11
6206.8306542123
 21
4453.3414667723
 31
0.0
  0
LINE
  5
5C4
330
1F
100
AcDbEntity
  8
0
  6
Continuous
 62
     7
100
AcDbLine
 10
6206.8306542123
 20
4452.2124723118
 30
0.0
 11
6206.8306542123
 21
4451.8414667723
 31
0.0
  0
LINE
  5
5C5
330
1F
100
AcDbEntity
  8
0
  6
Continuous
 62
     7
100
AcDbLine
 10
6206.8306542123
 20
4450.7124723118
 30
0.0
 11
6206.8306542123
 21
4450.3414667723
 31
0.0
  0
LINE
  5
5C6
330
1F
100
AcDbEntity
  8
0
  6
Continuous
 62
     7
100
AcDbLine
 10
6206.8306542123
 20
4449.2124723118
 30
0.0
 11
6206.8306542123
 21
4448.8414667723
 31
0.0
  0
LINE
  5
5C7
330
1F
100
AcDbEntity
  8
0
  6
Continuous
 62
     7
100
AcDbLine
 10
6206.8306542123
 20
4447.7124723118
 30
0.0
 11
6206.8306542123
 21
4447.3414667723
 31
0.0
  0
LINE
  5
5C8
330
1F
100
AcDbEntity
  8
0
  6
Continuous
 62
     7
100
AcDbLine
 10
6206.8306542123
 20
4446.2124723118
 30
0.0
 11
6206.8306542123
 21
4445.8414667723
 31
0.0
  0
LINE
  5
5C9
330
1F
100
AcDbEntity
  8
0
  6
Continuous
 62
     7
100
AcDbLine
 10
6206.8306542123
 20
4444.7124723118
 30
0.0
 11
6206.8306542123
 21
4444.3414667723
 31
0.0
  0
LINE
  5
5CA
330
1F
100
AcDbEntity
  8
0
  6
Continuous
 62
     7
100
AcDbLine
 10
6229.20685646
 20
4455.5874723118
 30
0.0
 11
6229.20685646
 21
4455.9584290527
 31
0.0
  0
LINE
  5
5CB
330
1F
100
AcDbEntity
  8
0
  6
Continuous
 62
     7
100
AcDbLine
 10
6229.20685646
 20
4454.0874723118
 30
0.0
 11
6229.20685646
 21
4454.4584290527
 31
0.0
  0
LINE
  5
5CC
330
1F
100
AcDbEntity
  8
0
  6
Continuous
 62
     7
100
AcDbLine
 10
6229.20685646
 20
4452.5874723118
 30
0.0
 11
6229.20685646
 21
4452.9584290527
 31
0.0
  0
LINE
  5
5CD
330
1F
100
AcDbEntity
  8
0
  6
Continuous
 62
     7
100
AcDbLine
 10
6229.20685646
 20
4451.0874723118
 30
0.0
 11
6229.20685646
 21
4451.4584290527
 31
0.0
  0
LINE
  5
5CE
330
1F
100
AcDbEntity
  8
0
  6
Continuous
 62
     7
100
AcDbLine
 10
6229.20685646
 20
4449.5874723118
 30
0.0
 11
6229.20685646
 21
4449.9584290527
 31
0.0
  0
LINE
  5
5CF
330
1F
100
AcDbEntity
  8
0
  6
Continuous
 62
     7
100
AcDbLine
 10
6229.20685646
 20
4448.0874723118
 30
0.0
 11
6229.20685646
 21
4448.4584290527
 31
0.0
  0
LINE
  5
5D0
330
1F
100
AcDbEntity
  8
0
  6
Continuous
 62
     7
100
AcDbLine
 10
6229.20685646
 20
4446.5874723118
 30
0.0
 11
6229.20685646
 21
4446.9584290527
 31
0.0
  0
LINE
  5
5D1
330
1F
100
AcDbEntity
  8
0
  6
Continuous
 62
     7
100
AcDbLine
 10
6229.20685646
 20
4445.0874723118
 30
0.0
 11
6229.20685646
 21
4445.4584290527
 31
0.0
  0
LINE
  5
5D2
330
1F
100
AcDbEntity
  8
0
  6
Continuous
 62
     7
100
AcDbLine
 10
6229.20685646
 20
4457.0874723118
 30
0.0
 11
6229.20685646
 21
4457.4584290527
 31
0.0
  0
LINE
  5
5D3
330
1F
100
AcDbEntity
  8
0
  6
Continuous
 62
     7
100
AcDbLine
 10
6206.8306542123
 20
4458.2124723118
 30
0.0
 11
6206.8306542123
 21
4457.8414667723
 31
0.0
  0
LINE
  5
5D4
330
1F
100
AcDbEntity
  8
0
  6
Continuous
 62
     7
100
AcDbLine
 10
6183.0187553361
 20
4428.4311981721
 30
0.0
 11
6253.0187553361
 21
4428.4311981721
 31
0.0
  0
LINE
  5
5D5
330
1F
100
AcDbEntity
  8
0
  6
Continuous
 62
     7
100
AcDbLine
 10
6183.0187553361
 20
4383.0500003256
 30
0.0
 11
6253.0187553361
 21
4383.0500003256
 31
0.0
  0
LINE
  5
5D6
330
1F
100
AcDbEntity
  8
0
  6
Continuous
 62
     7
100
AcDbLine
 10
6245.0187553361
 20
4378.4311981721
 30
0.0
 11
6191.0187553361
 21
4378.4311981721
 31
0.0
  0
LINE
  5
5D7
330
1F
100
AcDbEntity
  8
0
  6
Continuous
 62
     7
100
AcDbLine
 10
6230.0187553361
 20
4458.1186981762
 30
0.0
 11
6229.4774894659
 21
4458.4311981721
 31
0.0
  0
LINE
  5
5D8
330
1F
100
AcDbEntity
  8
0
  6
Continuous
 62
     7
100
AcDbLine
 10
6230.0187553361
 20
4458.4311981721
 30
0.0
 11
6230.0187553361
 21
4458.1186981762
 31
0.0
  0
LINE
  5
5D9
330
1F
100
AcDbEntity
  8
0
  6
Continuous
 62
     7
100
AcDbLine
 10
6230.0187553361
 20
4443.1186981762
 30
0.0
 11
6230.0187553361
 21
4444.4311981721
 31
0.0
  0
LINE
  5
5DA
330
1F
100
AcDbEntity
  8
0
  6
Continuous
 62
     7
100
AcDbLine
 10
6230.0187553361
 20
4458.4311981721
 30
0.0
 11
6229.4774894659
 21
4458.4311981721
 31
0.0
  0
LWPOLYLINE
  5
5DB
330
1F
100
AcDbEntity
  8
0
  6
Continuous
 62
     7
100
AcDbPolyline
 90
        3
 70
   128
 43
0.0
 10
6259.0179443359
 20
5581.2350984245
 10
6257.0219744263
 20
5577.7372276328
 10
6253.5187564984
 20
5576.5049334197
  0
LWPOLYLINE
  5
5DC
330
1F
100
AcDbEntity
  8
0
  6
Continuous
 62
     7
100
AcDbPolyline
 90
        7
 70
   128
 43
0.0
 10
6259.0179443359
 20
5647.9325767188
 10
6258.9277735215
 20
5647.2912174329
 10
6258.7019727796
 20
5647.0140653288
 10
6258.6082069917
 20
5647.0081013726
 10
6258.5200006104
 20
5647.0573774317
 10
6258.3929790145
 20
5647.3212266448
 10
6259.0187564686
 20
5651.2750859886
  0
LWPOLYLINE
  5
5DD
330
1F
100
AcDbEntity
  8
0
  6
Continuous
 62
     7
100
AcDbPolyline
 90
        5
 70
   128
 43
0.0
 10
6258.6441040039
 20
5637.3709614902
 10
6258.6008666283
 20
5637.3551386175
 10
6258.5577351757
 20
5637.3662863511
 10
6258.3776898346
 20
5637.7728218009
 10
6259.0187564686
 20
5641.6332598358
  0
LWPOLYLINE
  5
5DE
330
1F
100
AcDbEntity
  8
0
  6
Continuous
 62
     7
100
AcDbPolyline
 90
        7
 70
   128
 43
0.0
 10
6248.0163574219
 20
5651.2750859886
 10
6248.6448536035
 20
5647.321119856
 10
6248.517908009
 20
5647.0579432618
 10
6248.4299086106
 20
5647.0082773287
 10
6248.3358080251
 20
5647.0134449304
 10
6248.1114372713
 20
5647.292397427
 10
6248.0187546655
 20
5647.9325767188
  0
LWPOLYLINE
  5
5DF
330
1F
100
AcDbEntity
  8
0
  6
Continuous
 62
     7
100
AcDbPolyline
 90
        3
 70
   128
 43
0.0
 10
6253.5171508789
 20
5576.5049334197
 10
6249.2885940463
 20
5578.4040779675
 10
6248.0187546655
 20
5581.2350984245
  0
LWPOLYLINE
  5
5E0
330
1F
100
AcDbEntity
  8
0
  6
Continuous
 62
     7
100
AcDbPolyline
 90
        7
 70
   128
 43
0.0
 10
6248.0163574219
 20
5641.6332598358
 10
6248.6448503508
 20
5637.6793096357
 10
6248.5179014225
 20
5637.4161401242
 10
6248.4299009513
 20
5637.3664804883
 10
6248.3358002291
 20
5637.3716521987
 10
6248.1114367649
 20
5637.6506019104
 10
6248.0187546655
 20
5638.2907803684
  0
LWPOLYLINE
  5
5E1
330
1F
100
AcDbEntity
  8
0
  6
Continuous
 62
     7
100
AcDbPolyline
 90
        3
 70
   128
 43
0.0
 10
6248.0163574219
 20
5647.9325767189
 10
6248.1097437563
 20
5648.8278045951
 10
6248.2808307007
 20
5649.6118779807
  0
LWPOLYLINE
  5
5E2
330
1F
100
AcDbEntity
  8
0
  6
Continuous
 62
     7
100
AcDbPolyline
 90
        3
 70
   128
 43
0.0
 10
6248.0163574219
 20
5638.2907803684
 10
6248.1097224332
 20
5639.1860313154
 10
6248.2808307007
 20
5639.9700816303
  0
LWPOLYLINE
  5
5E3
330
1F
100
AcDbEntity
  8
0
  6
Continuous
 62
     7
100
AcDbPolyline
 90
        3
 70
   128
 43
0.0
 10
6258.7547302246
 20
5649.6073182254
 10
6258.9609846629
 20
5648.6209857349
 10
6259.0187564686
 20
5647.9325767188
  0
LWPOLYLINE
  5
5E4
330
1F
100
AcDbEntity
  8
0
  6
Continuous
 62
     7
100
AcDbPolyline
 90
        5
 70
   128
 43
0.0
 10
6960.8879089355
 20
5647.9325767188
 10
6960.2926246979
 20
5649.8296952671
 10
6961.2118773591
 20
5651.5953117147
 10
6963.1075337574
 20
5652.194033706
 10
6964.8746124974
 20
5651.2750859886
  0
LWPOLYLINE
  5
5E5
330
1F
100
AcDbEntity
  8
0
  6
Continuous
 62
     7
100
AcDbPolyline
 90
        5
 70
   128
 43
0.0
 10
6949.3980407715
 20
5638.2907803684
 10
6948.8019882906
 20
5640.1878988451
 10
6949.7212206837
 20
5641.9535169791
 10
6951.6168749984
 20
5642.5522373554
 10
6953.3839396706
 20
5641.6332598358
  0
LWPOLYLINE
  5
5E6
330
1F
100
AcDbEntity
  8
0
  6
Continuous
 62
     7
100
AcDbPolyline
 90
        5
 70
   128
 43
0.0
 10
6964.8742675781
 20
5651.2750859886
 10
6965.4729970067
 20
5649.3775945178
 10
6964.5545408279
 20
5647.612596899
 10
6962.6590010612
 20
5647.0134449304
 10
6960.8911744824
 20
5647.9325767188
  0
LWPOLYLINE
  5
5E7
330
1F
100
AcDbEntity
  8
0
  6
Continuous
 62
     7
100
AcDbPolyline
 90
        5
 70
   128
 43
0.0
 10
6953.3805847168
 20
5641.6332598358
 10
6953.9823267563
 20
5639.7357812224
 10
6953.0638620312
 20
5637.9707929637
 10
6951.1683288885
 20
5637.3716521987
 10
6949.4005016557
 20
5638.2907803684
  0
LWPOLYLINE
  5
5E8
330
1F
100
AcDbEntity
  8
0
  6
Continuous
 62
     7
100
AcDbPolyline
 90
        3
 70
   128
 43
0.0
 10
6248.0163574219
 20
4309.5198990626
 10
6249.9995445899
 20
4313.0773122082
 10
6253.5187564984
 20
4314.4156755729
  0
LWPOLYLINE
  5
5E9
330
1F
100
AcDbEntity
  8
0
  6
Continuous
 62
     7
100
AcDbPolyline
 90
        8
 70
   128
 43
0.0
 10
6248.0163574219
 20
4230.0329180284
 10
6248.1099572249
 20
4230.5260004492
 10
6248.2135640198
 20
4230.626497495
 10
6248.3349475197
 20
4230.6314678129
 10
6248.5174422972
 20
4230.457497602
 10
6248.6448655229
 20
4230.0737330399
 10
6248.5692276044
 20
4228.813919935
 10
6248.0187546655
 20
4226.0494800134
  0
LWPOLYLINE
  5
5EA
330
1F
100
AcDbEntity
  8
0
  6
Continuous
 62
     7
100
AcDbPolyline
 90
        8
 70
   128
 43
0.0
 10
6248.0163574219
 20
4241.5235908551
 10
6248.109961447
 20
4242.0166909233
 10
6248.2135698816
 20
4242.1171709933
 10
6248.3349533433
 20
4242.1221042202
 10
6248.5174432605
 20
4241.9481708722
 10
6248.644868558
 20
4241.5643868326
 10
6248.5692303994
 20
4240.3045779842
 10
6248.0187546655
 20
4237.5401528401
  0
LWPOLYLINE
  5
5EB
330
1F
100
AcDbEntity
  8
0
  6
Continuous
 62
     7
100
AcDbPolyline
 90
        8
 70
   128
 43
0.0
 10
6259.0179443359
 20
4226.0494800134
 10
6258.4682994981
 20
4228.8139972197
 10
6258.3927335258
 20
4230.0741376847
 10
6258.5200005217
 20
4230.4574641027
 10
6258.7020566898
 20
4230.6312328481
 10
6258.8235185974
 20
4230.6266100847
 10
6258.9260934102
 20
4230.5241502152
 10
6259.0187564686
 20
4230.0329180284
  0
LWPOLYLINE
  5
5EC
330
1F
100
AcDbEntity
  8
0
  6
Continuous
 62
     7
100
AcDbPolyline
 90
        3
 70
   128
 43
0.0
 10
6253.5171508789
 20
4314.4156755729
 10
6257.7539893029
 20
4312.3845863015
 10
6259.0187564686
 20
4309.5198990626
  0
LWPOLYLINE
  5
5ED
330
1F
100
AcDbEntity
  8
0
  6
Continuous
 62
     7
100
AcDbPolyline
 90
        5
 70
   128
 43
0.0
 10
6259.0179443359
 20
4237.5401528401
 10
6258.5367060577
 20
4241.9753152352
 10
6258.698393332
 20
4242.1192253687
 10
6258.865948453
 20
4242.1145003506
 10
6258.9401602939
 20
4241.9781656785
  0
LWPOLYLINE
  5
5EE
330
1F
100
AcDbEntity
  8
0
  6
Continuous
 62
     7
100
AcDbPolyline
 90
        3
 70
   128
 43
0.0
 10
6259.0179443359
 20
4230.0329180284
 10
6258.8804943662
 20
4229.0084603703
 10
6258.6460672513
 20
4228.0440898461
  0
LWPOLYLINE
  5
5EF
330
1F
100
AcDbEntity
  8
0
  6
Continuous
 62
     7
100
AcDbPolyline
 90
        3
 70
   128
 43
0.0
 10
6248.3863830566
 20
4228.0406923814
 10
6248.1076884447
 20
4229.2514671854
 10
6248.0187546655
 20
4230.0329180284
  0
LWPOLYLINE
  5
5F0
330
1F
100
AcDbEntity
  8
0
  6
Continuous
 62
     7
100
AcDbPolyline
 90
        3
 70
   128
 43
0.0
 10
6248.3863830566
 20
4239.5313652082
 10
6248.107688032
 20
4240.7421405084
 10
6248.0187546655
 20
4241.5235908551
  0
LWPOLYLINE
  5
5F1
330
1F
100
AcDbEntity
  8
0
  6
Continuous
 62
     7
100
AcDbPolyline
 90
       10
 70
   128
 43
0.0
 10
6243.0152893066
 20
4305.9312077088
 10
6239.6692931292
 20
4318.4324291897
 10
6242.5470815343
 20
4329.9589829648
 10
6242.9936283234
 20
4330.8808813969
 10
6243.0032960215
 20
4330.9002614786
 10
6243.0059761968
 20
4330.9056249664
 10
6243.0060599766
 20
4330.9057918615
 10
6243.0060470295
 20
4330.9057652555
 10
6243.0056529047
 20
4330.9049738695
 10
6242.9978233024
 20
4330.8892818017
  0
LWPOLYLINE
  5
5F2
330
1F
100
AcDbEntity
  8
0
  6
Continuous
 62
     7
100
AcDbPolyline
 90
        3
 70
   128
 43
0.0
 10
6734.9510192871
 20
5561.2880137295
 10
6735.2165037009
 20
5560.8330898372
 10
6735.4229911454
 20
5560.4756470685
  0
LWPOLYLINE
  5
5F3
330
1F
100
AcDbEntity
  8
0
  6
Continuous
 62
     7
100
AcDbPolyline
 90
        3
 70
   128
 43
0.0
 10
6736.4501953125
 20
5561.2880137295
 10
6736.7165037009
 20
5560.8330898372
 10
6736.9229911454
 20
5560.4756470685
  0
LWPOLYLINE
  5
5F4
330
1F
100
AcDbEntity
  8
0
  6
Continuous
 62
     7
100
AcDbPolyline
 90
        3
 70
   128
 43
0.0
 10
6737.9531860352
 20
5561.2880137295
 10
6738.2165037009
 20
5560.8330898372
 10
6738.4229911454
 20
5560.4756470685
  0
LWPOLYLINE
  5
5F5
330
1F
100
AcDbEntity
  8
0
  6
Continuous
 62
     7
100
AcDbPolyline
 90
        3
 70
   128
 43
0.0
 10
6739.4523620605
 20
5561.2880137295
 10
6739.7165037009
 20
5560.8330898372
 10
6739.9229911454
 20
5560.4756470685
  0
LWPOLYLINE
  5
5F6
330
1F
100
AcDbEntity
  8
0
  6
Continuous
 62
     7
100
AcDbPolyline
 90
        3
 70
   128
 43
0.0
 10
6740.9515380859
 20
5561.2880137295
 10
6741.2165037009
 20
5560.8330898372
 10
6741.4229911454
 20
5560.4756470685
  0
LWPOLYLINE
  5
5F7
330
1F
100
AcDbEntity
  8
0
  6
Continuous
 62
     7
100
AcDbPolyline
 90
        3
 70
   128
 43
0.0
 10
6742.4507141113
 20
5561.2880137295
 10
6742.7165037009
 20
5560.8330898372
 10
6742.9229911454
 20
5560.4756470685
  0
LWPOLYLINE
  5
5F8
330
1F
100
AcDbEntity
  8
0
  6
Continuous
 62
     7
100
AcDbPolyline
 90
        3
 70
   128
 43
0.0
 10
6743.9498901367
 20
5561.2880137295
 10
6744.2165037009
 20
5560.8330898372
 10
6744.4229911454
 20
5560.4756470685
  0
LWPOLYLINE
  5
5F9
330
1F
100
AcDbEntity
  8
0
  6
Continuous
 62
     7
100
AcDbPolyline
 90
        3
 70
   128
 43
0.0
 10
6745.4528808594
 20
5561.2880137295
 10
6745.7165037009
 20
5560.8330898372
 10
6745.9229911454
 20
5560.4756470685
  0
LWPOLYLINE
  5
5FA
330
1F
100
AcDbEntity
  8
0
  6
Continuous
 62
     7
100
AcDbPolyline
 90
        3
 70
   128
 43
0.0
 10
6746.9520568848
 20
5561.2880137295
 10
6747.2165037009
 20
5560.8330898372
 10
6747.4229911454
 20
5560.4756470685
  0
LWPOLYLINE
  5
5FB
330
1F
100
AcDbEntity
  8
0
  6
Continuous
 62
     7
100
AcDbPolyline
 90
        3
 70
   128
 43
0.0
 10
6734.6725463867
 20
5584.4629760081
 10
6734.4123891551
 20
5584.0118591081
 10
6734.2076257385
 20
5583.6574126622
  0
LWPOLYLINE
  5
5FC
330
1F
100
AcDbEntity
  8
0
  6
Continuous
 62
     7
100
AcDbPolyline
 90
        3
 70
   128
 43
0.0
 10
6736.1717224121
 20
5584.4629760081
 10
6735.9123891551
 20
5584.0118591081
 10
6735.7076257385
 20
5583.6574126622
  0
LWPOLYLINE
  5
5FD
330
1F
100
AcDbEntity
  8
0
  6
Continuous
 62
     7
100
AcDbPolyline
 90
        3
 70
   128
 43
0.0
 10
6737.6708984375
 20
5584.4629760081
 10
6737.4123891551
 20
5584.0118591081
 10
6737.2076257385
 20
5583.6574126622
  0
LWPOLYLINE
  5
5FE
330
1F
100
AcDbEntity
  8
0
  6
Continuous
 62
     7
100
AcDbPolyline
 90
        3
 70
   128
 43
0.0
 10
6739.1700744629
 20
5584.4629760081
 10
6738.9123891551
 20
5584.0118591081
 10
6738.7076257385
 20
5583.6574126622
  0
LWPOLYLINE
  5
5FF
330
1F
100
AcDbEntity
  8
0
  6
Continuous
 62
     7
100
AcDbPolyline
 90
        3
 70
   128
 43
0.0
 10
6740.6692504883
 20
5584.4629760081
 10
6740.4123891551
 20
5584.0118591081
 10
6740.2076257385
 20
5583.6574126622
  0
LWPOLYLINE
  5
600
330
1F
100
AcDbEntity
  8
0
  6
Continuous
 62
     7
100
AcDbPolyline
 90
        3
 70
   128
 43
0.0
 10
6742.1722412109
 20
5584.4629760081
 10
6741.9123891551
 20
5584.0118591081
 10
6741.7076257385
 20
5583.6574126622
  0
LWPOLYLINE
  5
601
330
1F
100
AcDbEntity
  8
0
  6
Continuous
 62
     7
100
AcDbPolyline
 90
        3
 70
   128
 43
0.0
 10
6743.6714172363
 20
5584.4629760081
 10
6743.4123891551
 20
5584.0118591081
 10
6743.2076257385
 20
5583.6574126622
  0
LWPOLYLINE
  5
602
330
1F
100
AcDbEntity
  8
0
  6
Continuous
 62
     7
100
AcDbPolyline
 90
        3
 70
   128
 43
0.0
 10
6745.1705932617
 20
5584.4629760081
 10
6744.9123891551
 20
5584.0118591081
 10
6744.7076257385
 20
5583.6574126622
  0
LWPOLYLINE
  5
603
330
1F
100
AcDbEntity
  8
0
  6
Continuous
 62
     7
100
AcDbPolyline
 90
        3
 70
   128
 43
0.0
 10
6746.6697692871
 20
5584.4629760081
 10
6746.4123891551
 20
5584.0118591081
 10
6746.2076257385
 20
5583.6574126622
  0
LWPOLYLINE
  5
604
330
1F
100
AcDbEntity
  8
0
  6
Continuous
 62
     7
100
AcDbPolyline
 90
        3
 70
   128
 43
0.0
 10
6733.1695556641
 20
5584.4629760081
 10
6732.9101882181
 20
5584.0080492401
 10
6732.7036954558
 20
5583.6506093471
  0
LWPOLYLINE
  5
605
330
1F
100
AcDbEntity
  8
0
  6
Continuous
 62
     7
100
AcDbPolyline
 90
        3
 70
   128
 43
0.0
 10
6733.4518432617
 20
5561.2880137295
 10
6733.7165037009
 20
5560.8330898372
 10
6733.9229911454
 20
5560.4756470685
  0
LWPOLYLINE
  5
606
330
1F
100
AcDbEntity
  8
0
  6
Continuous
 62
     7
100
AcDbPolyline
 90
        3
 70
   128
 43
0.0
 10
6734.1232299805
 20
5560.4760762315
 10
6734.386008926
 20
5560.926952981
 10
6734.5906634582
 20
5561.2812104144
  0
LWPOLYLINE
  5
607
330
1F
100
AcDbEntity
  8
0
  6
Continuous
 62
     7
100
AcDbPolyline
 90
        3
 70
   128
 43
0.0
 10
6735.6224060059
 20
5560.4760762315
 10
6735.886008926
 20
5560.926952981
 10
6736.0906634582
 20
5561.2812104144
  0
LWPOLYLINE
  5
608
330
1F
100
AcDbEntity
  8
0
  6
Continuous
 62
     7
100
AcDbPolyline
 90
        3
 70
   128
 43
0.0
 10
6737.1253967285
 20
5560.4760762315
 10
6737.386008926
 20
5560.926952981
 10
6737.5906634582
 20
5561.2812104144
  0
LWPOLYLINE
  5
609
330
1F
100
AcDbEntity
  8
0
  6
Continuous
 62
     7
100
AcDbPolyline
 90
        3
 70
   128
 43
0.0
 10
6738.6245727539
 20
5560.4760762315
 10
6738.886008926
 20
5560.926952981
 10
6739.0906634582
 20
5561.2812104144
  0
LWPOLYLINE
  5
60A
330
1F
100
AcDbEntity
  8
0
  6
Continuous
 62
     7
100
AcDbPolyline
 90
        3
 70
   128
 43
0.0
 10
6740.1237487793
 20
5560.4760762315
 10
6740.386008926
 20
5560.926952981
 10
6740.5906634582
 20
5561.2812104144
  0
LWPOLYLINE
  5
60B
330
1F
100
AcDbEntity
  8
0
  6
Continuous
 62
     7
100
AcDbPolyline
 90
        3
 70
   128
 43
0.0
 10
6741.6229248047
 20
5560.4760762315
 10
6741.886008926
 20
5560.926952981
 10
6742.0906634582
 20
5561.2812104144
  0
LWPOLYLINE
  5
60C
330
1F
100
AcDbEntity
  8
0
  6
Continuous
 62
     7
100
AcDbPolyline
 90
        3
 70
   128
 43
0.0
 10
6743.1221008301
 20
5560.4760762315
 10
6743.386008926
 20
5560.926952981
 10
6743.5906634582
 20
5561.2812104144
  0
LWPOLYLINE
  5
60D
330
1F
100
AcDbEntity
  8
0
  6
Continuous
 62
     7
100
AcDbPolyline
 90
        3
 70
   128
 43
0.0
 10
6744.6250915527
 20
5560.4760762315
 10
6744.886008926
 20
5560.926952981
 10
6745.0906634582
 20
5561.2812104144
  0
LWPOLYLINE
  5
60E
330
1F
100
AcDbEntity
  8
0
  6
Continuous
 62
     7
100
AcDbPolyline
 90
        3
 70
   128
 43
0.0
 10
6746.1242675781
 20
5560.4760762315
 10
6746.386008926
 20
5560.926952981
 10
6746.5906634582
 20
5561.2812104144
  0
LWPOLYLINE
  5
60F
330
1F
100
AcDbEntity
  8
0
  6
Continuous
 62
     7
100
AcDbPolyline
 90
        3
 70
   128
 43
0.0
 10
6735.3439331055
 20
5583.6447248108
 10
6735.0847326771
 20
5584.0995719937
 10
6734.8782560117
 20
5584.4569629966
  0
LWPOLYLINE
  5
610
330
1F
100
AcDbEntity
  8
0
  6
Continuous
 62
     7
100
AcDbPolyline
 90
        3
 70
   128
 43
0.0
 10
6736.8469238281
 20
5583.6447248108
 10
6736.5847326771
 20
5584.0995719937
 10
6736.3782560117
 20
5584.4569629966
  0
LWPOLYLINE
  5
611
330
1F
100
AcDbEntity
  8
0
  6
Continuous
 62
     7
100
AcDbPolyline
 90
        3
 70
   128
 43
0.0
 10
6738.3460998535
 20
5583.6447248108
 10
6738.0847326771
 20
5584.0995719937
 10
6737.8782560117
 20
5584.4569629966
  0
LWPOLYLINE
  5
612
330
1F
100
AcDbEntity
  8
0
  6
Continuous
 62
     7
100
AcDbPolyline
 90
        3
 70
   128
 43
0.0
 10
6739.8452758789
 20
5583.6447248108
 10
6739.5847326771
 20
5584.0995719937
 10
6739.3782560117
 20
5584.4569629966
  0
LWPOLYLINE
  5
613
330
1F
100
AcDbEntity
  8
0
  6
Continuous
 62
     7
100
AcDbPolyline
 90
        3
 70
   128
 43
0.0
 10
6741.3444519043
 20
5583.6447248108
 10
6741.0847326771
 20
5584.0995719937
 10
6740.8782560117
 20
5584.4569629966
  0
LWPOLYLINE
  5
614
330
1F
100
AcDbEntity
  8
0
  6
Continuous
 62
     7
100
AcDbPolyline
 90
        3
 70
   128
 43
0.0
 10
6742.847442627
 20
5583.6447248108
 10
6742.5847326771
 20
5584.0995719937
 10
6742.3782560117
 20
5584.4569629966
  0
LWPOLYLINE
  5
615
330
1F
100
AcDbEntity
  8
0
  6
Continuous
 62
     7
100
AcDbPolyline
 90
        3
 70
   128
 43
0.0
 10
6744.3466186523
 20
5583.6447248108
 10
6744.0847326771
 20
5584.0995719937
 10
6743.8782560117
 20
5584.4569629966
  0
LWPOLYLINE
  5
616
330
1F
100
AcDbEntity
  8
0
  6
Continuous
 62
     7
100
AcDbPolyline
 90
        3
 70
   128
 43
0.0
 10
6745.8457946777
 20
5583.6447248108
 10
6745.5847326771
 20
5584.0995719937
 10
6745.3782560117
 20
5584.4569629966
  0
LWPOLYLINE
  5
617
330
1F
100
AcDbEntity
  8
0
  6
Continuous
 62
     7
100
AcDbPolyline
 90
        3
 70
   128
 43
0.0
 10
6733.8447570801
 20
5583.6447248108
 10
6733.5847326771
 20
5584.0995719937
 10
6733.3782560117
 20
5584.4569629966
  0
LWPOLYLINE
  5
618
330
1F
100
AcDbEntity
  8
0
  6
Continuous
 62
     7
100
AcDbPolyline
 90
        3
 70
   128
 43
0.0
 10
6732.6240539551
 20
5560.4760762315
 10
6732.886008926
 20
5560.926952981
 10
6733.0906634582
 20
5561.2812104144
  0
LWPOLYLINE
  5
619
330
1F
100
AcDbEntity
  8
0
  6
Continuous
 62
     7
100
AcDbPolyline
 90
        8
 70
   128
 43
0.0
 10
6733.1695556641
 20
5584.4184147709
 10
6733.1843530263
 20
5584.4862102072
 10
6733.1876299915
 20
5584.494370782
 10
6733.1909031005
 20
5584.4974633337
 10
6733.1930835701
 20
5584.4968190628
 10
6733.2192711221
 20
5584.3450258828
 10
6733.3621640413
 20
5581.1612344527
 10
6733.9303943346
 20
5560.4693115383
  0
LWPOLYLINE
  5
61A
330
1F
100
AcDbEntity
  8
0
  6
Continuous
 62
     7
100
AcDbPolyline
 90
        8
 70
   128
 43
0.0
 10
6734.6725463867
 20
5584.4184147709
 10
6734.6843530263
 20
5584.4862102072
 10
6734.6876299915
 20
5584.494370782
 10
6734.6909031005
 20
5584.4974633337
 10
6734.6930835701
 20
5584.4968190628
 10
6734.7192711221
 20
5584.3450258828
 10
6734.8621640413
 20
5581.1612344527
 10
6735.4303943346
 20
5560.4693115383
  0
LWPOLYLINE
  5
61B
330
1F
100
AcDbEntity
  8
0
  6
Continuous
 62
     7
100
AcDbPolyline
 90
        8
 70
   128
 43
0.0
 10
6736.1717224121
 20
5584.4184147709
 10
6736.1843530263
 20
5584.4862102072
 10
6736.1876299915
 20
5584.494370782
 10
6736.1909031005
 20
5584.4974633337
 10
6736.1930835701
 20
5584.4968190628
 10
6736.2192711221
 20
5584.3450258828
 10
6736.3621640413
 20
5581.1612344527
 10
6736.9303943346
 20
5560.4693115383
  0
LWPOLYLINE
  5
61C
330
1F
100
AcDbEntity
  8
0
  6
Continuous
 62
     7
100
AcDbPolyline
 90
        8
 70
   128
 43
0.0
 10
6737.6708984375
 20
5584.4184147709
 10
6737.6843530263
 20
5584.4862102072
 10
6737.6876299915
 20
5584.494370782
 10
6737.6909031005
 20
5584.4974633337
 10
6737.6930835701
 20
5584.4968190628
 10
6737.7192711221
 20
5584.3450258828
 10
6737.8621640413
 20
5581.1612344527
 10
6738.4303943346
 20
5560.4693115383
  0
LWPOLYLINE
  5
61D
330
1F
100
AcDbEntity
  8
0
  6
Continuous
 62
     7
100
AcDbPolyline
 90
        8
 70
   128
 43
0.0
 10
6739.1700744629
 20
5584.4184147709
 10
6739.1843530263
 20
5584.4862102072
 10
6739.1876299915
 20
5584.494370782
 10
6739.1909031005
 20
5584.4974633337
 10
6739.1930835701
 20
5584.4968190628
 10
6739.2192711221
 20
5584.3450258828
 10
6739.3621640413
 20
5581.1612344527
 10
6739.9303943346
 20
5560.4693115383
  0
LWPOLYLINE
  5
61E
330
1F
100
AcDbEntity
  8
0
  6
Continuous
 62
     7
100
AcDbPolyline
 90
        8
 70
   128
 43
0.0
 10
6740.6692504883
 20
5584.4184147709
 10
6740.6843530263
 20
5584.4862102072
 10
6740.6876299915
 20
5584.494370782
 10
6740.6909031005
 20
5584.4974633337
 10
6740.6930835701
 20
5584.4968190628
 10
6740.7192711221
 20
5584.3450258828
 10
6740.8621640413
 20
5581.1612344527
 10
6741.4303943346
 20
5560.4693115383
  0
LWPOLYLINE
  5
61F
330
1F
100
AcDbEntity
  8
0
  6
Continuous
 62
     7
100
AcDbPolyline
 90
        8
 70
   128
 43
0.0
 10
6742.1722412109
 20
5584.4184147709
 10
6742.1843530263
 20
5584.4862102072
 10
6742.1876299915
 20
5584.494370782
 10
6742.1909031005
 20
5584.4974633337
 10
6742.1930835701
 20
5584.4968190628
 10
6742.2192711221
 20
5584.3450258828
 10
6742.3621640413
 20
5581.1612344527
 10
6742.9303943346
 20
5560.4693115383
  0
LWPOLYLINE
  5
620
330
1F
100
AcDbEntity
  8
0
  6
Continuous
 62
     7
100
AcDbPolyline
 90
        8
 70
   128
 43
0.0
 10
6743.6714172363
 20
5584.4184147709
 10
6743.6843530263
 20
5584.4862102072
 10
6743.6876299915
 20
5584.494370782
 10
6743.6909031005
 20
5584.4974633337
 10
6743.6930835701
 20
5584.4968190628
 10
6743.7192711221
 20
5584.3450258828
 10
6743.8621640413
 20
5581.1612344527
 10
6744.4303943346
 20
5560.4693115383
  0
LWPOLYLINE
  5
621
330
1F
100
AcDbEntity
  8
0
  6
Continuous
 62
     7
100
AcDbPolyline
 90
        8
 70
   128
 43
0.0
 10
6745.1705932617
 20
5584.4184147709
 10
6745.1843530263
 20
5584.4862102072
 10
6745.1876299915
 20
5584.494370782
 10
6745.1909031005
 20
5584.4974633337
 10
6745.1930835701
 20
5584.4968190628
 10
6745.2192711221
 20
5584.3450258828
 10
6745.3621640413
 20
5581.1612344527
 10
6745.9303943346
 20
5560.4693115383
  0
LWPOLYLINE
  5
622
330
1F
100
AcDbEntity
  8
0
  6
Continuous
 62
     7
100
AcDbPolyline
 90
        8
 70
   128
 43
0.0
 10
6746.6697692871
 20
5584.4184147709
 10
6746.6843530263
 20
5584.4862102072
 10
6746.6876299915
 20
5584.494370782
 10
6746.6909031005
 20
5584.4974633337
 10
6746.6930835701
 20
5584.4968190628
 10
6746.7192711221
 20
5584.3450258828
 10
6746.8621640413
 20
5581.1612344527
 10
6747.4303943346
 20
5560.4693115383
  0
LWPOLYLINE
  5
623
330
1F
100
AcDbEntity
  8
0
  6
Continuous
 62
     7
100
AcDbPolyline
 90
        7
 70
   128
 43
0.0
 10
6732.4905395508
 20
5562.0591128793
 10
6732.5932884414
 20
5560.4751330076
 10
6732.6014202266
 20
5560.4448184939
 10
6732.6044699738
 20
5560.4403098488
 10
6732.6059952679
 20
5560.4395317478
 10
6732.6075209554
 20
5560.4397612131
 10
6732.6258839894
 20
5560.5219028301
  0
LWPOLYLINE
  5
624
330
1F
100
AcDbEntity
  8
0
  6
Continuous
 62
     7
100
AcDbPolyline
 90
        8
 70
   128
 43
0.0
 10
6733.3641052246
 20
5584.4693115383
 10
6733.9363174249
 20
5563.7705912237
 10
6734.0792672332
 20
5560.5923888157
 10
6734.1054560813
 20
5560.4421581775
 10
6734.1076369239
 20
5560.4416671234
 10
6734.1109107427
 20
5560.445001806
 10
6734.1141886226
 20
5560.4534211554
 10
6734.1258839894
 20
5560.5219028301
  0
LWPOLYLINE
  5
625
330
1F
100
AcDbEntity
  8
0
  6
Continuous
 62
     7
100
AcDbPolyline
 90
        8
 70
   128
 43
0.0
 10
6734.8670959473
 20
5584.4693115383
 10
6735.4363174249
 20
5563.7705912237
 10
6735.5792672332
 20
5560.5923888157
 10
6735.6054560813
 20
5560.4421581775
 10
6735.6076369239
 20
5560.4416671234
 10
6735.6109107427
 20
5560.445001806
 10
6735.6141886226
 20
5560.4534211554
 10
6735.6258839894
 20
5560.5219028301
  0
LWPOLYLINE
  5
626
330
1F
100
AcDbEntity
  8
0
  6
Continuous
 62
     7
100
AcDbPolyline
 90
        7
 70
   128
 43
0.0
 10
6736.3777160645
 20
5584.3983369511
 10
6736.9389830803
 20
5563.6763589588
 10
6737.0799403088
 20
5560.5857268983
 10
6737.1057489874
 20
5560.4419690022
 10
6737.1078985856
 20
5560.4417520143
 10
6737.1143565025
 20
5560.453992914
 10
6737.1258839894
 20
5560.5219028301
  0
LWPOLYLINE
  5
627
330
1F
100
AcDbEntity
  8
0
  6
Continuous
 62
     7
100
AcDbPolyline
 90
        7
 70
   128
 43
0.0
 10
6737.8768920898
 20
5584.3983369511
 10
6738.4389830803
 20
5563.6763589588
 10
6738.5799403088
 20
5560.5857268983
 10
6738.6057489874
 20
5560.4419690022
 10
6738.6078985856
 20
5560.4417520143
 10
6738.6143565025
 20
5560.453992914
 10
6738.6258839894
 20
5560.5219028301
  0
LWPOLYLINE
  5
628
330
1F
100
AcDbEntity
  8
0
  6
Continuous
 62
     7
100
AcDbPolyline
 90
        7
 70
   128
 43
0.0
 10
6739.3760681152
 20
5584.3983369511
 10
6739.9389830803
 20
5563.6763589588
 10
6740.0799403088
 20
5560.5857268983
 10
6740.1057489874
 20
5560.4419690022
 10
6740.1078985856
 20
5560.4417520143
 10
6740.1143565025
 20
5560.453992914
 10
6740.1258839894
 20
5560.5219028301
  0
LWPOLYLINE
  5
629
330
1F
100
AcDbEntity
  8
0
  6
Continuous
 62
     7
100
AcDbPolyline
 90
        7
 70
   128
 43
0.0
 10
6740.8752441406
 20
5584.3983369511
 10
6741.4389830803
 20
5563.6763589588
 10
6741.5799403088
 20
5560.5857268983
 10
6741.6057489874
 20
5560.4419690022
 10
6741.6078985856
 20
5560.4417520143
 10
6741.6143565025
 20
5560.453992914
 10
6741.6258839894
 20
5560.5219028301
  0
LWPOLYLINE
  5
62A
330
1F
100
AcDbEntity
  8
0
  6
Continuous
 62
     7
100
AcDbPolyline
 90
        7
 70
   128
 43
0.0
 10
6742.3782348633
 20
5584.3983369511
 10
6742.9389830803
 20
5563.6763589588
 10
6743.0799403088
 20
5560.5857268983
 10
6743.1057489874
 20
5560.4419690022
 10
6743.1078985856
 20
5560.4417520143
 10
6743.1143565025
 20
5560.453992914
 10
6743.1258839894
 20
5560.5219028301
  0
LWPOLYLINE
  5
62B
330
1F
100
AcDbEntity
  8
0
  6
Continuous
 62
     7
100
AcDbPolyline
 90
        8
 70
   128
 43
0.0
 10
6743.8659667969
 20
5584.4693115383
 10
6744.4363174249
 20
5563.7705912237
 10
6744.5792672332
 20
5560.5923888158
 10
6744.6054560813
 20
5560.4421581775
 10
6744.6076369239
 20
5560.4416671234
 10
6744.6109107427
 20
5560.445001806
 10
6744.6141886226
 20
5560.4534211554
 10
6744.6258839894
 20
5560.5219028301
  0
LWPOLYLINE
  5
62C
330
1F
100
AcDbEntity
  8
0
  6
Continuous
 62
     7
100
AcDbPolyline
 90
        8
 70
   128
 43
0.0
 10
6745.3651428223
 20
5584.4693115383
 10
6745.9363174249
 20
5563.7705912237
 10
6746.0792672332
 20
5560.5923888157
 10
6746.1054560813
 20
5560.4421581775
 10
6746.1076369239
 20
5560.4416671234
 10
6746.1109107427
 20
5560.445001806
 10
6746.1141886226
 20
5560.4534211554
 10
6746.1258839894
 20
5560.5219028301
  0
LWPOLYLINE
  5
62D
330
1F
100
AcDbEntity
  8
0
  6
Continuous
 62
     7
100
AcDbPolyline
 90
       13
 70
   128
 43
0.0
 10
6732.7079772949
 20
5583.6574126622
 10
6732.7117088123
 20
5583.6578069956
 10
6732.7119772596
 20
5583.6594242985
 10
6732.7130505854
 20
5583.6655018669
 10
6732.7173371782
 20
5583.6837026247
 10
6732.7216149582
 20
5583.6925581709
 10
6732.7232173772
 20
5583.6935867104
 10
6732.7248190527
 20
5583.6934119427
 10
6732.7344210696
 20
5583.6687870624
 10
6732.8042953822
 20
5582.8074632411
 10
6732.8971444468
 20
5580.4483254188
 10
6733.0826681373
 20
5572.6600876605
 10
6733.4536228263
 20
5561.3304389343
  0
LWPOLYLINE
  5
62E
330
1F
100
AcDbEntity
  8
0
  6
Continuous
 62
     7
100
AcDbPolyline
 90
       13
 70
   128
 43
0.0
 10
6734.2109680176
 20
5583.6574126622
 10
6734.2117088123
 20
5583.6578069956
 10
6734.2119772596
 20
5583.6594242985
 10
6734.2130505854
 20
5583.6655018669
 10
6734.2173371782
 20
5583.6837026247
 10
6734.2216149582
 20
5583.6925581709
 10
6734.2232173772
 20
5583.6935867104
 10
6734.2248190527
 20
5583.6934119427
 10
6734.2344210696
 20
5583.6687870624
 10
6734.3042953822
 20
5582.8074632411
 10
6734.3971444468
 20
5580.4483254188
 10
6734.5826681373
 20
5572.6600876605
 10
6734.9536228263
 20
5561.3304389343
  0
LWPOLYLINE
  5
62F
330
1F
100
AcDbEntity
  8
0
  6
Continuous
 62
     7
100
AcDbPolyline
 90
       13
 70
   128
 43
0.0
 10
6735.710144043
 20
5583.6574126622
 10
6735.7117088123
 20
5583.6578069956
 10
6735.7119772596
 20
5583.6594242985
 10
6735.7130505854
 20
5583.6655018669
 10
6735.7173371782
 20
5583.6837026247
 10
6735.7216149582
 20
5583.6925581709
 10
6735.7232173772
 20
5583.6935867104
 10
6735.7248190527
 20
5583.6934119427
 10
6735.7344210696
 20
5583.6687870624
 10
6735.8042953822
 20
5582.8074632411
 10
6735.8971444468
 20
5580.4483254188
 10
6736.0826681373
 20
5572.6600876605
 10
6736.4536228263
 20
5561.3304389343
  0
LWPOLYLINE
  5
630
330
1F
100
AcDbEntity
  8
0
  6
Continuous
 62
     7
100
AcDbPolyline
 90
       13
 70
   128
 43
0.0
 10
6737.2093200684
 20
5583.6574126622
 10
6737.2117088123
 20
5583.6578069956
 10
6737.2119772596
 20
5583.6594242985
 10
6737.2130505854
 20
5583.6655018669
 10
6737.2173371782
 20
5583.6837026247
 10
6737.2216149582
 20
5583.6925581709
 10
6737.2232173772
 20
5583.6935867104
 10
6737.2248190527
 20
5583.6934119427
 10
6737.2344210696
 20
5583.6687870624
 10
6737.3042953822
 20
5582.8074632411
 10
6737.3971444468
 20
5580.4483254188
 10
6737.5826681373
 20
5572.6600876605
 10
6737.9536228263
 20
5561.3304389343
  0
LWPOLYLINE
  5
631
330
1F
100
AcDbEntity
  8
0
  6
Continuous
 62
     7
100
AcDbPolyline
 90
       13
 70
   128
 43
0.0
 10
6738.7084960938
 20
5583.6574126622
 10
6738.7117088123
 20
5583.6578069956
 10
6738.7119772596
 20
5583.6594242985
 10
6738.7130505854
 20
5583.6655018669
 10
6738.7173371782
 20
5583.6837026247
 10
6738.7216149582
 20
5583.6925581709
 10
6738.7232173772
 20
5583.6935867104
 10
6738.7248190527
 20
5583.6934119427
 10
6738.7344210696
 20
5583.6687870624
 10
6738.8042953822
 20
5582.8074632411
 10
6738.8971444468
 20
5580.4483254188
 10
6739.0826681373
 20
5572.6600876605
 10
6739.4536228263
 20
5561.3304389343
  0
LWPOLYLINE
  5
632
330
1F
100
AcDbEntity
  8
0
  6
Continuous
 62
     7
100
AcDbPolyline
 90
       13
 70
   128
 43
0.0
 10
6740.2114868164
 20
5583.6574126622
 10
6740.2117088123
 20
5583.6578069956
 10
6740.2119772596
 20
5583.6594242985
 10
6740.2130505854
 20
5583.6655018669
 10
6740.2173371782
 20
5583.6837026247
 10
6740.2216149582
 20
5583.6925581709
 10
6740.2232173772
 20
5583.6935867104
 10
6740.2248190527
 20
5583.6934119427
 10
6740.2344210696
 20
5583.6687870624
 10
6740.3042953822
 20
5582.8074632411
 10
6740.3971444468
 20
5580.4483254188
 10
6740.5826681373
 20
5572.6600876605
 10
6740.9536228263
 20
5561.3304389343
  0
LWPOLYLINE
  5
633
330
1F
100
AcDbEntity
  8
0
  6
Continuous
 62
     7
100
AcDbPolyline
 90
       13
 70
   128
 43
0.0
 10
6741.7106628418
 20
5583.6574126622
 10
6741.7117088123
 20
5583.6578069956
 10
6741.7119772596
 20
5583.6594242985
 10
6741.7130505854
 20
5583.6655018669
 10
6741.7173371782
 20
5583.6837026247
 10
6741.7216149582
 20
5583.6925581709
 10
6741.7232173772
 20
5583.6935867104
 10
6741.7248190527
 20
5583.6934119427
 10
6741.7344210696
 20
5583.6687870624
 10
6741.8042953822
 20
5582.8074632411
 10
6741.8971444468
 20
5580.4483254188
 10
6742.0826681373
 20
5572.6600876605
 10
6742.4536228263
 20
5561.3304389343
  0
LWPOLYLINE
  5
634
330
1F
100
AcDbEntity
  8
0
  6
Continuous
 62
     7
100
AcDbPolyline
 90
       13
 70
   128
 43
0.0
 10
6743.2098388672
 20
5583.6574126622
 10
6743.2117088123
 20
5583.6578069956
 10
6743.2119772596
 20
5583.6594242985
 10
6743.2130505854
 20
5583.6655018669
 10
6743.2173371782
 20
5583.6837026247
 10
6743.2216149582
 20
5583.6925581709
 10
6743.2232173772
 20
5583.6935867104
 10
6743.2248190527
 20
5583.6934119427
 10
6743.2344210696
 20
5583.6687870624
 10
6743.3042953822
 20
5582.8074632411
 10
6743.3971444468
 20
5580.4483254188
 10
6743.5826681373
 20
5572.6600876605
 10
6743.9536228263
 20
5561.3304389343
  0
LWPOLYLINE
  5
635
330
1F
100
AcDbEntity
  8
0
  6
Continuous
 62
     7
100
AcDbPolyline
 90
       13
 70
   128
 43
0.0
 10
6744.7090148926
 20
5583.6574126622
 10
6744.7117088123
 20
5583.6578069956
 10
6744.7119772596
 20
5583.6594242985
 10
6744.7130505854
 20
5583.6655018669
 10
6744.7173371782
 20
5583.6837026247
 10
6744.7216149582
 20
5583.6925581709
 10
6744.7232173772
 20
5583.6935867104
 10
6744.7248190527
 20
5583.6934119427
 10
6744.7344210696
 20
5583.6687870624
 10
6744.8042953822
 20
5582.8074632411
 10
6744.8971444468
 20
5580.4483254188
 10
6745.0826681373
 20
5572.6600876605
 10
6745.4536228263
 20
5561.3304389343
  0
LWPOLYLINE
  5
636
330
1F
100
AcDbEntity
  8
0
  6
Continuous
 62
     7
100
AcDbPolyline
 90
       13
 70
   128
 43
0.0
 10
6746.208190918
 20
5583.6574126622
 10
6746.2117088123
 20
5583.6578069956
 10
6746.2119772596
 20
5583.6594242985
 10
6746.2130505854
 20
5583.6655018669
 10
6746.2173371782
 20
5583.6837026247
 10
6746.2216149582
 20
5583.6925581709
 10
6746.2232173772
 20
5583.6935867104
 10
6746.2248190527
 20
5583.6934119427
 10
6746.2344210696
 20
5583.6687870624
 10
6746.3042953822
 20
5582.8074632411
 10
6746.3971444468
 20
5580.4483254188
 10
6746.5826681373
 20
5572.6600876605
 10
6746.9536228263
 20
5561.3304389343
  0
LWPOLYLINE
  5
637
330
1F
100
AcDbEntity
  8
0
  6
Continuous
 62
     7
100
AcDbPolyline
 90
        5
 70
   128
 43
0.0
 10
6732.4905395508
 20
5581.3714170119
 10
6732.6945106072
 20
5573.2901354513
 10
6732.8254815608
 20
5567.3562951301
 10
6732.9550131217
 20
5562.921361859
 10
6733.0866201991
 20
5561.2812104144
  0
LWPOLYLINE
  5
638
330
1F
100
AcDbEntity
  8
0
  6
Continuous
 62
     7
100
AcDbPolyline
 90
        5
 70
   128
 43
0.0
 10
6733.8447570801
 20
5583.5736138918
 10
6734.0986190355
 20
5577.550032826
 10
6734.2608178965
 20
5570.1446553563
 10
6734.4235837082
 20
5563.7774465005
 10
6734.5866201991
 20
5561.2812104144
  0
LWPOLYLINE
  5
639
330
1F
100
AcDbEntity
  8
0
  6
Continuous
 62
     7
100
AcDbPolyline
 90
        5
 70
   128
 43
0.0
 10
6735.3439331055
 20
5583.5736138918
 10
6735.5986190355
 20
5577.550032826
 10
6735.7608178965
 20
5570.1446553563
 10
6735.9235837082
 20
5563.7774465005
 10
6736.0866201991
 20
5561.2812104144
  0
LWPOLYLINE
  5
63A
330
1F
100
AcDbEntity
  8
0
  6
Continuous
 62
     7
100
AcDbPolyline
 90
        5
 70
   128
 43
0.0
 10
6736.8469238281
 20
5583.5736138918
 10
6737.0986190355
 20
5577.550032826
 10
6737.2608178965
 20
5570.1446553563
 10
6737.4235837082
 20
5563.7774465005
 10
6737.5866201991
 20
5561.2812104144
  0
LWPOLYLINE
  5
63B
330
1F
100
AcDbEntity
  8
0
  6
Continuous
 62
     7
100
AcDbPolyline
 90
        5
 70
   128
 43
0.0
 10
6738.3460998535
 20
5583.5736138918
 10
6738.5986190355
 20
5577.550032826
 10
6738.7608178965
 20
5570.1446553563
 10
6738.9235837082
 20
5563.7774465005
 10
6739.0866201991
 20
5561.2812104144
  0
LWPOLYLINE
  5
63C
330
1F
100
AcDbEntity
  8
0
  6
Continuous
 62
     7
100
AcDbPolyline
 90
        5
 70
   128
 43
0.0
 10
6739.8452758789
 20
5583.5736138918
 10
6740.0986190355
 20
5577.550032826
 10
6740.2608178965
 20
5570.1446553563
 10
6740.4235837082
 20
5563.7774465005
 10
6740.5866201991
 20
5561.2812104144
  0
LWPOLYLINE
  5
63D
330
1F
100
AcDbEntity
  8
0
  6
Continuous
 62
     7
100
AcDbPolyline
 90
        5
 70
   128
 43
0.0
 10
6741.3444519043
 20
5583.5736138918
 10
6741.5986190355
 20
5577.550032826
 10
6741.7608178965
 20
5570.1446553563
 10
6741.9235837082
 20
5563.7774465005
 10
6742.0866201991
 20
5561.2812104144
  0
LWPOLYLINE
  5
63E
330
1F
100
AcDbEntity
  8
0
  6
Continuous
 62
     7
100
AcDbPolyline
 90
        5
 70
   128
 43
0.0
 10
6742.847442627
 20
5583.5736138918
 10
6743.0986190355
 20
5577.550032826
 10
6743.2608178965
 20
5570.1446553563
 10
6743.4235837082
 20
5563.7774465005
 10
6743.5866201991
 20
5561.2812104144
  0
LWPOLYLINE
  5
63F
330
1F
100
AcDbEntity
  8
0
  6
Continuous
 62
     7
100
AcDbPolyline
 90
        5
 70
   128
 43
0.0
 10
6744.3466186523
 20
5583.5736138918
 10
6744.5986190355
 20
5577.550032826
 10
6744.7608178965
 20
5570.1446553563
 10
6744.9235837082
 20
5563.7774465005
 10
6745.0866201991
 20
5561.2812104144
  0
LWPOLYLINE
  5
640
330
1F
100
AcDbEntity
  8
0
  6
Continuous
 62
     7
100
AcDbPolyline
 90
        5
 70
   128
 43
0.0
 10
6745.8457946777
 20
5583.5736138918
 10
6746.0986190355
 20
5577.550032826
 10
6746.2608178965
 20
5570.1446553563
 10
6746.4235837082
 20
5563.7774465005
 10
6746.5866201991
 20
5561.2812104144
  0
LWPOLYLINE
  5
641
330
1F
100
AcDbEntity
  8
0
  6
Continuous
 62
     7
100
AcDbPolyline
 90
        5
 70
   128
 43
0.0
 10
6732.4905395508
 20
5562.0591128793
 10
6732.4928943387
 20
5567.9533807317
 10
6732.4928943387
 20
5572.8813969081
 10
6732.4928943387
 20
5577.6583182003
 10
6732.4928943387
 20
5581.3714170119
  0
LWPOLYLINE
  5
642
330
1F
100
AcDbEntity
  8
0
  6
Continuous
 62
     7
100
AcDbPolyline
 90
       10
 70
   128
 43
0.0
 10
6732.4905395508
 20
5581.3714170119
 10
6732.4928943387
 20
5583.518839845
 10
6732.4928943387
 20
5583.5544435216
 10
6732.4928943387
 20
5583.5585894268
 10
6732.4928943387
 20
5583.5587708781
 10
6732.4928943387
 20
5583.5587715892
 10
6732.4928943387
 20
5583.5587701197
 10
6732.4928943387
 20
5583.5587606699
 10
6732.4928943387
 20
5583.5581354287
 10
6732.4928943387
 20
5583.5015426978
  0
LWPOLYLINE
  5
643
330
1F
100
AcDbEntity
  8
0
  6
Continuous
 62
     7
100
AcDbPolyline
 90
        3
 70
   128
 43
0.0
 10
6206.0241699219
 20
4457.1735467126
 10
6206.4763967788
 20
4456.9130835848
 10
6206.8306542123
 20
4456.7084290527
  0
LWPOLYLINE
  5
644
330
1F
100
AcDbEntity
  8
0
  6
Continuous
 62
     7
100
AcDbPolyline
 90
        3
 70
   128
 43
0.0
 10
6206.0241699219
 20
4455.6735467126
 10
6206.4763967788
 20
4455.4130835848
 10
6206.8306542123
 20
4455.2084290527
  0
LWPOLYLINE
  5
645
330
1F
100
AcDbEntity
  8
0
  6
Continuous
 62
     7
100
AcDbPolyline
 90
        3
 70
   128
 43
0.0
 10
6206.0241699219
 20
4454.1735467126
 10
6206.4763967788
 20
4453.9130835848
 10
6206.8306542123
 20
4453.7084290527
  0
LWPOLYLINE
  5
646
330
1F
100
AcDbEntity
  8
0
  6
Continuous
 62
     7
100
AcDbPolyline
 90
        3
 70
   128
 43
0.0
 10
6206.0241699219
 20
4452.6735467126
 10
6206.4763967788
 20
4452.4130835848
 10
6206.8306542123
 20
4452.2084290527
  0
LWPOLYLINE
  5
647
330
1F
100
AcDbEntity
  8
0
  6
Continuous
 62
     7
100
AcDbPolyline
 90
        3
 70
   128
 43
0.0
 10
6206.0241699219
 20
4451.1735467126
 10
6206.4763967788
 20
4450.9130835848
 10
6206.8306542123
 20
4450.7084290527
  0
LWPOLYLINE
  5
648
330
1F
100
AcDbEntity
  8
0
  6
Continuous
 62
     7
100
AcDbPolyline
 90
        3
 70
   128
 43
0.0
 10
6206.0241699219
 20
4449.6735467126
 10
6206.4763967788
 20
4449.4130835848
 10
6206.8306542123
 20
4449.2084290527
  0
LWPOLYLINE
  5
649
330
1F
100
AcDbEntity
  8
0
  6
Continuous
 62
     7
100
AcDbPolyline
 90
        3
 70
   128
 43
0.0
 10
6206.0241699219
 20
4448.1735467126
 10
6206.4763967788
 20
4447.9130835848
 10
6206.8306542123
 20
4447.7084290527
  0
LWPOLYLINE
  5
64A
330
1F
100
AcDbEntity
  8
0
  6
Continuous
 62
     7
100
AcDbPolyline
 90
        3
 70
   128
 43
0.0
 10
6206.0241699219
 20
4446.6735467126
 10
6206.4763967788
 20
4446.4130835848
 10
6206.8306542123
 20
4446.2084290527
  0
LWPOLYLINE
  5
64B
330
1F
100
AcDbEntity
  8
0
  6
Continuous
 62
     7
100
AcDbPolyline
 90
        3
 70
   128
 43
0.0
 10
6206.0241699219
 20
4445.1735467126
 10
6206.4763967788
 20
4444.9130835848
 10
6206.8306542123
 20
4444.7084290527
  0
LWPOLYLINE
  5
64C
330
1F
100
AcDbEntity
  8
0
  6
Continuous
 62
     7
100
AcDbPolyline
 90
        3
 70
   128
 43
0.0
 10
6229.1984558105
 20
4455.9542378824
 10
6229.6545378262
 20
4456.217053613
 10
6230.011990643
 20
4456.4235467126
  0
LWPOLYLINE
  5
64D
330
1F
100
AcDbEntity
  8
0
  6
Continuous
 62
     7
100
AcDbPolyline
 90
        3
 70
   128
 43
0.0
 10
6229.1984558105
 20
4454.4542378824
 10
6229.6545378262
 20
4454.717053613
 10
6230.011990643
 20
4454.9235467126
  0
LWPOLYLINE
  5
64E
330
1F
100
AcDbEntity
  8
0
  6
Continuous
 62
     7
100
AcDbPolyline
 90
        3
 70
   128
 43
0.0
 10
6229.1984558105
 20
4452.9542378824
 10
6229.6545378262
 20
4453.217053613
 10
6230.011990643
 20
4453.4235467126
  0
LWPOLYLINE
  5
64F
330
1F
100
AcDbEntity
  8
0
  6
Continuous
 62
     7
100
AcDbPolyline
 90
        3
 70
   128
 43
0.0
 10
6229.1984558105
 20
4451.4542378824
 10
6229.6545378262
 20
4451.717053613
 10
6230.011990643
 20
4451.9235467126
  0
LWPOLYLINE
  5
650
330
1F
100
AcDbEntity
  8
0
  6
Continuous
 62
     7
100
AcDbPolyline
 90
        3
 70
   128
 43
0.0
 10
6229.1984558105
 20
4449.9542378824
 10
6229.6545378262
 20
4450.217053613
 10
6230.011990643
 20
4450.4235467126
  0
LWPOLYLINE
  5
651
330
1F
100
AcDbEntity
  8
0
  6
Continuous
 62
     7
100
AcDbPolyline
 90
        3
 70
   128
 43
0.0
 10
6229.1984558105
 20
4448.4542378824
 10
6229.6545378262
 20
4448.717053613
 10
6230.011990643
 20
4448.9235467126
  0
LWPOLYLINE
  5
652
330
1F
100
AcDbEntity
  8
0
  6
Continuous
 62
     7
100
AcDbPolyline
 90
        3
 70
   128
 43
0.0
 10
6229.1984558105
 20
4446.9542378824
 10
6229.6545378262
 20
4447.217053613
 10
6230.011990643
 20
4447.4235467126
  0
LWPOLYLINE
  5
653
330
1F
100
AcDbEntity
  8
0
  6
Continuous
 62
     7
100
AcDbPolyline
 90
        3
 70
   128
 43
0.0
 10
6229.1984558105
 20
4445.4542378824
 10
6229.6545378262
 20
4445.717053613
 10
6230.011990643
 20
4445.9235467126
  0
LWPOLYLINE
  5
654
330
1F
100
AcDbEntity
  8
0
  6
Continuous
 62
     7
100
AcDbPolyline
 90
        3
 70
   128
 43
0.0
 10
6229.1984558105
 20
4457.4542378824
 10
6229.6545378262
 20
4457.717053613
 10
6230.011990643
 20
4457.9235467126
  0
LWPOLYLINE
  5
655
330
1F
100
AcDbEntity
  8
0
  6
Continuous
 62
     7
100
AcDbPolyline
 90
        3
 70
   128
 43
0.0
 10
6206.8367004395
 20
4456.3453970551
 10
6206.382533635
 20
4456.08258881
 10
6206.0250908664
 20
4455.8761013654
  0
LWPOLYLINE
  5
656
330
1F
100
AcDbEntity
  8
0
  6
Continuous
 62
     7
100
AcDbPolyline
 90
        3
 70
   128
 43
0.0
 10
6206.8367004395
 20
4454.8453970551
 10
6206.382533635
 20
4454.58258881
 10
6206.0250908664
 20
4454.3761013654
  0
LWPOLYLINE
  5
657
330
1F
100
AcDbEntity
  8
0
  6
Continuous
 62
     7
100
AcDbPolyline
 90
        3
 70
   128
 43
0.0
 10
6206.8367004395
 20
4453.3453970551
 10
6206.382533635
 20
4453.08258881
 10
6206.0250908664
 20
4452.8761013654
  0
LWPOLYLINE
  5
658
330
1F
100
AcDbEntity
  8
0
  6
Continuous
 62
     7
100
AcDbPolyline
 90
        3
 70
   128
 43
0.0
 10
6206.8367004395
 20
4451.8453970551
 10
6206.382533635
 20
4451.58258881
 10
6206.0250908664
 20
4451.3761013654
  0
LWPOLYLINE
  5
659
330
1F
100
AcDbEntity
  8
0
  6
Continuous
 62
     7
100
AcDbPolyline
 90
        3
 70
   128
 43
0.0
 10
6206.8367004395
 20
4450.3453970551
 10
6206.382533635
 20
4450.0825888099
 10
6206.0250908664
 20
4449.8761013654
  0
LWPOLYLINE
  5
65A
330
1F
100
AcDbEntity
  8
0
  6
Continuous
 62
     7
100
AcDbPolyline
 90
        3
 70
   128
 43
0.0
 10
6206.8367004395
 20
4448.8453970551
 10
6206.382533635
 20
4448.58258881
 10
6206.0250908664
 20
4448.3761013655
  0
LWPOLYLINE
  5
65B
330
1F
100
AcDbEntity
  8
0
  6
Continuous
 62
     7
100
AcDbPolyline
 90
        3
 70
   128
 43
0.0
 10
6206.8367004395
 20
4447.3453970551
 10
6206.382533635
 20
4447.08258881
 10
6206.0250908664
 20
4446.8761013655
  0
LWPOLYLINE
  5
65C
330
1F
100
AcDbEntity
  8
0
  6
Continuous
 62
     7
100
AcDbPolyline
 90
        3
 70
   128
 43
0.0
 10
6206.8367004395
 20
4445.8453970551
 10
6206.382533635
 20
4445.58258881
 10
6206.0250908664
 20
4445.3761013654
  0
LWPOLYLINE
  5
65D
330
1F
100
AcDbEntity
  8
0
  6
Continuous
 62
     7
100
AcDbPolyline
 90
        3
 70
   128
 43
0.0
 10
6206.8367004395
 20
4444.3453970551
 10
6206.382533635
 20
4444.08258881
 10
6206.0250908664
 20
4443.8761013654
  0
LWPOLYLINE
  5
65E
330
1F
100
AcDbEntity
  8
0
  6
Continuous
 62
     7
100
AcDbPolyline
 90
        3
 70
   128
 43
0.0
 10
6229.9423217773
 20
4455.1441481795
 10
6229.4933787513
 20
4455.4067836506
 10
6229.1377668383
 20
4455.6131412789
  0
LWPOLYLINE
  5
65F
330
1F
100
AcDbEntity
  8
0
  6
Continuous
 62
     7
100
AcDbPolyline
 90
        3
 70
   128
 43
0.0
 10
6229.9423217773
 20
4453.6441481795
 10
6229.4933787513
 20
4453.9067836506
 10
6229.1377668383
 20
4454.1131412789
  0
LWPOLYLINE
  5
660
330
1F
100
AcDbEntity
  8
0
  6
Continuous
 62
     7
100
AcDbPolyline
 90
        3
 70
   128
 43
0.0
 10
6229.9423217773
 20
4452.1441481795
 10
6229.4933787513
 20
4452.4067836506
 10
6229.1377668383
 20
4452.6131412789
  0
LWPOLYLINE
  5
661
330
1F
100
AcDbEntity
  8
0
  6
Continuous
 62
     7
100
AcDbPolyline
 90
        3
 70
   128
 43
0.0
 10
6229.9423217773
 20
4450.6441481795
 10
6229.4933787513
 20
4450.9067836506
 10
6229.1377668383
 20
4451.1131412789
  0
LWPOLYLINE
  5
662
330
1F
100
AcDbEntity
  8
0
  6
Continuous
 62
     7
100
AcDbPolyline
 90
        3
 70
   128
 43
0.0
 10
6229.9423217773
 20
4449.1441481795
 10
6229.4933787513
 20
4449.4067836506
 10
6229.1377668383
 20
4449.6131412789
  0
LWPOLYLINE
  5
663
330
1F
100
AcDbEntity
  8
0
  6
Continuous
 62
     7
100
AcDbPolyline
 90
        3
 70
   128
 43
0.0
 10
6229.9423217773
 20
4447.6441481795
 10
6229.4933787513
 20
4447.9067836506
 10
6229.1377668383
 20
4448.1131412789
  0
LWPOLYLINE
  5
664
330
1F
100
AcDbEntity
  8
0
  6
Continuous
 62
     7
100
AcDbPolyline
 90
        3
 70
   128
 43
0.0
 10
6229.9423217773
 20
4446.1441481795
 10
6229.4933787513
 20
4446.4067836506
 10
6229.1377668383
 20
4446.6131412789
  0
LWPOLYLINE
  5
665
330
1F
100
AcDbEntity
  8
0
  6
Continuous
 62
     7
100
AcDbPolyline
 90
        3
 70
   128
 43
0.0
 10
6229.9423217773
 20
4444.6441481795
 10
6229.4933787513
 20
4444.9067836506
 10
6229.1377668383
 20
4445.1131412789
  0
LWPOLYLINE
  5
666
330
1F
100
AcDbEntity
  8
0
  6
Continuous
 62
     7
100
AcDbPolyline
 90
        3
 70
   128
 43
0.0
 10
6229.9423217773
 20
4456.6441481795
 10
6229.4933787513
 20
4456.9067836506
 10
6229.1377668383
 20
4457.1131412789
  0
LWPOLYLINE
  5
667
330
1F
100
AcDbEntity
  8
0
  6
Continuous
 62
     7
100
AcDbPolyline
 90
        3
 70
   128
 43
0.0
 10
6206.8367004395
 20
4457.8453970551
 10
6206.382533635
 20
4457.58258881
 10
6206.0250908664
 20
4457.3761013654
  0
LINE
  5
668
330
1F
100
AcDbEntity
  8
0
  6
Continuous
 62
     7
100
AcDbLine
 10
6206.4437866211
 20
4458.4311981721
 30
0.0
 11
6211.2418735813
 21
4458.4311981721
 31
0.0
  0
LWPOLYLINE
  5
669
330
1F
100
AcDbEntity
  8
0
  6
Continuous
 62
     7
100
AcDbPolyline
 90
        3
 70
   128
 43
0.0
 10
6211.238861084
 20
4458.4311981721
 10
6207.7280002337
 20
4458.3092095683
 10
6206.8306542123
 20
4458.2124723118
  0
LWPOLYLINE
  5
66A
330
1F
100
AcDbEntity
  8
0
  6
Continuous
 62
     7
100
AcDbPolyline
 90
        5
 70
   128
 43
0.0
 10
6229.1526794434
 20
4457.4541565356
 10
6223.1822577885
 20
4457.2025222879
 10
6215.7546997134
 20
4457.0394234761
 10
6209.3451815111
 20
4456.8762084237
 10
6206.8306542123
 20
4456.7124723118
  0
LWPOLYLINE
  5
66B
330
1F
100
AcDbEntity
  8
0
  6
Continuous
 62
     7
100
AcDbPolyline
 90
        5
 70
   128
 43
0.0
 10
6229.1526794434
 20
4455.9541565356
 10
6223.1822577885
 20
4455.7025222879
 10
6215.7546997134
 20
4455.5394234761
 10
6209.3451815111
 20
4455.3762084237
 10
6206.8306542123
 20
4455.2124723118
  0
LWPOLYLINE
  5
66C
330
1F
100
AcDbEntity
  8
0
  6
Continuous
 62
     7
100
AcDbPolyline
 90
        5
 70
   128
 43
0.0
 10
6229.1526794434
 20
4454.4541565356
 10
6223.1822577885
 20
4454.2025222879
 10
6215.7546997134
 20
4454.0394234761
 10
6209.3451815111
 20
4453.8762084237
 10
6206.8306542123
 20
4453.7124723118
  0
LWPOLYLINE
  5
66D
330
1F
100
AcDbEntity
  8
0
  6
Continuous
 62
     7
100
AcDbPolyline
 90
        5
 70
   128
 43
0.0
 10
6229.1526794434
 20
4452.9541565356
 10
6223.1822577885
 20
4452.7025222879
 10
6215.7546997134
 20
4452.5394234761
 10
6209.3451815111
 20
4452.3762084237
 10
6206.8306542123
 20
4452.2124723118
  0
LWPOLYLINE
  5
66E
330
1F
100
AcDbEntity
  8
0
  6
Continuous
 62
     7
100
AcDbPolyline
 90
        5
 70
   128
 43
0.0
 10
6229.1526794434
 20
4451.4541565356
 10
6223.1822577885
 20
4451.2025222879
 10
6215.7546997134
 20
4451.0394234761
 10
6209.3451815111
 20
4450.8762084237
 10
6206.8306542123
 20
4450.7124723118
  0
LWPOLYLINE
  5
66F
330
1F
100
AcDbEntity
  8
0
  6
Continuous
 62
     7
100
AcDbPolyline
 90
        5
 70
   128
 43
0.0
 10
6229.1526794434
 20
4449.9541565356
 10
6223.1822577885
 20
4449.7025222879
 10
6215.7546997134
 20
4449.5394234761
 10
6209.3451815111
 20
4449.3762084237
 10
6206.8306542123
 20
4449.2124723118
  0
LWPOLYLINE
  5
670
330
1F
100
AcDbEntity
  8
0
  6
Continuous
 62
     7
100
AcDbPolyline
 90
        5
 70
   128
 43
0.0
 10
6229.1526794434
 20
4448.4541565356
 10
6223.1822577885
 20
4448.2025222879
 10
6215.7546997134
 20
4448.0394234761
 10
6209.3451815111
 20
4447.8762084237
 10
6206.8306542123
 20
4447.7124723118
  0
LWPOLYLINE
  5
671
330
1F
100
AcDbEntity
  8
0
  6
Continuous
 62
     7
100
AcDbPolyline
 90
        5
 70
   128
 43
0.0
 10
6229.1526794434
 20
4446.9541565356
 10
6223.1822577885
 20
4446.7025222879
 10
6215.7546997134
 20
4446.5394234761
 10
6209.3451815111
 20
4446.3762084237
 10
6206.8306542123
 20
4446.2124723118
  0
LWPOLYLINE
  5
672
330
1F
100
AcDbEntity
  8
0
  6
Continuous
 62
     7
100
AcDbPolyline
 90
        5
 70
   128
 43
0.0
 10
6229.1526794434
 20
4445.4541565356
 10
6223.1822577885
 20
4445.2025222879
 10
6215.7546997134
 20
4445.0394234761
 10
6209.3451815111
 20
4444.8762084237
 10
6206.8306542123
 20
4444.7124723118
  0
LWPOLYLINE
  5
673
330
1F
100
AcDbEntity
  8
0
  6
Continuous
 62
     7
100
AcDbPolyline
 90
        7
 70
   128
 43
0.0
 10
6229.9652099609
 20
4457.9232085215
 10
6209.2501174304
 20
4457.3608027097
 10
6206.1359810035
 20
4457.2193346193
 10
6205.9912536328
 20
4457.193421154
 10
6205.991018333
 20
4457.1912630128
 10
6206.0032532807
 20
4457.1847797847
 10
6206.0713466279
 20
4457.1732085215
  0
LWPOLYLINE
  5
674
330
1F
100
AcDbEntity
  8
0
  6
Continuous
 62
     7
100
AcDbPolyline
 90
        7
 70
   128
 43
0.0
 10
6229.9652099609
 20
4456.4232085215
 10
6209.2501174304
 20
4455.8608027097
 10
6206.1359810035
 20
4455.7193346193
 10
6205.9912536328
 20
4455.693421154
 10
6205.991018333
 20
4455.6912630128
 10
6206.0032532807
 20
4455.6847797847
 10
6206.0713466279
 20
4455.6732085215
  0
LWPOLYLINE
  5
675
330
1F
100
AcDbEntity
  8
0
  6
Continuous
 62
     7
100
AcDbPolyline
 90
        7
 70
   128
 43
0.0
 10
6230.0186157227
 20
4454.9311981721
 10
6209.3200453159
 20
4454.3627770544
 10
6206.1409206834
 20
4454.2198334751
 10
6205.9913919382
 20
4454.1936382398
 10
6205.990953959
 20
4454.1914569376
 10
6206.0028293201
 20
4454.1849041943
 10
6206.0713466279
 20
4454.1732085215
  0
LWPOLYLINE
  5
676
330
1F
100
AcDbEntity
  8
0
  6
Continuous
 62
     7
100
AcDbPolyline
 90
        7
 70
   128
 43
0.0
 10
6230.0186157227
 20
4453.4311981721
 10
6209.3200453159
 20
4452.8627770544
 10
6206.1409206834
 20
4452.7198334751
 10
6205.9913919382
 20
4452.6936382398
 10
6205.990953959
 20
4452.6914569376
 10
6206.0028293201
 20
4452.6849041943
 10
6206.0713466279
 20
4452.6732085215
  0
LWPOLYLINE
  5
677
330
1F
100
AcDbEntity
  8
0
  6
Continuous
 62
     7
100
AcDbPolyline
 90
        7
 70
   128
 43
0.0
 10
6229.9652099609
 20
4451.9232085215
 10
6209.2501174304
 20
4451.3608027097
 10
6206.1359810035
 20
4451.2193346193
 10
6205.9912536328
 20
4451.193421154
 10
6205.991018333
 20
4451.1912630128
 10
6206.0032532807
 20
4451.1847797847
 10
6206.0713466279
 20
4451.1732085215
  0
LWPOLYLINE
  5
678
330
1F
100
AcDbEntity
  8
0
  6
Continuous
 62
     7
100
AcDbPolyline
 90
        7
 70
   128
 43
0.0
 10
6229.9652099609
 20
4450.4232085215
 10
6209.2501174304
 20
4449.8608027097
 10
6206.1359810035
 20
4449.7193346193
 10
6205.9912536328
 20
4449.693421154
 10
6205.991018333
 20
4449.6912630128
 10
6206.0032532807
 20
4449.6847797847
 10
6206.0713466279
 20
4449.6732085215
  0
LWPOLYLINE
  5
679
330
1F
100
AcDbEntity
  8
0
  6
Continuous
 62
     7
100
AcDbPolyline
 90
        7
 70
   128
 43
0.0
 10
6229.9652099609
 20
4448.9232085215
 10
6209.2501174304
 20
4448.3608027097
 10
6206.1359810035
 20
4448.2193346193
 10
6205.9912536328
 20
4448.193421154
 10
6205.991018333
 20
4448.1912630128
 10
6206.0032532807
 20
4448.1847797847
 10
6206.0713466279
 20
4448.1732085215
  0
LWPOLYLINE
  5
67A
330
1F
100
AcDbEntity
  8
0
  6
Continuous
 62
     7
100
AcDbPolyline
 90
        7
 70
   128
 43
0.0
 10
6229.9652099609
 20
4447.4232085215
 10
6209.2501174304
 20
4446.8608027097
 10
6206.1359810035
 20
4446.7193346193
 10
6205.9912536328
 20
4446.693421154
 10
6205.991018333
 20
4446.6912630128
 10
6206.0032532807
 20
4446.6847797847
 10
6206.0713466279
 20
4446.6732085215
  0
LWPOLYLINE
  5
67B
330
1F
100
AcDbEntity
  8
0
  6
Continuous
 62
     7
100
AcDbPolyline
 90
        7
 70
   128
 43
0.0
 10
6229.9652099609
 20
4445.9232085215
 10
6209.2501174304
 20
4445.3608027097
 10
6206.1359810035
 20
4445.2193346193
 10
6205.9912536328
 20
4445.193421154
 10
6205.991018333
 20
4445.1912630128
 10
6206.0032532807
 20
4445.1847797847
 10
6206.0713466279
 20
4445.1732085215
  0
LINE
  5
67C
330
1F
100
AcDbEntity
  8
0
  6
Continuous
 62
     7
100
AcDbLine
 10
6226.9172668457
 20
4458.4311981721
 30
0.0
 11
6229.4774894659
 21
4458.4311981721
 31
0.0
  0
LWPOLYLINE
  5
67D
330
1F
100
AcDbEntity
  8
0
  6
Continuous
 62
     7
100
AcDbPolyline
 90
       11
 70
   128
 43
0.0
 10
6230.0186157227
 20
4458.1186981762
 10
6230.0152826992
 20
4458.1132453762
 10
6230.0048301821
 20
4458.107716668
 10
6229.9627778684
 20
4458.0964493986
 10
6229.1053097263
 20
4458.0249481762
 10
6218.0187553361
 20
4457.7436981762
 10
6206.932200946
 20
4457.4624481762
 10
6206.0747328039
 20
4457.3909469538
 10
6206.0326804902
 20
4457.3796796844
 10
6206.022227973
 20
4457.3741509762
 10
6206.0187553361
 20
4457.3686981762
  0
LWPOLYLINE
  5
67E
330
1F
100
AcDbEntity
  8
0
  6
Continuous
 62
     7
100
AcDbPolyline
 90
        8
 70
   128
 43
0.0
 10
6229.8469543457
 20
4456.6447407869
 10
6230.0215166244
 20
4456.6177734414
 10
6230.0301716852
 20
4456.6133012268
 10
6230.0316428073
 20
4456.6110675029
 10
6230.0312669351
 20
4456.6088349458
 10
6229.9998420955
 20
4456.5969346139
 10
6227.1780885315
 20
4456.4505199698
 10
6206.0187553361
 20
4455.8686981762
  0
LWPOLYLINE
  5
67F
330
1F
100
AcDbEntity
  8
0
  6
Continuous
 62
     7
100
AcDbPolyline
 90
        8
 70
   128
 43
0.0
 10
6229.8469543457
 20
4455.1447407869
 10
6230.0215166244
 20
4455.1177734414
 10
6230.0301716852
 20
4455.1133012268
 10
6230.0316428073
 20
4455.1110675029
 10
6230.0312669351
 20
4455.1088349458
 10
6229.9998420955
 20
4455.0969346139
 10
6227.1780885315
 20
4454.9505199698
 10
6206.0187553361
 20
4454.3686981762
  0
LWPOLYLINE
  5
680
330
1F
100
AcDbEntity
  8
0
  6
Continuous
 62
     7
100
AcDbPolyline
 90
        8
 70
   128
 43
0.0
 10
6229.8469543457
 20
4453.6447407869
 10
6230.0215166244
 20
4453.6177734414
 10
6230.0301716852
 20
4453.6133012268
 10
6230.0316428073
 20
4453.6110675029
 10
6230.0312669351
 20
4453.6088349458
 10
6229.9998420955
 20
4453.5969346139
 10
6227.1780885315
 20
4453.4505199698
 10
6206.0187553361
 20
4452.8686981762
  0
LWPOLYLINE
  5
681
330
1F
100
AcDbEntity
  8
0
  6
Continuous
 62
     7
100
AcDbPolyline
 90
        8
 70
   128
 43
0.0
 10
6229.8469543457
 20
4452.1447407869
 10
6230.0215166244
 20
4452.1177734414
 10
6230.0301716852
 20
4452.1133012268
 10
6230.0316428073
 20
4452.1110675029
 10
6230.0312669351
 20
4452.1088349458
 10
6229.9998420955
 20
4452.0969346139
 10
6227.1780885315
 20
4451.9505199698
 10
6206.0187553361
 20
4451.3686981762
  0
LWPOLYLINE
  5
682
330
1F
100
AcDbEntity
  8
0
  6
Continuous
 62
     7
100
AcDbPolyline
 90
        8
 70
   128
 43
0.0
 10
6229.8469543457
 20
4450.6447407869
 10
6230.0215166244
 20
4450.6177734414
 10
6230.0301716852
 20
4450.6133012268
 10
6230.0316428073
 20
4450.6110675029
 10
6230.0312669351
 20
4450.6088349458
 10
6229.9998420955
 20
4450.5969346139
 10
6227.1780885315
 20
4450.4505199698
 10
6206.0187553361
 20
4449.8686981762
  0
LWPOLYLINE
  5
683
330
1F
100
AcDbEntity
  8
0
  6
Continuous
 62
     7
100
AcDbPolyline
 90
        8
 70
   128
 43
0.0
 10
6229.8469543457
 20
4449.1447407869
 10
6230.0215166244
 20
4449.1177734414
 10
6230.0301716852
 20
4449.1133012268
 10
6230.0316428073
 20
4449.1110675029
 10
6230.0312669351
 20
4449.1088349458
 10
6229.9998420955
 20
4449.0969346139
 10
6227.1780885315
 20
4448.9505199698
 10
6206.0187553361
 20
4448.3686981762
  0
LWPOLYLINE
  5
684
330
1F
100
AcDbEntity
  8
0
  6
Continuous
 62
     7
100
AcDbPolyline
 90
        8
 70
   128
 43
0.0
 10
6229.8469543457
 20
4447.6447407869
 10
6230.0215166244
 20
4447.6177734414
 10
6230.0301716852
 20
4447.6133012268
 10
6230.0316428073
 20
4447.6110675029
 10
6230.0312669351
 20
4447.6088349458
 10
6229.9998420955
 20
4447.5969346139
 10
6227.1780885315
 20
4447.4505199698
 10
6206.0187553361
 20
4446.8686981762
  0
LWPOLYLINE
  5
685
330
1F
100
AcDbEntity
  8
0
  6
Continuous
 62
     7
100
AcDbPolyline
 90
        8
 70
   128
 43
0.0
 10
6229.8469543457
 20
4446.1447407869
 10
6230.0215166244
 20
4446.1177734414
 10
6230.0301716852
 20
4446.1133012268
 10
6230.0316428073
 20
4446.1110675029
 10
6230.0312669351
 20
4446.1088349458
 10
6229.9998420955
 20
4446.0969346139
 10
6227.1780885315
 20
4445.9505199698
 10
6206.0187553361
 20
4445.3686981762
  0
LWPOLYLINE
  5
686
330
1F
100
AcDbEntity
  8
0
  6
Continuous
 62
     7
100
AcDbPolyline
 90
        8
 70
   128
 43
0.0
 10
6229.8469543457
 20
4444.6447407869
 10
6230.0215166244
 20
4444.6177734414
 10
6230.0301716852
 20
4444.6133012268
 10
6230.0316428073
 20
4444.6110675029
 10
6230.0312669351
 20
4444.6088349458
 10
6229.9998420955
 20
4444.5969346139
 10
6227.1780885315
 20
4444.4505199698
 10
6206.0187553361
 20
4443.8686981762
  0
LWPOLYLINE
  5
687
330
1F
100
AcDbEntity
  8
0
  6
Continuous
 62
     7
100
AcDbPolyline
 90
        5
 70
   128
 43
0.0
 10
6226.9172668457
 20
4458.4311981721
 10
6218.968351762
 20
4458.2322821788
 10
6213.0959612933
 20
4458.1032580053
 10
6208.6301684119
 20
4457.9754197397
 10
6206.8798827321
 20
4457.8454696846
  0
LWPOLYLINE
  5
688
330
1F
100
AcDbEntity
  8
0
  6
Continuous
 62
     7
100
AcDbPolyline
 90
       13
 70
   128
 43
0.0
 10
6229.2060852051
 20
4457.0874723118
 10
6229.207250836
 20
4457.0873837182
 10
6229.2088713782
 20
4457.0871153056
 10
6229.2150080371
 20
4457.0860417589
 10
6229.2341301859
 20
4457.0817489207
 10
6229.2448575069
 20
4457.0774573933
 10
6229.2476219654
 20
4457.0742389285
 10
6229.2436644875
 20
4457.0694103805
 10
6229.2304618537
 20
4457.0645793821
 10
6228.3544696329
 20
4456.9946955074
 10
6225.9933336396
 20
4456.9018006152
 10
6218.2054645052
 20
4456.7163403186
 10
6206.8798827322
 20
4456.3454696846
  0
LWPOLYLINE
  5
689
330
1F
100
AcDbEntity
  8
0
  6
Continuous
 62
     7
100
AcDbPolyline
 90
       13
 70
   128
 43
0.0
 10
6229.2060852051
 20
4455.5874723118
 10
6229.207250836
 20
4455.5873837182
 10
6229.2088713782
 20
4455.5871153056
 10
6229.2150080371
 20
4455.5860417589
 10
6229.2341301859
 20
4455.5817489207
 10
6229.2448575069
 20
4455.5774573933
 10
6229.2476219654
 20
4455.5742389285
 10
6229.2436644875
 20
4455.5694103805
 10
6229.2304618537
 20
4455.5645793821
 10
6228.3544696329
 20
4455.4946955074
 10
6225.9933336396
 20
4455.4018006152
 10
6218.2054645052
 20
4455.2163403186
 10
6206.8798827322
 20
4454.8454696846
  0
LWPOLYLINE
  5
68A
330
1F
100
AcDbEntity
  8
0
  6
Continuous
 62
     7
100
AcDbPolyline
 90
       13
 70
   128
 43
0.0
 10
6229.2060852051
 20
4454.0874723118
 10
6229.207250836
 20
4454.0873837182
 10
6229.2088713782
 20
4454.0871153056
 10
6229.2150080371
 20
4454.0860417589
 10
6229.2341301859
 20
4454.0817489207
 10
6229.2448575069
 20
4454.0774573933
 10
6229.2476219654
 20
4454.0742389285
 10
6229.2436644875
 20
4454.0694103805
 10
6229.2304618537
 20
4454.0645793821
 10
6228.3544696329
 20
4453.9946955074
 10
6225.9933336396
 20
4453.9018006152
 10
6218.2054645052
 20
4453.7163403186
 10
6206.8798827322
 20
4453.3454696846
  0
LWPOLYLINE
  5
68B
330
1F
100
AcDbEntity
  8
0
  6
Continuous
 62
     7
100
AcDbPolyline
 90
       13
 70
   128
 43
0.0
 10
6229.2060852051
 20
4452.5874723118
 10
6229.207250836
 20
4452.5873837182
 10
6229.2088713782
 20
4452.5871153056
 10
6229.2150080371
 20
4452.5860417589
 10
6229.2341301859
 20
4452.5817489207
 10
6229.2448575069
 20
4452.5774573933
 10
6229.2476219654
 20
4452.5742389285
 10
6229.2436644875
 20
4452.5694103805
 10
6229.2304618537
 20
4452.5645793821
 10
6228.3544696329
 20
4452.4946955074
 10
6225.9933336396
 20
4452.4018006152
 10
6218.2054645052
 20
4452.2163403186
 10
6206.8798827322
 20
4451.8454696846
  0
LWPOLYLINE
  5
68C
330
1F
100
AcDbEntity
  8
0
  6
Continuous
 62
     7
100
AcDbPolyline
 90
       13
 70
   128
 43
0.0
 10
6229.2060852051
 20
4451.0874723118
 10
6229.207250836
 20
4451.0873837182
 10
6229.2088713782
 20
4451.0871153056
 10
6229.2150080371
 20
4451.0860417589
 10
6229.2341301859
 20
4451.0817489207
 10
6229.2448575069
 20
4451.0774573933
 10
6229.2476219654
 20
4451.0742389285
 10
6229.2436644875
 20
4451.0694103805
 10
6229.2304618537
 20
4451.0645793821
 10
6228.3544696329
 20
4450.9946955074
 10
6225.9933336396
 20
4450.9018006152
 10
6218.2054645052
 20
4450.7163403186
 10
6206.8798827322
 20
4450.3454696846
  0
LWPOLYLINE
  5
68D
330
1F
100
AcDbEntity
  8
0
  6
Continuous
 62
     7
100
AcDbPolyline
 90
       13
 70
   128
 43
0.0
 10
6229.2060852051
 20
4449.5874723118
 10
6229.207250836
 20
4449.5873837182
 10
6229.2088713782
 20
4449.5871153056
 10
6229.2150080371
 20
4449.5860417589
 10
6229.2341301859
 20
4449.5817489207
 10
6229.2448575069
 20
4449.5774573933
 10
6229.2476219654
 20
4449.5742389285
 10
6229.2436644875
 20
4449.5694103805
 10
6229.2304618537
 20
4449.5645793821
 10
6228.3544696329
 20
4449.4946955074
 10
6225.9933336396
 20
4449.4018006152
 10
6218.2054645052
 20
4449.2163403186
 10
6206.8798827322
 20
4448.8454696846
  0
LWPOLYLINE
  5
68E
330
1F
100
AcDbEntity
  8
0
  6
Continuous
 62
     7
100
AcDbPolyline
 90
       13
 70
   128
 43
0.0
 10
6229.2060852051
 20
4448.0874723118
 10
6229.207250836
 20
4448.0873837182
 10
6229.2088713782
 20
4448.0871153056
 10
6229.2150080371
 20
4448.0860417589
 10
6229.2341301859
 20
4448.0817489207
 10
6229.2448575069
 20
4448.0774573933
 10
6229.2476219654
 20
4448.0742389285
 10
6229.2436644875
 20
4448.0694103805
 10
6229.2304618537
 20
4448.0645793821
 10
6228.3544696329
 20
4447.9946955074
 10
6225.9933336396
 20
4447.9018006152
 10
6218.2054645052
 20
4447.7163403186
 10
6206.8798827322
 20
4447.3454696846
  0
LWPOLYLINE
  5
68F
330
1F
100
AcDbEntity
  8
0
  6
Continuous
 62
     7
100
AcDbPolyline
 90
       13
 70
   128
 43
0.0
 10
6229.2060852051
 20
4446.5874723118
 10
6229.207250836
 20
4446.5873837182
 10
6229.2088713782
 20
4446.5871153056
 10
6229.2150080371
 20
4446.5860417589
 10
6229.2341301859
 20
4446.5817489207
 10
6229.2448575069
 20
4446.5774573933
 10
6229.2476219654
 20
4446.5742389285
 10
6229.2436644875
 20
4446.5694103805
 10
6229.2304618537
 20
4446.5645793821
 10
6228.3544696329
 20
4446.4946955074
 10
6225.9933336396
 20
4446.4018006152
 10
6218.2054645052
 20
4446.2163403186
 10
6206.8798827322
 20
4445.8454696846
  0
LWPOLYLINE
  5
690
330
1F
100
AcDbEntity
  8
0
  6
Continuous
 62
     7
100
AcDbPolyline
 90
       13
 70
   128
 43
0.0
 10
6229.2060852051
 20
4445.0874723118
 10
6229.207250836
 20
4445.0873837182
 10
6229.2088713782
 20
4445.0871153056
 10
6229.2150080371
 20
4445.0860417589
 10
6229.2341301859
 20
4445.0817489207
 10
6229.2448575069
 20
4445.0774573933
 10
6229.2476219654
 20
4445.0742389285
 10
6229.2436644875
 20
4445.0694103805
 10
6229.2304618537
 20
4445.0645793821
 10
6228.3544696329
 20
4444.9946955074
 10
6225.9933336396
 20
4444.9018006152
 10
6218.2054645052
 20
4444.7163403186
 10
6206.8798827322
 20
4444.3454696846
  0
LINE
  5
691
330
1F
100
AcDbEntity
  8
0
  6
Continuous
 62
     7
100
AcDbLine
 10
6211.238861084
 20
4458.4311981721
 30
0.0
 11
6226.9208608097
 21
4458.4311981721
 31
0.0
  0
ENDSEC
  0
SECTION
  2
OBJECTS
  0
DICTIONARY
  5
C
330
0
100
AcDbDictionary
281
     1
  3
ACAD_GROUP
350
D
  3
ACAD_LAYOUT
350
1A
  3
ACAD_MLINESTYLE
350
17
  3
ACAD_PLOTSETTINGS
350
19
  3
ACAD_PLOTSTYLENAME
350
E
  3
ACAD_SCALELIST
350
47
  3
DWGPROPS
350
692
  0
DICTIONARY
  5
D
102
{ACAD_REACTORS
330
C
102
}
330
C
100
AcDbDictionary
281
     1
  0
DICTIONARY
  5
1A
102
{ACAD_REACTORS
330
C
102
}
330
C
100
AcDbDictionary
281
     1
  3
Layout1
350
1E
  3
Layout2
350
26
  3
Model
350
22
  0
DICTIONARY
  5
17
102
{ACAD_REACTORS
330
C
102
}
330
C
100
AcDbDictionary
281
     1
  3
Standard
350
18
  0
DICTIONARY
  5
19
102
{ACAD_REACTORS
330
C
102
}
330
C
100
AcDbDictionary
281
     1
  0
ACDBDICTIONARYWDFLT
  5
E
102
{ACAD_REACTORS
330
C
102
}
330
C
100
AcDbDictionary
281
     1
  3
Normal
350
F
100
AcDbDictionaryWithDefault
340
F
  0
DICTIONARY
  5
47
102
{ACAD_REACTORS
330
C
102
}
330
C
100
AcDbDictionary
281
     1
  3
A0
350
48
  3
A1
350
49
  3
A2
350
4A
  3
A3
350
4B
  3
A4
350
4C
  3
A5
350
4D
  3
A6
350
4E
  3
A7
350
4F
  3
A8
350
50
  3
A9
350
51
  3
B0
350
52
  3
B1
350
53
  3
B2
350
54
  3
B3
350
55
  3
B4
350
56
  3
B5
350
57
  3
B6
350
58
  3
B7
350
59
  3
B8
350
5A
  3
B9
350
5B
  3
C0
350
5C
  3
C1
350
5D
  3
C2
350
5E
  3
C3
350
5F
  3
C4
350
60
  3
C5
350
61
  3
C6
350
62
  3
C7
350
63
  3
C8
350
64
  3
C9
350
65
  3
D0
350
66
  3
D1
350
67
  3
D2
350
68
  0
XRECORD
  5
692
102
{ACAD_REACTORS
330
C
102
}
330
C
100
AcDbXrecord
280
     1
  1
DWGPROPS COOKIE
  2

  3

  4

  6

  7

  8
radek.stransky
  9

300
=
301
=
302
=
303
=
304
=
305
=
306
=
307
=
308
=
309
=
 40
0.0
 41
2459096.294997396
 42
2459096.295027535
  1

 90
        0
  0
LAYOUT
  5
1E
102
{ACAD_REACTORS
330
1A
102
}
330
1A
100
AcDbPlotSettings
  1

  2
none_device
  4

  6

 40
0.0
 41
0.0
 42
0.0
 43
0.0
 44
0.0
 45
0.0
 46
0.0
 47
0.0
 48
0.0
 49
0.0
140
0.0
141
0.0
142
1.0
143
1.0
 70
   688
 72
     1
 73
     0
 74
     5
  7

 75
    16
147
1.0
148
0.0
149
0.0
100
AcDbLayout
  1
Layout1
 70
     1
 71
     1
 10
0.0
 20
0.0
 11
420.0
 21
297.0
 12
0.0
 22
0.0
 32
0.0
 14
1.0000000000E+20
 24
1.0000000000E+20
 34
1.0000000000E+20
 15
-1.0000000000E+20
 25
-1.0000000000E+20
 35
-1.0000000000E+20
146
0.0
 13
0.0
 23
0.0
 33
0.0
 16
1.0
 26
0.0
 36
0.0
 17
0.0
 27
1.0
 37
0.0
 76
     0
330
1B
  0
LAYOUT
  5
26
102
{ACAD_REACTORS
330
1A
102
}
330
1A
100
AcDbPlotSettings
  1

  2
none_device
  4

  6

 40
0.0
 41
0.0
 42
0.0
 43
0.0
 44
0.0
 45
0.0
 46
0.0
 47
0.0
 48
0.0
 49
0.0
140
0.0
141
0.0
142
1.0
143
1.0
 70
   688
 72
     1
 73
     0
 74
     5
  7

 75
    16
147
1.0
148
0.0
149
0.0
100
AcDbLayout
  1
Layout2
 70
     1
 71
     2
 10
0.0
 20
0.0
 11
0.0
 21
0.0
 12
0.0
 22
0.0
 32
0.0
 14
0.0
 24
0.0
 34
0.0
 15
0.0
 25
0.0
 35
0.0
146
0.0
 13
0.0
 23
0.0
 33
0.0
 16
1.0
 26
0.0
 36
0.0
 17
0.0
 27
1.0
 37
0.0
 76
     0
330
23
  0
LAYOUT
  5
22
102
{ACAD_REACTORS
330
1A
102
}
330
1A
100
AcDbPlotSettings
  1

  2
none_device
  4
ANSI_A_(11.00_x_8.50_Inches)
  6

 40
6.35
 41
19.05
 42
6.35000508
 43
19.05000254
 44
279.4
 45
215.9
 46
-580.508390304
 47
-393.867041865
 48
0.0
 49
0.0
140
0.0
141
0.0
142
0.0041012494
143
1.0
 70
  1696
 72
     0
 73
     0
 74
     0
  7

 75
     0
147
0.0179189148
148
-1300.4909072572
149
0.0
100
AcDbLayout
  1
Model
 70
     1
 71
     0
 10
0.0
 20
0.0
 11
420.0
 21
297.0
 12
0.0
 22
0.0
 32
0.0
 14
6122.9212570553
 24
3608.4312015284
 34
0.0
 15
7582.4928752652
 25
5660.2449591785
 35
0.0
146
0.0
 13
0.0
 23
0.0
 33
0.0
 16
1.0
 26
0.0
 36
0.0
 17
0.0
 27
1.0
 37
0.0
 76
     0
330
1F
331
29
  0
MLINESTYLE
  5
18
102
{ACAD_REACTORS
330
17
102
}
330
17
100
AcDbMlineStyle
  2
Standard
 70
     0
  3

 62
   256
 51
90.0
 52
90.0
 71
     2
 49
0.5
 62
   256
  6
BYLAYER
 49
-0.5
 62
   256
  6
BYLAYER
  0
ACDBPLACEHOLDER
  5
F
102
{ACAD_REACTORS
330
E
102
}
330
E
  0
SCALE
  5
48
102
{ACAD_REACTORS
330
47
102
}
330
47
100
AcDbScale
 70
     0
300
1:1
140
1.0
141
1.0
290
     1
  0
SCALE
  5
49
102
{ACAD_REACTORS
330
47
102
}
330
47
100
AcDbScale
 70
     0
300
1:2
140
1.0
141
2.0
290
     0
  0
SCALE
  5
4A
102
{ACAD_REACTORS
330
47
102
}
330
47
100
AcDbScale
 70
     0
300
1:4
140
1.0
141
4.0
290
     0
  0
SCALE
  5
4B
102
{ACAD_REACTORS
330
47
102
}
330
47
100
AcDbScale
 70
     0
300
1:5
140
1.0
141
5.0
290
     0
  0
SCALE
  5
4C
102
{ACAD_REACTORS
330
47
102
}
330
47
100
AcDbScale
 70
     0
300
1:8
140
1.0
141
8.0
290
     0
  0
SCALE
  5
4D
102
{ACAD_REACTORS
330
47
102
}
330
47
100
AcDbScale
 70
     0
300
1:10
140
1.0
141
10.0
290
     0
  0
SCALE
  5
4E
102
{ACAD_REACTORS
330
47
102
}
330
47
100
AcDbScale
 70
     0
300
1:16
140
1.0
141
16.0
290
     0
  0
SCALE
  5
4F
102
{ACAD_REACTORS
330
47
102
}
330
47
100
AcDbScale
 70
     0
300
1:20
140
1.0
141
20.0
290
     0
  0
SCALE
  5
50
102
{ACAD_REACTORS
330
47
102
}
330
47
100
AcDbScale
 70
     0
300
1:30
140
1.0
141
30.0
290
     0
  0
SCALE
  5
51
102
{ACAD_REACTORS
330
47
102
}
330
47
100
AcDbScale
 70
     0
300
1:40
140
1.0
141
40.0
290
     0
  0
SCALE
  5
52
102
{ACAD_REACTORS
330
47
102
}
330
47
100
AcDbScale
 70
     0
300
1:50
140
1.0
141
50.0
290
     0
  0
SCALE
  5
53
102
{ACAD_REACTORS
330
47
102
}
330
47
100
AcDbScale
 70
     0
300
1:100
140
1.0
141
100.0
290
     0
  0
SCALE
  5
54
102
{ACAD_REACTORS
330
47
102
}
330
47
100
AcDbScale
 70
     0
300
2:1
140
2.0
141
1.0
290
     0
  0
SCALE
  5
55
102
{ACAD_REACTORS
330
47
102
}
330
47
100
AcDbScale
 70
     0
300
4:1
140
4.0
141
1.0
290
     0
  0
SCALE
  5
56
102
{ACAD_REACTORS
330
47
102
}
330
47
100
AcDbScale
 70
     0
300
8:1
140
8.0
141
1.0
290
     0
  0
SCALE
  5
57
102
{ACAD_REACTORS
330
47
102
}
330
47
100
AcDbScale
 70
     0
300
10:1
140
10.0
141
1.0
290
     0
  0
SCALE
  5
58
102
{ACAD_REACTORS
330
47
102
}
330
47
100
AcDbScale
 70
     0
300
100:1
140
100.0
141
1.0
290
     0
  0
SCALE
  5
59
102
{ACAD_REACTORS
330
47
102
}
330
47
100
AcDbScale
 70
     0
300
1/128" = 1'-0"
140
0.0078125
141
12.0
290
     0
  0
SCALE
  5
5A
102
{ACAD_REACTORS
330
47
102
}
330
47
100
AcDbScale
 70
     0
300
1/64" = 1'-0"
140
0.015625
141
12.0
290
     0
  0
SCALE
  5
5B
102
{ACAD_REACTORS
330
47
102
}
330
47
100
AcDbScale
 70
     0
300
1/32" = 1'-0"
140
0.03125
141
12.0
290
     0
  0
SCALE
  5
5C
102
{ACAD_REACTORS
330
47
102
}
330
47
100
AcDbScale
 70
     0
300
1/16" = 1'-0"
140
0.0625
141
12.0
290
     0
  0
SCALE
  5
5D
102
{ACAD_REACTORS
330
47
102
}
330
47
100
AcDbScale
 70
     0
300
3/32" = 1'-0"
140
0.09375
141
12.0
290
     0
  0
SCALE
  5
5E
102
{ACAD_REACTORS
330
47
102
}
330
47
100
AcDbScale
 70
     0
300
1/8" = 1'-0"
140
0.125
141
12.0
290
     0
  0
SCALE
  5
5F
102
{ACAD_REACTORS
330
47
102
}
330
47
100
AcDbScale
 70
     0
300
3/16" = 1'-0"
140
0.1875
141
12.0
290
     0
  0
SCALE
  5
60
102
{ACAD_REACTORS
330
47
102
}
330
47
100
AcDbScale
 70
     0
300
1/4" = 1'-0"
140
0.25
141
12.0
290
     0
  0
SCALE
  5
61
102
{ACAD_REACTORS
330
47
102
}
330
47
100
AcDbScale
 70
     0
300
3/8" = 1'-0"
140
0.375
141
12.0
290
     0
  0
SCALE
  5
62
102
{ACAD_REACTORS
330
47
102
}
330
47
100
AcDbScale
 70
     0
300
1/2" = 1'-0"
140
0.5
141
12.0
290
     0
  0
SCALE
  5
63
102
{ACAD_REACTORS
330
47
102
}
330
47
100
AcDbScale
 70
     0
300
3/4" = 1'-0"
140
0.75
141
12.0
290
     0
  0
SCALE
  5
64
102
{ACAD_REACTORS
330
47
102
}
330
47
100
AcDbScale
 70
     0
300
1" = 1'-0"
140
1.0
141
12.0
290
     0
  0
SCALE
  5
65
102
{ACAD_REACTORS
330
47
102
}
330
47
100
AcDbScale
 70
     0
300
1-1/2" = 1'-0"
140
1.5
141
12.0
290
     0
  0
SCALE
  5
66
102
{ACAD_REACTORS
330
47
102
}
330
47
100
AcDbScale
 70
     0
300
3" = 1'-0"
140
3.0
141
12.0
290
     0
  0
SCALE
  5
67
102
{ACAD_REACTORS
330
47
102
}
330
47
100
AcDbScale
 70
     0
300
6" = 1'-0"
140
6.0
141
12.0
290
     0
  0
SCALE
  5
68
102
{ACAD_REACTORS
330
47
102
}
330
47
100
AcDbScale
 70
     0
300
1'-0" = 1'-0"
140
12.0
141
12.0
290
     0
  0
ENDSEC
  0
EOF
