  0
SECTION
  2
HEADER
  9
$ACADVER
  1
AC1015
  9
$ACADMAINTVER
 70
     6
  9
$DWGCODEPAGE
  3
ANSI_1250
  9
$INSBASE
 10
0.0
 20
0.0
 30
0.0
  9
$EXTMIN
 10
0.0
 20
0.0
 30
0.0
  9
$EXTMAX
 10
20000.0
 20
10000.0
 30
0.0
  9
$LIMMIN
 10
0.0
 20
0.0
  9
$LIMMAX
 10
20000.0
 20
10000.0
  9
$ORTHOMODE
 70
     0
  9
$REGENMODE
 70
     1
  9
$FILLMODE
 70
     1
  9
$QTEXTMODE
 70
     0
  9
$MIRRTEXT
 70
     1
  9
$LTSCALE
 40
1.0
  9
$ATTMODE
 70
     1
  9
$TEXTSIZE
 40
2.0
  9
$TRACEWID
 40
1.0
  9
$TEXTSTYLE
  7
Standard
  9
$CLAYER
  8
0
  9
$CELTYPE
  6
ByLayer
  9
$CECOLOR
 62
   256
  9
$CELTSCALE
 40
1.0
  9
$DISPSILH
 70
     0
  9
$DIMSCALE
 40
1.0
  9
$DIMASZ
 40
2.0
  9
$DIMEXO
 40
1.0
  9
$DIMDLI
 40
3.75
  9
$DIMRND
 40
0.0
  9
$DIMDLE
 40
0.0
  9
$DIMEXE
 40
1.0
  9
$DIMTP
 40
0.0
  9
$DIMTM
 40
0.0
  9
$DIMTXT
 40
2.0
  9
$DIMCEN
 40
2.5
  9
$DIMTSZ
 40
0.0
  9
$DIMTOL
 70
     0
  9
$DIMLIM
 70
     0
  9
$DIMTIH
 70
     1
  9
$DIMTOH
 70
     1
  9
$DIMSE1
 70
     0
  9
$DIMSE2
 70
     0
  9
$DIMTAD
 70
     1
  9
$DIMZIN
 70
     0
  9
$DIMBLK
  1

  9
$DIMASO
 70
     1
  9
$DIMSHO
 70
     1
  9
$DIMPOST
  1

  9
$DIMAPOST
  1

  9
$DIMALT
 70
     0
  9
$DIMALTD
 70
     3
  9
$DIMALTF
 40
0.0393700787
  9
$DIMLFAC
 40
1.0
  9
$DIMTOFL
 70
     1
  9
$DIMTVP
 40
0.0
  9
$DIMTIX
 70
     0
  9
$DIMSOXD
 70
     0
  9
$DIMSAH
 70
     0
  9
$DIMBLK1
  1

  9
$DIMBLK2
  1

  9
$DIMSTYLE
  2
ISO-25
  9
$DIMCLRD
 70
     0
  9
$DIMCLRE
 70
     0
  9
$DIMCLRT
 70
     0
  9
$DIMTFAC
 40
1.0
  9
$DIMGAP
 40
1.524
  9
$DIMJUST
 70
     0
  9
$DIMSD1
 70
     0
  9
$DIMSD2
 70
     0
  9
$DIMTOLJ
 70
     0
  9
$DIMTZIN
 70
     0
  9
$DIMALTZ
 70
     0
  9
$DIMALTTZ
 70
     0
  9
$DIMUPT
 70
     0
  9
$DIMDEC
 70
     2
  9
$DIMTDEC
 70
     0
  9
$DIMALTU
 70
     2
  9
$DIMALTTD
 70
     3
  9
$DIMTXSTY
  7
Standard
  9
$DIMAUNIT
 70
     0
  9
$DIMADEC
 70
     2
  9
$DIMALTRND
 40
0.0
  9
$DIMAZIN
 70
     0
  9
$DIMDSEP
 70
    44
  9
$DIMATFIT
 70
     3
  9
$DIMFRAC
 70
     0
  9
$DIMLDRBLK
  1

  9
$DIMLUNIT
 70
     2
  9
$DIMLWD
 70
    -2
  9
$DIMLWE
 70
    -2
  9
$DIMTMOVE
 70
     0
  9
$LUNITS
 70
     2
  9
$LUPREC
 70
     3
  9
$SKETCHINC
 40
1.0
  9
$FILLETRAD
 40
10.0
  9
$AUNITS
 70
     0
  9
$AUPREC
 70
     2
  9
$MENU
  1
.
  9
$ELEVATION
 40
0.0
  9
$PELEVATION
 40
0.0
  9
$THICKNESS
 40
0.0
  9
$LIMCHECK
 70
     0
  9
$CHAMFERA
 40
0.0
  9
$CHAMFERB
 40
0.0
  9
$CHAMFERC
 40
0.0
  9
$CHAMFERD
 40
0.0
  9
$SKPOLY
 70
     0
  9
$TDCREATE
 40
2458696.352188276
  9
$TDUCREATE
 40
2458696.268854942
  9
$TDUPDATE
 40
2458696.35219015
  9
$TDUUPDATE
 40
2458696.268856817
  9
$TDINDWG
 40
0.0000000116
  9
$TDUSRTIMER
 40
0.0000000116
  9
$USRTIMER
 70
     1
  9
$ANGBASE
 50
0.0
  9
$ANGDIR
 70
     0
  9
$PDMODE
 70
     0
  9
$PDSIZE
 40
-1.0
  9
$PLINEWID
 40
0.0
  9
$SPLFRAME
 70
     0
  9
$SPLINETYPE
 70
     6
  9
$SPLINESEGS
 70
     8
  9
$HANDSEED
  5
256
  9
$SURFTAB1
 70
     6
  9
$SURFTAB2
 70
     6
  9
$SURFTYPE
 70
     6
  9
$SURFU
 70
     6
  9
$SURFV
 70
     6
  9
$UCSBASE
  2

  9
$UCSNAME
  2

  9
$UCSORG
 10
0.0
 20
0.0
 30
0.0
  9
$UCSXDIR
 10
1.0
 20
0.0
 30
0.0
  9
$UCSYDIR
 10
0.0
 20
1.0
 30
0.0
  9
$UCSORTHOREF
  2

  9
$UCSORTHOVIEW
 70
     0
  9
$UCSORGTOP
 10
0.0
 20
0.0
 30
0.0
  9
$UCSORGBOTTOM
 10
0.0
 20
0.0
 30
0.0
  9
$UCSORGLEFT
 10
0.0
 20
0.0
 30
0.0
  9
$UCSORGRIGHT
 10
0.0
 20
0.0
 30
0.0
  9
$UCSORGFRONT
 10
0.0
 20
0.0
 30
0.0
  9
$UCSORGBACK
 10
0.0
 20
0.0
 30
0.0
  9
$PUCSBASE
  2

  9
$PUCSNAME
  2

  9
$PUCSORG
 10
0.0
 20
0.0
 30
0.0
  9
$PUCSXDIR
 10
1.0
 20
0.0
 30
0.0
  9
$PUCSYDIR
 10
0.0
 20
1.0
 30
0.0
  9
$PUCSORTHOREF
  2

  9
$PUCSORTHOVIEW
 70
     0
  9
$PUCSORGTOP
 10
0.0
 20
0.0
 30
0.0
  9
$PUCSORGBOTTOM
 10
0.0
 20
0.0
 30
0.0
  9
$PUCSORGLEFT
 10
0.0
 20
0.0
 30
0.0
  9
$PUCSORGRIGHT
 10
0.0
 20
0.0
 30
0.0
  9
$PUCSORGFRONT
 10
0.0
 20
0.0
 30
0.0
  9
$PUCSORGBACK
 10
0.0
 20
0.0
 30
0.0
  9
$USERI1
 70
     0
  9
$USERI2
 70
     0
  9
$USERI3
 70
     0
  9
$USERI4
 70
     0
  9
$USERI5
 70
     0
  9
$USERR1
 40
0.0
  9
$USERR2
 40
0.0
  9
$USERR3
 40
0.0
  9
$USERR4
 40
0.0
  9
$USERR5
 40
0.0
  9
$WORLDVIEW
 70
     1
  9
$SHADEDGE
 70
     3
  9
$SHADEDIF
 70
    70
  9
$TILEMODE
 70
     1
  9
$MAXACTVP
 70
    64
  9
$PINSBASE
 10
0.0
 20
0.0
 30
0.0
  9
$PLIMCHECK
 70
     0
  9
$PEXTMIN
 10
1.0000000000E+20
 20
1.0000000000E+20
 30
1.0000000000E+20
  9
$PEXTMAX
 10
-1.0000000000E+20
 20
-1.0000000000E+20
 30
-1.0000000000E+20
  9
$PLIMMIN
 10
0.0
 20
0.0
  9
$PLIMMAX
 10
420.0
 20
297.0
  9
$UNITMODE
 70
     0
  9
$VISRETAIN
 70
     1
  9
$PLINEGEN
 70
     0
  9
$PSLTSCALE
 70
     1
  9
$TREEDEPTH
 70
  3020
  9
$CMLSTYLE
  2
Standard
  9
$CMLJUST
 70
     0
  9
$CMLSCALE
 40
20.0
  9
$PROXYGRAPHICS
 70
     1
  9
$MEASUREMENT
 70
     1
  9
$CELWEIGHT
370
    -1
  9
$ENDCAPS
280
     0
  9
$JOINSTYLE
280
     0
  9
$LWDISPLAY
290
     1
  9
$INSUNITS
 70
     4
  9
$HYPERLINKBASE
  1

  9
$STYLESHEET
  1

  9
$XEDIT
290
     1
  9
$CEPSNTYPE
380
     0
  9
$PSTYLEMODE
290
     1
  9
$FINGERPRINTGUID
  2
{8CB3243F-0531-450F-BA25-7B402FAAB81A}
  9
$VERSIONGUID
  2
{FAEB1C32-E019-11D5-929B-00C0DF256EC4}
  9
$EXTNAMES
290
     1
  9
$PSVPSCALE
 40
0.0
  9
$OLESTARTUP
290
     0
  0
ENDSEC
  0
SECTION
  2
CLASSES
  0
CLASS
  1
ACDBDICTIONARYWDFLT
  2
AcDbDictionaryWithDefault
  3
ObjectDBX Classes
 90
        0
280
     0
281
     0
  0
CLASS
  1
VISUALSTYLE
  2
AcDbVisualStyle
  3
ObjectDBX Classes
 90
     4095
280
     0
281
     0
  0
CLASS
  1
MATERIAL
  2
AcDbMaterial
  3
ObjectDBX Classes
 90
     1153
280
     0
281
     0
  0
CLASS
  1
SCALE
  2
AcDbScale
  3
ObjectDBX Classes
 90
     1153
280
     0
281
     0
  0
CLASS
  1
TABLESTYLE
  2
AcDbTableStyle
  3
ObjectDBX Classes
 90
     4095
280
     0
281
     0
  0
CLASS
  1
MLEADERSTYLE
  2
AcDbMLeaderStyle
  3
ACDB_MLEADERSTYLE_CLASS
 90
     4095
280
     0
281
     0
  0
CLASS
  1
SUN
  2
AcDbSun
  3
SCENEOE
 90
     1153
280
     0
281
     0
  0
CLASS
  1
ACDBPLACEHOLDER
  2
AcDbPlaceHolder
  3
ObjectDBX Classes
 90
        0
280
     0
281
     0
  0
CLASS
  1
LAYOUT
  2
AcDbLayout
  3
ObjectDBX Classes
 90
        0
280
     0
281
     0
  0
ENDSEC
  0
SECTION
  2
TABLES
  0
TABLE
  2
VPORT
  5
8
330
0
100
AcDbSymbolTable
 70
     1
  0
VPORT
  5
29
330
8
100
AcDbSymbolTableRecord
100
AcDbViewportTableRecord
  2
*Active
 70
     0
 10
0.0
 20
0.0
 11
1.0
 21
1.0
 12
10000.0
 22
5000.0
 13
0.0
 23
0.0
 14
10.0
 24
10.0
 15
10.0
 25
10.0
 16
0.0
 26
0.0
 36
1.0
 17
0.0
 27
0.0
 37
0.0
 40
10000.0
 41
2.0
 42
50.0
 43
0.0
 44
0.0
 50
0.0
 51
0.0
 71
     0
 72
  2000
 73
     1
 74
     3
 75
     0
 76
     0
 77
     0
 78
     0
281
     0
 65
     1
110
0.0
120
0.0
130
0.0
111
1.0
121
0.0
131
0.0
112
0.0
122
1.0
132
0.0
 79
     0
146
0.0
  0
ENDTAB
  0
TABLE
  2
LTYPE
  5
5
330
0
100
AcDbSymbolTable
 70
     6
  0
LTYPE
  5
14
330
5
100
AcDbSymbolTableRecord
100
AcDbLinetypeTableRecord
  2
ByBlock
 70
     0
  3

 72
    65
 73
     0
 40
0.0
  0
LTYPE
  5
15
330
5
100
AcDbSymbolTableRecord
100
AcDbLinetypeTableRecord
  2
ByLayer
 70
     0
  3

 72
    65
 73
     0
 40
0.0
  0
LTYPE
  5
16
330
5
100
AcDbSymbolTableRecord
100
AcDbLinetypeTableRecord
  2
Continuous
 70
     0
  3
Solid line
 72
    65
 73
     0
 40
0.0
  0
LTYPE
  5
6E
330
5
100
AcDbSymbolTableRecord
100
AcDbLinetypeTableRecord
  2
HIDDEN
 70
     0
  3
Hidden __ __ __ __ __ __ __ __ __ __ __ __ __ __
 72
    65
 73
     2
 40
1.905
 49
1.27
 74
     0
 49
-0.635
 74
     0
  0
LTYPE
  5
6F
330
5
100
AcDbSymbolTableRecord
100
AcDbLinetypeTableRecord
  2
PHANTOM
 70
     0
  3
Phantom ______  __  __  ______  __  __  ______
 72
    65
 73
     6
 40
12.7
 49
6.35
 74
     0
 49
-1.27
 74
     0
 49
1.27
 74
     0
 49
-1.27
 74
     0
 49
1.27
 74
     0
 49
-1.27
 74
     0
  0
LTYPE
  5
70
330
5
100
AcDbSymbolTableRecord
100
AcDbLinetypeTableRecord
  2
CENTER
 70
     0
  3
Center ____ _ ____ _ ____ _ ____ _ ____ _ ____
 72
    65
 73
     4
 40
10.16
 49
6.35
 74
     0
 49
-1.27
 74
     0
 49
1.27
 74
     0
 49
-1.27
 74
     0
  0
LTYPE
  5
71
330
5
100
AcDbSymbolTableRecord
100
AcDbLinetypeTableRecord
  2
CENTERX2
 70
     0
  3
Center (2x) ________  __  ________  __  _____
 72
    65
 73
     4
 40
20.32
 49
12.7
 74
     0
 49
-2.54
 74
     0
 49
2.54
 74
     0
 49
-2.54
 74
     0
  0
LTYPE
  5
72
330
5
100
AcDbSymbolTableRecord
100
AcDbLinetypeTableRecord
  2
DOT2
 70
     0
  3
Dot (.5x) ........................................
 72
    65
 73
     2
 40
0.635
 49
0.0
 74
     0
 49
-0.635
 74
     0
  0
ENDTAB
  0
TABLE
  2
LAYER
  5
2
330
0
100
AcDbSymbolTable
 70
    13
  0
LAYER
  5
10
330
2
100
AcDbSymbolTableRecord
100
AcDbLayerTableRecord
  2
0
 70
     0
 62
     7
  6
Continuous
370
    -3
390
F
  0
LAYER
  5
73
330
2
100
AcDbSymbolTableRecord
100
AcDbLayerTableRecord
  2
FORMAT
 70
     0
 62
     7
  6
Continuous
370
    -3
390
F
  0
LAYER
  5
74
330
2
100
AcDbSymbolTableRecord
100
AcDbLayerTableRecord
  2
OSA
 70
     0
 62
     7
  6
CENTER
370
    -3
390
F
  0
LAYER
  5
75
330
2
100
AcDbSymbolTableRecord
100
AcDbLayerTableRecord
  2
0_35
 70
     0
 62
     7
  6
Continuous
370
    35
390
F
  0
LAYER
  5
76
330
2
100
AcDbSymbolTableRecord
100
AcDbLayerTableRecord
  2
0_5
 70
     0
 62
     7
  6
Continuous
370
    50
390
F
  0
LAYER
  5
77
330
2
100
AcDbSymbolTableRecord
100
AcDbLayerTableRecord
  2
0_25
 70
     0
 62
     7
  6
Continuous
370
    25
390
F
  0
LAYER
  5
78
330
2
100
AcDbSymbolTableRecord
100
AcDbLayerTableRecord
  2
0_18
 70
     0
 62
     7
  6
Continuous
370
    -3
390
F
  0
LAYER
  5
79
330
2
100
AcDbSymbolTableRecord
100
AcDbLayerTableRecord
  2
SLD-0
 70
     0
 62
   179
  6
Continuous
370
    -3
390
F
  0
LAYER
  5
7A
330
2
100
AcDbSymbolTableRecord
100
AcDbLayerTableRecord
  2
KOTY
 70
     0
 62
     7
  6
Continuous
370
    -3
390
F
  0
LAYER
  5
7B
330
2
100
AcDbSymbolTableRecord
100
AcDbLayerTableRecord
  2
SILNA
 70
     0
 62
   179
  6
Continuous
370
    -3
390
F
  0
LAYER
  5
7C
330
2
100
AcDbSymbolTableRecord
100
AcDbLayerTableRecord
  2
0_18_1
 70
     0
 62
   179
  6
Continuous
370
    -3
390
F
  0
LAYER
  5
7D
330
2
100
AcDbSymbolTableRecord
100
AcDbLayerTableRecord
  2
0_35_1
 70
     0
 62
   179
  6
Continuous
370
    35
390
F
  0
LAYER
  5
7E
330
2
100
AcDbSymbolTableRecord
100
AcDbLayerTableRecord
  2
0_5_1
 70
     0
 62
   179
  6
Continuous
370
    50
390
F
  0
ENDTAB
  0
TABLE
  2
STYLE
  5
3
330
0
100
AcDbSymbolTable
 70
     1
  0
STYLE
  5
11
330
3
100
AcDbSymbolTableRecord
100
AcDbTextStyleTableRecord
  2
Standard
 70
     0
 40
0.0
 41
1.0
 50
0.0
 71
     0
 42
2.0
  3
txt
  4

  0
ENDTAB
  0
TABLE
  2
VIEW
  5
6
330
0
100
AcDbSymbolTable
 70
     0
  0
ENDTAB
  0
TABLE
  2
UCS
  5
7
330
0
100
AcDbSymbolTable
 70
     0
  0
ENDTAB
  0
TABLE
  2
APPID
  5
9
330
0
100
AcDbSymbolTable
 70
     1
  0
APPID
  5
12
330
9
100
AcDbSymbolTableRecord
100
AcDbRegAppTableRecord
  2
ACAD
 70
     0
  0
ENDTAB
  0
TABLE
  2
DIMSTYLE
  5
A
330
0
100
AcDbSymbolTable
 70
     1
100
AcDbDimStyleTable
  0
DIMSTYLE
105
27
330
A
100
AcDbSymbolTableRecord
100
AcDbDimStyleTableRecord
  2
ISO-25
 70
     0
 41
2.5
 42
0.625
 43
3.75
 44
1.25
 73
     0
 74
     0
 77
     1
 78
     8
140
2.5
141
2.5
143
0.0393700787
147
0.625
171
     3
172
     1
178
     0
271
     2
272
     2
274
     3
278
    44
283
     0
284
     8
340
11
  0
ENDTAB
  0
TABLE
  2
BLOCK_RECORD
  5
1
330
0
100
AcDbSymbolTable
 70
     1
  0
BLOCK_RECORD
  5
1F
330
1
100
AcDbSymbolTableRecord
100
AcDbBlockTableRecord
  2
*Model_Space
340
22
  0
BLOCK_RECORD
  5
1B
330
1
100
AcDbSymbolTableRecord
100
AcDbBlockTableRecord
  2
*Paper_Space
340
1E
  0
BLOCK_RECORD
  5
23
330
1
100
AcDbSymbolTableRecord
100
AcDbBlockTableRecord
  2
*Paper_Space0
340
26
  0
ENDTAB
  0
ENDSEC
  0
SECTION
  2
BLOCKS
  0
BLOCK
  5
20
330
1F
100
AcDbEntity
  8
0
100
AcDbBlockBegin
  2
*Model_Space
 70
     0
 10
0.0
 20
0.0
 30
0.0
  3
*Model_Space
  1

  0
ENDBLK
  5
21
330
1F
100
AcDbEntity
  8
0
100
AcDbBlockEnd
  0
BLOCK
  5
1C
330
1B
100
AcDbEntity
 67
     1
  8
0
100
AcDbBlockBegin
  2
*Paper_Space
 70
     0
 10
0.0
 20
0.0
 30
0.0
  3
*Paper_Space
  1

  0
ENDBLK
  5
1D
330
1B
100
AcDbEntity
 67
     1
  8
0
100
AcDbBlockEnd
  0
BLOCK
  5
24
330
23
100
AcDbEntity
  8
0
100
AcDbBlockBegin
  2
*Paper_Space0
 70
     0
 10
0.0
 20
0.0
 30
0.0
  3
*Paper_Space0
  1

  0
ENDBLK
  5
25
330
23
100
AcDbEntity
  8
0
100
AcDbBlockEnd
  0
ENDSEC
  0
SECTION
  2
ENTITIES
  0
LINE
  5
7F
330
1F
100
AcDbEntity
  8
0
  6
Continuous
 62
     7
370
    25
100
AcDbLine
 10
6463.316561302
 20
5216.1994524689
 30
0.0
 11
6463.316561302
 21
5210.6994636745
 31
0.0
  0
LINE
  5
80
330
1F
100
AcDbEntity
  8
0
  6
Continuous
 62
     7
370
    25
100
AcDbLine
 10
6580.3165748918
 20
5210.6994636745
 30
0.0
 11
6580.3165748918
 21
5216.1994524689
 31
0.0
  0
LINE
  5
81
330
1F
100
AcDbEntity
  8
0
  6
Continuous
 62
     7
370
    25
100
AcDbLine
 10
6465.8165589178
 20
5210.6994636745
 30
0.0
 11
6465.8165589178
 21
5196.6994651051
 31
0.0
  0
LINE
  5
82
330
1F
100
AcDbEntity
  8
0
  6
Continuous
 62
     7
370
    25
100
AcDbLine
 10
6577.816577276
 20
5186.6997130604
 30
0.0
 11
6577.816577276
 21
5210.6994636745
 31
0.0
  0
SPLINE
  5
83
330
1F
100
AcDbEntity
  8
0
  6
Continuous
 62
     7
370
    25
100
AcDbSpline
210
0.0
220
0.0
230
1.0
 70
     8
 71
     3
 72
    31
 73
    27
 74
     0
 42
0.000000001
 43
0.00000001
 40
0.0
 40
0.0
 40
0.0
 40
0.0
 40
0.0179248075250678
 40
0.0396313295671068
 40
0.0653129164299173
 40
0.0950701801377868
 40
0.1289227230176268
 40
0.1670563841459038
 40
0.2095253157865969
 40
0.2545367010187631
 40
0.3211384275256955
 40
0.380078911002822
 40
0.43141243955201
 40
0.4750273857587944
 40
0.5122086572383456
 40
0.5624105832414242
 40
0.6188475721246374
 40
0.6755153391201449
 40
0.731786738609801
 40
0.7862183520979964
 40
0.8146872598566915
 40
0.846480648535287
 40
0.8813756301274661
 40
0.9189838799424056
 40
0.9587544666343639
 40
1.0
 40
1.0
 40
1.0
 40
1.0
 10
6521.814347823899
 20
5156.69908601951
 30
0.0
 10
6522.257947658128
 20
5156.772320070191
 30
0.0
 10
6523.238736500723
 20
5156.934238840811
 30
0.0
 10
6524.948911580194
 20
5157.223416152727
 30
0.0
 10
6526.99318804106
 20
5157.567746540225
 30
0.0
 10
6529.374730316348
 20
5157.967182022837
 30
0.0
 10
6532.07112220494
 20
5158.414799062428
 30
0.0
 10
6535.051852243773
 20
5158.913885870631
 30
0.0
 10
6538.224717377396
 20
5159.455814402043
 30
0.0
 10
6541.946985073561
 20
5160.104434509368
 30
0.0
 10
6545.85348171279
 20
5160.837821717488
 30
0.0
 10
6549.602589713553
 20
5161.605356907345
 30
0.0
 10
6552.629938804555
 20
5162.294288348317
 30
0.0
 10
6555.070091490025
 20
5162.913433445103
 30
0.0
 10
6557.417977507092
 20
5163.568153885493
 30
0.0
 10
6560.058262877415
 20
5164.4134615433
 30
0.0
 10
6562.927361432533
 20
5165.525934724529
 30
0.0
 10
6566.005663985464
 20
5167.043961431944
 30
0.0
 10
6569.051865514518
 20
5169.047739533117
 30
0.0
 10
6571.543130041186
 20
5171.29943378701
 30
0.0
 10
6573.405282745448
 20
5173.519281754638
 30
0.0
 10
6574.76164941662
 20
5175.516391827911
 30
0.0
 10
6575.999296562395
 20
5177.8769966974
 30
0.0
 10
6576.995139080857
 20
5180.575516908861
 30
0.0
 10
6577.682236940101
 20
5183.552935679074
 30
0.0
 10
6577.771256943345
 20
5185.637422238147
 30
0.0
 10
6577.816577276032
 20
5186.698640176767
 30
0.0
  0
ARC
  5
84
330
1F
100
AcDbEntity
  8
0
  6
Continuous
 62
     7
370
    25
100
AcDbCircle
 10
6467.3165710459
 20
5216.1994545927
 30
0.0
 40
1.000000000000909
100
AcDbArc
 50
90.0
 51
180.0
  0
ARC
  5
85
330
1F
100
AcDbEntity
  8
0
  6
Continuous
 62
     7
370
    25
100
AcDbCircle
 10
6576.3165710459
 20
5216.1994545927
 30
0.0
 40
1.000000000000909
100
AcDbArc
 50
0.0
 51
90.0
  0
LINE
  5
86
330
1F
100
AcDbEntity
  8
0
  6
Continuous
 62
     7
370
    25
100
AcDbLine
 10
6576.3165667856
 20
5217.1994693966
 30
0.0
 11
6467.3165694082
 21
5217.1994693966
 31
0.0
  0
LINE
  5
87
330
1F
100
AcDbEntity
  8
0
  6
Continuous
 62
     7
370
    25
100
AcDbLine
 10
6468.216569742
 20
5225.1994558067
 30
0.0
 11
6470.3165605867
 21
5223.6994453163
 31
0.0
  0
LINE
  5
88
330
1F
100
AcDbEntity
  8
0
  6
Continuous
 62
     7
370
    25
100
AcDbLine
 10
6573.3165756071
 20
5223.6994453163
 30
0.0
 11
6575.4165664518
 21
5225.1994558067
 31
0.0
  0
LINE
  5
89
330
1F
100
AcDbEntity
  8
0
  6
Continuous
 62
     7
370
    25
100
AcDbLine
 10
6471.6165676916
 20
5219.9494488926
 30
0.0
 11
6471.6165676916
 21
5217.1994693966
 31
0.0
  0
LINE
  5
8A
330
1F
100
AcDbEntity
  8
0
  6
Continuous
 62
     7
370
    25
100
AcDbLine
 10
6572.0165685022
 20
5217.1994693966
 30
0.0
 11
6572.0165685022
 21
5219.9494488926
 31
0.0
  0
LINE
  5
8B
330
1F
100
AcDbEntity
  8
0
  6
Continuous
 62
     7
370
    25
100
AcDbLine
 10
6473.6165717447
 20
5223.6994453163
 30
0.0
 11
6473.6165717447
 21
5219.9494488926
 31
0.0
  0
LINE
  5
8C
330
1F
100
AcDbEntity
  8
0
  6
Continuous
 62
     7
370
    25
100
AcDbLine
 10
6570.0165644491
 20
5219.9494488926
 30
0.0
 11
6570.0165644491
 21
5223.6994453163
 31
0.0
  0
LINE
  5
8D
330
1F
100
AcDbEntity
  8
0
  6
Continuous
 62
     7
370
    25
100
AcDbLine
 10
6556.8165794218
 20
5147.6994403095
 30
0.0
 11
6556.8165794218
 21
5163.4117015095
 31
0.0
  0
ARC
  5
8E
330
1F
100
AcDbEntity
  8
0
  6
Continuous
 62
     7
370
    25
100
AcDbCircle
 10
6497.3165710459
 20
5147.6994545927
 30
0.0
 40
10.5
100
AcDbArc
 50
180.0
 51
270.0
  0
ARC
  5
8F
330
1F
100
AcDbEntity
  8
0
  6
Continuous
 62
     7
370
    25
100
AcDbCircle
 10
6546.3165710459
 20
5147.6994545927
 30
0.0
 40
10.5
100
AcDbArc
 50
270.0
 51
0.0
  0
LINE
  5
90
330
1F
100
AcDbEntity
  8
0
  6
Continuous
 62
     7
370
    25
100
AcDbLine
 10
6556.8165794218
 20
5147.6994403095
 30
0.0
 11
6556.8165794218
 21
5163.4117015095
 31
0.0
  0
ARC
  5
91
330
1F
100
AcDbEntity
  8
0
  6
Continuous
 62
     7
370
    25
100
AcDbCircle
 10
6592.6204186232
 20
5226.1994545927
 30
0.0
 40
2.0
100
AcDbArc
 50
90.0
 51
120.0
  0
ARC
  5
92
330
1F
100
AcDbEntity
  8
0
  6
Continuous
 62
     7
370
    25
100
AcDbCircle
 10
6451.0127234686
 20
5226.1994545927
 30
0.0
 40
2.0
100
AcDbArc
 50
60.0
 51
90.0
  0
LINE
  5
93
330
1F
100
AcDbEntity
  8
0
  6
Continuous
 62
     7
370
    25
100
AcDbLine
 10
6452.0127192343
 20
5227.9314943047
 30
0.0
 11
6455.8165684545
 21
5225.7353611679
 31
0.0
  0
LINE
  5
94
330
1F
100
AcDbEntity
  8
0
  6
Continuous
 62
     7
370
    25
100
AcDbLine
 10
6587.8165677393
 20
5225.7353611679
 30
0.0
 11
6591.6204169596
 21
5227.9314943047
 31
0.0
  0
ARC
  5
95
330
1F
100
AcDbEntity
  8
0
  6
Continuous
 62
     7
370
    25
100
AcDbCircle
 10
6457.8165710459
 20
5229.1994545927
 30
0.0
 40
4.0
100
AcDbArc
 50
240.0
 51
270.0
  0
ARC
  5
96
330
1F
100
AcDbEntity
  8
0
  6
Continuous
 62
     7
370
    25
100
AcDbCircle
 10
6585.8165710459
 20
5229.1994545927
 30
0.0
 40
4.0
100
AcDbArc
 50
270.0
 51
300.0
  0
LINE
  5
97
330
1F
100
AcDbEntity
  8
0
  6
Continuous
 62
     7
370
    25
100
AcDbLine
 10
6463.316561302
 20
5210.6994636745
 30
0.0
 11
6580.3165748918
 21
5210.6994636745
 31
0.0
  0
LINE
  5
98
330
1F
100
AcDbEntity
  8
0
  6
Continuous
 62
     7
370
    25
100
AcDbLine
 10
6463.316561302
 20
5216.1994524689
 30
0.0
 11
6580.3165748918
 21
5216.1994524689
 31
0.0
  0
LINE
  5
99
330
1F
100
AcDbEntity
  8
0
  6
Continuous
 62
     7
370
    25
100
AcDbLine
 10
6465.8165589178
 20
5168.6994679661
 30
0.0
 11
6465.8165589178
 21
5196.6994651051
 31
0.0
  0
SPLINE
  5
9A
330
1F
100
AcDbEntity
  8
0
  6
Continuous
 62
     7
370
    25
100
AcDbSpline
210
0.0
220
0.0
230
1.0
 70
     8
 71
     3
 72
    15
 73
    11
 74
     0
 42
0.000000001
 43
0.00000001
 40
0.0
 40
0.0
 40
0.0
 40
0.0
 40
0.1250292188095516
 40
0.2499850653950015
 40
0.3749403965974989
 40
0.499989860389876
 40
0.6250392374251176
 40
0.7499948017923884
 40
0.8749505105176321
 40
0.9999999999999999
 40
0.9999999999999999
 40
0.9999999999999999
 40
0.9999999999999999
 10
6521.81548031215
 20
5156.699264833444
 30
0.0
 10
6519.524319256501
 20
5156.323793217543
 30
0.0
 10
6514.943341691575
 20
5155.573070327737
 30
0.0
 10
6508.336452555387
 20
5154.449458297076
 30
0.0
 10
6502.246539962453
 20
5153.325791367093
 30
0.0
 10
6496.909360188401
 20
5152.19943172037
 30
0.0
 10
6492.522827322853
 20
5151.073134469336
 30
0.0
 10
6489.288686743053
 20
5149.949452344489
 30
0.0
 10
6487.207477094701
 20
5148.825789495856
 30
0.0
 10
6486.946896128886
 20
5148.074983917833
 30
0.0
 10
6486.816556772034
 20
5147.699440309519
 30
0.0
  0
ARC
  5
9B
330
1F
100
AcDbEntity
  8
0
  6
Continuous
 62
     7
370
    25
100
AcDbCircle
 10
6486.8165710459
 20
5168.6994545927
 30
0.0
 40
21.00000000000091
100
AcDbArc
 50
180.0
 51
270.0
  0
LINE
  5
9C
330
1F
100
AcDbEntity
  8
0
  6
Continuous
 62
     7
370
    25
100
AcDbLine
 10
6470.3165605867
 20
5223.6994453163
 30
0.0
 11
6573.3165756071
 21
5223.6994453163
 31
0.0
  0
LINE
  5
9D
330
1F
100
AcDbEntity
  8
0
  6
Continuous
 62
     7
370
    25
100
AcDbLine
 10
6471.6165676916
 20
5219.9494488926
 30
0.0
 11
6572.0165685022
 21
5219.9494488926
 31
0.0
  0
LINE
  5
9E
330
1F
100
AcDbEntity
  8
0
  6
Continuous
 62
     7
370
    25
100
AcDbLine
 10
6546.3165655935
 20
5137.1994562836
 30
0.0
 11
6497.3165706003
 21
5137.1994562836
 31
0.0
  0
ARC
  5
9F
330
1F
100
AcDbEntity
  8
0
  6
Continuous
 62
     7
370
    25
100
AcDbCircle
 10
6486.8165710459
 20
5168.6994545927
 30
0.0
 40
26.00000000000009
100
AcDbArc
 50
143.8710725281
 51
180.0
  0
ARC
  5
A0
330
1F
100
AcDbEntity
  8
0
  6
Continuous
 62
     7
370
    25
100
AcDbCircle
 10
6486.8165710459
 20
5168.6994545927
 30
0.0
 40
26.00000000000064
100
AcDbArc
 50
180.0
 51
272.7571492002
  0
ARC
  5
A1
330
1F
100
AcDbEntity
  8
0
  6
Continuous
 62
     7
370
    25
100
AcDbCircle
 10
6486.8165710459
 20
5168.6994545927
 30
0.0
 40
27.5
100
AcDbArc
 50
139.7858289826
 51
180.0
  0
ARC
  5
A2
330
1F
100
AcDbEntity
  8
0
  6
Continuous
 62
     7
370
    25
100
AcDbCircle
 10
6486.8165710459
 20
5168.6994545927
 30
0.0
 40
27.50000000000004
100
AcDbArc
 50
180.0
 51
274.5591726371
  0
ARC
  5
A3
330
1F
100
AcDbEntity
  8
0
  6
Continuous
 62
     7
370
    25
100
AcDbCircle
 10
6486.8165710459
 20
5168.6994545927
 30
0.0
 40
25.73343695638539
100
AcDbArc
 50
144.6921974802
 51
180.0
  0
ARC
  5
A4
330
1F
100
AcDbEntity
  8
0
  6
Continuous
 62
     7
370
    25
100
AcDbCircle
 10
6486.8165710459
 20
5168.6994545927
 30
0.0
 40
25.73343695638555
100
AcDbArc
 50
180.0
 51
272.4839701206
  0
ARC
  5
A5
330
1F
100
AcDbEntity
  8
0
  6
Continuous
 62
     7
370
    25
100
AcDbCircle
 10
6486.8165710459
 20
5168.6994545927
 30
0.0
 40
28.00000000000012
100
AcDbArc
 50
138.5903778907
 51
180.0
  0
ARC
  5
A6
330
1F
100
AcDbEntity
  8
0
  6
Continuous
 62
     7
370
    25
100
AcDbCircle
 10
6486.8165710459
 20
5168.6994545927
 30
0.0
 40
28.00000000000007
100
AcDbArc
 50
180.0
 51
275.265644731
  0
LINE
  5
A7
330
1F
100
AcDbEntity
  8
0
  6
Continuous
 62
     7
370
    25
100
AcDbLine
 10
6556.8165794218
 20
5147.6994403095
 30
0.0
 11
6486.816556772
 21
5147.6994403095
 31
0.0
  0
LINE
  5
A8
330
1F
100
AcDbEntity
  8
0
  6
Continuous
 62
     7
370
    25
100
AcDbLine
 10
6674.0187421644
 20
5284.1994561644
 30
0.0
 11
5874.0187600458
 21
5284.1994561644
 31
0.0
  0
LINE
  5
A9
330
1F
100
AcDbEntity
  8
0
  6
Continuous
 62
     7
370
    25
100
AcDbLine
 10
5880.018757304
 20
5290.1994534225
 30
0.0
 11
6668.0187598074
 21
5290.1994534225
 31
0.0
  0
ARC
  5
AA
330
1F
100
AcDbEntity
  8
0
  6
Continuous
 62
     7
370
    25
100
AcDbCircle
 10
5880.0187553361
 20
5284.1994545927
 30
0.0
 40
6.0
100
AcDbArc
 50
90.0
 51
180.0
  0
ARC
  5
AB
330
1F
100
AcDbEntity
  8
0
  6
Continuous
 62
     7
370
    25
100
AcDbCircle
 10
6668.0187553361
 20
5284.1994545927
 30
0.0
 40
6.0
100
AcDbArc
 50
0.0
 51
90.0
  0
LINE
  5
AC
330
1F
100
AcDbEntity
  8
0
  6
Continuous
 62
     7
370
    25
100
AcDbLine
 10
5874.0187600458
 20
5284.1994561644
 30
0.0
 11
5874.0187600458
 21
5263.1994583101
 31
0.0
  0
LINE
  5
AD
330
1F
100
AcDbEntity
  8
0
  6
Continuous
 62
     7
370
    25
100
AcDbLine
 10
6674.0187421644
 20
5263.1994583101
 30
0.0
 11
6674.0187421644
 21
5284.1994561644
 31
0.0
  0
LINE
  5
AE
330
1F
100
AcDbEntity
  8
0
  6
Continuous
 62
     7
370
    25
100
AcDbLine
 10
6674.0187421644
 20
5263.1994583101
 30
0.0
 11
5874.0187600458
 21
5263.1994583101
 31
0.0
  0
LINE
  5
AF
330
1F
100
AcDbEntity
  8
0
  6
Continuous
 62
     7
370
    25
100
AcDbLine
 10
6549.0187421644
 20
5237.4111660213
 30
0.0
 11
5999.0187525952
 21
5237.4111660213
 31
0.0
  0
LINE
  5
B0
330
1F
100
AcDbEntity
  8
0
  6
Continuous
 62
     7
370
    25
100
AcDbLine
 10
5999.0187525952
 20
5237.4111660213
 30
0.0
 11
5937.1679440344
 21
5237.4111660213
 31
0.0
  0
LINE
  5
B1
330
1F
100
AcDbEntity
  8
0
  6
Continuous
 62
     7
370
    25
100
AcDbLine
 10
5937.1679440344
 20
5237.4111660213
 30
0.0
 11
5927.7817771042
 21
5263.1994583101
 31
0.0
  0
LINE
  5
B2
330
1F
100
AcDbEntity
  8
0
  6
Continuous
 62
     7
370
    25
100
AcDbLine
 10
6610.8695581758
 20
5237.4111660213
 30
0.0
 11
6620.2557102049
 21
5263.1994583101
 31
0.0
  0
LINE
  5
B3
330
1F
100
AcDbEntity
  8
0
  6
Continuous
 62
     7
370
    25
100
AcDbLine
 10
6610.8695581758
 20
5237.4111660213
 30
0.0
 11
6549.0187421644
 21
5237.4111660213
 31
0.0
  0
LINE
  5
B4
330
1F
100
AcDbEntity
  8
0
  6
Continuous
 62
     7
370
    25
100
AcDbLine
 10
6549.0187421644
 20
5228.1994469852
 30
0.0
 11
6549.0187421644
 21
5237.4111660213
 31
0.0
  0
LINE
  5
B5
330
1F
100
AcDbEntity
  8
0
  6
Continuous
 62
     7
370
    25
100
AcDbLine
 10
5999.0187525952
 20
5228.1994469852
 30
0.0
 11
6549.0187421644
 21
5228.1994469852
 31
0.0
  0
LINE
  5
B6
330
1F
100
AcDbEntity
  8
0
  6
Continuous
 62
     7
370
    25
100
AcDbLine
 10
5999.0187525952
 20
5228.1994469852
 30
0.0
 11
5999.0187525952
 21
5237.4111660213
 31
0.0
  0
LINE
  5
B7
330
1F
100
AcDbEntity
  8
0
  6
Continuous
 62
     7
370
    25
100
AcDbLine
 10
5950.3236428106
 20
5228.1994469852
 30
0.0
 11
5999.0187525952
 21
5228.1994469852
 31
0.0
  0
ARC
  5
B8
330
1F
100
AcDbEntity
  8
0
  6
Continuous
 62
     7
370
    25
100
AcDbCircle
 10
5950.3236376231
 20
5242.1994545927
 30
0.0
 40
14.00000000000035
100
AcDbArc
 50
200.0
 51
270.0
  0
ARC
  5
B9
330
1F
100
AcDbEntity
  8
0
  6
Continuous
 62
     7
370
    25
100
AcDbCircle
 10
6597.7138730491
 20
5242.1994545927
 30
0.0
 40
14.00000000000035
100
AcDbArc
 50
270.0
 51
340.0
  0
LINE
  5
BA
330
1F
100
AcDbEntity
  8
0
  6
Continuous
 62
     7
370
    25
100
AcDbLine
 10
6549.0187421644
 20
5228.1994469852
 30
0.0
 11
6597.7138593996
 21
5228.1994469852
 31
0.0
  0
LINE
  5
BB
330
1F
100
AcDbEntity
  8
0
  6
Continuous
 62
     7
370
    25
100
AcDbLine
 10
6521.8165829981
 20
5225.1994558067
 30
0.0
 11
6585.8165636862
 21
5225.1994558067
 31
0.0
  0
LINE
  5
BC
330
1F
100
AcDbEntity
  8
0
  6
Continuous
 62
     7
370
    25
100
AcDbLine
 10
6457.8165725077
 20
5225.1994558067
 30
0.0
 11
6521.8165829981
 21
5225.1994558067
 31
0.0
  0
SPLINE
  5
BD
330
1F
100
AcDbEntity
  8
0
  6
Continuous
 62
     8
370
    25
100
AcDbSpline
210
0.0
220
0.0
230
1.0
 70
     8
 71
     3
 72
    29
 73
    25
 74
     0
 42
0.000000001
 43
0.00000001
 40
0.0
 40
0.0
 40
0.0
 40
0.0
 40
0.0155959337787987
 40
0.0625170592690488
 40
0.1093500315988427
 40
0.1562647721096076
 40
0.203112698182272
 40
0.2499954831663629
 40
0.2968781282710166
 40
0.3437261736618136
 40
0.3906408884713092
 40
0.4374738272350894
 40
0.4843950411245752
 40
0.5312328851920002
 40
0.5781349275457126
 40
0.6249977252359029
 40
0.6718605043308099
 40
0.7187625516571601
 40
0.7656004280391646
 40
0.8125216085223025
 40
0.8593545399483793
 40
0.9062693632620832
 40
0.9531172396186127
 40
1.0
 40
1.0
 40
1.0
 40
1.0
 10
6577.681989988129
 20
5186.699713060373
 30
0.0
 10
6577.719157511153
 20
5186.606344188755
 30
0.0
 10
6577.868145335333
 20
5186.232070524625
 30
0.0
 10
6576.887057398103
 20
5185.572241980693
 30
0.0
 10
6574.747531027539
 20
5184.732626869378
 30
0.0
 10
6571.37953062634
 20
5183.885225331991
 30
0.0
 10
6566.959530996855
 20
5183.043960632628
 30
0.0
 10
6561.557689127879
 20
5182.199433792249
 30
0.0
 10
6555.297202365057
 20
5181.354967530418
 30
0.0
 10
6548.309862740528
 20
5180.513682919472
 30
0.0
 10
6540.752154326697
 20
5179.666313420761
 30
0.0
 10
6532.779847516737
 20
5178.826586051244
 30
0.0
 10
6524.575307491238
 20
5177.978653182007
 30
0.0
 10
6516.306360557943
 20
5177.138351868068
 30
0.0
 10
6508.160587464541
 20
5176.292164159816
 30
0.0
 10
6500.308743541894
 20
5175.449455792916
 30
0.0
 10
6492.922369359386
 20
5174.606746716971
 30
0.0
 10
6486.163071101988
 20
5173.760558925568
 30
0.0
 10
6480.172103913241
 20
5172.920258688371
 30
0.0
 10
6475.087464737144
 20
5172.072324934604
 30
0.0
 10
6471.005341289026
 20
5171.232596198126
 30
0.0
 10
6468.048551213346
 20
5170.385231096864
 30
0.0
 10
6466.167792559207
 20
5169.543942871511
 30
0.0
 10
6465.933665843494
 20
5168.981029434973
 30
0.0
 10
6465.816558917802
 20
5168.699467966074
 30
0.0
  0
LINE
  5
BE
330
1F
100
AcDbEntity
  8
0
  6
Continuous
 62
     8
370
    25
100
AcDbLine
 10
6486.816556772
 20
5147.6994403095
 30
0.0
 11
6556.8165794218
 21
5147.6994403095
 31
0.0
  0
LINE
  5
BF
330
1F
100
AcDbEntity
  8
0
  6
Continuous
 62
     8
370
    25
100
AcDbLine
 10
6549.0187421644
 20
5237.4111660213
 30
0.0
 11
6549.0187421644
 21
5263.1994583101
 31
0.0
  0
LINE
  5
C0
330
1F
100
AcDbEntity
  8
0
  6
Continuous
 62
     8
370
    25
100
AcDbLine
 10
5999.0187525952
 20
5237.4111660213
 30
0.0
 11
5999.0187525952
 21
5263.1994583101
 31
0.0
  0
LINE
  5
C1
330
1F
100
AcDbEntity
  8
0
  6
Continuous
 62
     8
370
    25
100
AcDbLine
 10
6521.8165829981
 20
5227.9314943047
 30
0.0
 11
6591.6204169596
 21
5227.9314943047
 31
0.0
  0
LINE
  5
C2
330
1F
100
AcDbEntity
  8
0
  6
Continuous
 62
     8
370
    25
100
AcDbLine
 10
6452.0127192343
 20
5227.9314943047
 30
0.0
 11
6521.8165829981
 21
5227.9314943047
 31
0.0
  0
LINE
  5
C3
330
1F
100
AcDbEntity
  8
0
  6
Continuous
 62
     8
370
    25
100
AcDbLine
 10
6521.8165829981
 20
5225.7353611679
 30
0.0
 11
6455.8165684545
 21
5225.7353611679
 31
0.0
  0
LINE
  5
C4
330
1F
100
AcDbEntity
  8
0
  6
Continuous
 62
     8
370
    25
100
AcDbLine
 10
6587.8165677393
 20
5225.7353611679
 30
0.0
 11
6521.8165829981
 21
5225.7353611679
 31
0.0
  0
LINE
  5
C5
330
1F
100
AcDbEntity
  8
0
  6
Continuous
 62
     7
370
    25
100
AcDbLine
 10
7136.1156585016
 20
5196.6994651051
 30
0.0
 11
7131.1156483689
 21
5194.6994610519
 31
0.0
  0
LINE
  5
C6
330
1F
100
AcDbEntity
  8
0
  6
Continuous
 62
     7
370
    25
100
AcDbLine
 10
7131.1156483689
 20
5142.6994450779
 30
0.0
 11
7136.1156585016
 21
5140.6994410248
 31
0.0
  0
ARC
  5
C7
330
1F
100
AcDbEntity
  8
0
  6
Continuous
 62
     7
370
    25
100
AcDbCircle
 10
7181.1156577339
 20
5098.9040000473
 30
0.0
 40
97.54693985567508
100
AcDbArc
 50
94.1151006784
 51
109.7732536985
  0
ARC
  5
C8
330
1F
100
AcDbEntity
  8
0
  6
Continuous
 62
     7
370
    25
100
AcDbCircle
 10
7181.1156577339
 20
5238.4949091382
 30
0.0
 40
97.5469398556742
100
AcDbArc
 50
250.2267463015
 51
265.8848993216
  0
ARC
  5
C9
330
1F
100
AcDbEntity
  8
0
  6
Continuous
 62
     7
370
    25
100
AcDbCircle
 10
7123.6156577339
 20
5167.0744545927
 30
0.0
 40
28.625
100
AcDbArc
 50
74.8107132628
 51
105.1892867372
  0
ARC
  5
CA
330
1F
100
AcDbEntity
  8
0
  6
Continuous
 62
     7
370
    25
100
AcDbCircle
 10
7123.6156577339
 20
5170.3244545927
 30
0.0
 40
28.625
100
AcDbArc
 50
254.8107132628
 51
285.1892867372
  0
LINE
  5
CB
330
1F
100
AcDbEntity
  8
0
  6
Continuous
 62
     7
370
    25
100
AcDbLine
 10
7178.615662674
 20
5216.1994524689
 30
0.0
 11
7178.615662674
 21
5210.6994636745
 31
0.0
  0
LINE
  5
CC
330
1F
100
AcDbEntity
  8
0
  6
Continuous
 62
     7
370
    25
100
AcDbLine
 10
7295.6156613627
 20
5210.6994636745
 30
0.0
 11
7295.6156613627
 21
5216.1994524689
 31
0.0
  0
LINE
  5
CD
330
1F
100
AcDbEntity
  8
0
  6
Continuous
 62
     7
370
    25
100
AcDbLine
 10
7136.1156585016
 20
5146.6994531841
 30
0.0
 11
7148.115653018
 21
5146.6994531841
 31
0.0
  0
LINE
  5
CE
330
1F
100
AcDbEntity
  8
0
  6
Continuous
 62
     7
370
    25
100
AcDbLine
 10
7148.115653018
 20
5190.6994529457
 30
0.0
 11
7136.1156585016
 21
5190.6994529457
 31
0.0
  0
LINE
  5
CF
330
1F
100
AcDbEntity
  8
0
  6
Continuous
 62
     7
370
    25
100
AcDbLine
 10
7181.1156602898
 20
5210.6994636745
 30
0.0
 11
7181.1156602898
 21
5200.699443409
 31
0.0
  0
LINE
  5
D0
330
1F
100
AcDbEntity
  8
0
  6
Continuous
 62
     7
370
    25
100
AcDbLine
 10
7293.1156562963
 20
5177.699203083
 30
0.0
 11
7293.1156562963
 21
5210.6994636745
 31
0.0
  0
LINE
  5
D1
330
1F
100
AcDbEntity
  8
0
  6
Continuous
 62
     7
370
    25
100
AcDbLine
 10
7181.1156602898
 20
5147.6994403095
 30
0.0
 11
7237.1156545677
 21
5147.6994403095
 31
0.0
  0
SPLINE
  5
D2
330
1F
100
AcDbEntity
  8
0
  6
Continuous
 62
     7
370
    25
100
AcDbSpline
210
0.0
220
0.0
230
1.0
 70
     8
 71
     3
 72
    24
 73
    20
 74
     0
 42
0.000000001
 43
0.00000001
 40
0.0
 40
0.0
 40
0.0
 40
0.0
 40
0.0649278848323863
 40
0.1314941294649444
 40
0.1998678538959716
 40
0.268155987515217
 40
0.3540898691505666
 40
0.434129832949776
 40
0.509227538465134
 40
0.5817995152858858
 40
0.6503053135983115
 40
0.7068005114833426
 40
0.7354708976294644
 40
0.7690729772990219
 40
0.8078944760336675
 40
0.8441189096923261
 40
0.8890277464158842
 40
0.9416024299272567
 40
1.0
 40
1.0
 40
1.0
 40
1.0
 10
7237.115654567742
 20
5147.784406730646
 30
0.0
 10
7238.846567437263
 20
5148.059388909565
 30
0.0
 10
7242.352070220003
 20
5148.616292038762
 30
0.0
 10
7247.619334062168
 20
5149.459498814706
 30
0.0
 10
7252.793166324108
 20
5150.320405456412
 30
0.0
 10
7258.155093609951
 20
5151.258282844225
 30
0.0
 10
7263.40333517899
 20
5152.276892256245
 30
0.0
 10
7268.272301433769
 20
5153.359388251196
 30
0.0
 10
7272.421196964176
 20
5154.454686773157
 30
0.0
 10
7276.307759707867
 20
5155.731836598142
 30
0.0
 10
7279.755094132383
 20
5157.219333117699
 30
0.0
 10
7282.467181095918
 20
5158.771432520524
 30
0.0
 10
7284.690319382689
 20
5160.396641515906
 30
0.0
 10
7286.522928848527
 20
5162.011457195755
 30
0.0
 10
7288.318176766129
 20
5163.991784910141
 30
0.0
 10
7290.063769930697
 20
5166.471792177576
 30
0.0
 10
7291.615121654881
 20
5169.520449912875
 30
0.0
 10
7292.854568973877
 20
5173.35116804134
 30
0.0
 10
7293.025635152749
 20
5176.200732958693
 30
0.0
 10
7293.115656296277
 20
5177.700275966638
 30
0.0
  0
ARC
  5
D3
330
1F
100
AcDbEntity
  8
0
  6
Continuous
 62
     7
370
    25
100
AcDbCircle
 10
7181.1156577339
 20
5098.9040000473
 30
0.0
 40
90.79545454545496
100
AcDbArc
 50
90.0
 51
94.4216843478
  0
ARC
  5
D4
330
1F
100
AcDbEntity
  8
0
  6
Continuous
 62
     7
370
    25
100
AcDbCircle
 10
7181.1156577339
 20
5238.4949091382
 30
0.0
 40
90.79545454545405
100
AcDbArc
 50
265.5783156522
 51
270.0
  0
ARC
  5
D5
330
1F
100
AcDbEntity
  8
0
  6
Continuous
 62
     7
370
    25
100
AcDbCircle
 10
7182.6156577339
 20
5216.1994545927
 30
0.0
 40
1.000000000000909
100
AcDbArc
 50
90.0
 51
180.0
  0
ARC
  5
D6
330
1F
100
AcDbEntity
  8
0
  6
Continuous
 62
     7
370
    25
100
AcDbCircle
 10
7291.6156577339
 20
5216.1994545927
 30
0.0
 40
1.000000000000909
100
AcDbArc
 50
0.0
 51
90.0
  0
LINE
  5
D7
330
1F
100
AcDbEntity
  8
0
  6
Continuous
 62
     7
370
    25
100
AcDbLine
 10
7291.615660707
 20
5217.1994693966
 30
0.0
 11
7182.615655879
 21
5217.1994693966
 31
0.0
  0
LINE
  5
D8
330
1F
100
AcDbEntity
  8
0
  6
Continuous
 62
     7
370
    25
100
AcDbLine
 10
7183.5156562128
 20
5225.1994558067
 30
0.0
 11
7185.6156619587
 21
5223.6994453163
 31
0.0
  0
LINE
  5
D9
330
1F
100
AcDbEntity
  8
0
  6
Continuous
 62
     7
370
    25
100
AcDbLine
 10
7288.6156546273
 20
5223.6994453163
 30
0.0
 11
7290.7156603732
 21
5225.1994558067
 31
0.0
  0
LINE
  5
DA
330
1F
100
AcDbEntity
  8
0
  6
Continuous
 62
     7
370
    25
100
AcDbLine
 10
7186.9156541624
 20
5219.9494488926
 30
0.0
 11
7186.9156541624
 21
5217.1994693966
 31
0.0
  0
LINE
  5
DB
330
1F
100
AcDbEntity
  8
0
  6
Continuous
 62
     7
370
    25
100
AcDbLine
 10
7287.3156549731
 20
5217.1994693966
 30
0.0
 11
7287.3156549731
 21
5219.9494488926
 31
0.0
  0
LINE
  5
DC
330
1F
100
AcDbEntity
  8
0
  6
Continuous
 62
     7
370
    25
100
AcDbLine
 10
7188.9156582155
 20
5223.6994453163
 30
0.0
 11
7188.9156582155
 21
5219.9494488926
 31
0.0
  0
LINE
  5
DD
330
1F
100
AcDbEntity
  8
0
  6
Continuous
 62
     7
370
    25
100
AcDbLine
 10
7285.3156583705
 20
5219.9494488926
 30
0.0
 11
7285.3156583705
 21
5223.6994453163
 31
0.0
  0
LINE
  5
DE
330
1F
100
AcDbEntity
  8
0
  6
Continuous
 62
     7
370
    25
100
AcDbLine
 10
7272.115658442
 20
5147.6994403095
 30
0.0
 11
7272.115658442
 21
5154.4172414036
 31
0.0
  0
ARC
  5
DF
330
1F
100
AcDbEntity
  8
0
  6
Continuous
 62
     7
370
    25
100
AcDbCircle
 10
7212.6156577339
 20
5147.6994545927
 30
0.0
 40
10.5
100
AcDbArc
 50
180.0
 51
270.0
  0
ARC
  5
E0
330
1F
100
AcDbEntity
  8
0
  6
Continuous
 62
     7
370
    25
100
AcDbCircle
 10
7261.6156577339
 20
5147.6994545927
 30
0.0
 40
10.5
100
AcDbArc
 50
270.0
 51
0.0
  0
LINE
  5
E1
330
1F
100
AcDbEntity
  8
0
  6
Continuous
 62
     7
370
    25
100
AcDbLine
 10
7272.115658442
 20
5147.6994403095
 30
0.0
 11
7272.115658442
 21
5154.4172414036
 31
0.0
  0
ARC
  5
E2
330
1F
100
AcDbEntity
  8
0
  6
Continuous
 62
     7
370
    25
100
AcDbCircle
 10
7307.9195053111
 20
5226.1994545927
 30
0.0
 40
2.0
100
AcDbArc
 50
90.0
 51
120.0
  0
ARC
  5
E3
330
1F
100
AcDbEntity
  8
0
  6
Continuous
 62
     7
370
    25
100
AcDbCircle
 10
7166.3118101566
 20
5226.1994545927
 30
0.0
 40
2.0
100
AcDbArc
 50
60.0
 51
90.0
  0
LINE
  5
E4
330
1F
100
AcDbEntity
  8
0
  6
Continuous
 62
     7
370
    25
100
AcDbLine
 10
7167.3118057051
 20
5227.9314943047
 30
0.0
 11
7171.1156549254
 21
5225.7353611679
 31
0.0
  0
LINE
  5
E5
330
1F
100
AcDbEntity
  8
0
  6
Continuous
 62
     7
370
    25
100
AcDbLine
 10
7303.1156542101
 20
5225.7353611679
 30
0.0
 11
7306.9195034304
 21
5227.9314943047
 31
0.0
  0
ARC
  5
E6
330
1F
100
AcDbEntity
  8
0
  6
Continuous
 62
     7
370
    25
100
AcDbCircle
 10
7173.1156577339
 20
5229.1994545927
 30
0.0
 40
4.0
100
AcDbArc
 50
240.0
 51
270.0
  0
ARC
  5
E7
330
1F
100
AcDbEntity
  8
0
  6
Continuous
 62
     7
370
    25
100
AcDbCircle
 10
7301.1156577339
 20
5229.1994545927
 30
0.0
 40
4.0
100
AcDbArc
 50
270.0
 51
300.0
  0
LINE
  5
E8
330
1F
100
AcDbEntity
  8
0
  6
Continuous
 62
     7
370
    25
100
AcDbLine
 10
7131.1156483689
 20
5168.6994679661
 30
0.0
 11
7131.1156483689
 21
5194.6994610519
 31
0.0
  0
LINE
  5
E9
330
1F
100
AcDbEntity
  8
0
  6
Continuous
 62
     7
370
    25
100
AcDbLine
 10
7131.1156483689
 20
5142.6994450779
 30
0.0
 11
7131.1156483689
 21
5168.6994679661
 31
0.0
  0
LINE
  5
EA
330
1F
100
AcDbEntity
  8
0
  6
Continuous
 62
     7
370
    25
100
AcDbLine
 10
7136.1156585016
 20
5168.6994679661
 30
0.0
 11
7136.1156585016
 21
5196.6994651051
 31
0.0
  0
LINE
  5
EB
330
1F
100
AcDbEntity
  8
0
  6
Continuous
 62
     7
370
    25
100
AcDbLine
 10
7136.1156585016
 20
5140.6994410248
 30
0.0
 11
7136.1156585016
 21
5168.6994679661
 31
0.0
  0
LINE
  5
EC
330
1F
100
AcDbEntity
  8
0
  6
Continuous
 62
     7
370
    25
100
AcDbLine
 10
7148.115653018
 20
5168.6994679661
 30
0.0
 11
7148.115653018
 21
5190.6994529457
 31
0.0
  0
LINE
  5
ED
330
1F
100
AcDbEntity
  8
0
  6
Continuous
 62
     7
370
    25
100
AcDbLine
 10
7148.115653018
 20
5146.6994531841
 30
0.0
 11
7148.115653018
 21
5168.6994679661
 31
0.0
  0
LINE
  5
EE
330
1F
100
AcDbEntity
  8
0
  6
Continuous
 62
     7
370
    25
100
AcDbLine
 10
7174.115661005
 20
5168.6994679661
 30
0.0
 11
7174.115661005
 21
5196.19944174
 31
0.0
  0
LINE
  5
EF
330
1F
100
AcDbEntity
  8
0
  6
Continuous
 62
     7
370
    25
100
AcDbLine
 10
7174.115661005
 20
5141.1994643898
 30
0.0
 11
7174.115661005
 21
5168.6994679661
 31
0.0
  0
LINE
  5
F0
330
1F
100
AcDbEntity
  8
0
  6
Continuous
 62
     7
370
    25
100
AcDbLine
 10
7116.115662674
 20
5168.6994679661
 30
0.0
 11
7116.115662674
 21
5194.6994610519
 31
0.0
  0
LINE
  5
F1
330
1F
100
AcDbEntity
  8
0
  6
Continuous
 62
     7
370
    25
100
AcDbLine
 10
7116.115662674
 20
5142.6994450779
 30
0.0
 11
7116.115662674
 21
5168.6994679661
 31
0.0
  0
LINE
  5
F2
330
1F
100
AcDbEntity
  8
0
  6
Continuous
 62
     7
370
    25
100
AcDbLine
 10
7178.615662674
 20
5210.6994636745
 30
0.0
 11
7295.6156613627
 21
5210.6994636745
 31
0.0
  0
LINE
  5
F3
330
1F
100
AcDbEntity
  8
0
  6
Continuous
 62
     7
370
    25
100
AcDbLine
 10
7178.615662674
 20
5216.1994524689
 30
0.0
 11
7295.6156613627
 21
5216.1994524689
 31
0.0
  0
LINE
  5
F4
330
1F
100
AcDbEntity
  8
0
  6
Continuous
 62
     7
370
    25
100
AcDbLine
 10
7237.1156545677
 20
5168.6994679661
 30
0.0
 11
7237.1156545677
 21
5196.6994651051
 31
0.0
  0
SPLINE
  5
F5
330
1F
100
AcDbEntity
  8
0
  6
Continuous
 62
     7
370
    25
100
AcDbSpline
210
0.0
220
0.0
230
1.0
 70
     8
 71
     3
 72
    12
 73
     8
 74
     0
 42
0.000000001
 43
0.00000001
 40
0.0
 40
0.0
 40
0.0
 40
0.0
 40
0.2054295006405965
 40
0.4152061346028418
 40
0.704266796979898
 40
0.9980627529611038
 40
1.0
 40
1.0
 40
1.0
 40
1.0
 10
7213.985595325494
 20
5201.699460336679
 30
0.0
 10
7215.527528529893
 20
5201.618790488735
 30
0.0
 10
7218.644024084906
 20
5201.45574372262
 30
0.0
 10
7224.069759460491
 20
5200.36546122349
 30
0.0
 10
7230.226225335184
 20
5198.762718218081
 30
0.0
 10
7234.793181775699
 20
5197.39245879008
 30
0.0
 10
7237.100539854346
 20
5196.703975125995
 30
0.0
 10
7237.115654567742
 20
5196.699465105051
 30
0.0
  0
SPLINE
  5
F6
330
1F
100
AcDbEntity
  8
0
  6
Continuous
 62
     7
370
    25
100
AcDbSpline
210
0.0
220
0.0
230
1.0
 70
     8
 71
     3
 72
    10
 73
     6
 74
     0
 42
0.000000001
 43
0.00000001
 40
0.0
 40
0.0
 40
0.0
 40
0.0
 40
0.0044063841904175
 40
0.6950587241806007
 40
1.0
 40
1.0
 40
1.0
 40
1.0
 10
7182.115662316346
 20
5168.699467966074
 30
0.0
 10
7182.113601475266
 20
5168.69002079098
 30
0.0
 10
7181.788526422812
 20
5167.199832649449
 30
0.0
 10
7181.268615348971
 20
5165.038556747861
 30
0.0
 10
7181.15152423407
 20
5162.939302337943
 30
0.0
 10
7181.115660289788
 20
5162.296319791788
 30
0.0
  0
LINE
  5
F7
330
1F
100
AcDbEntity
  8
0
  6
Continuous
 62
     7
370
    25
100
AcDbLine
 10
7182.1156623163
 20
5168.6994679661
 30
0.0
 11
7237.1156545677
 21
5168.6994679661
 31
0.0
  0
LINE
  5
F8
330
1F
100
AcDbEntity
  8
0
  6
Continuous
 62
     7
370
    25
100
AcDbLine
 10
7237.1156545677
 20
5147.6994403095
 30
0.0
 11
7237.1156545677
 21
5168.6994679661
 31
0.0
  0
LINE
  5
F9
330
1F
100
AcDbEntity
  8
0
  6
Continuous
 62
     7
370
    25
100
AcDbLine
 10
7237.1156545677
 20
5196.6994651051
 30
0.0
 11
7182.1156623163
 21
5196.6994651051
 31
0.0
  0
LINE
  5
FA
330
1F
100
AcDbEntity
  8
0
  6
Continuous
 62
     7
370
    25
100
AcDbLine
 10
7182.1156623163
 20
5201.6994603367
 30
0.0
 11
7182.1156623163
 21
5196.6994651051
 31
0.0
  0
LINE
  5
FB
330
1F
100
AcDbEntity
  8
0
  6
Continuous
 62
     7
370
    25
100
AcDbLine
 10
7182.1156623163
 20
5201.6994603367
 30
0.0
 11
7213.9855953255
 21
5201.6994603367
 31
0.0
  0
LINE
  5
FC
330
1F
100
AcDbEntity
  8
0
  6
Continuous
 62
     7
370
    25
100
AcDbLine
 10
7182.1156623163
 20
5196.6994651051
 30
0.0
 11
7182.1156623163
 21
5168.6994679661
 31
0.0
  0
SPLINE
  5
FD
330
1F
100
AcDbEntity
  8
0
  6
Continuous
 62
     7
370
    25
100
AcDbSpline
210
0.0
220
0.0
230
1.0
 70
     8
 71
     3
 72
    13
 73
     9
 74
     0
 42
0.000000001
 43
0.00000001
 40
0.0
 40
0.0
 40
0.0
 40
0.0
 40
0.152716438437834
 40
0.3856869559007742
 40
0.5032393280032316
 40
0.6857814523191539
 40
0.8691686388126932
 40
0.9999999999999999
 40
0.9999999999999999
 40
0.9999999999999999
 40
0.9999999999999999
 10
7181.115660289788
 20
5162.296319791788
 30
0.0
 10
7181.150996081835
 20
5162.939814938683
 30
0.0
 10
7181.240236992689
 20
5164.564968634522
 30
0.0
 10
7181.682076340012
 20
5166.713885512971
 30
0.0
 10
7182.168719842129
 20
5169.024084824568
 30
0.0
 10
7181.675102329825
 20
5171.131718231402
 30
0.0
 10
7181.190573286971
 20
5173.226489003044
 30
0.0
 10
7181.137682470215
 20
5174.551069838054
 30
0.0
 10
7181.115660289788
 20
5175.102586338037
 30
0.0
  0
LINE
  5
FE
330
1F
100
AcDbEntity
  8
0
  6
Continuous
 62
     7
370
    25
100
AcDbLine
 10
7181.1156602898
 20
5196.6994651051
 30
0.0
 11
7181.1156602898
 21
5200.699443409
 31
0.0
  0
ARC
  5
FF
330
1F
100
AcDbEntity
  8
0
  6
Continuous
 62
     7
370
    25
100
AcDbCircle
 10
7182.1156577339
 20
5200.6994545927
 30
0.0
 40
1.0
100
AcDbArc
 50
90.0
 51
180.0
  0
LINE
  5
100
330
1F
100
AcDbEntity
  8
0
  6
Continuous
 62
     7
370
    25
100
AcDbLine
 10
7181.1156602898
 20
5196.6994651051
 30
0.0
 11
7182.1156623163
 21
5196.6994651051
 31
0.0
  0
LINE
  5
101
330
1F
100
AcDbEntity
  8
0
  6
Continuous
 62
     7
370
    25
100
AcDbLine
 10
7181.1156602898
 20
5175.102586338
 30
0.0
 11
7181.1156602898
 21
5196.6994651051
 31
0.0
  0
LINE
  5
102
330
1F
100
AcDbEntity
  8
0
  6
Continuous
 62
     7
370
    25
100
AcDbLine
 10
7185.6156619587
 20
5223.6994453163
 30
0.0
 11
7288.6156546273
 21
5223.6994453163
 31
0.0
  0
LINE
  5
103
330
1F
100
AcDbEntity
  8
0
  6
Continuous
 62
     7
370
    25
100
AcDbLine
 10
7186.9156541624
 20
5219.9494488926
 30
0.0
 11
7287.3156549731
 21
5219.9494488926
 31
0.0
  0
LINE
  5
104
330
1F
100
AcDbEntity
  8
0
  6
Continuous
 62
     7
370
    25
100
AcDbLine
 10
7212.6156570711
 20
5137.1994562836
 30
0.0
 11
7261.6156595149
 21
5137.1994562836
 31
0.0
  0
LINE
  5
105
330
1F
100
AcDbEntity
  8
0
  6
Continuous
 62
     7
370
    25
100
AcDbLine
 10
7272.115658442
 20
5147.6994403095
 30
0.0
 11
7237.1156545677
 21
5147.6994403095
 31
0.0
  0
LINE
  5
106
330
1F
100
AcDbEntity
  8
0
  6
Continuous
 62
     7
370
    25
100
AcDbLine
 10
7884.9134477177
 20
5284.1994561644
 30
0.0
 11
7084.9134655991
 21
5284.1994561644
 31
0.0
  0
LINE
  5
107
330
1F
100
AcDbEntity
  8
0
  6
Continuous
 62
     7
370
    25
100
AcDbLine
 10
7884.9134477177
 20
5284.1994561644
 30
0.0
 11
7884.9134477177
 21
5263.1994583101
 31
0.0
  0
LINE
  5
108
330
1F
100
AcDbEntity
  8
0
  6
Continuous
 62
     7
370
    25
100
AcDbLine
 10
7084.9134655991
 20
5284.1994561644
 30
0.0
 11
7084.9134655991
 21
5263.1994583101
 31
0.0
  0
LINE
  5
109
330
1F
100
AcDbEntity
  8
0
  6
Continuous
 62
     7
370
    25
100
AcDbLine
 10
7084.9134655991
 20
5263.1994583101
 30
0.0
 11
7884.9134477177
 21
5263.1994583101
 31
0.0
  0
LINE
  5
10A
330
1F
100
AcDbEntity
  8
0
  6
Continuous
 62
     7
370
    25
100
AcDbLine
 10
7090.9134777584
 20
5290.1994534225
 30
0.0
 11
7878.9134653607
 21
5290.1994534225
 31
0.0
  0
ARC
  5
10B
330
1F
100
AcDbEntity
  8
0
  6
Continuous
 62
     7
370
    25
100
AcDbCircle
 10
7878.9134734436
 20
5284.1994545927
 30
0.0
 40
6.0
100
AcDbArc
 50
0.0
 51
90.0
  0
ARC
  5
10C
330
1F
100
AcDbEntity
  8
0
  6
Continuous
 62
     7
370
    25
100
AcDbCircle
 10
7090.9134734436
 20
5284.1994545927
 30
0.0
 40
6.0
100
AcDbArc
 50
90.0
 51
180.0
  0
LINE
  5
10D
330
1F
100
AcDbEntity
  8
0
  6
Continuous
 62
     7
370
    25
100
AcDbLine
 10
7209.9134805002
 20
5237.4111660213
 30
0.0
 11
7148.0626644888
 21
5237.4111660213
 31
0.0
  0
LINE
  5
10E
330
1F
100
AcDbEntity
  8
0
  6
Continuous
 62
     7
370
    25
100
AcDbLine
 10
7148.0626644888
 20
5237.4111660213
 30
0.0
 11
7138.6764975586
 21
5263.1994583101
 31
0.0
  0
LINE
  5
10F
330
1F
100
AcDbEntity
  8
0
  6
Continuous
 62
     7
370
    25
100
AcDbLine
 10
7759.91347752
 20
5237.4111660213
 30
0.0
 11
7209.9134805002
 21
5237.4111660213
 31
0.0
  0
LINE
  5
110
330
1F
100
AcDbEntity
  8
0
  6
Continuous
 62
     7
370
    25
100
AcDbLine
 10
7821.7642935314
 20
5237.4111660213
 30
0.0
 11
7831.1504455605
 21
5263.1994583101
 31
0.0
  0
LINE
  5
111
330
1F
100
AcDbEntity
  8
0
  6
Continuous
 62
     7
370
    25
100
AcDbLine
 10
7821.7642935314
 20
5237.4111660213
 30
0.0
 11
7759.91347752
 21
5237.4111660213
 31
0.0
  0
LINE
  5
112
330
1F
100
AcDbEntity
  8
0
  6
Continuous
 62
     7
370
    25
100
AcDbLine
 10
7161.2183483639
 20
5228.1994469852
 30
0.0
 11
7209.9134805002
 21
5228.1994469852
 31
0.0
  0
ARC
  5
113
330
1F
100
AcDbEntity
  8
0
  6
Continuous
 62
     7
370
    25
100
AcDbCircle
 10
7161.2183557306
 20
5242.1994545927
 30
0.0
 40
14.00000000000035
100
AcDbArc
 50
200.0
 51
270.0
  0
LINE
  5
114
330
1F
100
AcDbEntity
  8
0
  6
Continuous
 62
     7
370
    25
100
AcDbLine
 10
7209.9134805002
 20
5237.4111660213
 30
0.0
 11
7209.9134805002
 21
5228.1994469852
 31
0.0
  0
LINE
  5
115
330
1F
100
AcDbEntity
  8
0
  6
Continuous
 62
     7
370
    25
100
AcDbLine
 10
7209.9134805002
 20
5228.1994469852
 30
0.0
 11
7759.91347752
 21
5228.1994469852
 31
0.0
  0
LINE
  5
116
330
1F
100
AcDbEntity
  8
0
  6
Continuous
 62
     7
370
    25
100
AcDbLine
 10
7759.91347752
 20
5237.4111660213
 30
0.0
 11
7759.91347752
 21
5228.1994469852
 31
0.0
  0
ARC
  5
117
330
1F
100
AcDbEntity
  8
0
  6
Continuous
 62
     7
370
    25
100
AcDbCircle
 10
7808.6085911566
 20
5242.1994545927
 30
0.0
 40
14.00000000000035
100
AcDbArc
 50
270.0
 51
340.0
  0
LINE
  5
118
330
1F
100
AcDbEntity
  8
0
  6
Continuous
 62
     7
370
    25
100
AcDbLine
 10
7759.91347752
 20
5228.1994469852
 30
0.0
 11
7808.6085947552
 21
5228.1994469852
 31
0.0
  0
LINE
  5
119
330
1F
100
AcDbEntity
  8
0
  6
Continuous
 62
     7
370
    25
100
AcDbLine
 10
7301.1156576076
 20
5225.1994558067
 30
0.0
 11
7173.1156589785
 21
5225.1994558067
 31
0.0
  0
SPLINE
  5
11A
330
1F
100
AcDbEntity
  8
0
  6
Continuous
 62
     8
370
    25
100
AcDbSpline
210
0.0
220
0.0
230
1.0
 70
     8
 71
     3
 72
    18
 73
    14
 74
     0
 42
0.000000001
 43
0.00000001
 40
0.0
 40
0.0
 40
0.0
 40
0.0
 40
0.0624830092083248
 40
0.156285369101779
 40
0.2500092411114042
 40
0.3437330759311468
 40
0.4375354457696936
 40
0.5312094760794241
 40
0.6250501115279281
 40
0.7187142521076526
 40
0.8125421734510724
 40
0.9062362033421052
 40
1.0
 40
1.0
 40
1.0
 40
1.0
 10
7292.981083909535
 20
5177.699203083032
 30
0.0
 10
7292.982274649245
 20
5177.512156812804
 30
0.0
 10
7292.985252982032
 20
5177.044308100778
 30
0.0
 10
7291.604771591775
 20
5176.292221489328
 30
0.0
 10
7289.048042700564
 20
5175.449440437344
 30
0.0
 10
7285.320198564304
 20
5174.606750835494
 30
0.0
 10
7280.562416593199
 20
5173.760557823365
 30
0.0
 10
7274.858252153427
 20
5172.920258984137
 30
0.0
 10
7268.341433044176
 20
5172.072324855467
 30
0.0
 10
7261.144032506791
 20
5171.232596219349
 30
0.0
 10
7253.43102577306
 20
5170.38523109121
 30
0.0
 10
7245.361506966909
 20
5169.543942872925
 30
0.0
 10
7239.864953923922
 20
5168.981029435444
 30
0.0
 10
7237.115654567742
 20
5168.699467966074
 30
0.0
  0
LINE
  5
11B
330
1F
100
AcDbEntity
  8
0
  6
Continuous
 62
     8
370
    25
100
AcDbLine
 10
7181.1156602898
 20
5147.6994403095
 30
0.0
 11
7181.1156602898
 21
5162.2963197918
 31
0.0
  0
LINE
  5
11C
330
1F
100
AcDbEntity
  8
0
  6
Continuous
 62
     8
370
    25
100
AcDbLine
 10
7237.1156545677
 20
5147.6994403095
 30
0.0
 11
7272.115658442
 21
5147.6994403095
 31
0.0
  0
LINE
  5
11D
330
1F
100
AcDbEntity
  8
0
  6
Continuous
 62
     8
370
    25
100
AcDbLine
 10
7209.9134805002
 20
5237.4111660213
 30
0.0
 11
7209.9134805002
 21
5263.1994583101
 31
0.0
  0
LINE
  5
11E
330
1F
100
AcDbEntity
  8
0
  6
Continuous
 62
     8
370
    25
100
AcDbLine
 10
7759.91347752
 20
5237.4111660213
 30
0.0
 11
7759.91347752
 21
5263.1994583101
 31
0.0
  0
LINE
  5
11F
330
1F
100
AcDbEntity
  8
0
  6
Continuous
 62
     8
370
    25
100
AcDbLine
 10
7167.3118057051
 20
5227.9314943047
 30
0.0
 11
7306.9195034304
 21
5227.9314943047
 31
0.0
  0
LINE
  5
120
330
1F
100
AcDbEntity
  8
0
  6
Continuous
 62
     8
370
    25
100
AcDbLine
 10
7303.1156542101
 20
5225.7353611679
 30
0.0
 11
7171.1156549254
 21
5225.7353611679
 31
0.0
  0
CIRCLE
  5
121
330
1F
100
AcDbEntity
  8
0
  6
Continuous
 62
     7
370
    25
100
AcDbCircle
 10
6521.8165710459
 20
4731.5158623823
 30
0.0
 40
55.82842712474576
  0
SPLINE
  5
122
330
1F
100
AcDbEntity
  8
0
  6
Continuous
 62
     7
370
    25
100
AcDbSpline
210
0.0
220
0.0
230
1.0
 70
     8
 71
     3
 72
    14
 73
    10
 74
     0
 42
0.000000001
 43
0.00000001
 40
0.0
 40
0.0
 40
0.0
 40
0.0
 40
0.0012460855625868
 40
0.0069888038186195
 40
0.0299462303015696
 40
0.1462922761801904
 40
0.3801852856347454
 40
0.6160425083170912
 40
0.9999999999999999
 40
0.9999999999999999
 40
0.9999999999999999
 40
0.9999999999999999
 10
6469.427646716874
 20
4730.310003979951
 30
0.0
 10
6469.432102786343
 20
4730.299752592902
 30
0.0
 10
6469.457095127363
 20
4730.242256594953
 30
0.0
 10
6469.626195995709
 20
4730.029789674268
 30
0.0
 10
6470.594069090129
 20
4729.163130111628
 30
0.0
 10
6473.367895861168
 20
4727.274980453864
 30
0.0
 10
6477.926173701967
 20
4724.669250127053
 30
0.0
 10
6484.859022323059
 20
4721.402937293122
 30
0.0
 10
6490.144366719642
 20
4719.673112670077
 30
0.0
 10
6493.418486436646
 20
4718.601535781175
 30
0.0
  0
SPLINE
  5
123
330
1F
100
AcDbEntity
  8
0
  6
Continuous
 62
     7
370
    25
100
AcDbSpline
210
0.0
220
0.0
230
1.0
 70
     8
 71
     3
 72
    20
 73
    16
 74
     0
 42
0.000000001
 43
0.00000001
 40
0.0
 40
0.0
 40
0.0
 40
0.0
 40
0.091857351574214
 40
0.1659181284863522
 40
0.2399784261948878
 40
0.3161768344263997
 40
0.392375288400383
 40
0.4664570595098524
 40
0.5405386327956667
 40
0.6167800032151245
 40
0.6930215095732849
 40
0.768629879677007
 40
0.8442386948949377
 40
0.9221189686635834
 40
1.0
 40
1.0
 40
1.0
 40
1.0
 10
6469.427646716874
 20
4730.310003979951
 30
0.0
 10
6472.349063767752
 20
4728.62577867302
 30
0.0
 10
6477.625898352063
 20
4725.583632278787
 30
0.0
 10
6485.74522313654
 20
4722.107347709981
 30
0.0
 10
6493.555984256864
 20
4719.43636163461
 30
0.0
 10
6501.652026829342
 20
4717.417094937585
 30
0.0
 10
6509.892208431889
 20
4716.077876212651
 30
0.0
 10
6518.140256108078
 20
4715.437626435929
 30
0.0
 10
6526.415306085516
 20
4715.470655623779
 30
0.0
 10
6534.737790717622
 20
4716.201172863823
 30
0.0
 10
6543.021740316238
 20
4717.63577257931
 30
0.0
 10
6551.129788457028
 20
4719.753136071719
 30
0.0
 10
6559.077281132207
 20
4722.564894815243
 30
0.0
 10
6566.854875781486
 20
4726.0298737229
 30
0.0
 10
6571.793960318942
 20
4728.907121153434
 30
0.0
 10
6574.263514598649
 20
4730.345751865655
 30
0.0
  0
SPLINE
  5
124
330
1F
100
AcDbEntity
  8
0
  6
Continuous
 62
     7
370
    25
100
AcDbSpline
210
0.0
220
0.0
230
1.0
 70
     8
 71
     3
 72
     9
 73
     5
 74
     0
 42
0.000000001
 43
0.00000001
 40
0.0
 40
0.0
 40
0.0
 40
0.0
 40
0.9251310403129522
 40
1.0
 40
1.0
 40
1.0
 40
1.0
 10
6574.137659391205
 20
4730.196725352555
 30
0.0
 10
6574.176553792606
 20
4730.2426376504
 30
0.0
 10
6574.218595838225
 20
4730.292265536444
 30
0.0
 10
6574.260385825757
 20
4730.342026327031
 30
0.0
 10
6574.263514598649
 20
4730.345751865655
 30
0.0
  0
LINE
  5
125
330
1F
100
AcDbEntity
  8
0
  6
Continuous
 62
     7
370
    25
100
AcDbLine
 10
6550.2146497572
 20
4718.6015357812
 30
0.0
 11
6550.6246403063
 21
4718.7314739068
 31
0.0
  0
SPLINE
  5
126
330
1F
100
AcDbEntity
  8
0
  6
Continuous
 62
     7
370
    25
100
AcDbSpline
210
0.0
220
0.0
230
1.0
 70
     8
 71
     3
 72
    14
 73
    10
 74
     0
 42
0.000000001
 43
0.00000001
 40
0.0
 40
0.0
 40
0.0
 40
0.0
 40
0.1261166723020079
 40
0.269384378667833
 40
0.4126522355502127
 40
0.5600919450546534
 40
0.7075313712245282
 40
0.8532386376007042
 40
1.0
 40
1.0
 40
1.0
 40
1.0
 10
6550.214649757188
 20
4718.601535781175
 30
0.0
 10
6547.879858069875
 20
4717.968345669919
 30
0.0
 10
6542.8927584539
 20
4716.615855776345
 30
0.0
 10
6535.074185397014
 20
4715.28692090512
 30
0.0
 10
6526.773168774245
 20
4714.519615720146
 30
0.0
 10
6518.351111534239
 20
4714.455564058501
 30
0.0
 10
6509.91246271942
 20
4715.11086305106
 30
0.0
 10
6501.558622473788
 20
4716.422316500417
 30
0.0
 10
6496.138376878852
 20
4717.873386071371
 30
0.0
 10
6493.418486436646
 20
4718.601535781175
 30
0.0
  0
SPLINE
  5
127
330
1F
100
AcDbEntity
  8
0
  6
Continuous
 62
     7
370
    25
100
AcDbSpline
210
0.0
220
0.0
230
1.0
 70
     8
 71
     3
 72
    11
 73
     7
 74
     0
 42
0.000000001
 43
0.00000001
 40
0.0
 40
0.0
 40
0.0
 40
0.0
 40
0.0354985595563711
 40
0.3394770919030875
 40
0.957895684479138
 40
1.0
 40
1.0
 40
1.0
 40
1.0
 10
6469.427646716874
 20
4730.310003979951
 30
0.0
 10
6469.426059289474
 20
4730.307645969996
 30
0.0
 10
6469.410878525972
 20
4730.285096030721
 30
0.0
 10
6469.381852991135
 20
4730.212738963615
 30
0.0
 10
6469.374973068395
 20
4730.13434124045
 30
0.0
 10
6469.376189944624
 20
4730.081369524664
 30
0.0
 10
6469.376267513077
 20
4730.077992900163
 30
0.0
  0
ARC
  5
128
330
1F
100
AcDbEntity
  8
0
  6
Continuous
 62
     7
370
    25
100
AcDbCircle
 10
6521.8165710459
 20
4731.5158623823
 30
0.0
 40
52.46000737191267
100
AcDbArc
 50
358.7219206218
 51
181.5706020203
  0
SPLINE
  5
129
330
1F
100
AcDbEntity
  8
0
  6
Continuous
 62
     7
370
    25
100
AcDbSpline
210
0.0
220
0.0
230
1.0
 70
     8
 71
     3
 72
    17
 73
    13
 74
     0
 42
0.000000001
 43
0.00000001
 40
0.0
 40
0.0
 40
0.0
 40
0.0
 40
0.3831897101915962
 40
0.5458095545729468
 40
0.5881868969832054
 40
0.6309624226861072
 40
0.6461210459514412
 40
0.6614523446821868
 40
0.6781704235861483
 40
0.7167320789392333
 40
0.8850905579242564
 40
1.0
 40
1.0
 40
1.0
 40
1.0
 10
6574.256868680756
 20
4730.077992900163
 30
0.0
 10
6574.256292372054
 20
4730.117644115359
 30
0.0
 10
6574.255471486767
 20
4730.174122699019
 30
0.0
 10
6574.240122274779
 20
4730.233590499819
 30
0.0
 10
6574.229031636572
 20
4730.256528539861
 30
0.0
 10
6574.222763714712
 20
4730.265116925714
 30
0.0
 10
6574.216130760362
 20
4730.268957617875
 30
0.0
 10
6574.211187283786
 20
4730.269582522867
 30
0.0
 10
6574.204062998249
 20
4730.267629213006
 30
0.0
 10
6574.185340327433
 20
4730.253646352644
 30
0.0
 10
6574.164372778585
 20
4730.227835769128
 30
0.0
 10
6574.145368569887
 20
4730.205703463675
 30
0.0
 10
6574.137659391205
 20
4730.196725352555
 30
0.0
  0
SPLINE
  5
12A
330
1F
100
AcDbEntity
  8
0
  6
Continuous
 62
     7
370
    25
100
AcDbSpline
210
0.0
220
0.0
230
1.0
 70
     8
 71
     3
 72
    13
 73
     9
 74
     0
 42
0.000000001
 43
0.00000001
 40
0.0
 40
0.0
 40
0.0
 40
0.0
 40
0.0362914983896567
 40
0.110189015165567
 40
0.2579241534944258
 40
0.5530668990597284
 40
0.8524016121954914
 40
1.0
 40
1.0
 40
1.0
 40
1.0
 10
6574.256868680756
 20
4730.077992900163
 30
0.0
 10
6574.066458058865
 20
4729.809793440309
 30
0.0
 10
6573.488329300502
 20
4728.995480566481
 30
0.0
 10
6571.647206505144
 20
4727.526903247712
 30
0.0
 10
6567.831574517018
 20
4724.853209664434
 30
0.0
 10
6561.85714604348
 20
4721.737620288469
 30
0.0
 10
6555.631378868645
 20
4719.225489570285
 30
0.0
 10
6551.771344965416
 20
4718.035188323152
 30
0.0
 10
6550.496579726975
 20
4717.642094715387
 30
0.0
  0
LWPOLYLINE
  5
12B
330
1F
100
AcDbEntity
  8
0
  6
Continuous
 62
     7
370
    25
100
AcDbPolyline
 90
        9
 70
   128
 43
0.0
 10
6550.496579727
 20
4717.6420947154
 10
6550.4415646398
 20
4717.8292831023
 10
6550.3886953199
 20
4718.0092593272
 10
6550.3399387205
 20
4718.1751390536
 10
6550.2972319925
 20
4718.3205296834
 10
6550.2621844614
 20
4718.4398432811
 10
6550.2361074293
 20
4718.5285051902
 10
6550.2200737799
 20
4718.5831030448
 10
6550.2146497572
 20
4718.6015357812
  0
LWPOLYLINE
  5
12C
330
1F
100
AcDbEntity
  8
0
  6
Continuous
 62
     7
370
    25
100
AcDbPolyline
 90
        9
 70
   128
 43
0.0
 10
6493.1365862692
 20
4717.6420947154
 10
6493.191571554
 20
4717.8292831023
 10
6493.2444408739
 20
4718.0092593272
 10
6493.2931974733
 20
4718.1751390536
 10
6493.3359042013
 20
4718.3205296834
 10
6493.3709815348
 20
4718.4398432811
 10
6493.3970287645
 20
4718.5285051902
 10
6493.413062414
 20
4718.5831030448
 10
6493.4184864366
 20
4718.6015357812
  0
SPLINE
  5
12D
330
1F
100
AcDbEntity
  8
0
  6
Continuous
 62
     7
370
    25
100
AcDbSpline
210
0.0
220
0.0
230
1.0
 70
     8
 71
     3
 72
    13
 73
     9
 74
     0
 42
0.000000001
 43
0.00000001
 40
0.0
 40
0.0
 40
0.0
 40
0.0
 40
0.192746666286237
 40
0.3854736519607071
 40
0.6217417376265401
 40
0.8575850140163607
 40
0.9756445687494845
 40
0.9999999999999999
 40
0.9999999999999999
 40
0.9999999999999999
 40
0.9999999999999999
 10
6493.136586269181
 20
4717.642094715387
 30
0.0
 10
6491.472740034195
 20
4718.160390183139
 30
0.0
 10
6488.145217453089
 20
4719.196928197508
 30
0.0
 10
6482.933164932537
 20
4721.295536719579
 30
0.0
 10
6477.4743667437
 20
4723.867480218122
 30
0.0
 10
6473.038737998096
 20
4726.76745694271
 30
0.0
 10
6470.210207144084
 20
4728.818438583123
 30
0.0
 10
6469.498057454524
 20
4729.894045476611
 30
0.0
 10
6469.376267513077
 20
4730.077992900163
 30
0.0
  0
ARC
  5
12E
330
1F
100
AcDbEntity
  8
0
  6
Continuous
 62
     7
370
    25
100
AcDbCircle
 10
6521.8165710459
 20
4815.2511564999
 30
0.0
 40
101.7352941176471
100
AcDbArc
 50
253.6258844256
 51
286.3741155744
  0
ARC
  5
12F
330
1F
100
AcDbEntity
  8
0
  6
Continuous
 62
     7
370
    25
100
AcDbCircle
 10
6521.8165710459
 20
4731.5158623823
 30
0.0
 40
52.46000737191308
100
AcDbArc
 50
181.5706020203
 51
358.4293979797
  0
CIRCLE
  5
130
330
1F
100
AcDbEntity
  8
0
  6
Continuous
 62
     7
370
    25
100
AcDbCircle
 10
6521.8165710459
 20
4731.5158623823
 30
0.0
 40
55.77123616632798
  0
LINE
  5
131
330
1F
100
AcDbEntity
  8
0
  6
Continuous
 62
     7
370
    25
100
AcDbLine
 10
5880.018757304
 20
4877.7180423577
 30
0.0
 11
5880.018757304
 21
4089.7180547555
 31
0.0
  0
LWPOLYLINE
  5
132
330
1F
100
AcDbEntity
  8
0
  6
Continuous
 62
     7
370
    25
100
AcDbPolyline
 90
        9
 70
   128
 43
0.0
 10
5874.0187600458
 20
4083.7180723985
 10
5874.13405033
 20
4083.8333477814
 10
5874.4754806364
 20
4084.1747631867
 10
5875.0299379433
 20
4084.7292055924
 10
5875.77611359
 20
4085.4753961404
 10
5876.6853377426
 20
4086.3846351941
 10
5877.7226522768
 20
4087.4219348271
 10
5878.8482114876
 20
4088.5475089391
 10
5880.018757304
 20
4089.7180547555
  0
LINE
  5
133
330
1F
100
AcDbEntity
  8
0
  6
Continuous
 62
     7
370
    25
100
AcDbLine
 10
5874.0187600458
 20
4083.7180723985
 30
0.0
 11
5874.0187600458
 21
4883.7180545171
 31
0.0
  0
LWPOLYLINE
  5
134
330
1F
100
AcDbEntity
  8
0
  6
Continuous
 62
     7
370
    25
100
AcDbPolyline
 90
        9
 70
   128
 43
0.0
 10
5880.018757304
 20
4877.7180423577
 10
5878.8482114876
 20
4878.8885881741
 10
5877.7226522768
 20
4880.0141324838
 10
5876.6853377426
 20
4881.0514619191
 10
5875.77611359
 20
4881.9607009728
 10
5875.0299379433
 20
4882.7068617184
 10
5874.4754806364
 20
4883.2613339265
 10
5874.13405033
 20
4883.6027493317
 10
5874.0187600458
 20
4883.7180545171
  0
LINE
  5
135
330
1F
100
AcDbEntity
  8
0
  6
Continuous
 62
     7
370
    25
100
AcDbLine
 10
6549.0187421644
 20
4124.5167960961
 30
0.0
 11
5999.0187525952
 21
4124.5167960961
 31
0.0
  0
ARC
  5
136
330
1F
100
AcDbEntity
  8
0
  6
Continuous
 62
     7
370
    25
100
AcDbCircle
 10
6549.0187553361
 20
4208.7180466725
 30
0.0
 40
84.20124522925926
100
AcDbArc
 50
270.0
 51
0.0
  0
LINE
  5
137
330
1F
100
AcDbEntity
  8
0
  6
Continuous
 62
     7
370
    25
100
AcDbLine
 10
6633.2200184668
 20
4758.7180396159
 30
0.0
 11
6633.2200184668
 21
4208.7180425961
 31
0.0
  0
ARC
  5
138
330
1F
100
AcDbEntity
  8
0
  6
Continuous
 62
     7
370
    25
100
AcDbCircle
 10
6549.0187553361
 20
4758.7180466725
 30
0.0
 40
84.20124522925926
100
AcDbArc
 50
0.0
 51
90.0
  0
LINE
  5
139
330
1F
100
AcDbEntity
  8
0
  6
Continuous
 62
     7
370
    25
100
AcDbLine
 10
5999.0187525952
 20
4842.9193010171
 30
0.0
 11
6549.0187421644
 21
4842.9193010171
 31
0.0
  0
ARC
  5
13A
330
1F
100
AcDbEntity
  8
0
  6
Continuous
 62
     7
370
    25
100
AcDbCircle
 10
5999.0187553361
 20
4758.7180466725
 30
0.0
 40
84.20124522925835
100
AcDbArc
 50
90.0
 51
180.0
  0
LINE
  5
13B
330
1F
100
AcDbEntity
  8
0
  6
Continuous
 62
     7
370
    25
100
AcDbLine
 10
5914.8175135458
 20
4208.7180425961
 30
0.0
 11
5914.8175135458
 21
4758.7180396159
 31
0.0
  0
ARC
  5
13C
330
1F
100
AcDbEntity
  8
0
  6
Continuous
 62
     7
370
    25
100
AcDbCircle
 10
5999.0187553361
 20
4208.7180466725
 30
0.0
 40
84.20124522925835
100
AcDbArc
 50
180.0
 51
270.0
  0
LINE
  5
13D
330
1F
100
AcDbEntity
  8
0
  6
Continuous
 62
     7
370
    25
100
AcDbLine
 10
6668.0187598074
 20
4089.7180547555
 30
0.0
 11
6668.0187598074
 21
4877.7180423577
 31
0.0
  0
LINE
  5
13E
330
1F
100
AcDbEntity
  8
0
  6
Continuous
 62
     7
370
    25
100
AcDbLine
 10
5880.018757304
 20
4089.7180547555
 30
0.0
 11
6668.0187598074
 21
4089.7180547555
 31
0.0
  0
LINE
  5
13F
330
1F
100
AcDbEntity
  8
0
  6
Continuous
 62
     7
370
    25
100
AcDbLine
 10
6668.0187598074
 20
4877.7180423577
 30
0.0
 11
5880.018757304
 21
4877.7180423577
 31
0.0
  0
LWPOLYLINE
  5
140
330
1F
100
AcDbEntity
  8
0
  6
Continuous
 62
     7
370
    25
100
AcDbPolyline
 90
        9
 70
   128
 43
0.0
 10
6668.0187598074
 20
4877.7180423577
 10
6669.1892758215
 20
4878.8885881741
 10
6670.3148499334
 20
4880.0141324838
 10
6671.3521495665
 20
4881.0514619191
 10
6672.2614184225
 20
4881.9607009728
 10
6673.0075493658
 20
4882.7068617184
 10
6673.5620513761
 20
4883.2613339265
 10
6673.9034667814
 20
4883.6027493317
 10
6674.0187421644
 20
4883.7180545171
  0
LINE
  5
141
330
1F
100
AcDbEntity
  8
0
  6
Continuous
 62
     7
370
    25
100
AcDbLine
 10
6674.0187421644
 20
4883.7180545171
 30
0.0
 11
6674.0187421644
 21
4083.7180723985
 31
0.0
  0
LWPOLYLINE
  5
142
330
1F
100
AcDbEntity
  8
0
  6
Continuous
 62
     7
370
    25
100
AcDbPolyline
 90
        9
 70
   128
 43
0.0
 10
6674.0187421644
 20
4083.7180723985
 10
6673.9034667814
 20
4083.8333477814
 10
6673.5620513761
 20
4084.1747631867
 10
6673.0075493658
 20
4084.7292055924
 10
6672.2614184225
 20
4085.4753961404
 10
6671.3521495665
 20
4086.3846351941
 10
6670.3148499334
 20
4087.4219348271
 10
6669.1892758215
 20
4088.5475089391
 10
6668.0187598074
 20
4089.7180547555
  0
LINE
  5
143
330
1F
100
AcDbEntity
  8
0
  6
Continuous
 62
     7
370
    25
100
AcDbLine
 10
5874.0187600458
 20
4883.7180545171
 30
0.0
 11
6674.0187421644
 21
4883.7180545171
 31
0.0
  0
ARC
  5
144
330
1F
100
AcDbEntity
  8
0
  6
Continuous
 62
     7
370
    25
100
AcDbCircle
 10
5999.0187553361
 20
4758.7180466725
 30
0.0
 40
78.56308950454331
100
AcDbArc
 50
90.0
 51
180.0
  0
LINE
  5
145
330
1F
100
AcDbEntity
  8
0
  6
Continuous
 62
     7
370
    25
100
AcDbLine
 10
5920.4556659067
 20
4758.7180396159
 30
0.0
 11
5914.8175135458
 21
4758.7180396159
 31
0.0
  0
LINE
  5
146
330
1F
100
AcDbEntity
  8
0
  6
Continuous
 62
     7
370
    25
100
AcDbLine
 10
5999.0187525952
 20
4837.2811486562
 30
0.0
 11
5999.0187525952
 21
4842.9193010171
 31
0.0
  0
ARC
  5
147
330
1F
100
AcDbEntity
  8
0
  6
Continuous
 62
     7
370
    25
100
AcDbCircle
 10
6549.0187553361
 20
4758.7180466725
 30
0.0
 40
78.5630895045424
100
AcDbArc
 50
0.0
 51
90.0
  0
LINE
  5
148
330
1F
100
AcDbEntity
  8
0
  6
Continuous
 62
     7
370
    25
100
AcDbLine
 10
6549.0187421644
 20
4837.2811486562
 30
0.0
 11
6549.0187421644
 21
4842.9193010171
 31
0.0
  0
LINE
  5
149
330
1F
100
AcDbEntity
  8
0
  6
Continuous
 62
     7
370
    25
100
AcDbLine
 10
6627.5818363035
 20
4758.7180396159
 30
0.0
 11
6633.2200184668
 21
4758.7180396159
 31
0.0
  0
LINE
  5
14A
330
1F
100
AcDbEntity
  8
0
  6
Continuous
 62
     7
370
    25
100
AcDbLine
 10
6549.0187421644
 20
4837.2811486562
 30
0.0
 11
5999.0187525952
 21
4837.2811486562
 31
0.0
  0
LINE
  5
14B
330
1F
100
AcDbEntity
  8
0
  6
Continuous
 62
     7
370
    25
100
AcDbLine
 10
6627.5818363035
 20
4208.7180425961
 30
0.0
 11
6627.5818363035
 21
4758.7180396159
 31
0.0
  0
LINE
  5
14C
330
1F
100
AcDbEntity
  8
0
  6
Continuous
 62
     7
370
    25
100
AcDbLine
 10
6633.2200184668
 20
4208.7180425961
 30
0.0
 11
6627.5818363035
 21
4208.7180425961
 31
0.0
  0
LINE
  5
14D
330
1F
100
AcDbEntity
  8
0
  6
Continuous
 62
     7
370
    25
100
AcDbLine
 10
5920.4556659067
 20
4758.7180396159
 30
0.0
 11
5920.4556659067
 21
4208.7180425961
 31
0.0
  0
LINE
  5
14E
330
1F
100
AcDbEntity
  8
0
  6
Continuous
 62
     7
370
    25
100
AcDbLine
 10
5914.8175135458
 20
4208.7180425961
 30
0.0
 11
5920.4556659067
 21
4208.7180425961
 31
0.0
  0
LINE
  5
14F
330
1F
100
AcDbEntity
  8
0
  6
Continuous
 62
     7
370
    25
100
AcDbLine
 10
6549.0187421644
 20
4124.5167960961
 30
0.0
 11
6549.0187421644
 21
4130.154948457
 31
0.0
  0
ARC
  5
150
330
1F
100
AcDbEntity
  8
0
  6
Continuous
 62
     7
370
    25
100
AcDbCircle
 10
6549.0187553361
 20
4208.7180466725
 30
0.0
 40
78.5630895045424
100
AcDbArc
 50
270.0
 51
0.0
  0
ARC
  5
151
330
1F
100
AcDbEntity
  8
0
  6
Continuous
 62
     7
370
    25
100
AcDbCircle
 10
5999.0187553361
 20
4208.7180466725
 30
0.0
 40
78.56308950454331
100
AcDbArc
 50
180.0
 51
270.0
  0
LINE
  5
152
330
1F
100
AcDbEntity
  8
0
  6
Continuous
 62
     7
370
    25
100
AcDbLine
 10
5999.0187525952
 20
4124.5167960961
 30
0.0
 11
5999.0187525952
 21
4130.154948457
 31
0.0
  0
LINE
  5
153
330
1F
100
AcDbEntity
  8
0
  6
Continuous
 62
     7
370
    25
100
AcDbLine
 10
5999.0187525952
 20
4130.154948457
 30
0.0
 11
6549.0187421644
 21
4130.154948457
 31
0.0
  0
LINE
  5
154
330
1F
100
AcDbEntity
  8
0
  6
Continuous
 62
     7
370
    25
100
AcDbLine
 10
6674.0187421644
 20
4083.7180723985
 30
0.0
 11
5874.0187600458
 21
4083.7180723985
 31
0.0
  0
ARC
  5
155
330
1F
100
AcDbEntity
  8
0
  6
Continuous
 62
     7
370
    25
100
AcDbCircle
 10
5999.0187553361
 20
4758.7180466725
 30
0.0
 40
60.91112178325329
100
AcDbArc
 50
90.0
 51
180.0
  0
LINE
  5
156
330
1F
100
AcDbEntity
  8
0
  6
Continuous
 62
     7
370
    25
100
AcDbLine
 10
5938.1076261604
 20
4758.7180396159
 30
0.0
 11
5920.4556659067
 21
4758.7180396159
 31
0.0
  0
LINE
  5
157
330
1F
100
AcDbEntity
  8
0
  6
Continuous
 62
     7
370
    25
100
AcDbLine
 10
5999.0187525952
 20
4819.6291735013
 30
0.0
 11
5999.0187525952
 21
4837.2811486562
 31
0.0
  0
LINE
  5
158
330
1F
100
AcDbEntity
  8
0
  6
Continuous
 62
     7
370
    25
100
AcDbLine
 10
5999.0187525952
 20
4819.6291735013
 30
0.0
 11
6549.0187421644
 21
4819.6291735013
 31
0.0
  0
LINE
  5
159
330
1F
100
AcDbEntity
  8
0
  6
Continuous
 62
     7
370
    25
100
AcDbLine
 10
6549.0187421644
 20
4819.6291735013
 30
0.0
 11
6549.0187421644
 21
4837.2811486562
 31
0.0
  0
ARC
  5
15A
330
1F
100
AcDbEntity
  8
0
  6
Continuous
 62
     7
370
    25
100
AcDbCircle
 10
6549.0187553361
 20
4758.7180466725
 30
0.0
 40
60.91112178325238
100
AcDbArc
 50
0.0
 51
90.0
  0
LINE
  5
15B
330
1F
100
AcDbEntity
  8
0
  6
Continuous
 62
     7
370
    25
100
AcDbLine
 10
6609.929890951
 20
4758.7180396159
 30
0.0
 11
6627.5818363035
 21
4758.7180396159
 31
0.0
  0
LINE
  5
15C
330
1F
100
AcDbEntity
  8
0
  6
Continuous
 62
     7
370
    25
100
AcDbLine
 10
6609.929890951
 20
4758.7180396159
 30
0.0
 11
6609.929890951
 21
4208.7180425961
 31
0.0
  0
LINE
  5
15D
330
1F
100
AcDbEntity
  8
0
  6
Continuous
 62
     7
370
    25
100
AcDbLine
 10
6609.929890951
 20
4208.7180425961
 30
0.0
 11
6627.5818363035
 21
4208.7180425961
 31
0.0
  0
LINE
  5
15E
330
1F
100
AcDbEntity
  8
0
  6
Continuous
 62
     7
370
    25
100
AcDbLine
 10
5938.1076261604
 20
4208.7180425961
 30
0.0
 11
5938.1076261604
 21
4758.7180396159
 31
0.0
  0
LINE
  5
15F
330
1F
100
AcDbEntity
  8
0
  6
Continuous
 62
     7
370
    25
100
AcDbLine
 10
5938.1076261604
 20
4208.7180425961
 30
0.0
 11
5920.4556659067
 21
4208.7180425961
 31
0.0
  0
ARC
  5
160
330
1F
100
AcDbEntity
  8
0
  6
Continuous
 62
     7
370
    25
100
AcDbCircle
 10
6549.0187553361
 20
4208.7180466725
 30
0.0
 40
60.91112178325238
100
AcDbArc
 50
270.0
 51
0.0
  0
LINE
  5
161
330
1F
100
AcDbEntity
  8
0
  6
Continuous
 62
     7
370
    25
100
AcDbLine
 10
6549.0187421644
 20
4147.8069236119
 30
0.0
 11
6549.0187421644
 21
4130.154948457
 31
0.0
  0
ARC
  5
162
330
1F
100
AcDbEntity
  8
0
  6
Continuous
 62
     7
370
    25
100
AcDbCircle
 10
5999.0187553361
 20
4208.7180466725
 30
0.0
 40
60.91112178325329
100
AcDbArc
 50
180.0
 51
270.0
  0
LINE
  5
163
330
1F
100
AcDbEntity
  8
0
  6
Continuous
 62
     7
370
    25
100
AcDbLine
 10
5999.0187525952
 20
4147.8069236119
 30
0.0
 11
5999.0187525952
 21
4130.154948457
 31
0.0
  0
LINE
  5
164
330
1F
100
AcDbEntity
  8
0
  6
Continuous
 62
     7
370
    25
100
AcDbLine
 10
6549.0187421644
 20
4147.8069236119
 30
0.0
 11
5999.0187525952
 21
4147.8069236119
 31
0.0
  0
LINE
  5
165
330
1F
100
AcDbEntity
  8
0
  6
Continuous
 62
     7
370
    25
100
AcDbLine
 10
6549.0187421644
 20
4819.6291735013
 30
0.0
 11
6549.0187421644
 21
4807.4131717522
 31
0.0
  0
LINE
  5
166
330
1F
100
AcDbEntity
  8
0
  6
Continuous
 62
     7
370
    25
100
AcDbLine
 10
6549.0187421644
 20
4807.4131717522
 30
0.0
 11
5999.0187525952
 21
4807.4131717522
 31
0.0
  0
LINE
  5
167
330
1F
100
AcDbEntity
  8
0
  6
Continuous
 62
     7
370
    25
100
AcDbLine
 10
5999.0187525952
 20
4819.6291735013
 30
0.0
 11
5999.0187525952
 21
4807.4131717522
 31
0.0
  0
ARC
  5
168
330
1F
100
AcDbEntity
  8
0
  6
Continuous
 62
     7
370
    25
100
AcDbCircle
 10
5999.0187553361
 20
4758.7180466725
 30
0.0
 40
48.69511771303678
100
AcDbArc
 50
90.0
 51
180.0
  0
LINE
  5
169
330
1F
100
AcDbEntity
  8
0
  6
Continuous
 62
     7
370
    25
100
AcDbLine
 10
5938.1076261604
 20
4758.7180396159
 30
0.0
 11
5950.3236428106
 21
4758.7180396159
 31
0.0
  0
ARC
  5
16A
330
1F
100
AcDbEntity
  8
0
  6
Continuous
 62
     7
370
    25
100
AcDbCircle
 10
6549.0187553361
 20
4758.7180466725
 30
0.0
 40
48.69511771303587
100
AcDbArc
 50
0.0
 51
90.0
  0
LINE
  5
16B
330
1F
100
AcDbEntity
  8
0
  6
Continuous
 62
     7
370
    25
100
AcDbLine
 10
6597.7138593996
 20
4758.7180396159
 30
0.0
 11
6609.929890951
 21
4758.7180396159
 31
0.0
  0
LINE
  5
16C
330
1F
100
AcDbEntity
  8
0
  6
Continuous
 62
     7
370
    25
100
AcDbLine
 10
6597.7138593996
 20
4208.7180425961
 30
0.0
 11
6597.7138593996
 21
4758.7180396159
 31
0.0
  0
LINE
  5
16D
330
1F
100
AcDbEntity
  8
0
  6
Continuous
 62
     7
370
    25
100
AcDbLine
 10
6597.7138593996
 20
4208.7180425961
 30
0.0
 11
6609.929890951
 21
4208.7180425961
 31
0.0
  0
LINE
  5
16E
330
1F
100
AcDbEntity
  8
0
  6
Continuous
 62
     7
370
    25
100
AcDbLine
 10
5950.3236428106
 20
4758.7180396159
 30
0.0
 11
5950.3236428106
 21
4208.7180425961
 31
0.0
  0
LINE
  5
16F
330
1F
100
AcDbEntity
  8
0
  6
Continuous
 62
     7
370
    25
100
AcDbLine
 10
5938.1076261604
 20
4208.7180425961
 30
0.0
 11
5950.3236428106
 21
4208.7180425961
 31
0.0
  0
ARC
  5
170
330
1F
100
AcDbEntity
  8
0
  6
Continuous
 62
     7
370
    25
100
AcDbCircle
 10
6549.0187553361
 20
4208.7180466725
 30
0.0
 40
48.69511771303587
100
AcDbArc
 50
270.0
 51
0.0
  0
LINE
  5
171
330
1F
100
AcDbEntity
  8
0
  6
Continuous
 62
     7
370
    25
100
AcDbLine
 10
6549.0187421644
 20
4160.0229253609
 30
0.0
 11
6549.0187421644
 21
4147.8069236119
 31
0.0
  0
ARC
  5
172
330
1F
100
AcDbEntity
  8
0
  6
Continuous
 62
     7
370
    25
100
AcDbCircle
 10
5999.0187553361
 20
4208.7180466725
 30
0.0
 40
48.69511771303678
100
AcDbArc
 50
180.0
 51
270.0
  0
LINE
  5
173
330
1F
100
AcDbEntity
  8
0
  6
Continuous
 62
     7
370
    25
100
AcDbLine
 10
5999.0187525952
 20
4160.0229253609
 30
0.0
 11
5999.0187525952
 21
4147.8069236119
 31
0.0
  0
LINE
  5
174
330
1F
100
AcDbEntity
  8
0
  6
Continuous
 62
     7
370
    25
100
AcDbLine
 10
5999.0187525952
 20
4160.0229253609
 30
0.0
 11
6549.0187421644
 21
4160.0229253609
 31
0.0
  0
CIRCLE
  5
175
330
1F
100
AcDbEntity
  8
0
  6
Continuous
 62
     7
370
    25
100
AcDbCircle
 10
6085.7670097463
 20
4787.2154266551
 30
0.0
 40
10.4121037542036
  0
CIRCLE
  5
176
330
1F
100
AcDbEntity
  8
0
  6
Continuous
 62
     7
370
    25
100
AcDbCircle
 10
6202.0189106603
 20
4780.8002988417
 30
0.0
 40
10.41210375420451
  0
CIRCLE
  5
177
330
1F
100
AcDbEntity
  8
0
  6
Continuous
 62
     7
370
    25
100
AcDbCircle
 10
6202.0189106603
 20
4780.8002988417
 30
0.0
 40
11.25734027768613
  0
CIRCLE
  5
178
330
1F
100
AcDbEntity
  8
0
  6
Continuous
 62
     7
370
    25
100
AcDbCircle
 10
6318.7478984948
 20
4774.0349209297
 30
0.0
 40
10.41210375420451
  0
CIRCLE
  5
179
330
1F
100
AcDbEntity
  8
0
  6
Continuous
 62
     7
370
    25
100
AcDbCircle
 10
6318.7478984948
 20
4774.0349209297
 30
0.0
 40
11.25734027768704
  0
CIRCLE
  5
17A
330
1F
100
AcDbEntity
  8
0
  6
Continuous
 62
     7
370
    25
100
AcDbCircle
 10
6085.7670097463
 20
4787.2154266551
 30
0.0
 40
11.25734027768704
  0
CIRCLE
  5
17B
330
1F
100
AcDbEntity
  8
0
  6
Continuous
 62
     7
370
    25
100
AcDbCircle
 10
6030.9347729368
 20
4732.3831898456
 30
0.0
 40
10.4121037542036
  0
CIRCLE
  5
17C
330
1F
100
AcDbEntity
  8
0
  6
Continuous
 62
     7
370
    25
100
AcDbCircle
 10
6030.9347729368
 20
4732.3831898456
 30
0.0
 40
11.25734027768704
  0
CIRCLE
  5
17D
330
1F
100
AcDbEntity
  8
0
  6
Continuous
 62
     7
370
    25
100
AcDbCircle
 10
6147.0371056991
 20
4725.8184938805
 30
0.0
 40
10.41210375420451
  0
CIRCLE
  5
17E
330
1F
100
AcDbEntity
  8
0
  6
Continuous
 62
     7
370
    25
100
AcDbCircle
 10
6147.0371056991
 20
4725.8184938805
 30
0.0
 40
11.25734027768613
  0
CIRCLE
  5
17F
330
1F
100
AcDbEntity
  8
0
  6
Continuous
 62
     7
370
    25
100
AcDbCircle
 10
6379.1227670554
 20
4713.6600523691
 30
0.0
 40
10.4121037542036
  0
CIRCLE
  5
180
330
1F
100
AcDbEntity
  8
0
  6
Continuous
 62
     7
370
    25
100
AcDbCircle
 10
6379.1227670554
 20
4713.6600523691
 30
0.0
 40
11.25734027768613
  0
CIRCLE
  5
181
330
1F
100
AcDbEntity
  8
0
  6
Continuous
 62
     7
370
    25
100
AcDbCircle
 10
6263.7660935336
 20
4719.0531159685
 30
0.0
 40
10.41210375420451
  0
CIRCLE
  5
182
330
1F
100
AcDbEntity
  8
0
  6
Continuous
 62
     7
370
    25
100
AcDbCircle
 10
6263.7660935336
 20
4719.0531159685
 30
0.0
 40
11.25734027768613
  0
CIRCLE
  5
183
330
1F
100
AcDbEntity
  8
0
  6
Continuous
 62
     7
370
    25
100
AcDbCircle
 10
6092.2048688896
 20
4670.986257071
 30
0.0
 40
10.41210375420542
  0
CIRCLE
  5
184
330
1F
100
AcDbEntity
  8
0
  6
Continuous
 62
     7
370
    25
100
AcDbCircle
 10
6092.2048688896
 20
4670.986257071
 30
0.0
 40
11.25734027768522
  0
CIRCLE
  5
185
330
1F
100
AcDbEntity
  8
0
  6
Continuous
 62
     7
370
    25
100
AcDbCircle
 10
5976.0331390031
 20
4677.4815559119
 30
0.0
 40
10.4121037542036
  0
CIRCLE
  5
186
330
1F
100
AcDbEntity
  8
0
  6
Continuous
 62
     7
370
    25
100
AcDbCircle
 10
5976.0331390031
 20
4677.4815559119
 30
0.0
 40
11.25734027768613
  0
CIRCLE
  5
187
330
1F
100
AcDbEntity
  8
0
  6
Continuous
 62
     7
370
    25
100
AcDbCircle
 10
6208.7842885723
 20
4664.0713110072
 30
0.0
 40
10.41210375420542
  0
CIRCLE
  5
188
330
1F
100
AcDbEntity
  8
0
  6
Continuous
 62
     7
370
    25
100
AcDbCircle
 10
6208.7842885723
 20
4664.0713110072
 30
0.0
 40
11.25734027768522
  0
CIRCLE
  5
189
330
1F
100
AcDbEntity
  8
0
  6
Continuous
 62
     7
370
    25
100
AcDbCircle
 10
6324.1409620942
 20
4658.6782474079
 30
0.0
 40
10.41210375420451
  0
CIRCLE
  5
18A
330
1F
100
AcDbEntity
  8
0
  6
Continuous
 62
     7
370
    25
100
AcDbCircle
 10
6324.1409620942
 20
4658.6782474079
 30
0.0
 40
11.25734027768522
  0
CIRCLE
  5
18B
330
1F
100
AcDbEntity
  8
0
  6
Continuous
 62
     7
370
    25
100
AcDbCircle
 10
6441.5417640441
 20
4651.2410553805
 30
0.0
 40
10.41210375420451
  0
CIRCLE
  5
18C
330
1F
100
AcDbEntity
  8
0
  6
Continuous
 62
     7
370
    25
100
AcDbCircle
 10
6441.5417640441
 20
4651.2410553805
 30
0.0
 40
11.25734027768522
  0
CIRCLE
  5
18D
330
1F
100
AcDbEntity
  8
0
  6
Continuous
 62
     7
370
    25
100
AcDbCircle
 10
6037.3032349559
 20
4616.0846231373
 30
0.0
 40
10.41210375420451
  0
CIRCLE
  5
18E
330
1F
100
AcDbEntity
  8
0
  6
Continuous
 62
     7
370
    25
100
AcDbCircle
 10
6037.3032349559
 20
4616.0846231373
 30
0.0
 40
11.25734027768613
  0
CIRCLE
  5
18F
330
1F
100
AcDbEntity
  8
0
  6
Continuous
 62
     7
370
    25
100
AcDbCircle
 10
6269.1591571329
 20
4603.6964424466
 30
0.0
 40
10.41210375420451
  0
CIRCLE
  5
190
330
1F
100
AcDbEntity
  8
0
  6
Continuous
 62
     7
370
    25
100
AcDbCircle
 10
6153.9520517628
 20
4609.2390741977
 30
0.0
 40
10.41210375420542
  0
CIRCLE
  5
191
330
1F
100
AcDbEntity
  8
0
  6
Continuous
 62
     7
370
    25
100
AcDbCircle
 10
6153.9520517628
 20
4609.2390741977
 30
0.0
 40
11.25734027768522
  0
CIRCLE
  5
192
330
1F
100
AcDbEntity
  8
0
  6
Continuous
 62
     7
370
    25
100
AcDbCircle
 10
6269.1591571329
 20
4603.6964424466
 30
0.0
 40
11.25734027768704
  0
CIRCLE
  5
193
330
1F
100
AcDbEntity
  8
0
  6
Continuous
 62
     7
370
    25
100
AcDbCircle
 10
6502.9386968187
 20
4589.8441226059
 30
0.0
 40
10.4121037542036
  0
CIRCLE
  5
194
330
1F
100
AcDbEntity
  8
0
  6
Continuous
 62
     7
370
    25
100
AcDbCircle
 10
6386.5599590828
 20
4596.2592504192
 30
0.0
 40
10.41210375420451
  0
CIRCLE
  5
195
330
1F
100
AcDbEntity
  8
0
  6
Continuous
 62
     7
370
    25
100
AcDbCircle
 10
6386.5599590828
 20
4596.2592504192
 30
0.0
 40
11.25734027768522
  0
CIRCLE
  5
196
330
1F
100
AcDbEntity
  8
0
  6
Continuous
 62
     7
370
    25
100
AcDbCircle
 10
6502.9386968187
 20
4589.8441226059
 30
0.0
 40
11.25734027768613
  0
CIRCLE
  5
197
330
1F
100
AcDbEntity
  8
0
  6
Continuous
 62
     7
370
    25
100
AcDbCircle
 10
5982.3214299947
 20
4561.102818176
 30
0.0
 40
10.41210375420451
  0
CIRCLE
  5
198
330
1F
100
AcDbEntity
  8
0
  6
Continuous
 62
     7
370
    25
100
AcDbCircle
 10
5982.3214299947
 20
4561.102818176
 30
0.0
 40
11.25734027768613
  0
CIRCLE
  5
199
330
1F
100
AcDbEntity
  8
0
  6
Continuous
 62
     7
370
    25
100
AcDbCircle
 10
6099.0504178292
 20
4554.337440264
 30
0.0
 40
10.41210375420542
  0
CIRCLE
  5
19A
330
1F
100
AcDbEntity
  8
0
  6
Continuous
 62
     7
370
    25
100
AcDbCircle
 10
6099.0504178292
 20
4554.337440264
 30
0.0
 40
11.25734027768522
  0
CIRCLE
  5
19B
330
1F
100
AcDbEntity
  8
0
  6
Continuous
 62
     7
370
    25
100
AcDbCircle
 10
6447.9568918574
 20
4534.8623176446
 30
0.0
 40
10.41210375420451
  0
CIRCLE
  5
19C
330
1F
100
AcDbEntity
  8
0
  6
Continuous
 62
     7
370
    25
100
AcDbCircle
 10
6447.9568918574
 20
4534.8623176446
 30
0.0
 40
11.25734027768613
  0
CIRCLE
  5
19D
330
1F
100
AcDbEntity
  8
0
  6
Continuous
 62
     7
370
    25
100
AcDbCircle
 10
6331.5781541216
 20
4541.277445458
 30
0.0
 40
10.41210375420451
  0
CIRCLE
  5
19E
330
1F
100
AcDbEntity
  8
0
  6
Continuous
 62
     7
370
    25
100
AcDbCircle
 10
6214.3269203234
 20
4548.8642056371
 30
0.0
 40
10.41210375420451
  0
CIRCLE
  5
19F
330
1F
100
AcDbEntity
  8
0
  6
Continuous
 62
     7
370
    25
100
AcDbCircle
 10
6214.3269203234
 20
4548.8642056371
 30
0.0
 40
11.25734027768613
  0
CIRCLE
  5
1A0
330
1F
100
AcDbEntity
  8
0
  6
Continuous
 62
     7
370
    25
100
AcDbCircle
 10
6331.5781541216
 20
4541.277445458
 30
0.0
 40
11.25734027768522
  0
CIRCLE
  5
1A1
330
1F
100
AcDbEntity
  8
0
  6
Continuous
 62
     7
370
    25
100
AcDbCircle
 10
6564.3356295933
 20
4528.4471898313
 30
0.0
 40
10.41210375420451
  0
CIRCLE
  5
1A2
330
1F
100
AcDbEntity
  8
0
  6
Continuous
 62
     7
370
    25
100
AcDbCircle
 10
6564.3356295933
 20
4528.4471898313
 30
0.0
 40
11.25734027768613
  0
CIRCLE
  5
1A3
330
1F
100
AcDbEntity
  8
0
  6
Continuous
 62
     7
370
    25
100
AcDbCircle
 10
6044.0686128679
 20
4499.3556353028
 30
0.0
 40
10.41210375420542
  0
CIRCLE
  5
1A4
330
1F
100
AcDbEntity
  8
0
  6
Continuous
 62
     7
370
    25
100
AcDbCircle
 10
6044.0686128679
 20
4499.3556353028
 30
0.0
 40
11.25734027768522
  0
CIRCLE
  5
1A5
330
1F
100
AcDbEntity
  8
0
  6
Continuous
 62
     7
370
    25
100
AcDbCircle
 10
6159.4252863897
 20
4493.9625717035
 30
0.0
 40
10.41210375420451
  0
CIRCLE
  5
1A6
330
1F
100
AcDbEntity
  8
0
  6
Continuous
 62
     7
370
    25
100
AcDbCircle
 10
6159.4252863897
 20
4493.9625717035
 30
0.0
 40
11.25734027768613
  0
CIRCLE
  5
1A7
330
1F
100
AcDbEntity
  8
0
  6
Continuous
 62
     7
370
    25
100
AcDbCircle
 10
6392.9750868962
 20
4479.8805126834
 30
0.0
 40
10.41210375420451
  0
CIRCLE
  5
1A8
330
1F
100
AcDbEntity
  8
0
  6
Continuous
 62
     7
370
    25
100
AcDbCircle
 10
6392.9750868962
 20
4479.8805126834
 30
0.0
 40
11.25734027768613
  0
CIRCLE
  5
1A9
330
1F
100
AcDbEntity
  8
0
  6
Continuous
 62
     7
370
    25
100
AcDbCircle
 10
6509.353824632
 20
4473.46538487
 30
0.0
 40
10.41210375420451
  0
CIRCLE
  5
1AA
330
1F
100
AcDbEntity
  8
0
  6
Continuous
 62
     7
370
    25
100
AcDbCircle
 10
6509.353824632
 20
4473.46538487
 30
0.0
 40
11.25734027768613
  0
CIRCLE
  5
1AB
330
1F
100
AcDbEntity
  8
0
  6
Continuous
 62
     7
370
    25
100
AcDbCircle
 10
6276.7459173121
 20
4486.4452086485
 30
0.0
 40
10.41210375420451
  0
CIRCLE
  5
1AC
330
1F
100
AcDbEntity
  8
0
  6
Continuous
 62
     7
370
    25
100
AcDbCircle
 10
6276.7459173121
 20
4486.4452086485
 30
0.0
 40
11.25734027768613
  0
CIRCLE
  5
1AD
330
1F
100
AcDbEntity
  8
0
  6
Continuous
 62
     7
370
    25
100
AcDbCircle
 10
5989.3907376996
 20
4444.6777601345
 30
0.0
 40
10.4121037542036
  0
CIRCLE
  5
1AE
330
1F
100
AcDbEntity
  8
0
  6
Continuous
 62
     7
370
    25
100
AcDbCircle
 10
5989.3907376996
 20
4444.6777601345
 30
0.0
 40
11.25734027768613
  0
CIRCLE
  5
1AF
330
1F
100
AcDbEntity
  8
0
  6
Continuous
 62
     7
370
    25
100
AcDbCircle
 10
6338.1428500867
 20
4425.0482758739
 30
0.0
 40
10.41210375420451
  0
CIRCLE
  5
1B0
330
1F
100
AcDbEntity
  8
0
  6
Continuous
 62
     7
370
    25
100
AcDbCircle
 10
6338.1428500867
 20
4425.0482758739
 30
0.0
 40
11.25734027768613
  0
CIRCLE
  5
1B1
330
1F
100
AcDbEntity
  8
0
  6
Continuous
 62
     7
370
    25
100
AcDbCircle
 10
6104.4434814285
 20
4438.9807667422
 30
0.0
 40
10.41210375420451
  0
CIRCLE
  5
1B2
330
1F
100
AcDbEntity
  8
0
  6
Continuous
 62
     7
370
    25
100
AcDbCircle
 10
6221.8442833784
 20
4431.5435747148
 30
0.0
 40
10.41210375420451
  0
CIRCLE
  5
1B3
330
1F
100
AcDbEntity
  8
0
  6
Continuous
 62
     7
370
    25
100
AcDbCircle
 10
6221.8442833784
 20
4431.5435747148
 30
0.0
 40
11.25734027768522
  0
CIRCLE
  5
1B4
330
1F
100
AcDbEntity
  8
0
  6
Continuous
 62
     7
370
    25
100
AcDbCircle
 10
6104.4434814285
 20
4438.9807667422
 30
0.0
 40
11.25734027768613
  0
CIRCLE
  5
1B5
330
1F
100
AcDbEntity
  8
0
  6
Continuous
 62
     7
370
    25
100
AcDbCircle
 10
6454.3720196708
 20
4418.4835799088
 30
0.0
 40
10.41210375420451
  0
CIRCLE
  5
1B6
330
1F
100
AcDbEntity
  8
0
  6
Continuous
 62
     7
370
    25
100
AcDbCircle
 10
6454.3720196708
 20
4418.4835799088
 30
0.0
 40
11.25734027768613
  0
CIRCLE
  5
1B7
330
1F
100
AcDbEntity
  8
0
  6
Continuous
 62
     7
370
    25
100
AcDbCircle
 10
6571.1010075053
 20
4411.7182019968
 30
0.0
 40
10.41210375420542
  0
CIRCLE
  5
1B8
330
1F
100
AcDbEntity
  8
0
  6
Continuous
 62
     7
370
    25
100
AcDbCircle
 10
6571.1010075053
 20
4411.7182019968
 30
0.0
 40
11.25734027768522
  0
CIRCLE
  5
1B9
330
1F
100
AcDbEntity
  8
0
  6
Continuous
 62
     7
370
    25
100
AcDbCircle
 10
6049.7656062602
 20
4384.3028915739
 30
0.0
 40
10.41210375420451
  0
CIRCLE
  5
1BA
330
1F
100
AcDbEntity
  8
0
  6
Continuous
 62
     7
370
    25
100
AcDbCircle
 10
6049.7656062602
 20
4384.3028915739
 30
0.0
 40
11.25734027768613
  0
CIRCLE
  5
1BB
330
1F
100
AcDbEntity
  8
0
  6
Continuous
 62
     7
370
    25
100
AcDbCircle
 10
6166.8624784171
 20
4376.5617697536
 30
0.0
 40
10.41210375420451
  0
CIRCLE
  5
1BC
330
1F
100
AcDbEntity
  8
0
  6
Continuous
 62
     7
370
    25
100
AcDbCircle
 10
6166.8624784171
 20
4376.5617697536
 30
0.0
 40
11.25734027768522
  0
CIRCLE
  5
1BD
330
1F
100
AcDbEntity
  8
0
  6
Continuous
 62
     7
370
    25
100
AcDbCircle
 10
6399.5397828613
 20
4363.6513430993
 30
0.0
 40
10.41210375420542
  0
CIRCLE
  5
1BE
330
1F
100
AcDbEntity
  8
0
  6
Continuous
 62
     7
370
    25
100
AcDbCircle
 10
6283.241216153
 20
4370.1466419402
 30
0.0
 40
10.41210375420451
  0
CIRCLE
  5
1BF
330
1F
100
AcDbEntity
  8
0
  6
Continuous
 62
     7
370
    25
100
AcDbCircle
 10
6283.241216153
 20
4370.1466419402
 30
0.0
 40
11.25734027768613
  0
CIRCLE
  5
1C0
330
1F
100
AcDbEntity
  8
0
  6
Continuous
 62
     7
370
    25
100
AcDbCircle
 10
6399.5397828613
 20
4363.6513430993
 30
0.0
 40
11.25734027768522
  0
CIRCLE
  5
1C1
330
1F
100
AcDbEntity
  8
0
  6
Continuous
 62
     7
370
    25
100
AcDbCircle
 10
6516.119202544
 20
4356.7363970355
 30
0.0
 40
10.41210375420542
  0
CIRCLE
  5
1C2
330
1F
100
AcDbEntity
  8
0
  6
Continuous
 62
     7
370
    25
100
AcDbCircle
 10
6516.119202544
 20
4356.7363970355
 30
0.0
 40
11.25734027768522
  0
CIRCLE
  5
1C3
330
1F
100
AcDbEntity
  8
0
  6
Continuous
 62
     7
370
    25
100
AcDbCircle
 10
5996.0494553762
 20
4330.5867406899
 30
0.0
 40
10.41210375420451
  0
CIRCLE
  5
1C4
330
1F
100
AcDbEntity
  8
0
  6
Continuous
 62
     7
370
    25
100
AcDbCircle
 10
5996.0494553762
 20
4330.5867406899
 30
0.0
 40
11.25734027768613
  0
CIRCLE
  5
1C5
330
1F
100
AcDbEntity
  8
0
  6
Continuous
 62
     7
370
    25
100
AcDbCircle
 10
6112.1846032489
 20
4321.8838945853
 30
0.0
 40
10.41210375420451
  0
CIRCLE
  5
1C6
330
1F
100
AcDbEntity
  8
0
  6
Continuous
 62
     7
370
    25
100
AcDbCircle
 10
6112.1846032489
 20
4321.8838945853
 30
0.0
 40
11.25734027768704
  0
CIRCLE
  5
1C7
330
1F
100
AcDbEntity
  8
0
  6
Continuous
 62
     7
370
    25
100
AcDbCircle
 10
6228.2594111918
 20
4315.164836979
 30
0.0
 40
10.41210375420451
  0
CIRCLE
  5
1C8
330
1F
100
AcDbEntity
  8
0
  6
Continuous
 62
     7
370
    25
100
AcDbCircle
 10
6228.2594111918
 20
4315.164836979
 30
0.0
 40
11.25734027768613
  0
CIRCLE
  5
1C9
330
1F
100
AcDbEntity
  8
0
  6
Continuous
 62
     7
370
    25
100
AcDbCircle
 10
6576.4940711046
 20
4296.3615284749
 30
0.0
 40
10.41210375420451
  0
CIRCLE
  5
1CA
330
1F
100
AcDbEntity
  8
0
  6
Continuous
 62
     7
370
    25
100
AcDbCircle
 10
6576.4940711046
 20
4296.3615284749
 30
0.0
 40
11.25734027768613
  0
CIRCLE
  5
1CB
330
1F
100
AcDbEntity
  8
0
  6
Continuous
 62
     7
370
    25
100
AcDbCircle
 10
6344.6381489276
 20
4308.7497091656
 30
0.0
 40
10.41210375420451
  0
CIRCLE
  5
1CC
330
1F
100
AcDbEntity
  8
0
  6
Continuous
 62
     7
370
    25
100
AcDbCircle
 10
6344.6381489276
 20
4308.7497091656
 30
0.0
 40
11.25734027768613
  0
CIRCLE
  5
1CD
330
1F
100
AcDbEntity
  8
0
  6
Continuous
 62
     7
370
    25
100
AcDbCircle
 10
6461.2869657345
 20
4301.904160226
 30
0.0
 40
10.41210375420542
  0
CIRCLE
  5
1CE
330
1F
100
AcDbEntity
  8
0
  6
Continuous
 62
     7
370
    25
100
AcDbCircle
 10
6461.2869657345
 20
4301.904160226
 30
0.0
 40
11.25734027768522
  0
CIRCLE
  5
1CF
330
1F
100
AcDbEntity
  8
0
  6
Continuous
 62
     7
370
    25
100
AcDbCircle
 10
6058.4684523648
 20
4268.1677437013
 30
0.0
 40
10.41210375420451
  0
CIRCLE
  5
1D0
330
1F
100
AcDbEntity
  8
0
  6
Continuous
 62
     7
370
    25
100
AcDbCircle
 10
6058.4684523648
 20
4268.1677437013
 30
0.0
 40
11.25734027768613
  0
CIRCLE
  5
1D1
330
1F
100
AcDbEntity
  8
0
  6
Continuous
 62
     7
370
    25
100
AcDbCircle
 10
6289.6563439664
 20
4253.7679042043
 30
0.0
 40
10.41210375420451
  0
CIRCLE
  5
1D2
330
1F
100
AcDbEntity
  8
0
  6
Continuous
 62
     7
370
    25
100
AcDbCircle
 10
6289.6563439664
 20
4253.7679042043
 30
0.0
 40
11.25734027768613
  0
CIRCLE
  5
1D3
330
1F
100
AcDbEntity
  8
0
  6
Continuous
 62
     7
370
    25
100
AcDbCircle
 10
6173.5815360235
 20
4260.4869618107
 30
0.0
 40
10.41210375420451
  0
CIRCLE
  5
1D4
330
1F
100
AcDbEntity
  8
0
  6
Continuous
 62
     7
370
    25
100
AcDbCircle
 10
6173.5815360235
 20
4260.4869618107
 30
0.0
 40
11.25734027768613
  0
CIRCLE
  5
1D5
330
1F
100
AcDbEntity
  8
0
  6
Continuous
 62
     7
370
    25
100
AcDbCircle
 10
6521.6618342951
 20
4241.5292916654
 30
0.0
 40
10.41210375420451
  0
CIRCLE
  5
1D6
330
1F
100
AcDbEntity
  8
0
  6
Continuous
 62
     7
370
    25
100
AcDbCircle
 10
6521.6618342951
 20
4241.5292916654
 30
0.0
 40
11.25734027768613
  0
CIRCLE
  5
1D7
330
1F
100
AcDbEntity
  8
0
  6
Continuous
 62
     7
370
    25
100
AcDbCircle
 10
6406.3853318009
 20
4247.0025262923
 30
0.0
 40
10.41210375420542
  0
CIRCLE
  5
1D8
330
1F
100
AcDbEntity
  8
0
  6
Continuous
 62
     7
370
    25
100
AcDbCircle
 10
6406.3853318009
 20
4247.0025262923
 30
0.0
 40
11.25734027768522
  0
CIRCLE
  5
1D9
330
1F
100
AcDbEntity
  8
0
  6
Continuous
 62
     7
370
    25
100
AcDbCircle
 10
6003.3754016678
 20
4213.0746930042
 30
0.0
 40
10.41210375420542
  0
CIRCLE
  5
1DA
330
1F
100
AcDbEntity
  8
0
  6
Continuous
 62
     7
370
    25
100
AcDbCircle
 10
6119.8653851394
 20
4206.7708109266
 30
0.0
 40
10.41210375420451
  0
CIRCLE
  5
1DB
330
1F
100
AcDbEntity
  8
0
  6
Continuous
 62
     7
370
    25
100
AcDbCircle
 10
6003.3754016678
 20
4213.0746930042
 30
0.0
 40
11.25734027768522
  0
CIRCLE
  5
1DC
330
1F
100
AcDbEntity
  8
0
  6
Continuous
 62
     7
370
    25
100
AcDbCircle
 10
6119.8653851394
 20
4206.7708109266
 30
0.0
 40
11.25734027768613
  0
CIRCLE
  5
1DD
330
1F
100
AcDbEntity
  8
0
  6
Continuous
 62
     7
370
    25
100
AcDbCircle
 10
6234.9784687981
 20
4199.0900290361
 30
0.0
 40
10.41210375420451
  0
CIRCLE
  5
1DE
330
1F
100
AcDbEntity
  8
0
  6
Continuous
 62
     7
370
    25
100
AcDbCircle
 10
6351.4035268396
 20
4192.0207213311
 30
0.0
 40
10.41210375420542
  0
CIRCLE
  5
1DF
330
1F
100
AcDbEntity
  8
0
  6
Continuous
 62
     7
370
    25
100
AcDbCircle
 10
6351.4035268396
 20
4192.0207213311
 30
0.0
 40
11.25734027768522
  0
CIRCLE
  5
1E0
330
1F
100
AcDbEntity
  8
0
  6
Continuous
 62
     7
370
    25
100
AcDbCircle
 10
6466.7602003614
 20
4186.6276577318
 30
0.0
 40
10.41210375420451
  0
CIRCLE
  5
1E1
330
1F
100
AcDbEntity
  8
0
  6
Continuous
 62
     7
370
    25
100
AcDbCircle
 10
6234.9784687981
 20
4199.0900290361
 30
0.0
 40
11.25734027768613
  0
CIRCLE
  5
1E2
330
1F
100
AcDbEntity
  8
0
  6
Continuous
 62
     7
370
    25
100
AcDbCircle
 10
6466.7602003614
 20
4186.6276577318
 30
0.0
 40
11.25734027768613
  0
CIRCLE
  5
1E3
330
1F
100
AcDbEntity
  8
0
  6
Continuous
 62
     7
370
    25
100
AcDbCircle
 10
6318.7478984948
 20
4774.0349209297
 30
0.0
 40
12.59815280180464
  0
CIRCLE
  5
1E4
330
1F
100
AcDbEntity
  8
0
  6
Continuous
 62
     7
370
    25
100
AcDbCircle
 10
6202.0189106603
 20
4780.8002988417
 30
0.0
 40
12.59815280180374
  0
CIRCLE
  5
1E5
330
1F
100
AcDbEntity
  8
0
  6
Continuous
 62
     7
370
    25
100
AcDbCircle
 10
6085.7670097463
 20
4787.2154266551
 30
0.0
 40
12.59815280180464
  0
CIRCLE
  5
1E6
330
1F
100
AcDbEntity
  8
0
  6
Continuous
 62
     7
370
    25
100
AcDbCircle
 10
6030.9347729368
 20
4732.3831898456
 30
0.0
 40
12.59815280180464
  0
CIRCLE
  5
1E7
330
1F
100
AcDbEntity
  8
0
  6
Continuous
 62
     7
370
    25
100
AcDbCircle
 10
6147.0371056991
 20
4725.8184938805
 30
0.0
 40
12.59815280180464
  0
CIRCLE
  5
1E8
330
1F
100
AcDbEntity
  8
0
  6
Continuous
 62
     7
370
    25
100
AcDbCircle
 10
6263.7660935336
 20
4719.0531159685
 30
0.0
 40
12.59815280180464
  0
CIRCLE
  5
1E9
330
1F
100
AcDbEntity
  8
0
  6
Continuous
 62
     7
370
    25
100
AcDbCircle
 10
6379.1227670554
 20
4713.6600523691
 30
0.0
 40
12.59815280180464
  0
CIRCLE
  5
1EA
330
1F
100
AcDbEntity
  8
0
  6
Continuous
 62
     7
370
    25
100
AcDbCircle
 10
5976.0331390031
 20
4677.4815559119
 30
0.0
 40
12.59815280180464
  0
CIRCLE
  5
1EB
330
1F
100
AcDbEntity
  8
0
  6
Continuous
 62
     7
370
    25
100
AcDbCircle
 10
6208.7842885723
 20
4664.0713110072
 30
0.0
 40
12.59815280180464
  0
CIRCLE
  5
1EC
330
1F
100
AcDbEntity
  8
0
  6
Continuous
 62
     7
370
    25
100
AcDbCircle
 10
6092.2048688896
 20
4670.986257071
 30
0.0
 40
12.59815280180464
  0
CIRCLE
  5
1ED
330
1F
100
AcDbEntity
  8
0
  6
Continuous
 62
     7
370
    25
100
AcDbCircle
 10
6324.1409620942
 20
4658.6782474079
 30
0.0
 40
12.59815280180464
  0
CIRCLE
  5
1EE
330
1F
100
AcDbEntity
  8
0
  6
Continuous
 62
     7
370
    25
100
AcDbCircle
 10
6441.5417640441
 20
4651.2410553805
 30
0.0
 40
12.59815280180464
  0
CIRCLE
  5
1EF
330
1F
100
AcDbEntity
  8
0
  6
Continuous
 62
     7
370
    25
100
AcDbCircle
 10
6037.3032349559
 20
4616.0846231373
 30
0.0
 40
12.59815280180464
  0
CIRCLE
  5
1F0
330
1F
100
AcDbEntity
  8
0
  6
Continuous
 62
     7
370
    25
100
AcDbCircle
 10
6153.9520517628
 20
4609.2390741977
 30
0.0
 40
12.59815280180464
  0
CIRCLE
  5
1F1
330
1F
100
AcDbEntity
  8
0
  6
Continuous
 62
     7
370
    25
100
AcDbCircle
 10
6269.1591571329
 20
4603.6964424466
 30
0.0
 40
12.59815280180464
  0
CIRCLE
  5
1F2
330
1F
100
AcDbEntity
  8
0
  6
Continuous
 62
     7
370
    25
100
AcDbCircle
 10
6386.5599590828
 20
4596.2592504192
 30
0.0
 40
12.59815280180374
  0
CIRCLE
  5
1F3
330
1F
100
AcDbEntity
  8
0
  6
Continuous
 62
     7
370
    25
100
AcDbCircle
 10
6502.9386968187
 20
4589.8441226059
 30
0.0
 40
12.59815280180464
  0
CIRCLE
  5
1F4
330
1F
100
AcDbEntity
  8
0
  6
Continuous
 62
     7
370
    25
100
AcDbCircle
 10
5982.3214299947
 20
4561.102818176
 30
0.0
 40
12.59815280180464
  0
CIRCLE
  5
1F5
330
1F
100
AcDbEntity
  8
0
  6
Continuous
 62
     7
370
    25
100
AcDbCircle
 10
6099.0504178292
 20
4554.337440264
 30
0.0
 40
12.59815280180464
  0
CIRCLE
  5
1F6
330
1F
100
AcDbEntity
  8
0
  6
Continuous
 62
     7
370
    25
100
AcDbCircle
 10
6214.3269203234
 20
4548.8642056371
 30
0.0
 40
12.59815280180464
  0
CIRCLE
  5
1F7
330
1F
100
AcDbEntity
  8
0
  6
Continuous
 62
     7
370
    25
100
AcDbCircle
 10
6447.9568918574
 20
4534.8623176446
 30
0.0
 40
12.59815280180374
  0
CIRCLE
  5
1F8
330
1F
100
AcDbEntity
  8
0
  6
Continuous
 62
     7
370
    25
100
AcDbCircle
 10
6331.5781541216
 20
4541.277445458
 30
0.0
 40
12.59815280180464
  0
CIRCLE
  5
1F9
330
1F
100
AcDbEntity
  8
0
  6
Continuous
 62
     7
370
    25
100
AcDbCircle
 10
6564.3356295933
 20
4528.4471898313
 30
0.0
 40
12.59815280180464
  0
CIRCLE
  5
1FA
330
1F
100
AcDbEntity
  8
0
  6
Continuous
 62
     7
370
    25
100
AcDbCircle
 10
6159.4252863897
 20
4493.9625717035
 30
0.0
 40
12.59815280180464
  0
CIRCLE
  5
1FB
330
1F
100
AcDbEntity
  8
0
  6
Continuous
 62
     7
370
    25
100
AcDbCircle
 10
6044.0686128679
 20
4499.3556353028
 30
0.0
 40
12.59815280180464
  0
CIRCLE
  5
1FC
330
1F
100
AcDbEntity
  8
0
  6
Continuous
 62
     7
370
    25
100
AcDbCircle
 10
6276.7459173121
 20
4486.4452086485
 30
0.0
 40
12.59815280180464
  0
CIRCLE
  5
1FD
330
1F
100
AcDbEntity
  8
0
  6
Continuous
 62
     7
370
    25
100
AcDbCircle
 10
6392.9750868962
 20
4479.8805126834
 30
0.0
 40
12.59815280180464
  0
CIRCLE
  5
1FE
330
1F
100
AcDbEntity
  8
0
  6
Continuous
 62
     7
370
    25
100
AcDbCircle
 10
6509.353824632
 20
4473.46538487
 30
0.0
 40
12.59815280180374
  0
CIRCLE
  5
1FF
330
1F
100
AcDbEntity
  8
0
  6
Continuous
 62
     7
370
    25
100
AcDbCircle
 10
6104.4434814285
 20
4438.9807667422
 30
0.0
 40
12.59815280180464
  0
CIRCLE
  5
200
330
1F
100
AcDbEntity
  8
0
  6
Continuous
 62
     7
370
    25
100
AcDbCircle
 10
5989.3907376996
 20
4444.6777601345
 30
0.0
 40
12.59815280180464
  0
CIRCLE
  5
201
330
1F
100
AcDbEntity
  8
0
  6
Continuous
 62
     7
370
    25
100
AcDbCircle
 10
6338.1428500867
 20
4425.0482758739
 30
0.0
 40
12.59815280180464
  0
CIRCLE
  5
202
330
1F
100
AcDbEntity
  8
0
  6
Continuous
 62
     7
370
    25
100
AcDbCircle
 10
6221.8442833784
 20
4431.5435747148
 30
0.0
 40
12.59815280180374
  0
CIRCLE
  5
203
330
1F
100
AcDbEntity
  8
0
  6
Continuous
 62
     7
370
    25
100
AcDbCircle
 10
6571.1010075053
 20
4411.7182019968
 30
0.0
 40
12.59815280180374
  0
CIRCLE
  5
204
330
1F
100
AcDbEntity
  8
0
  6
Continuous
 62
     7
370
    25
100
AcDbCircle
 10
6454.3720196708
 20
4418.4835799088
 30
0.0
 40
12.59815280180464
  0
CIRCLE
  5
205
330
1F
100
AcDbEntity
  8
0
  6
Continuous
 62
     7
370
    25
100
AcDbCircle
 10
6049.7656062602
 20
4384.3028915739
 30
0.0
 40
12.59815280180464
  0
CIRCLE
  5
206
330
1F
100
AcDbEntity
  8
0
  6
Continuous
 62
     7
370
    25
100
AcDbCircle
 10
6166.8624784171
 20
4376.5617697536
 30
0.0
 40
12.59815280180464
  0
CIRCLE
  5
207
330
1F
100
AcDbEntity
  8
0
  6
Continuous
 62
     7
370
    25
100
AcDbCircle
 10
6283.241216153
 20
4370.1466419402
 30
0.0
 40
12.59815280180464
  0
CIRCLE
  5
208
330
1F
100
AcDbEntity
  8
0
  6
Continuous
 62
     7
370
    25
100
AcDbCircle
 10
6399.5397828613
 20
4363.6513430993
 30
0.0
 40
12.59815280180464
  0
CIRCLE
  5
209
330
1F
100
AcDbEntity
  8
0
  6
Continuous
 62
     7
370
    25
100
AcDbCircle
 10
6516.119202544
 20
4356.7363970355
 30
0.0
 40
12.59815280180464
  0
CIRCLE
  5
20A
330
1F
100
AcDbEntity
  8
0
  6
Continuous
 62
     7
370
    25
100
AcDbCircle
 10
5996.0494553762
 20
4330.5867406899
 30
0.0
 40
12.59815280180464
  0
CIRCLE
  5
20B
330
1F
100
AcDbEntity
  8
0
  6
Continuous
 62
     7
370
    25
100
AcDbCircle
 10
6228.2594111918
 20
4315.164836979
 30
0.0
 40
12.59815280180464
  0
CIRCLE
  5
20C
330
1F
100
AcDbEntity
  8
0
  6
Continuous
 62
     7
370
    25
100
AcDbCircle
 10
6112.1846032489
 20
4321.8838945853
 30
0.0
 40
12.59815280180464
  0
CIRCLE
  5
20D
330
1F
100
AcDbEntity
  8
0
  6
Continuous
 62
     7
370
    25
100
AcDbCircle
 10
6576.4940711046
 20
4296.3615284749
 30
0.0
 40
12.59815280180464
  0
CIRCLE
  5
20E
330
1F
100
AcDbEntity
  8
0
  6
Continuous
 62
     7
370
    25
100
AcDbCircle
 10
6461.2869657345
 20
4301.904160226
 30
0.0
 40
12.59815280180464
  0
CIRCLE
  5
20F
330
1F
100
AcDbEntity
  8
0
  6
Continuous
 62
     7
370
    25
100
AcDbCircle
 10
6344.6381489276
 20
4308.7497091656
 30
0.0
 40
12.59815280180464
  0
CIRCLE
  5
210
330
1F
100
AcDbEntity
  8
0
  6
Continuous
 62
     7
370
    25
100
AcDbCircle
 10
6058.4684523648
 20
4268.1677437013
 30
0.0
 40
12.59815280180464
  0
CIRCLE
  5
211
330
1F
100
AcDbEntity
  8
0
  6
Continuous
 62
     7
370
    25
100
AcDbCircle
 10
6173.5815360235
 20
4260.4869618107
 30
0.0
 40
12.59815280180464
  0
CIRCLE
  5
212
330
1F
100
AcDbEntity
  8
0
  6
Continuous
 62
     7
370
    25
100
AcDbCircle
 10
6289.6563439664
 20
4253.7679042043
 30
0.0
 40
12.59815280180464
  0
CIRCLE
  5
213
330
1F
100
AcDbEntity
  8
0
  6
Continuous
 62
     7
370
    25
100
AcDbCircle
 10
6406.3853318009
 20
4247.0025262923
 30
0.0
 40
12.59815280180464
  0
CIRCLE
  5
214
330
1F
100
AcDbEntity
  8
0
  6
Continuous
 62
     7
370
    25
100
AcDbCircle
 10
6521.6618342951
 20
4241.5292916654
 30
0.0
 40
12.59815280180464
  0
CIRCLE
  5
215
330
1F
100
AcDbEntity
  8
0
  6
Continuous
 62
     7
370
    25
100
AcDbCircle
 10
6119.8653851394
 20
4206.7708109266
 30
0.0
 40
12.59815280180464
  0
CIRCLE
  5
216
330
1F
100
AcDbEntity
  8
0
  6
Continuous
 62
     7
370
    25
100
AcDbCircle
 10
6003.3754016678
 20
4213.0746930042
 30
0.0
 40
12.59815280180464
  0
CIRCLE
  5
217
330
1F
100
AcDbEntity
  8
0
  6
Continuous
 62
     7
370
    25
100
AcDbCircle
 10
6466.7602003614
 20
4186.6276577318
 30
0.0
 40
12.59815280180464
  0
CIRCLE
  5
218
330
1F
100
AcDbEntity
  8
0
  6
Continuous
 62
     7
370
    25
100
AcDbCircle
 10
6234.9784687981
 20
4199.0900290361
 30
0.0
 40
12.59815280180464
  0
CIRCLE
  5
219
330
1F
100
AcDbEntity
  8
0
  6
Continuous
 62
     7
370
    25
100
AcDbCircle
 10
6351.4035268396
 20
4192.0207213311
 30
0.0
 40
12.59815280180464
  0
CIRCLE
  5
21A
330
1F
100
AcDbEntity
  8
0
  6
Continuous
 62
     7
370
    25
100
AcDbCircle
 10
6085.7670097463
 20
4787.2154266551
 30
0.0
 40
13.44338932528626
  0
CIRCLE
  5
21B
330
1F
100
AcDbEntity
  8
0
  6
Continuous
 62
     7
370
    25
100
AcDbCircle
 10
6202.0189106603
 20
4780.8002988417
 30
0.0
 40
13.44338932528535
  0
CIRCLE
  5
21C
330
1F
100
AcDbEntity
  8
0
  6
Continuous
 62
     7
370
    25
100
AcDbCircle
 10
6318.7478984948
 20
4774.0349209297
 30
0.0
 40
13.44338932528717
  0
CIRCLE
  5
21D
330
1F
100
AcDbEntity
  8
0
  6
Continuous
 62
     7
370
    25
100
AcDbCircle
 10
6030.9347729368
 20
4732.3831898456
 30
0.0
 40
13.44338932528626
  0
CIRCLE
  5
21E
330
1F
100
AcDbEntity
  8
0
  6
Continuous
 62
     7
370
    25
100
AcDbCircle
 10
6147.0371056991
 20
4725.8184938805
 30
0.0
 40
13.44338932528535
  0
CIRCLE
  5
21F
330
1F
100
AcDbEntity
  8
0
  6
Continuous
 62
     7
370
    25
100
AcDbCircle
 10
6379.1227670554
 20
4713.6600523691
 30
0.0
 40
13.44338932528626
  0
CIRCLE
  5
220
330
1F
100
AcDbEntity
  8
0
  6
Continuous
 62
     7
370
    25
100
AcDbCircle
 10
6263.7660935336
 20
4719.0531159685
 30
0.0
 40
13.44338932528626
  0
CIRCLE
  5
221
330
1F
100
AcDbEntity
  8
0
  6
Continuous
 62
     7
370
    25
100
AcDbCircle
 10
5976.0331390031
 20
4677.4815559119
 30
0.0
 40
13.44338932528626
  0
CIRCLE
  5
222
330
1F
100
AcDbEntity
  8
0
  6
Continuous
 62
     7
370
    25
100
AcDbCircle
 10
6092.2048688896
 20
4670.986257071
 30
0.0
 40
13.44338932528535
  0
CIRCLE
  5
223
330
1F
100
AcDbEntity
  8
0
  6
Continuous
 62
     7
370
    25
100
AcDbCircle
 10
6208.7842885723
 20
4664.0713110072
 30
0.0
 40
13.44338932528535
  0
CIRCLE
  5
224
330
1F
100
AcDbEntity
  8
0
  6
Continuous
 62
     7
370
    25
100
AcDbCircle
 10
6441.5417640441
 20
4651.2410553805
 30
0.0
 40
13.44338932528626
  0
CIRCLE
  5
225
330
1F
100
AcDbEntity
  8
0
  6
Continuous
 62
     7
370
    25
100
AcDbCircle
 10
6324.1409620942
 20
4658.6782474079
 30
0.0
 40
13.44338932528535
  0
CIRCLE
  5
226
330
1F
100
AcDbEntity
  8
0
  6
Continuous
 62
     7
370
    25
100
AcDbCircle
 10
6037.3032349559
 20
4616.0846231373
 30
0.0
 40
13.44338932528535
  0
CIRCLE
  5
227
330
1F
100
AcDbEntity
  8
0
  6
Continuous
 62
     7
370
    25
100
AcDbCircle
 10
6269.1591571329
 20
4603.6964424466
 30
0.0
 40
13.44338932528626
  0
CIRCLE
  5
228
330
1F
100
AcDbEntity
  8
0
  6
Continuous
 62
     7
370
    25
100
AcDbCircle
 10
6386.5599590828
 20
4596.2592504192
 30
0.0
 40
13.44338932528535
  0
CIRCLE
  5
229
330
1F
100
AcDbEntity
  8
0
  6
Continuous
 62
     7
370
    25
100
AcDbCircle
 10
6153.9520517628
 20
4609.2390741977
 30
0.0
 40
13.44338932528535
  0
CIRCLE
  5
22A
330
1F
100
AcDbEntity
  8
0
  6
Continuous
 62
     7
370
    25
100
AcDbCircle
 10
6502.9386968187
 20
4589.8441226059
 30
0.0
 40
13.44338932528626
  0
CIRCLE
  5
22B
330
1F
100
AcDbEntity
  8
0
  6
Continuous
 62
     7
370
    25
100
AcDbCircle
 10
5982.3214299947
 20
4561.102818176
 30
0.0
 40
13.44338932528535
  0
CIRCLE
  5
22C
330
1F
100
AcDbEntity
  8
0
  6
Continuous
 62
     7
370
    25
100
AcDbCircle
 10
6099.0504178292
 20
4554.337440264
 30
0.0
 40
13.44338932528535
  0
CIRCLE
  5
22D
330
1F
100
AcDbEntity
  8
0
  6
Continuous
 62
     7
370
    25
100
AcDbCircle
 10
6214.3269203234
 20
4548.8642056371
 30
0.0
 40
13.44338932528535
  0
CIRCLE
  5
22E
330
1F
100
AcDbEntity
  8
0
  6
Continuous
 62
     7
370
    25
100
AcDbCircle
 10
6331.5781541216
 20
4541.277445458
 30
0.0
 40
13.44338932528535
  0
CIRCLE
  5
22F
330
1F
100
AcDbEntity
  8
0
  6
Continuous
 62
     7
370
    25
100
AcDbCircle
 10
6447.9568918574
 20
4534.8623176446
 30
0.0
 40
13.44338932528535
  0
CIRCLE
  5
230
330
1F
100
AcDbEntity
  8
0
  6
Continuous
 62
     7
370
    25
100
AcDbCircle
 10
6564.3356295933
 20
4528.4471898313
 30
0.0
 40
13.44338932528626
  0
CIRCLE
  5
231
330
1F
100
AcDbEntity
  8
0
  6
Continuous
 62
     7
370
    25
100
AcDbCircle
 10
6044.0686128679
 20
4499.3556353028
 30
0.0
 40
13.44338932528535
  0
CIRCLE
  5
232
330
1F
100
AcDbEntity
  8
0
  6
Continuous
 62
     7
370
    25
100
AcDbCircle
 10
6159.4252863897
 20
4493.9625717035
 30
0.0
 40
13.44338932528535
  0
CIRCLE
  5
233
330
1F
100
AcDbEntity
  8
0
  6
Continuous
 62
     7
370
    25
100
AcDbCircle
 10
6276.7459173121
 20
4486.4452086485
 30
0.0
 40
13.44338932528535
  0
CIRCLE
  5
234
330
1F
100
AcDbEntity
  8
0
  6
Continuous
 62
     7
370
    25
100
AcDbCircle
 10
6392.9750868962
 20
4479.8805126834
 30
0.0
 40
13.44338932528535
  0
CIRCLE
  5
235
330
1F
100
AcDbEntity
  8
0
  6
Continuous
 62
     7
370
    25
100
AcDbCircle
 10
6509.353824632
 20
4473.46538487
 30
0.0
 40
13.44338932528535
  0
CIRCLE
  5
236
330
1F
100
AcDbEntity
  8
0
  6
Continuous
 62
     7
370
    25
100
AcDbCircle
 10
6104.4434814285
 20
4438.9807667422
 30
0.0
 40
13.44338932528535
  0
CIRCLE
  5
237
330
1F
100
AcDbEntity
  8
0
  6
Continuous
 62
     7
370
    25
100
AcDbCircle
 10
5989.3907376996
 20
4444.6777601345
 30
0.0
 40
13.44338932528626
  0
CIRCLE
  5
238
330
1F
100
AcDbEntity
  8
0
  6
Continuous
 62
     7
370
    25
100
AcDbCircle
 10
6338.1428500867
 20
4425.0482758739
 30
0.0
 40
13.44338932528626
  0
CIRCLE
  5
239
330
1F
100
AcDbEntity
  8
0
  6
Continuous
 62
     7
370
    25
100
AcDbCircle
 10
6221.8442833784
 20
4431.5435747148
 30
0.0
 40
13.44338932528535
  0
CIRCLE
  5
23A
330
1F
100
AcDbEntity
  8
0
  6
Continuous
 62
     7
370
    25
100
AcDbCircle
 10
6454.3720196708
 20
4418.4835799088
 30
0.0
 40
13.44338932528626
  0
CIRCLE
  5
23B
330
1F
100
AcDbEntity
  8
0
  6
Continuous
 62
     7
370
    25
100
AcDbCircle
 10
6571.1010075053
 20
4411.7182019968
 30
0.0
 40
13.44338932528535
  0
CIRCLE
  5
23C
330
1F
100
AcDbEntity
  8
0
  6
Continuous
 62
     7
370
    25
100
AcDbCircle
 10
6049.7656062602
 20
4384.3028915739
 30
0.0
 40
13.44338932528626
  0
CIRCLE
  5
23D
330
1F
100
AcDbEntity
  8
0
  6
Continuous
 62
     7
370
    25
100
AcDbCircle
 10
6166.8624784171
 20
4376.5617697536
 30
0.0
 40
13.44338932528535
  0
CIRCLE
  5
23E
330
1F
100
AcDbEntity
  8
0
  6
Continuous
 62
     7
370
    25
100
AcDbCircle
 10
6283.241216153
 20
4370.1466419402
 30
0.0
 40
13.44338932528535
  0
CIRCLE
  5
23F
330
1F
100
AcDbEntity
  8
0
  6
Continuous
 62
     7
370
    25
100
AcDbCircle
 10
6399.5397828613
 20
4363.6513430993
 30
0.0
 40
13.44338932528535
  0
CIRCLE
  5
240
330
1F
100
AcDbEntity
  8
0
  6
Continuous
 62
     7
370
    25
100
AcDbCircle
 10
6516.119202544
 20
4356.7363970355
 30
0.0
 40
13.44338932528535
  0
CIRCLE
  5
241
330
1F
100
AcDbEntity
  8
0
  6
Continuous
 62
     7
370
    25
100
AcDbCircle
 10
5996.0494553762
 20
4330.5867406899
 30
0.0
 40
13.44338932528626
  0
CIRCLE
  5
242
330
1F
100
AcDbEntity
  8
0
  6
Continuous
 62
     7
370
    25
100
AcDbCircle
 10
6112.1846032489
 20
4321.8838945853
 30
0.0
 40
13.44338932528717
  0
CIRCLE
  5
243
330
1F
100
AcDbEntity
  8
0
  6
Continuous
 62
     7
370
    25
100
AcDbCircle
 10
6228.2594111918
 20
4315.164836979
 30
0.0
 40
13.44338932528535
  0
CIRCLE
  5
244
330
1F
100
AcDbEntity
  8
0
  6
Continuous
 62
     7
370
    25
100
AcDbCircle
 10
6344.6381489276
 20
4308.7497091656
 30
0.0
 40
13.44338932528626
  0
CIRCLE
  5
245
330
1F
100
AcDbEntity
  8
0
  6
Continuous
 62
     7
370
    25
100
AcDbCircle
 10
6461.2869657345
 20
4301.904160226
 30
0.0
 40
13.44338932528535
  0
CIRCLE
  5
246
330
1F
100
AcDbEntity
  8
0
  6
Continuous
 62
     7
370
    25
100
AcDbCircle
 10
6576.4940711046
 20
4296.3615284749
 30
0.0
 40
13.44338932528626
  0
CIRCLE
  5
247
330
1F
100
AcDbEntity
  8
0
  6
Continuous
 62
     7
370
    25
100
AcDbCircle
 10
6058.4684523648
 20
4268.1677437013
 30
0.0
 40
13.44338932528535
  0
CIRCLE
  5
248
330
1F
100
AcDbEntity
  8
0
  6
Continuous
 62
     7
370
    25
100
AcDbCircle
 10
6289.6563439664
 20
4253.7679042043
 30
0.0
 40
13.44338932528626
  0
CIRCLE
  5
249
330
1F
100
AcDbEntity
  8
0
  6
Continuous
 62
     7
370
    25
100
AcDbCircle
 10
6406.3853318009
 20
4247.0025262923
 30
0.0
 40
13.44338932528535
  0
CIRCLE
  5
24A
330
1F
100
AcDbEntity
  8
0
  6
Continuous
 62
     7
370
    25
100
AcDbCircle
 10
6173.5815360235
 20
4260.4869618107
 30
0.0
 40
13.44338932528626
  0
CIRCLE
  5
24B
330
1F
100
AcDbEntity
  8
0
  6
Continuous
 62
     7
370
    25
100
AcDbCircle
 10
6521.6618342951
 20
4241.5292916654
 30
0.0
 40
13.44338932528535
  0
CIRCLE
  5
24C
330
1F
100
AcDbEntity
  8
0
  6
Continuous
 62
     7
370
    25
100
AcDbCircle
 10
6234.9784687981
 20
4199.0900290361
 30
0.0
 40
13.44338932528626
  0
CIRCLE
  5
24D
330
1F
100
AcDbEntity
  8
0
  6
Continuous
 62
     7
370
    25
100
AcDbCircle
 10
6003.3754016678
 20
4213.0746930042
 30
0.0
 40
13.44338932528626
  0
CIRCLE
  5
24E
330
1F
100
AcDbEntity
  8
0
  6
Continuous
 62
     7
370
    25
100
AcDbCircle
 10
6119.8653851394
 20
4206.7708109266
 30
0.0
 40
13.44338932528626
  0
CIRCLE
  5
24F
330
1F
100
AcDbEntity
  8
0
  6
Continuous
 62
     7
370
    25
100
AcDbCircle
 10
6466.7602003614
 20
4186.6276577318
 30
0.0
 40
13.44338932528535
  0
CIRCLE
  5
250
330
1F
100
AcDbEntity
  8
0
  6
Continuous
 62
     7
370
    25
100
AcDbCircle
 10
6351.4035268396
 20
4192.0207213311
 30
0.0
 40
13.44338932528535
  0
CIRCLE
  5
251
330
1F
100
AcDbEntity
  8
0
  6
Continuous
 62
     7
370
    25
100
AcDbCircle
 10
6521.8165710459
 20
4731.5158623823
 30
0.0
 40
69.30384757729462
  0
CIRCLE
  5
252
330
1F
100
AcDbEntity
  8
0
  6
Continuous
 62
     7
370
    25
100
AcDbCircle
 10
6521.8165710459
 20
4731.5158623823
 30
0.0
 40
70.80384757729462
  0
CIRCLE
  5
253
330
1F
100
AcDbEntity
  8
0
  6
Continuous
 62
     7
370
    25
100
AcDbCircle
 10
6521.8165710459
 20
4731.5158623823
 30
0.0
 40
65.5
  0
CIRCLE
  5
254
330
1F
100
AcDbEntity
  8
0
  6
Continuous
 62
     7
370
    25
100
AcDbCircle
 10
6521.8165710459
 20
4731.5158623823
 30
0.0
 40
64.0
  0
SPLINE
  5
255
330
1F
100
AcDbEntity
  8
0
  6
Continuous
 62
     8
370
    25
100
AcDbSpline
210
0.0
220
0.0
230
1.0
 70
     8
 71
     3
 72
    14
 73
    10
 74
     0
 42
0.000000001
 43
0.00000001
 40
0.0
 40
0.0
 40
0.0
 40
0.0
 40
0.1339009925667409
 40
0.4348446498601949
 40
0.7384753150546345
 40
0.888301860494957
 40
0.9626014403243092
 40
0.9985253660381178
 40
1.0
 40
1.0
 40
1.0
 40
1.0
 10
6550.624640306275
 20
4718.731473906785
 30
0.0
 10
6551.747726415243
 20
4719.077777428532
 30
0.0
 10
6555.394958421937
 20
4720.202401158143
 30
0.0
 10
6561.435922490336
 20
4722.58144780875
 30
0.0
 10
6567.358341978324
 20
4725.548687525719
 30
0.0
 10
6571.319401226868
 20
4727.967433480281
 30
0.0
 10
6573.155842824559
 20
4729.306776842674
 30
0.0
 10
6573.927885817984
 20
4729.92787220538
 30
0.0
 10
6574.129701742078
 20
4730.186526551158
 30
0.0
 10
6574.137659391205
 20
4730.196725352555
 30
0.0
  0
ENDSEC
  0
SECTION
  2
OBJECTS
  0
DICTIONARY
  5
C
330
0
100
AcDbDictionary
281
     1
  3
ACAD_GROUP
350
D
  3
ACAD_LAYOUT
350
1A
  3
ACAD_MLINESTYLE
350
17
  3
ACAD_PLOTSETTINGS
350
19
  3
ACAD_PLOTSTYLENAME
350
E
  3
ACAD_SCALELIST
350
47
  0
DICTIONARY
  5
D
102
{ACAD_REACTORS
330
C
102
}
330
C
100
AcDbDictionary
281
     1
  0
DICTIONARY
  5
1A
102
{ACAD_REACTORS
330
C
102
}
330
C
100
AcDbDictionary
281
     1
  3
Layout1
350
1E
  3
Layout2
350
26
  3
Model
350
22
  0
DICTIONARY
  5
17
102
{ACAD_REACTORS
330
C
102
}
330
C
100
AcDbDictionary
281
     1
  3
Standard
350
18
  0
DICTIONARY
  5
19
102
{ACAD_REACTORS
330
C
102
}
330
C
100
AcDbDictionary
281
     1
  0
ACDBDICTIONARYWDFLT
  5
E
102
{ACAD_REACTORS
330
C
102
}
330
C
100
AcDbDictionary
281
     1
  3
Normal
350
F
100
AcDbDictionaryWithDefault
340
F
  0
DICTIONARY
  5
47
102
{ACAD_REACTORS
330
C
102
}
330
C
100
AcDbDictionary
281
     1
  3
A0
350
48
  3
A1
350
49
  3
A2
350
4A
  3
A3
350
4B
  3
A4
350
4C
  3
A5
350
4D
  3
A6
350
4E
  3
A7
350
4F
  3
A8
350
50
  3
A9
350
51
  3
B0
350
52
  3
B1
350
53
  3
B2
350
54
  3
B3
350
55
  3
B4
350
56
  3
B5
350
57
  3
B6
350
58
  3
B7
350
59
  3
B8
350
5A
  3
B9
350
5B
  3
C0
350
5C
  3
C1
350
5D
  3
C2
350
5E
  3
C3
350
5F
  3
C4
350
60
  3
C5
350
61
  3
C6
350
62
  3
C7
350
63
  3
C8
350
64
  3
C9
350
65
  3
D0
350
66
  3
D1
350
67
  3
D2
350
68
  0
LAYOUT
  5
1E
102
{ACAD_REACTORS
330
1A
102
}
330
1A
100
AcDbPlotSettings
  1

  2
none_device
  4

  6

 40
0.0
 41
0.0
 42
0.0
 43
0.0
 44
0.0
 45
0.0
 46
0.0
 47
0.0
 48
0.0
 49
0.0
140
0.0
141
0.0
142
1.0
143
1.0
 70
   688
 72
     1
 73
     0
 74
     5
  7

 75
    16
147
1.0
148
0.0
149
0.0
100
AcDbLayout
  1
Layout1
 70
     1
 71
     1
 10
0.0
 20
0.0
 11
420.0
 21
297.0
 12
0.0
 22
0.0
 32
0.0
 14
1.0000000000E+20
 24
1.0000000000E+20
 34
1.0000000000E+20
 15
-1.0000000000E+20
 25
-1.0000000000E+20
 35
-1.0000000000E+20
146
0.0
 13
0.0
 23
0.0
 33
0.0
 16
1.0
 26
0.0
 36
0.0
 17
0.0
 27
1.0
 37
0.0
 76
     0
330
1B
  0
LAYOUT
  5
26
102
{ACAD_REACTORS
330
1A
102
}
330
1A
100
AcDbPlotSettings
  1

  2
none_device
  4

  6

 40
0.0
 41
0.0
 42
0.0
 43
0.0
 44
0.0
 45
0.0
 46
0.0
 47
0.0
 48
0.0
 49
0.0
140
0.0
141
0.0
142
1.0
143
1.0
 70
   688
 72
     1
 73
     0
 74
     5
  7

 75
    16
147
1.0
148
0.0
149
0.0
100
AcDbLayout
  1
Layout2
 70
     1
 71
     2
 10
0.0
 20
0.0
 11
0.0
 21
0.0
 12
0.0
 22
0.0
 32
0.0
 14
0.0
 24
0.0
 34
0.0
 15
0.0
 25
0.0
 35
0.0
146
0.0
 13
0.0
 23
0.0
 33
0.0
 16
1.0
 26
0.0
 36
0.0
 17
0.0
 27
1.0
 37
0.0
 76
     0
330
23
  0
LAYOUT
  5
22
102
{ACAD_REACTORS
330
1A
102
}
330
1A
100
AcDbPlotSettings
  1

  2
none_device
  4
Letter_(8.50_x_11.00_Inches)
  6

 40
6.35
 41
6.35
 42
6.35000508
 43
6.35000508
 44
215.9
 45
279.4
 46
0.0
 47
0.0
 48
0.0
 49
0.0
140
0.0
141
0.0
142
1.0
143
1.0
 70
  1712
 72
     1
 73
     0
 74
     0
  7

 75
     0
147
1.0
148
0.0
149
0.0
100
AcDbLayout
  1
Model
 70
     1
 71
     0
 10
0.0
 20
0.0
 11
20000.0
 21
10000.0
 12
0.0
 22
0.0
 32
0.0
 14
0.0
 24
0.0
 34
0.0
 15
20000.0
 25
10000.0
 35
0.0
146
0.0
 13
0.0
 23
0.0
 33
0.0
 16
1.0
 26
0.0
 36
0.0
 17
0.0
 27
1.0
 37
0.0
 76
     0
330
1F
331
29
  0
MLINESTYLE
  5
18
102
{ACAD_REACTORS
330
17
102
}
330
17
100
AcDbMlineStyle
  2
Standard
 70
     0
  3

 62
   256
 51
90.0
 52
90.0
 71
     2
 49
0.5
 62
   256
  6
BYLAYER
 49
-0.5
 62
   256
  6
BYLAYER
  0
ACDBPLACEHOLDER
  5
F
102
{ACAD_REACTORS
330
E
102
}
330
E
  0
SCALE
  5
48
102
{ACAD_REACTORS
330
47
102
}
330
47
100
AcDbScale
 70
     0
300
1:1
140
1.0
141
1.0
290
     1
  0
SCALE
  5
49
102
{ACAD_REACTORS
330
47
102
}
330
47
100
AcDbScale
 70
     0
300
1:2
140
1.0
141
2.0
290
     0
  0
SCALE
  5
4A
102
{ACAD_REACTORS
330
47
102
}
330
47
100
AcDbScale
 70
     0
300
1:4
140
1.0
141
4.0
290
     0
  0
SCALE
  5
4B
102
{ACAD_REACTORS
330
47
102
}
330
47
100
AcDbScale
 70
     0
300
1:5
140
1.0
141
5.0
290
     0
  0
SCALE
  5
4C
102
{ACAD_REACTORS
330
47
102
}
330
47
100
AcDbScale
 70
     0
300
1:8
140
1.0
141
8.0
290
     0
  0
SCALE
  5
4D
102
{ACAD_REACTORS
330
47
102
}
330
47
100
AcDbScale
 70
     0
300
1:10
140
1.0
141
10.0
290
     0
  0
SCALE
  5
4E
102
{ACAD_REACTORS
330
47
102
}
330
47
100
AcDbScale
 70
     0
300
1:16
140
1.0
141
16.0
290
     0
  0
SCALE
  5
4F
102
{ACAD_REACTORS
330
47
102
}
330
47
100
AcDbScale
 70
     0
300
1:20
140
1.0
141
20.0
290
     0
  0
SCALE
  5
50
102
{ACAD_REACTORS
330
47
102
}
330
47
100
AcDbScale
 70
     0
300
1:30
140
1.0
141
30.0
290
     0
  0
SCALE
  5
51
102
{ACAD_REACTORS
330
47
102
}
330
47
100
AcDbScale
 70
     0
300
1:40
140
1.0
141
40.0
290
     0
  0
SCALE
  5
52
102
{ACAD_REACTORS
330
47
102
}
330
47
100
AcDbScale
 70
     0
300
1:50
140
1.0
141
50.0
290
     0
  0
SCALE
  5
53
102
{ACAD_REACTORS
330
47
102
}
330
47
100
AcDbScale
 70
     0
300
1:100
140
1.0
141
100.0
290
     0
  0
SCALE
  5
54
102
{ACAD_REACTORS
330
47
102
}
330
47
100
AcDbScale
 70
     0
300
2:1
140
2.0
141
1.0
290
     0
  0
SCALE
  5
55
102
{ACAD_REACTORS
330
47
102
}
330
47
100
AcDbScale
 70
     0
300
4:1
140
4.0
141
1.0
290
     0
  0
SCALE
  5
56
102
{ACAD_REACTORS
330
47
102
}
330
47
100
AcDbScale
 70
     0
300
8:1
140
8.0
141
1.0
290
     0
  0
SCALE
  5
57
102
{ACAD_REACTORS
330
47
102
}
330
47
100
AcDbScale
 70
     0
300
10:1
140
10.0
141
1.0
290
     0
  0
SCALE
  5
58
102
{ACAD_REACTORS
330
47
102
}
330
47
100
AcDbScale
 70
     0
300
100:1
140
100.0
141
1.0
290
     0
  0
SCALE
  5
59
102
{ACAD_REACTORS
330
47
102
}
330
47
100
AcDbScale
 70
     0
300
1/128" = 1'-0"
140
0.0078125
141
12.0
290
     0
  0
SCALE
  5
5A
102
{ACAD_REACTORS
330
47
102
}
330
47
100
AcDbScale
 70
     0
300
1/64" = 1'-0"
140
0.015625
141
12.0
290
     0
  0
SCALE
  5
5B
102
{ACAD_REACTORS
330
47
102
}
330
47
100
AcDbScale
 70
     0
300
1/32" = 1'-0"
140
0.03125
141
12.0
290
     0
  0
SCALE
  5
5C
102
{ACAD_REACTORS
330
47
102
}
330
47
100
AcDbScale
 70
     0
300
1/16" = 1'-0"
140
0.0625
141
12.0
290
     0
  0
SCALE
  5
5D
102
{ACAD_REACTORS
330
47
102
}
330
47
100
AcDbScale
 70
     0
300
3/32" = 1'-0"
140
0.09375
141
12.0
290
     0
  0
SCALE
  5
5E
102
{ACAD_REACTORS
330
47
102
}
330
47
100
AcDbScale
 70
     0
300
1/8" = 1'-0"
140
0.125
141
12.0
290
     0
  0
SCALE
  5
5F
102
{ACAD_REACTORS
330
47
102
}
330
47
100
AcDbScale
 70
     0
300
3/16" = 1'-0"
140
0.1875
141
12.0
290
     0
  0
SCALE
  5
60
102
{ACAD_REACTORS
330
47
102
}
330
47
100
AcDbScale
 70
     0
300
1/4" = 1'-0"
140
0.25
141
12.0
290
     0
  0
SCALE
  5
61
102
{ACAD_REACTORS
330
47
102
}
330
47
100
AcDbScale
 70
     0
300
3/8" = 1'-0"
140
0.375
141
12.0
290
     0
  0
SCALE
  5
62
102
{ACAD_REACTORS
330
47
102
}
330
47
100
AcDbScale
 70
     0
300
1/2" = 1'-0"
140
0.5
141
12.0
290
     0
  0
SCALE
  5
63
102
{ACAD_REACTORS
330
47
102
}
330
47
100
AcDbScale
 70
     0
300
3/4" = 1'-0"
140
0.75
141
12.0
290
     0
  0
SCALE
  5
64
102
{ACAD_REACTORS
330
47
102
}
330
47
100
AcDbScale
 70
     0
300
1" = 1'-0"
140
1.0
141
12.0
290
     0
  0
SCALE
  5
65
102
{ACAD_REACTORS
330
47
102
}
330
47
100
AcDbScale
 70
     0
300
1-1/2" = 1'-0"
140
1.5
141
12.0
290
     0
  0
SCALE
  5
66
102
{ACAD_REACTORS
330
47
102
}
330
47
100
AcDbScale
 70
     0
300
3" = 1'-0"
140
3.0
141
12.0
290
     0
  0
SCALE
  5
67
102
{ACAD_REACTORS
330
47
102
}
330
47
100
AcDbScale
 70
     0
300
6" = 1'-0"
140
6.0
141
12.0
290
     0
  0
SCALE
  5
68
102
{ACAD_REACTORS
330
47
102
}
330
47
100
AcDbScale
 70
     0
300
1'-0" = 1'-0"
140
12.0
141
12.0
290
     0
  0
ENDSEC
  0
EOF
