  0
SECTION
  2
HEADER
  9
$ACADVER
  1
AC1015
  9
$ACADMAINTVER
 70
     6
  9
$DWGCODEPAGE
  3
ANSI_1250
  9
$INSBASE
 10
0.0
 20
0.0
 30
0.0
  9
$EXTMIN
 10
0.0
 20
0.0
 30
0.0
  9
$EXTMAX
 10
20000.0
 20
10000.0
 30
0.0
  9
$LIMMIN
 10
0.0
 20
0.0
  9
$LIMMAX
 10
20000.0
 20
10000.0
  9
$ORTHOMODE
 70
     0
  9
$REGENMODE
 70
     1
  9
$FILLMODE
 70
     1
  9
$QTEXTMODE
 70
     0
  9
$MIRRTEXT
 70
     1
  9
$LTSCALE
 40
1.0
  9
$ATTMODE
 70
     1
  9
$TEXTSIZE
 40
2.0
  9
$TRACEWID
 40
1.0
  9
$TEXTSTYLE
  7
Standard
  9
$CLAYER
  8
0
  9
$CELTYPE
  6
ByLayer
  9
$CECOLOR
 62
   256
  9
$CELTSCALE
 40
1.0
  9
$DISPSILH
 70
     0
  9
$DIMSCALE
 40
1.0
  9
$DIMASZ
 40
2.0
  9
$DIMEXO
 40
1.0
  9
$DIMDLI
 40
3.75
  9
$DIMRND
 40
0.0
  9
$DIMDLE
 40
0.0
  9
$DIMEXE
 40
1.0
  9
$DIMTP
 40
0.0
  9
$DIMTM
 40
0.0
  9
$DIMTXT
 40
2.0
  9
$DIMCEN
 40
2.5
  9
$DIMTSZ
 40
0.0
  9
$DIMTOL
 70
     0
  9
$DIMLIM
 70
     0
  9
$DIMTIH
 70
     1
  9
$DIMTOH
 70
     1
  9
$DIMSE1
 70
     0
  9
$DIMSE2
 70
     0
  9
$DIMTAD
 70
     1
  9
$DIMZIN
 70
     0
  9
$DIMBLK
  1

  9
$DIMASO
 70
     1
  9
$DIMSHO
 70
     1
  9
$DIMPOST
  1

  9
$DIMAPOST
  1

  9
$DIMALT
 70
     0
  9
$DIMALTD
 70
     3
  9
$DIMALTF
 40
0.0393700787
  9
$DIMLFAC
 40
1.0
  9
$DIMTOFL
 70
     1
  9
$DIMTVP
 40
0.0
  9
$DIMTIX
 70
     0
  9
$DIMSOXD
 70
     0
  9
$DIMSAH
 70
     0
  9
$DIMBLK1
  1

  9
$DIMBLK2
  1

  9
$DIMSTYLE
  2
ISO-25
  9
$DIMCLRD
 70
     0
  9
$DIMCLRE
 70
     0
  9
$DIMCLRT
 70
     0
  9
$DIMTFAC
 40
1.0
  9
$DIMGAP
 40
1.524
  9
$DIMJUST
 70
     0
  9
$DIMSD1
 70
     0
  9
$DIMSD2
 70
     0
  9
$DIMTOLJ
 70
     0
  9
$DIMTZIN
 70
     0
  9
$DIMALTZ
 70
     0
  9
$DIMALTTZ
 70
     0
  9
$DIMUPT
 70
     0
  9
$DIMDEC
 70
     2
  9
$DIMTDEC
 70
     0
  9
$DIMALTU
 70
     2
  9
$DIMALTTD
 70
     3
  9
$DIMTXSTY
  7
Standard
  9
$DIMAUNIT
 70
     0
  9
$DIMADEC
 70
     2
  9
$DIMALTRND
 40
0.0
  9
$DIMAZIN
 70
     0
  9
$DIMDSEP
 70
    44
  9
$DIMATFIT
 70
     3
  9
$DIMFRAC
 70
     0
  9
$DIMLDRBLK
  1

  9
$DIMLUNIT
 70
     2
  9
$DIMLWD
 70
    -2
  9
$DIMLWE
 70
    -2
  9
$DIMTMOVE
 70
     0
  9
$LUNITS
 70
     2
  9
$LUPREC
 70
     3
  9
$SKETCHINC
 40
1.0
  9
$FILLETRAD
 40
10.0
  9
$AUNITS
 70
     0
  9
$AUPREC
 70
     2
  9
$MENU
  1
.
  9
$ELEVATION
 40
0.0
  9
$PELEVATION
 40
0.0
  9
$THICKNESS
 40
0.0
  9
$LIMCHECK
 70
     0
  9
$CHAMFERA
 40
0.0
  9
$CHAMFERB
 40
0.0
  9
$CHAMFERC
 40
0.0
  9
$CHAMFERD
 40
0.0
  9
$SKPOLY
 70
     0
  9
$TDCREATE
 40
2459094.620538854
  9
$TDUCREATE
 40
2459094.537205521
  9
$TDUPDATE
 40
2459094.620539201
  9
$TDUUPDATE
 40
2459094.537205868
  9
$TDINDWG
 40
0.0000000116
  9
$TDUSRTIMER
 40
0.0000000116
  9
$USRTIMER
 70
     1
  9
$ANGBASE
 50
0.0
  9
$ANGDIR
 70
     0
  9
$PDMODE
 70
     0
  9
$PDSIZE
 40
-1.0
  9
$PLINEWID
 40
0.0
  9
$SPLFRAME
 70
     0
  9
$SPLINETYPE
 70
     6
  9
$SPLINESEGS
 70
     8
  9
$HANDSEED
  5
368
  9
$SURFTAB1
 70
     6
  9
$SURFTAB2
 70
     6
  9
$SURFTYPE
 70
     6
  9
$SURFU
 70
     6
  9
$SURFV
 70
     6
  9
$UCSBASE
  2

  9
$UCSNAME
  2

  9
$UCSORG
 10
0.0
 20
0.0
 30
0.0
  9
$UCSXDIR
 10
1.0
 20
0.0
 30
0.0
  9
$UCSYDIR
 10
0.0
 20
1.0
 30
0.0
  9
$UCSORTHOREF
  2

  9
$UCSORTHOVIEW
 70
     0
  9
$UCSORGTOP
 10
0.0
 20
0.0
 30
0.0
  9
$UCSORGBOTTOM
 10
0.0
 20
0.0
 30
0.0
  9
$UCSORGLEFT
 10
0.0
 20
0.0
 30
0.0
  9
$UCSORGRIGHT
 10
0.0
 20
0.0
 30
0.0
  9
$UCSORGFRONT
 10
0.0
 20
0.0
 30
0.0
  9
$UCSORGBACK
 10
0.0
 20
0.0
 30
0.0
  9
$PUCSBASE
  2

  9
$PUCSNAME
  2

  9
$PUCSORG
 10
0.0
 20
0.0
 30
0.0
  9
$PUCSXDIR
 10
1.0
 20
0.0
 30
0.0
  9
$PUCSYDIR
 10
0.0
 20
1.0
 30
0.0
  9
$PUCSORTHOREF
  2

  9
$PUCSORTHOVIEW
 70
     0
  9
$PUCSORGTOP
 10
0.0
 20
0.0
 30
0.0
  9
$PUCSORGBOTTOM
 10
0.0
 20
0.0
 30
0.0
  9
$PUCSORGLEFT
 10
0.0
 20
0.0
 30
0.0
  9
$PUCSORGRIGHT
 10
0.0
 20
0.0
 30
0.0
  9
$PUCSORGFRONT
 10
0.0
 20
0.0
 30
0.0
  9
$PUCSORGBACK
 10
0.0
 20
0.0
 30
0.0
  9
$USERI1
 70
     0
  9
$USERI2
 70
     0
  9
$USERI3
 70
     0
  9
$USERI4
 70
     0
  9
$USERI5
 70
     0
  9
$USERR1
 40
0.0
  9
$USERR2
 40
0.0
  9
$USERR3
 40
0.0
  9
$USERR4
 40
0.0
  9
$USERR5
 40
0.0
  9
$WORLDVIEW
 70
     1
  9
$SHADEDGE
 70
     3
  9
$SHADEDIF
 70
    70
  9
$TILEMODE
 70
     1
  9
$MAXACTVP
 70
    64
  9
$PINSBASE
 10
0.0
 20
0.0
 30
0.0
  9
$PLIMCHECK
 70
     0
  9
$PEXTMIN
 10
1.0000000000E+20
 20
1.0000000000E+20
 30
1.0000000000E+20
  9
$PEXTMAX
 10
-1.0000000000E+20
 20
-1.0000000000E+20
 30
-1.0000000000E+20
  9
$PLIMMIN
 10
0.0
 20
0.0
  9
$PLIMMAX
 10
420.0
 20
297.0
  9
$UNITMODE
 70
     0
  9
$VISRETAIN
 70
     1
  9
$PLINEGEN
 70
     0
  9
$PSLTSCALE
 70
     1
  9
$TREEDEPTH
 70
  3020
  9
$CMLSTYLE
  2
Standard
  9
$CMLJUST
 70
     0
  9
$CMLSCALE
 40
20.0
  9
$PROXYGRAPHICS
 70
     1
  9
$MEASUREMENT
 70
     1
  9
$CELWEIGHT
370
    -1
  9
$ENDCAPS
280
     0
  9
$JOINSTYLE
280
     0
  9
$LWDISPLAY
290
     1
  9
$INSUNITS
 70
     4
  9
$HYPERLINKBASE
  1

  9
$STYLESHEET
  1

  9
$XEDIT
290
     1
  9
$CEPSNTYPE
380
     0
  9
$PSTYLEMODE
290
     1
  9
$FINGERPRINTGUID
  2
{d6b5d29c-7ea2-4a5f-8db8-08652fc73cbf}
  9
$VERSIONGUID
  2
{FAEB1C32-E019-11D5-929B-00C0DF256EC4}
  9
$EXTNAMES
290
     1
  9
$PSVPSCALE
 40
0.0
  9
$OLESTARTUP
290
     0
  0
ENDSEC
  0
SECTION
  2
CLASSES
  0
CLASS
  1
ACDBDICTIONARYWDFLT
  2
AcDbDictionaryWithDefault
  3
ObjectDBX Classes
 90
        0
280
     0
281
     0
  0
CLASS
  1
VISUALSTYLE
  2
AcDbVisualStyle
  3
ObjectDBX Classes
 90
     4095
280
     0
281
     0
  0
CLASS
  1
MATERIAL
  2
AcDbMaterial
  3
ObjectDBX Classes
 90
     1153
280
     0
281
     0
  0
CLASS
  1
SCALE
  2
AcDbScale
  3
ObjectDBX Classes
 90
     1153
280
     0
281
     0
  0
CLASS
  1
TABLESTYLE
  2
AcDbTableStyle
  3
ObjectDBX Classes
 90
     4095
280
     0
281
     0
  0
CLASS
  1
MLEADERSTYLE
  2
AcDbMLeaderStyle
  3
ACDB_MLEADERSTYLE_CLASS
 90
     4095
280
     0
281
     0
  0
CLASS
  1
SUN
  2
AcDbSun
  3
SCENEOE
 90
     1153
280
     0
281
     0
  0
CLASS
  1
ACDBPLACEHOLDER
  2
AcDbPlaceHolder
  3
ObjectDBX Classes
 90
        0
280
     0
281
     0
  0
CLASS
  1
LAYOUT
  2
AcDbLayout
  3
ObjectDBX Classes
 90
        0
280
     0
281
     0
  0
ENDSEC
  0
SECTION
  2
TABLES
  0
TABLE
  2
VPORT
  5
8
330
0
100
AcDbSymbolTable
 70
     1
  0
VPORT
  5
29
330
8
100
AcDbSymbolTableRecord
100
AcDbViewportTableRecord
  2
*Active
 70
     0
 10
0.0
 20
0.0
 11
1.0
 21
1.0
 12
10000.0
 22
5000.0
 13
0.0
 23
0.0
 14
10.0
 24
10.0
 15
10.0
 25
10.0
 16
0.0
 26
0.0
 36
1.0
 17
0.0
 27
0.0
 37
0.0
 40
10000.0
 41
2.0
 42
50.0
 43
0.0
 44
0.0
 50
0.0
 51
0.0
 71
     0
 72
  2000
 73
     1
 74
     3
 75
     0
 76
     0
 77
     0
 78
     0
281
     0
 65
     1
110
0.0
120
0.0
130
0.0
111
1.0
121
0.0
131
0.0
112
0.0
122
1.0
132
0.0
 79
     0
146
0.0
  0
ENDTAB
  0
TABLE
  2
LTYPE
  5
5
330
0
100
AcDbSymbolTable
 70
     6
  0
LTYPE
  5
14
330
5
100
AcDbSymbolTableRecord
100
AcDbLinetypeTableRecord
  2
ByBlock
 70
     0
  3

 72
    65
 73
     0
 40
0.0
  0
LTYPE
  5
15
330
5
100
AcDbSymbolTableRecord
100
AcDbLinetypeTableRecord
  2
ByLayer
 70
     0
  3

 72
    65
 73
     0
 40
0.0
  0
LTYPE
  5
16
330
5
100
AcDbSymbolTableRecord
100
AcDbLinetypeTableRecord
  2
Continuous
 70
     0
  3
Solid line
 72
    65
 73
     0
 40
0.0
  0
LTYPE
  5
6E
330
5
100
AcDbSymbolTableRecord
100
AcDbLinetypeTableRecord
  2
HIDDEN
 70
     0
  3
Hidden __ __ __ __ __ __ __ __ __ __ __ __ __ __
 72
    65
 73
     2
 40
1.905
 49
1.27
 74
     0
 49
-0.635
 74
     0
  0
LTYPE
  5
6F
330
5
100
AcDbSymbolTableRecord
100
AcDbLinetypeTableRecord
  2
PHANTOM
 70
     0
  3
Phantom ______  __  __  ______  __  __  ______
 72
    65
 73
     6
 40
12.7
 49
6.35
 74
     0
 49
-1.27
 74
     0
 49
1.27
 74
     0
 49
-1.27
 74
     0
 49
1.27
 74
     0
 49
-1.27
 74
     0
  0
LTYPE
  5
70
330
5
100
AcDbSymbolTableRecord
100
AcDbLinetypeTableRecord
  2
CENTER
 70
     0
  3
Center ____ _ ____ _ ____ _ ____ _ ____ _ ____
 72
    65
 73
     4
 40
10.16
 49
6.35
 74
     0
 49
-1.27
 74
     0
 49
1.27
 74
     0
 49
-1.27
 74
     0
  0
LTYPE
  5
71
330
5
100
AcDbSymbolTableRecord
100
AcDbLinetypeTableRecord
  2
CENTERX2
 70
     0
  3
Center (2x) ________  __  ________  __  _____
 72
    65
 73
     4
 40
20.32
 49
12.7
 74
     0
 49
-2.54
 74
     0
 49
2.54
 74
     0
 49
-2.54
 74
     0
  0
LTYPE
  5
72
330
5
100
AcDbSymbolTableRecord
100
AcDbLinetypeTableRecord
  2
DOT2
 70
     0
  3
Dot (.5x) ........................................
 72
    65
 73
     2
 40
0.635
 49
0.0
 74
     0
 49
-0.635
 74
     0
  0
ENDTAB
  0
TABLE
  2
LAYER
  5
2
330
0
100
AcDbSymbolTable
 70
    13
  0
LAYER
  5
10
330
2
100
AcDbSymbolTableRecord
100
AcDbLayerTableRecord
  2
0
 70
     0
 62
     7
  6
Continuous
370
    -3
390
F
  0
LAYER
  5
73
330
2
100
AcDbSymbolTableRecord
100
AcDbLayerTableRecord
  2
FORMAT
 70
     0
 62
     7
  6
Continuous
370
    -3
390
F
  0
LAYER
  5
74
330
2
100
AcDbSymbolTableRecord
100
AcDbLayerTableRecord
  2
OSA
 70
     0
 62
     7
  6
CENTER
370
    -3
390
F
  0
LAYER
  5
75
330
2
100
AcDbSymbolTableRecord
100
AcDbLayerTableRecord
  2
0_35
 70
     0
 62
     7
  6
Continuous
370
    35
390
F
  0
LAYER
  5
76
330
2
100
AcDbSymbolTableRecord
100
AcDbLayerTableRecord
  2
0_5
 70
     0
 62
     7
  6
Continuous
370
    50
390
F
  0
LAYER
  5
77
330
2
100
AcDbSymbolTableRecord
100
AcDbLayerTableRecord
  2
0_25
 70
     0
 62
     7
  6
Continuous
370
    25
390
F
  0
LAYER
  5
78
330
2
100
AcDbSymbolTableRecord
100
AcDbLayerTableRecord
  2
0_18
 70
     0
 62
     7
  6
Continuous
370
    -3
390
F
  0
LAYER
  5
79
330
2
100
AcDbSymbolTableRecord
100
AcDbLayerTableRecord
  2
SLD-0
 70
     0
 62
   179
  6
Continuous
370
    -3
390
F
  0
LAYER
  5
7A
330
2
100
AcDbSymbolTableRecord
100
AcDbLayerTableRecord
  2
KOTY
 70
     0
 62
     7
  6
Continuous
370
    -3
390
F
  0
LAYER
  5
7B
330
2
100
AcDbSymbolTableRecord
100
AcDbLayerTableRecord
  2
SILNA
 70
     0
 62
   179
  6
Continuous
370
    -3
390
F
  0
LAYER
  5
7C
330
2
100
AcDbSymbolTableRecord
100
AcDbLayerTableRecord
  2
0_18_1
 70
     0
 62
   179
  6
Continuous
370
    -3
390
F
  0
LAYER
  5
7D
330
2
100
AcDbSymbolTableRecord
100
AcDbLayerTableRecord
  2
0_35_1
 70
     0
 62
   179
  6
Continuous
370
    35
390
F
  0
LAYER
  5
7E
330
2
100
AcDbSymbolTableRecord
100
AcDbLayerTableRecord
  2
0_5_1
 70
     0
 62
   179
  6
Continuous
370
    50
390
F
  0
ENDTAB
  0
TABLE
  2
STYLE
  5
3
330
0
100
AcDbSymbolTable
 70
     1
  0
STYLE
  5
11
330
3
100
AcDbSymbolTableRecord
100
AcDbTextStyleTableRecord
  2
Standard
 70
     0
 40
0.0
 41
1.0
 50
0.0
 71
     0
 42
2.0
  3
txt
  4

  0
ENDTAB
  0
TABLE
  2
VIEW
  5
6
330
0
100
AcDbSymbolTable
 70
     0
  0
ENDTAB
  0
TABLE
  2
UCS
  5
7
330
0
100
AcDbSymbolTable
 70
     0
  0
ENDTAB
  0
TABLE
  2
APPID
  5
9
330
0
100
AcDbSymbolTable
 70
     1
  0
APPID
  5
12
330
9
100
AcDbSymbolTableRecord
100
AcDbRegAppTableRecord
  2
ACAD
 70
     0
  0
ENDTAB
  0
TABLE
  2
DIMSTYLE
  5
A
330
0
100
AcDbSymbolTable
 70
     1
100
AcDbDimStyleTable
  0
DIMSTYLE
105
27
330
A
100
AcDbSymbolTableRecord
100
AcDbDimStyleTableRecord
  2
ISO-25
 70
     0
 41
2.5
 42
0.625
 43
3.75
 44
1.25
 73
     0
 74
     0
 77
     1
 78
     8
140
2.5
141
2.5
143
0.0393700787
147
0.625
171
     3
172
     1
178
     0
271
     2
272
     2
274
     3
278
    44
283
     0
284
     8
340
11
  0
ENDTAB
  0
TABLE
  2
BLOCK_RECORD
  5
1
330
0
100
AcDbSymbolTable
 70
     1
  0
BLOCK_RECORD
  5
1F
330
1
100
AcDbSymbolTableRecord
100
AcDbBlockTableRecord
  2
*Model_Space
340
22
  0
BLOCK_RECORD
  5
1B
330
1
100
AcDbSymbolTableRecord
100
AcDbBlockTableRecord
  2
*Paper_Space
340
1E
  0
BLOCK_RECORD
  5
23
330
1
100
AcDbSymbolTableRecord
100
AcDbBlockTableRecord
  2
*Paper_Space0
340
26
  0
ENDTAB
  0
ENDSEC
  0
SECTION
  2
BLOCKS
  0
BLOCK
  5
20
330
1F
100
AcDbEntity
  8
0
100
AcDbBlockBegin
  2
*Model_Space
 70
     0
 10
0.0
 20
0.0
 30
0.0
  3
*Model_Space
  1

  0
ENDBLK
  5
21
330
1F
100
AcDbEntity
  8
0
100
AcDbBlockEnd
  0
BLOCK
  5
1C
330
1B
100
AcDbEntity
 67
     1
  8
0
100
AcDbBlockBegin
  2
*Paper_Space
 70
     0
 10
0.0
 20
0.0
 30
0.0
  3
*Paper_Space
  1

  0
ENDBLK
  5
1D
330
1B
100
AcDbEntity
 67
     1
  8
0
100
AcDbBlockEnd
  0
BLOCK
  5
24
330
23
100
AcDbEntity
  8
0
100
AcDbBlockBegin
  2
*Paper_Space0
 70
     0
 10
0.0
 20
0.0
 30
0.0
  3
*Paper_Space0
  1

  0
ENDBLK
  5
25
330
23
100
AcDbEntity
  8
0
100
AcDbBlockEnd
  0
ENDSEC
  0
SECTION
  2
ENTITIES
  0
ARC
  5
7F
330
1F
100
AcDbEntity
  8
0
  6
Continuous
 62
     7
370
    25
100
AcDbCircle
 10
2888.7389610434
 20
4914.4061648392
 30
0.0
 40
124.8437500000003
100
AcDbArc
 50
184.5787221185
 51
355.4105290268
  0
ARC
  5
80
330
1F
100
AcDbEntity
  8
0
  6
Continuous
 62
     7
370
    25
100
AcDbCircle
 10
2888.7389610434
 20
4914.4061648392
 30
0.0
 40
124.8437499999999
100
AcDbArc
 50
4.5882297786
 51
175.4051539956
  0
ARC
  5
81
330
1F
100
AcDbEntity
  8
0
  6
Continuous
 62
     7
370
    25
100
AcDbCircle
 10
2888.7389610434
 20
4914.4061648392
 30
0.0
 40
117.5000000000003
100
AcDbArc
 50
4.8804078444
 51
175.1275907075
  0
ARC
  5
82
330
1F
100
AcDbEntity
  8
0
  6
Continuous
 62
     7
370
    25
100
AcDbCircle
 10
2888.7389610434
 20
4914.4061648392
 30
0.0
 40
117.5000000000001
100
AcDbArc
 50
184.8770419663
 51
355.1289737622
  0
LINE
  5
83
330
1F
100
AcDbEntity
  8
0
  6
Continuous
 62
     7
370
    25
100
AcDbLine
 10
3073.7389610434
 20
4904.4061648392
 30
0.0
 11
3073.7389610434
 21
4896.9061648392
 31
0.0
  0
LINE
  5
84
330
1F
100
AcDbEntity
  8
0
  6
Continuous
 62
     7
370
    25
100
AcDbLine
 10
3123.7389610434
 20
4896.9061648392
 30
0.0
 11
3123.7389610434
 21
4904.4061648392
 31
0.0
  0
ARC
  5
85
330
1F
100
AcDbEntity
  8
0
  6
Continuous
 62
     7
370
    25
100
AcDbCircle
 10
3113.7389610434
 20
4896.9061648392
 30
0.0
 40
10.0
100
AcDbArc
 50
270.0
 51
0.0
  0
ARC
  5
86
330
1F
100
AcDbEntity
  8
0
  6
Continuous
 62
     7
370
    25
100
AcDbCircle
 10
3083.7389610434
 20
4896.9061648392
 30
0.0
 40
10.0
100
AcDbArc
 50
180.0
 51
270.0
  0
ARC
  5
87
330
1F
100
AcDbEntity
  8
0
  6
Continuous
 62
     7
370
    25
100
AcDbCircle
 10
2693.7389610434
 20
4896.9061648392
 30
0.0
 40
10.0
100
AcDbArc
 50
270.0
 51
0.0
  0
ARC
  5
88
330
1F
100
AcDbEntity
  8
0
  6
Continuous
 62
     7
370
    25
100
AcDbCircle
 10
2663.7389610434
 20
4896.9061648392
 30
0.0
 40
10.0
100
AcDbArc
 50
180.0
 51
270.0
  0
LINE
  5
89
330
1F
100
AcDbEntity
  8
0
  6
Continuous
 62
     7
370
    25
100
AcDbLine
 10
2653.7389610434
 20
4904.4061648392
 30
0.0
 11
2653.7389610434
 21
4896.9061648392
 31
0.0
  0
LINE
  5
8A
330
1F
100
AcDbEntity
  8
0
  6
Continuous
 62
     7
370
    25
100
AcDbLine
 10
2703.7389610434
 20
4896.9061648392
 30
0.0
 11
2703.7389610434
 21
4904.4061648392
 31
0.0
  0
LINE
  5
8B
330
1F
100
AcDbEntity
  8
0
  6
Continuous
 62
     7
370
    25
100
AcDbLine
 10
3111.2389610434
 20
4924.4061648392
 30
0.0
 11
3111.2389610434
 21
4979.4061648392
 31
0.0
  0
LINE
  5
8C
330
1F
100
AcDbEntity
  8
0
  6
Continuous
 62
     7
370
    25
100
AcDbLine
 10
3086.2389610434
 20
4979.4061648392
 30
0.0
 11
3086.2389610434
 21
4924.4061648392
 31
0.0
  0
LINE
  5
8D
330
1F
100
AcDbEntity
  8
0
  6
Continuous
 62
     7
370
    25
100
AcDbLine
 10
2691.2389610434
 20
4924.4061648392
 30
0.0
 11
2691.2389610434
 21
4979.4061648392
 31
0.0
  0
LINE
  5
8E
330
1F
100
AcDbEntity
  8
0
  6
Continuous
 62
     7
370
    25
100
AcDbLine
 10
2666.2389610434
 20
4979.4061648392
 30
0.0
 11
2666.2389610434
 21
4924.4061648392
 31
0.0
  0
LINE
  5
8F
330
1F
100
AcDbEntity
  8
0
  6
Continuous
 62
     7
370
    25
100
AcDbLine
 10
2908.7389610433
 20
5119.4061648392
 30
0.0
 11
2908.7389610433
 21
6265.0081162549
 31
0.0
  0
LINE
  5
90
330
1F
100
AcDbEntity
  8
0
  6
Continuous
 62
     7
370
    25
100
AcDbLine
 10
2908.7389610433
 20
6365.0081162549
 30
0.0
 11
2908.7389610433
 21
6559.4061648392
 31
0.0
  0
LINE
  5
91
330
1F
100
AcDbEntity
  8
0
  6
Continuous
 62
     7
370
    25
100
AcDbLine
 10
2868.7389610433
 20
6559.4061648392
 30
0.0
 11
2868.7389610433
 21
6365.0081162549
 31
0.0
  0
LINE
  5
92
330
1F
100
AcDbEntity
  8
0
  6
Continuous
 62
     7
370
    25
100
AcDbLine
 10
2868.7389610433
 20
6265.0081162549
 30
0.0
 11
2868.7389610433
 21
5119.4061648392
 31
0.0
  0
LINE
  5
93
330
1F
100
AcDbEntity
  8
0
  6
Continuous
 62
     7
370
    25
100
AcDbLine
 10
2907.4889610433
 20
5084.4061648392
 30
0.0
 11
2907.4889610433
 21
5119.4061648392
 31
0.0
  0
LINE
  5
94
330
1F
100
AcDbEntity
  8
0
  6
Continuous
 62
     7
370
    25
100
AcDbLine
 10
2869.9889610433
 20
5119.4061648392
 30
0.0
 11
2869.9889610433
 21
5084.4061648392
 31
0.0
  0
LINE
  5
95
330
1F
100
AcDbEntity
  8
0
  6
Continuous
 62
     7
370
    25
100
AcDbLine
 10
2209.2904195211
 20
6972.2046829059
 30
0.0
 11
2252.2505793303
 21
6919.7022257967
 31
0.0
  0
LINE
  5
96
330
1F
100
AcDbEntity
  8
0
  6
Continuous
 62
     7
370
    25
100
AcDbLine
 10
2300.2273427564
 20
7046.6138623967
 30
0.0
 11
2233.2788012342
 21
7035.6605012059
 31
0.0
  0
LINE
  5
97
330
1F
100
AcDbEntity
  8
0
  6
Continuous
 62
     7
370
    25
100
AcDbLine
 10
2319.1991208525
 20
6930.6555869875
 30
0.0
 11
2343.1875025656
 21
6994.1114052875
 31
0.0
  0
LINE
  5
98
330
1F
100
AcDbEntity
  8
0
  6
Continuous
 62
     7
370
    25
100
AcDbLine
 10
2252.2505793303
 20
6919.7022257967
 30
0.0
 11
2319.1991208525
 21
6930.6555869875
 31
0.0
  0
CIRCLE
  5
99
330
1F
100
AcDbEntity
  8
0
  6
Continuous
 62
     7
370
    25
100
AcDbCircle
 10
2276.2389610433
 20
6983.1580440967
 30
0.0
 40
34.99999999999952
  0
LINE
  5
9A
330
1F
100
AcDbEntity
  8
0
  6
Continuous
 62
     7
370
    25
100
AcDbLine
 10
2233.2788012342
 20
7035.6605012059
 30
0.0
 11
2209.2904195211
 21
6972.2046829059
 31
0.0
  0
LINE
  5
9B
330
1F
100
AcDbEntity
  8
0
  6
Continuous
 62
     7
370
    25
100
AcDbLine
 10
2343.1875025656
 20
6994.1114052875
 30
0.0
 11
2300.2273427564
 21
7046.6138623967
 31
0.0
  0
CIRCLE
  5
9C
330
1F
100
AcDbEntity
  8
0
  6
Continuous
 62
     7
370
    25
100
AcDbCircle
 10
2276.2389610433
 20
6983.1580440967
 30
0.0
 40
95.00000000000063
  0
LINE
  5
9D
330
1F
100
AcDbEntity
  8
0
  6
Continuous
 62
     7
370
    25
100
AcDbLine
 10
3559.9889610433
 20
6949.2387157818
 30
0.0
 11
3559.9889610433
 21
7017.0773724116
 31
0.0
  0
LINE
  5
9E
330
1F
100
AcDbEntity
  8
0
  6
Continuous
 62
     7
370
    25
100
AcDbLine
 10
3501.2389610433
 20
6915.3193874669
 30
0.0
 11
3559.9889610433
 21
6949.2387157818
 31
0.0
  0
LINE
  5
9F
330
1F
100
AcDbEntity
  8
0
  6
Continuous
 62
     7
370
    25
100
AcDbLine
 10
3442.4889610433
 20
6949.2387157818
 30
0.0
 11
3501.2389610433
 21
6915.3193874669
 31
0.0
  0
LINE
  5
A0
330
1F
100
AcDbEntity
  8
0
  6
Continuous
 62
     7
370
    25
100
AcDbLine
 10
3442.4889610433
 20
7017.0773724116
 30
0.0
 11
3442.4889610433
 21
6949.2387157818
 31
0.0
  0
LINE
  5
A1
330
1F
100
AcDbEntity
  8
0
  6
Continuous
 62
     7
370
    25
100
AcDbLine
 10
3501.2389610433
 20
7050.9967007265
 30
0.0
 11
3442.4889610433
 21
7017.0773724116
 31
0.0
  0
LINE
  5
A2
330
1F
100
AcDbEntity
  8
0
  6
Continuous
 62
     7
370
    25
100
AcDbLine
 10
3559.9889610433
 20
7017.0773724116
 30
0.0
 11
3501.2389610433
 21
7050.9967007265
 31
0.0
  0
CIRCLE
  5
A3
330
1F
100
AcDbEntity
  8
0
  6
Continuous
 62
     7
370
    25
100
AcDbCircle
 10
3501.2389610433
 20
6983.1580440967
 30
0.0
 40
35.0
  0
CIRCLE
  5
A4
330
1F
100
AcDbEntity
  8
0
  6
Continuous
 62
     7
370
    25
100
AcDbCircle
 10
3501.2389610433
 20
6983.1580440967
 30
0.0
 40
95.0
  0
LINE
  5
A5
330
1F
100
AcDbEntity
  8
0
  6
Continuous
 62
     7
370
    25
100
AcDbLine
 10
2513.7389610433
 20
9175.0081162548
 30
0.0
 11
2413.7389610433
 21
9175.0081162548
 31
0.0
  0
LINE
  5
A6
330
1F
100
AcDbEntity
  8
0
  6
Continuous
 62
     7
370
    25
100
AcDbLine
 10
2513.7389610433
 20
9055.0081162548
 30
0.0
 11
2513.7389610433
 21
9065.0081162549
 31
0.0
  0
LINE
  5
A7
330
1F
100
AcDbEntity
  8
0
  6
Continuous
 62
     7
370
    25
100
AcDbLine
 10
2513.7389610433
 20
9165.0081162549
 30
0.0
 11
2513.7389610433
 21
9175.0081162548
 31
0.0
  0
LINE
  5
A8
330
1F
100
AcDbEntity
  8
0
  6
Continuous
 62
     7
370
    25
100
AcDbLine
 10
2513.7389610433
 20
9055.0081162548
 30
0.0
 11
2413.7389610433
 21
9055.0081162548
 31
0.0
  0
LINE
  5
A9
330
1F
100
AcDbEntity
  8
0
  6
Continuous
 62
     7
370
    25
100
AcDbLine
 10
2413.7389610433
 20
9055.0081162548
 30
0.0
 11
2413.7389610433
 21
9065.0081162549
 31
0.0
  0
LINE
  5
AA
330
1F
100
AcDbEntity
  8
0
  6
Continuous
 62
     7
370
    25
100
AcDbLine
 10
2413.7389610433
 20
9165.0081162549
 30
0.0
 11
2413.7389610433
 21
9175.0081162548
 31
0.0
  0
LINE
  5
AB
330
1F
100
AcDbEntity
  8
0
  6
Continuous
 62
     7
370
    25
100
AcDbLine
 10
2513.7389610433
 20
9040.0081162548
 30
0.0
 11
2513.7389610433
 21
9055.0081162548
 31
0.0
  0
LINE
  5
AC
330
1F
100
AcDbEntity
  8
0
  6
Continuous
 62
     7
370
    25
100
AcDbLine
 10
2513.7389610433
 20
9040.0081162548
 30
0.0
 11
2413.7389610433
 21
9040.0081162548
 31
0.0
  0
LINE
  5
AD
330
1F
100
AcDbEntity
  8
0
  6
Continuous
 62
     7
370
    25
100
AcDbLine
 10
2413.7389610433
 20
9040.0081162548
 30
0.0
 11
2413.7389610433
 21
9055.0081162548
 31
0.0
  0
LINE
  5
AE
330
1F
100
AcDbEntity
  8
0
  6
Continuous
 62
     7
370
    25
100
AcDbLine
 10
2513.7389610433
 20
8047.5081162548
 30
0.0
 11
2413.7389610433
 21
8047.5081162548
 31
0.0
  0
LINE
  5
AF
330
1F
100
AcDbEntity
  8
0
  6
Continuous
 62
     7
370
    25
100
AcDbLine
 10
2513.7389610433
 20
7927.5081162548
 30
0.0
 11
2513.7389610433
 21
7937.5081162549
 31
0.0
  0
LINE
  5
B0
330
1F
100
AcDbEntity
  8
0
  6
Continuous
 62
     7
370
    25
100
AcDbLine
 10
2513.7389610433
 20
8037.5081162549
 30
0.0
 11
2513.7389610433
 21
8047.5081162548
 31
0.0
  0
LINE
  5
B1
330
1F
100
AcDbEntity
  8
0
  6
Continuous
 62
     7
370
    25
100
AcDbLine
 10
2513.7389610433
 20
7927.5081162548
 30
0.0
 11
2413.7389610433
 21
7927.5081162548
 31
0.0
  0
LINE
  5
B2
330
1F
100
AcDbEntity
  8
0
  6
Continuous
 62
     7
370
    25
100
AcDbLine
 10
2413.7389610433
 20
7927.5081162548
 30
0.0
 11
2413.7389610433
 21
7937.5081162549
 31
0.0
  0
LINE
  5
B3
330
1F
100
AcDbEntity
  8
0
  6
Continuous
 62
     7
370
    25
100
AcDbLine
 10
2413.7389610433
 20
8037.5081162549
 30
0.0
 11
2413.7389610433
 21
8047.5081162548
 31
0.0
  0
LINE
  5
B4
330
1F
100
AcDbEntity
  8
0
  6
Continuous
 62
     7
370
    25
100
AcDbLine
 10
2513.7389610433
 20
8062.5081162548
 30
0.0
 11
2413.7389610433
 21
8062.5081162548
 31
0.0
  0
LINE
  5
B5
330
1F
100
AcDbEntity
  8
0
  6
Continuous
 62
     7
370
    25
100
AcDbLine
 10
2513.7389610433
 20
8047.5081162548
 30
0.0
 11
2513.7389610433
 21
8062.5081162548
 31
0.0
  0
LINE
  5
B6
330
1F
100
AcDbEntity
  8
0
  6
Continuous
 62
     7
370
    25
100
AcDbLine
 10
2413.7389610433
 20
8047.5081162548
 30
0.0
 11
2413.7389610433
 21
8062.5081162548
 31
0.0
  0
LINE
  5
B7
330
1F
100
AcDbEntity
  8
0
  6
Continuous
 62
     7
370
    25
100
AcDbLine
 10
2513.7389610433
 20
9035.0081162548
 30
0.0
 11
2513.7389610433
 21
9040.0081162548
 31
0.0
  0
LINE
  5
B8
330
1F
100
AcDbEntity
  8
0
  6
Continuous
 62
     7
370
    25
100
AcDbLine
 10
2513.7389610433
 20
9035.0081162548
 30
0.0
 11
2413.7389610433
 21
9035.0081162548
 31
0.0
  0
LINE
  5
B9
330
1F
100
AcDbEntity
  8
0
  6
Continuous
 62
     7
370
    25
100
AcDbLine
 10
2413.7389610433
 20
9035.0081162548
 30
0.0
 11
2413.7389610433
 21
9040.0081162548
 31
0.0
  0
LINE
  5
BA
330
1F
100
AcDbEntity
  8
0
  6
Continuous
 62
     7
370
    25
100
AcDbLine
 10
2513.7389610433
 20
8067.5081162548
 30
0.0
 11
2413.7389610433
 21
8067.5081162548
 31
0.0
  0
LINE
  5
BB
330
1F
100
AcDbEntity
  8
0
  6
Continuous
 62
     7
370
    25
100
AcDbLine
 10
2513.7389610433
 20
8062.5081162548
 30
0.0
 11
2513.7389610433
 21
8067.5081162548
 31
0.0
  0
LINE
  5
BC
330
1F
100
AcDbEntity
  8
0
  6
Continuous
 62
     7
370
    25
100
AcDbLine
 10
2413.7389610433
 20
8062.5081162548
 30
0.0
 11
2413.7389610433
 21
8067.5081162548
 31
0.0
  0
LINE
  5
BD
330
1F
100
AcDbEntity
  8
0
  6
Continuous
 62
     7
370
    25
100
AcDbLine
 10
2513.7389610433
 20
8067.5081162548
 30
0.0
 11
2513.7389610433
 21
9035.0081162548
 31
0.0
  0
LINE
  5
BE
330
1F
100
AcDbEntity
  8
0
  6
Continuous
 62
     7
370
    25
100
AcDbLine
 10
2476.2389610433
 20
8351.2581162548
 30
0.0
 11
2476.2389610433
 21
8101.2581162548
 31
0.0
  0
ARC
  5
BF
330
1F
100
AcDbEntity
  8
0
  6
Continuous
 62
     7
370
    25
100
AcDbCircle
 10
2463.7389610433
 20
8351.2581162548
 30
0.0
 40
12.5
100
AcDbArc
 50
0.0
 51
180.0
  0
LINE
  5
C0
330
1F
100
AcDbEntity
  8
0
  6
Continuous
 62
     7
370
    25
100
AcDbLine
 10
2451.2389610433
 20
8101.2581162548
 30
0.0
 11
2451.2389610433
 21
8351.2581162548
 31
0.0
  0
ARC
  5
C1
330
1F
100
AcDbEntity
  8
0
  6
Continuous
 62
     7
370
    25
100
AcDbCircle
 10
2463.7389610433
 20
8101.2581162548
 30
0.0
 40
12.5
100
AcDbArc
 50
180.0
 51
0.0
  0
LINE
  5
C2
330
1F
100
AcDbEntity
  8
0
  6
Continuous
 62
     7
370
    25
100
AcDbLine
 10
2476.2389610433
 20
8676.2581162548
 30
0.0
 11
2476.2389610433
 21
8426.2581162548
 31
0.0
  0
ARC
  5
C3
330
1F
100
AcDbEntity
  8
0
  6
Continuous
 62
     7
370
    25
100
AcDbCircle
 10
2463.7389610433
 20
8676.2581162548
 30
0.0
 40
12.5
100
AcDbArc
 50
0.0
 51
180.0
  0
LINE
  5
C4
330
1F
100
AcDbEntity
  8
0
  6
Continuous
 62
     7
370
    25
100
AcDbLine
 10
2451.2389610433
 20
8426.2581162548
 30
0.0
 11
2451.2389610433
 21
8676.2581162548
 31
0.0
  0
ARC
  5
C5
330
1F
100
AcDbEntity
  8
0
  6
Continuous
 62
     7
370
    25
100
AcDbCircle
 10
2463.7389610433
 20
8426.2581162548
 30
0.0
 40
12.5
100
AcDbArc
 50
180.0
 51
0.0
  0
LINE
  5
C6
330
1F
100
AcDbEntity
  8
0
  6
Continuous
 62
     7
370
    25
100
AcDbLine
 10
2476.2389610433
 20
9001.2581162548
 30
0.0
 11
2476.2389610433
 21
8751.2581162548
 31
0.0
  0
ARC
  5
C7
330
1F
100
AcDbEntity
  8
0
  6
Continuous
 62
     7
370
    25
100
AcDbCircle
 10
2463.7389610433
 20
9001.2581162548
 30
0.0
 40
12.5
100
AcDbArc
 50
0.0
 51
180.0
  0
LINE
  5
C8
330
1F
100
AcDbEntity
  8
0
  6
Continuous
 62
     7
370
    25
100
AcDbLine
 10
2451.2389610433
 20
8751.2581162548
 30
0.0
 11
2451.2389610433
 21
9001.2581162548
 31
0.0
  0
ARC
  5
C9
330
1F
100
AcDbEntity
  8
0
  6
Continuous
 62
     7
370
    25
100
AcDbCircle
 10
2463.7389610433
 20
8751.2581162548
 30
0.0
 40
12.5
100
AcDbArc
 50
180.0
 51
0.0
  0
LINE
  5
CA
330
1F
100
AcDbEntity
  8
0
  6
Continuous
 62
     7
370
    25
100
AcDbLine
 10
2413.7389610433
 20
8067.5081162548
 30
0.0
 11
2413.7389610433
 21
9035.0081162548
 31
0.0
  0
LINE
  5
CB
330
1F
100
AcDbEntity
  8
0
  6
Continuous
 62
     7
370
    25
100
AcDbLine
 10
3363.7389610433
 20
9175.0081162548
 30
0.0
 11
3263.7389610433
 21
9175.0081162548
 31
0.0
  0
LINE
  5
CC
330
1F
100
AcDbEntity
  8
0
  6
Continuous
 62
     7
370
    25
100
AcDbLine
 10
3363.7389610433
 20
9055.0081162548
 30
0.0
 11
3363.7389610433
 21
9065.0081162549
 31
0.0
  0
LINE
  5
CD
330
1F
100
AcDbEntity
  8
0
  6
Continuous
 62
     7
370
    25
100
AcDbLine
 10
3363.7389610433
 20
9165.0081162549
 30
0.0
 11
3363.7389610433
 21
9175.0081162548
 31
0.0
  0
LINE
  5
CE
330
1F
100
AcDbEntity
  8
0
  6
Continuous
 62
     7
370
    25
100
AcDbLine
 10
3363.7389610433
 20
9055.0081162548
 30
0.0
 11
3263.7389610433
 21
9055.0081162548
 31
0.0
  0
LINE
  5
CF
330
1F
100
AcDbEntity
  8
0
  6
Continuous
 62
     7
370
    25
100
AcDbLine
 10
3263.7389610433
 20
9055.0081162548
 30
0.0
 11
3263.7389610433
 21
9065.0081162549
 31
0.0
  0
LINE
  5
D0
330
1F
100
AcDbEntity
  8
0
  6
Continuous
 62
     7
370
    25
100
AcDbLine
 10
3263.7389610433
 20
9165.0081162549
 30
0.0
 11
3263.7389610433
 21
9175.0081162548
 31
0.0
  0
LINE
  5
D1
330
1F
100
AcDbEntity
  8
0
  6
Continuous
 62
     7
370
    25
100
AcDbLine
 10
3363.7389610433
 20
9040.0081162548
 30
0.0
 11
3363.7389610433
 21
9055.0081162548
 31
0.0
  0
LINE
  5
D2
330
1F
100
AcDbEntity
  8
0
  6
Continuous
 62
     7
370
    25
100
AcDbLine
 10
3363.7389610433
 20
9040.0081162548
 30
0.0
 11
3263.7389610433
 21
9040.0081162548
 31
0.0
  0
LINE
  5
D3
330
1F
100
AcDbEntity
  8
0
  6
Continuous
 62
     7
370
    25
100
AcDbLine
 10
3263.7389610433
 20
9040.0081162548
 30
0.0
 11
3263.7389610433
 21
9055.0081162548
 31
0.0
  0
LINE
  5
D4
330
1F
100
AcDbEntity
  8
0
  6
Continuous
 62
     7
370
    25
100
AcDbLine
 10
3363.7389610433
 20
8047.5081162548
 30
0.0
 11
3263.7389610433
 21
8047.5081162548
 31
0.0
  0
LINE
  5
D5
330
1F
100
AcDbEntity
  8
0
  6
Continuous
 62
     7
370
    25
100
AcDbLine
 10
3363.7389610433
 20
7927.5081162548
 30
0.0
 11
3363.7389610433
 21
7937.5081162549
 31
0.0
  0
LINE
  5
D6
330
1F
100
AcDbEntity
  8
0
  6
Continuous
 62
     7
370
    25
100
AcDbLine
 10
3363.7389610433
 20
8037.5081162549
 30
0.0
 11
3363.7389610433
 21
8047.5081162548
 31
0.0
  0
LINE
  5
D7
330
1F
100
AcDbEntity
  8
0
  6
Continuous
 62
     7
370
    25
100
AcDbLine
 10
3363.7389610433
 20
7927.5081162548
 30
0.0
 11
3263.7389610433
 21
7927.5081162548
 31
0.0
  0
LINE
  5
D8
330
1F
100
AcDbEntity
  8
0
  6
Continuous
 62
     7
370
    25
100
AcDbLine
 10
3263.7389610433
 20
7927.5081162548
 30
0.0
 11
3263.7389610433
 21
7937.5081162549
 31
0.0
  0
LINE
  5
D9
330
1F
100
AcDbEntity
  8
0
  6
Continuous
 62
     7
370
    25
100
AcDbLine
 10
3263.7389610433
 20
8037.5081162549
 30
0.0
 11
3263.7389610433
 21
8047.5081162548
 31
0.0
  0
LINE
  5
DA
330
1F
100
AcDbEntity
  8
0
  6
Continuous
 62
     7
370
    25
100
AcDbLine
 10
3363.7389610433
 20
8062.5081162548
 30
0.0
 11
3263.7389610433
 21
8062.5081162548
 31
0.0
  0
LINE
  5
DB
330
1F
100
AcDbEntity
  8
0
  6
Continuous
 62
     7
370
    25
100
AcDbLine
 10
3363.7389610433
 20
8047.5081162548
 30
0.0
 11
3363.7389610433
 21
8062.5081162548
 31
0.0
  0
LINE
  5
DC
330
1F
100
AcDbEntity
  8
0
  6
Continuous
 62
     7
370
    25
100
AcDbLine
 10
3263.7389610433
 20
8047.5081162548
 30
0.0
 11
3263.7389610433
 21
8062.5081162548
 31
0.0
  0
LINE
  5
DD
330
1F
100
AcDbEntity
  8
0
  6
Continuous
 62
     7
370
    25
100
AcDbLine
 10
3363.7389610433
 20
9035.0081162548
 30
0.0
 11
3363.7389610433
 21
9040.0081162548
 31
0.0
  0
LINE
  5
DE
330
1F
100
AcDbEntity
  8
0
  6
Continuous
 62
     7
370
    25
100
AcDbLine
 10
3363.7389610433
 20
9035.0081162548
 30
0.0
 11
3263.7389610433
 21
9035.0081162548
 31
0.0
  0
LINE
  5
DF
330
1F
100
AcDbEntity
  8
0
  6
Continuous
 62
     7
370
    25
100
AcDbLine
 10
3263.7389610433
 20
9035.0081162548
 30
0.0
 11
3263.7389610433
 21
9040.0081162548
 31
0.0
  0
LINE
  5
E0
330
1F
100
AcDbEntity
  8
0
  6
Continuous
 62
     7
370
    25
100
AcDbLine
 10
3363.7389610433
 20
8067.5081162548
 30
0.0
 11
3263.7389610433
 21
8067.5081162548
 31
0.0
  0
LINE
  5
E1
330
1F
100
AcDbEntity
  8
0
  6
Continuous
 62
     7
370
    25
100
AcDbLine
 10
3363.7389610433
 20
8062.5081162548
 30
0.0
 11
3363.7389610433
 21
8067.5081162548
 31
0.0
  0
LINE
  5
E2
330
1F
100
AcDbEntity
  8
0
  6
Continuous
 62
     7
370
    25
100
AcDbLine
 10
3263.7389610433
 20
8062.5081162548
 30
0.0
 11
3263.7389610433
 21
8067.5081162548
 31
0.0
  0
LINE
  5
E3
330
1F
100
AcDbEntity
  8
0
  6
Continuous
 62
     7
370
    25
100
AcDbLine
 10
3363.7389610433
 20
8067.5081162548
 30
0.0
 11
3363.7389610433
 21
9035.0081162548
 31
0.0
  0
LINE
  5
E4
330
1F
100
AcDbEntity
  8
0
  6
Continuous
 62
     7
370
    25
100
AcDbLine
 10
3263.7389610433
 20
8067.5081162548
 30
0.0
 11
3263.7389610433
 21
9035.0081162548
 31
0.0
  0
LINE
  5
E5
330
1F
100
AcDbEntity
  8
0
  6
Continuous
 62
     7
370
    25
100
AcDbLine
 10
3326.2389610433
 20
8351.2581162548
 30
0.0
 11
3326.2389610433
 21
8101.2581162548
 31
0.0
  0
ARC
  5
E6
330
1F
100
AcDbEntity
  8
0
  6
Continuous
 62
     7
370
    25
100
AcDbCircle
 10
3313.7389610433
 20
8351.2581162548
 30
0.0
 40
12.5
100
AcDbArc
 50
0.0
 51
180.0
  0
LINE
  5
E7
330
1F
100
AcDbEntity
  8
0
  6
Continuous
 62
     7
370
    25
100
AcDbLine
 10
3301.2389610433
 20
8101.2581162548
 30
0.0
 11
3301.2389610433
 21
8351.2581162548
 31
0.0
  0
ARC
  5
E8
330
1F
100
AcDbEntity
  8
0
  6
Continuous
 62
     7
370
    25
100
AcDbCircle
 10
3313.7389610433
 20
8101.2581162548
 30
0.0
 40
12.5
100
AcDbArc
 50
180.0
 51
0.0
  0
LINE
  5
E9
330
1F
100
AcDbEntity
  8
0
  6
Continuous
 62
     7
370
    25
100
AcDbLine
 10
3326.2389610433
 20
8676.2581162548
 30
0.0
 11
3326.2389610433
 21
8426.2581162548
 31
0.0
  0
ARC
  5
EA
330
1F
100
AcDbEntity
  8
0
  6
Continuous
 62
     7
370
    25
100
AcDbCircle
 10
3313.7389610433
 20
8676.2581162548
 30
0.0
 40
12.50000000000045
100
AcDbArc
 50
0.0
 51
180.0
  0
LINE
  5
EB
330
1F
100
AcDbEntity
  8
0
  6
Continuous
 62
     7
370
    25
100
AcDbLine
 10
3301.2389610433
 20
8426.2581162548
 30
0.0
 11
3301.2389610433
 21
8676.2581162548
 31
0.0
  0
ARC
  5
EC
330
1F
100
AcDbEntity
  8
0
  6
Continuous
 62
     7
370
    25
100
AcDbCircle
 10
3313.7389610433
 20
8426.2581162548
 30
0.0
 40
12.50000000000045
100
AcDbArc
 50
180.0
 51
0.0
  0
LINE
  5
ED
330
1F
100
AcDbEntity
  8
0
  6
Continuous
 62
     7
370
    25
100
AcDbLine
 10
3326.2389610433
 20
9001.2581162548
 30
0.0
 11
3326.2389610433
 21
8751.2581162548
 31
0.0
  0
ARC
  5
EE
330
1F
100
AcDbEntity
  8
0
  6
Continuous
 62
     7
370
    25
100
AcDbCircle
 10
3313.7389610433
 20
9001.2581162548
 30
0.0
 40
12.5
100
AcDbArc
 50
0.0
 51
180.0
  0
LINE
  5
EF
330
1F
100
AcDbEntity
  8
0
  6
Continuous
 62
     7
370
    25
100
AcDbLine
 10
3301.2389610433
 20
8751.2581162548
 30
0.0
 11
3301.2389610433
 21
9001.2581162548
 31
0.0
  0
ARC
  5
F0
330
1F
100
AcDbEntity
  8
0
  6
Continuous
 62
     7
370
    25
100
AcDbCircle
 10
3313.7389610433
 20
8751.2581162548
 30
0.0
 40
12.5
100
AcDbArc
 50
180.0
 51
0.0
  0
LINE
  5
F1
330
1F
100
AcDbEntity
  8
0
  6
Continuous
 62
     7
370
    25
100
AcDbLine
 10
1638.7389610433
 20
7925.0081162549
 30
0.0
 11
1653.7389610433
 21
7925.0081162549
 31
0.0
  0
LINE
  5
F2
330
1F
100
AcDbEntity
  8
0
  6
Continuous
 62
     7
370
    25
100
AcDbLine
 10
1638.7389610433
 20
7925.0081162549
 30
0.0
 11
1638.7389610433
 21
9175.0081162549
 31
0.0
  0
LINE
  5
F3
330
1F
100
AcDbEntity
  8
0
  6
Continuous
 62
     7
370
    25
100
AcDbLine
 10
1638.7389610433
 20
9175.0081162549
 30
0.0
 11
1653.7389610433
 21
9175.0081162549
 31
0.0
  0
LINE
  5
F4
330
1F
100
AcDbEntity
  8
0
  6
Continuous
 62
     7
370
    25
100
AcDbLine
 10
1653.7389610433
 20
7925.0081162549
 30
0.0
 11
1653.7389610433
 21
9175.0081162549
 31
0.0
  0
LINE
  5
F5
330
1F
100
AcDbEntity
  8
0
  6
Continuous
 62
     7
370
    25
100
AcDbLine
 10
1901.2389610433
 20
8027.5081162549
 30
0.0
 11
1653.7389610433
 21
8027.5081162549
 31
0.0
  0
LINE
  5
F6
330
1F
100
AcDbEntity
  8
0
  6
Continuous
 62
     7
370
    25
100
AcDbLine
 10
1901.2389610433
 20
7950.0081162549
 30
0.0
 11
1653.7389610433
 21
7950.0081162549
 31
0.0
  0
LINE
  5
F7
330
1F
100
AcDbEntity
  8
0
  6
Continuous
 62
     7
370
    25
100
AcDbLine
 10
1901.2389610432
 20
9072.5081162549
 30
0.0
 11
1653.7389610433
 21
9072.5081162549
 31
0.0
  0
LINE
  5
F8
330
1F
100
AcDbEntity
  8
0
  6
Continuous
 62
     7
370
    25
100
AcDbLine
 10
1901.2389610432
 20
9150.0081162549
 30
0.0
 11
1653.7389610433
 21
9150.0081162549
 31
0.0
  0
LINE
  5
F9
330
1F
100
AcDbEntity
  8
0
  6
Continuous
 62
     7
370
    25
100
AcDbLine
 10
4138.7389610433
 20
9175.0081162549
 30
0.0
 11
4123.7389610433
 21
9175.0081162549
 31
0.0
  0
LINE
  5
FA
330
1F
100
AcDbEntity
  8
0
  6
Continuous
 62
     7
370
    25
100
AcDbLine
 10
4138.7389610433
 20
9175.0081162549
 30
0.0
 11
4138.7389610433
 21
7925.0081162549
 31
0.0
  0
LINE
  5
FB
330
1F
100
AcDbEntity
  8
0
  6
Continuous
 62
     7
370
    25
100
AcDbLine
 10
4138.7389610433
 20
7925.0081162549
 30
0.0
 11
4123.7389610433
 21
7925.0081162549
 31
0.0
  0
LINE
  5
FC
330
1F
100
AcDbEntity
  8
0
  6
Continuous
 62
     7
370
    25
100
AcDbLine
 10
4123.7389610433
 20
9175.0081162549
 30
0.0
 11
4123.7389610433
 21
7925.0081162549
 31
0.0
  0
LINE
  5
FD
330
1F
100
AcDbEntity
  8
0
  6
Continuous
 62
     7
370
    25
100
AcDbLine
 10
3876.2389610433
 20
9072.5081162549
 30
0.0
 11
4123.7389610433
 21
9072.5081162549
 31
0.0
  0
LINE
  5
FE
330
1F
100
AcDbEntity
  8
0
  6
Continuous
 62
     7
370
    25
100
AcDbLine
 10
3876.2389610433
 20
9150.0081162549
 30
0.0
 11
4123.7389610433
 21
9150.0081162549
 31
0.0
  0
LINE
  5
FF
330
1F
100
AcDbEntity
  8
0
  6
Continuous
 62
     7
370
    25
100
AcDbLine
 10
3876.2389610433
 20
8027.5081162549
 30
0.0
 11
4123.7389610433
 21
8027.5081162549
 31
0.0
  0
LINE
  5
100
330
1F
100
AcDbEntity
  8
0
  6
Continuous
 62
     7
370
    25
100
AcDbLine
 10
3876.2389610433
 20
7950.0081162549
 30
0.0
 11
4123.7389610433
 21
7950.0081162549
 31
0.0
  0
ARC
  5
101
330
1F
100
AcDbEntity
  8
0
  6
Continuous
 62
     7
370
    25
100
AcDbCircle
 10
2888.7389610434
 20
4914.4061648392
 30
0.0
 40
142.5000000000014
100
AcDbArc
 50
184.0240638894
 51
355.9759361106
  0
SPLINE
  5
102
330
1F
100
AcDbEntity
  8
0
  6
Continuous
 62
     7
370
    25
100
AcDbSpline
210
0.0
220
0.0
230
1.0
 70
    24
 71
     3
 72
    13
 73
     9
 74
     0
 42
0.00000001
 43
0.00000001
 40
0.0
 40
0.0
 40
0.0
 40
0.0
 40
0.1436294925444544
 40
0.3589919333848269
 40
0.5742476886567379
 40
0.7890362718423102
 40
0.923191220413293
 40
1.0
 40
1.0
 40
1.0
 40
1.0
 10
2746.59027128508
 20
4904.406164839244
 30
0.0
 10
2747.917041723688
 20
4904.406164839244
 30
0.0
 10
2751.233212215389
 20
4904.406164839244
 30
0.0
 10
2756.219619273816
 20
4904.406164839244
 30
0.0
 10
2760.755032991407
 20
4904.406164839244
 30
0.0
 10
2763.241091906998
 20
4904.406164839244
 30
0.0
 10
2764.268828958171
 20
4904.406164839244
 30
0.0
 10
2764.184759560007
 20
4904.406164839244
 30
0.0
 10
2764.154151133005
 20
4904.406164839244
 30
0.0
  0
SPLINE
  5
103
330
1F
100
AcDbEntity
  8
0
  6
Continuous
 62
     7
370
    25
100
AcDbSpline
210
0.0
220
0.0
230
1.0
 70
    24
 71
     3
 72
    13
 73
     9
 74
     0
 42
0.00000001
 43
0.00000001
 40
0.0
 40
0.0
 40
0.0
 40
0.0
 40
0.1313083640451995
 40
0.3448867624506869
 40
0.5584479789291581
 40
0.7724495343311987
 40
0.9870254306076456
 40
0.9999999999999999
 40
0.9999999999999999
 40
0.9999999999999999
 40
0.9999999999999999
 10
3013.186136390783
 20
4904.406164839244
 30
0.0
 10
3013.254208333462
 20
4904.406164839245
 30
0.0
 10
3013.433002061452
 20
4904.406164839244
 30
0.0
 10
3015.423392326036
 20
4904.406164839244
 30
0.0
 10
3019.332898435604
 20
4904.406164839245
 30
0.0
 10
3024.567592921052
 20
4904.406164839243
 30
0.0
 10
3028.664667487746
 20
4904.40616483925
 30
0.0
 10
3030.767737083513
 20
4904.406164839246
 30
0.0
 10
3030.887650801672
 20
4904.406164839245
 30
0.0
  0
SPLINE
  5
104
330
1F
100
AcDbEntity
  8
0
  6
Continuous
 62
     7
370
    25
100
AcDbSpline
210
0.0
220
0.0
230
1.0
 70
    24
 71
     3
 72
    13
 73
     9
 74
     0
 42
0.00000001
 43
0.00000001
 40
0.0
 40
0.0
 40
0.0
 40
0.0
 40
0.0774356510827955
 40
0.2913552831730965
 40
0.505259495278487
 40
0.7195724882586487
 40
0.9344981429470968
 40
1.0
 40
1.0
 40
1.0
 40
1.0
 10
2764.201928091492
 20
4924.406164839244
 30
0.0
 10
2764.211813337788
 20
4924.406164839244
 30
0.0
 10
2764.249007042416
 20
4924.406164839244
 30
0.0
 10
2762.735984463088
 20
4924.406164839244
 30
0.0
 10
2759.244689611479
 20
4924.406164839244
 30
0.0
 10
2754.269071004498
 20
4924.406164839244
 30
0.0
 10
2749.78074485549
 20
4924.406164839244
 30
0.0
 10
2747.194388664499
 20
4924.406164839244
 30
0.0
 10
2746.59027128508
 20
4924.406164839244
 30
0.0
  0
ARC
  5
105
330
1F
100
AcDbEntity
  8
0
  6
Continuous
 62
     7
370
    25
100
AcDbCircle
 10
2888.7389610434
 20
4914.4061648392
 30
0.0
 40
142.5000000000013
100
AcDbArc
 50
4.0240638894
 51
175.9759361106
  0
SPLINE
  5
106
330
1F
100
AcDbEntity
  8
0
  6
Continuous
 62
     7
370
    25
100
AcDbSpline
210
0.0
220
0.0
230
1.0
 70
    24
 71
     3
 72
    13
 73
     9
 74
     0
 42
0.00000001
 43
0.00000001
 40
0.0
 40
0.0
 40
0.0
 40
0.0
 40
0.091370461559378
 40
0.3066477062920617
 40
0.5219098636007243
 40
0.7367831426478733
 40
0.871186410219328
 40
0.9999999999999999
 40
0.9999999999999999
 40
0.9999999999999999
 40
0.9999999999999999
 10
3030.887650801672
 20
4924.406164839244
 30
0.0
 10
3030.044561640564
 20
4924.406164839245
 30
0.0
 10
3027.215076563641
 20
4924.406164839244
 30
0.0
 10
3022.539600489049
 20
4924.406164839245
 30
0.0
 10
3017.689697602645
 20
4924.406164839245
 30
0.0
 10
3014.82219009043
 20
4924.406164839244
 30
0.0
 10
3013.33039149942
 20
4924.406164839244
 30
0.0
 10
3013.389928586408
 20
4924.406164839244
 30
0.0
 10
3013.419064964592
 20
4924.406164839244
 30
0.0
  0
ARC
  5
107
330
1F
100
AcDbEntity
  8
0
  6
Continuous
 62
     7
370
    25
100
AcDbCircle
 10
2888.7389610434
 20
4914.4061648392
 30
0.0
 40
152.5000000000015
100
AcDbArc
 50
183.7597980573
 51
356.2402019427
  0
LINE
  5
108
330
1F
100
AcDbEntity
  8
0
  6
Continuous
 62
     7
370
    25
100
AcDbLine
 10
3030.8876508017
 20
4904.4061648392
 30
0.0
 11
3040.9107389787
 21
4904.4061648392
 31
0.0
  0
LINE
  5
109
330
1F
100
AcDbEntity
  8
0
  6
Continuous
 62
     7
370
    25
100
AcDbLine
 10
2736.567183108
 20
4904.4061648392
 30
0.0
 11
2746.5902712851
 21
4904.4061648392
 31
0.0
  0
ARC
  5
10A
330
1F
100
AcDbEntity
  8
0
  6
Continuous
 62
     7
370
    25
100
AcDbCircle
 10
2888.7389610434
 20
4914.4061648392
 30
0.0
 40
152.5000000000014
100
AcDbArc
 50
3.7597980573
 51
176.2402019427
  0
LINE
  5
10B
330
1F
100
AcDbEntity
  8
0
  6
Continuous
 62
     7
370
    25
100
AcDbLine
 10
2746.5902712851
 20
4924.4061648392
 30
0.0
 11
2736.567183108
 21
4924.4061648392
 31
0.0
  0
LINE
  5
10C
330
1F
100
AcDbEntity
  8
0
  6
Continuous
 62
     7
370
    25
100
AcDbLine
 10
3040.9107389787
 20
4924.4061648392
 30
0.0
 11
3030.8876508017
 21
4924.4061648392
 31
0.0
  0
LINE
  5
10D
330
1F
100
AcDbEntity
  8
0
  6
Continuous
 62
     7
370
    25
100
AcDbLine
 10
3040.9107389787
 20
4904.4061648392
 30
0.0
 11
3138.7389610434
 21
4904.4061648392
 31
0.0
  0
LINE
  5
10E
330
1F
100
AcDbEntity
  8
0
  6
Continuous
 62
     7
370
    25
100
AcDbLine
 10
3018.3383189871
 20
4924.4061648392
 30
0.0
 11
3018.3383189871
 21
4904.4061648392
 31
0.0
  0
LINE
  5
10F
330
1F
100
AcDbEntity
  8
0
  6
Continuous
 62
     7
370
    25
100
AcDbLine
 10
3138.7389610434
 20
4924.4061648392
 30
0.0
 11
3040.9107389787
 21
4924.4061648392
 31
0.0
  0
LINE
  5
110
330
1F
100
AcDbEntity
  8
0
  6
Continuous
 62
     7
370
    25
100
AcDbLine
 10
3138.7389610434
 20
4904.4061648392
 30
0.0
 11
3138.7389610434
 21
4924.4061648392
 31
0.0
  0
LINE
  5
111
330
1F
100
AcDbEntity
  8
0
  6
Continuous
 62
     7
370
    25
100
AcDbLine
 10
2638.7389610434
 20
4904.4061648392
 30
0.0
 11
2736.567183108
 21
4904.4061648392
 31
0.0
  0
LINE
  5
112
330
1F
100
AcDbEntity
  8
0
  6
Continuous
 62
     7
370
    25
100
AcDbLine
 10
2638.7389610434
 20
4924.4061648392
 30
0.0
 11
2638.7389610434
 21
4904.4061648392
 31
0.0
  0
LINE
  5
113
330
1F
100
AcDbEntity
  8
0
  6
Continuous
 62
     7
370
    25
100
AcDbLine
 10
2736.567183108
 20
4924.4061648392
 30
0.0
 11
2638.7389610434
 21
4924.4061648392
 31
0.0
  0
LINE
  5
114
330
1F
100
AcDbEntity
  8
0
  6
Continuous
 62
     7
370
    25
100
AcDbLine
 10
2759.1396030996
 20
4904.4061648392
 30
0.0
 11
2759.1396030996
 21
4924.4061648392
 31
0.0
  0
SPLINE
  5
115
330
1F
100
AcDbEntity
  8
0
  6
Continuous
 62
     7
370
    25
100
AcDbSpline
210
0.0
220
0.0
230
1.0
 70
    24
 71
     3
 72
    12
 73
     8
 74
     0
 42
0.00000001
 43
0.00000001
 40
0.0
 40
0.0
 40
0.0
 40
0.0
 40
0.1901077015489767
 40
0.4024029504201592
 40
0.6151188750619185
 40
0.8285454721536462
 40
1.0
 40
1.0
 40
1.0
 40
1.0
 10
2771.625249556136
 20
4924.406164839244
 30
0.0
 10
2771.582566829588
 20
4924.406164839244
 30
0.0
 10
2771.492219858081
 20
4924.406164839244
 30
0.0
 10
2770.333896218934
 20
4924.406164839244
 30
0.0
 10
2768.516704674132
 20
4924.406164839244
 30
0.0
 10
2766.337048844504
 20
4924.406164839244
 30
0.0
 10
2764.816823804001
 20
4924.406164839244
 30
0.0
 10
2764.139603099604
 20
4924.406164839244
 30
0.0
  0
SPLINE
  5
116
330
1F
100
AcDbEntity
  8
0
  6
Continuous
 62
     7
370
    25
100
AcDbSpline
210
0.0
220
0.0
230
1.0
 70
    24
 71
     3
 72
    13
 73
     9
 74
     0
 42
0.00000001
 43
0.00000001
 40
0.0
 40
0.0
 40
0.0
 40
0.0
 40
0.1162146370570118
 40
0.3330544225099092
 40
0.5497369572315984
 40
0.765845821235682
 40
0.9812111335298133
 40
1.0
 40
1.0
 40
1.0
 40
1.0
 10
3013.338318987149
 20
4924.406164839244
 30
0.0
 10
3012.885086824352
 20
4924.406164839245
 30
0.0
 10
3011.586188681518
 20
4924.406164839245
 30
0.0
 10
3009.536210202844
 20
4924.406164839244
 30
0.0
 10
3007.523011549637
 20
4924.406164839246
 30
0.0
 10
3006.258417709955
 20
4924.406164839244
 30
0.0
 10
3005.705954944324
 20
4924.406164839246
 30
0.0
 10
3005.836220763616
 20
4924.406164839245
 30
0.0
 10
3005.846673479416
 20
4924.406164839245
 30
0.0
  0
SPLINE
  5
117
330
1F
100
AcDbEntity
  8
0
  6
Continuous
 62
     7
370
    25
100
AcDbSpline
210
0.0
220
0.0
230
1.0
 70
    24
 71
     3
 72
    13
 73
     9
 74
     0
 42
0.00000001
 43
0.00000001
 40
0.0
 40
0.0
 40
0.0
 40
0.0
 40
0.1077211556546994
 40
0.3213180157208804
 40
0.5351659635205942
 40
0.7496609671927255
 40
0.9648740344404163
 40
1.0
 40
1.0
 40
1.0
 40
1.0
 10
3005.919005171946
 20
4904.406164839244
 30
0.0
 10
3005.898813570773
 20
4904.406164839244
 30
0.0
 10
3005.838584684592
 20
4904.406164839244
 30
0.0
 10
3006.656842463866
 20
4904.406164839244
 30
0.0
 10
3008.223975953271
 20
4904.406164839246
 30
0.0
 10
3010.40855341443
 20
4904.406164839246
 30
0.0
 10
3012.220617964872
 20
4904.406164839246
 30
0.0
 10
3013.20078784379
 20
4904.406164839244
 30
0.0
 10
3013.338318987149
 20
4904.406164839244
 30
0.0
  0
SPLINE
  5
118
330
1F
100
AcDbEntity
  8
0
  6
Continuous
 62
     7
370
    25
100
AcDbSpline
210
0.0
220
0.0
230
1.0
 70
    24
 71
     3
 72
    13
 73
     9
 74
     0
 42
0.00000001
 43
0.00000001
 40
0.0
 40
0.0
 40
0.0
 40
0.0
 40
0.0348448104212908
 40
0.2506117401650064
 40
0.4663964296399182
 40
0.6817470943079834
 40
0.8963811306165721
 40
1.0
 40
1.0
 40
1.0
 40
1.0
 10
2764.139603099612
 20
4904.406164839244
 30
0.0
 10
2764.275967733476
 20
4904.406164839244
 30
0.0
 10
2765.256732954366
 20
4904.406164839244
 30
0.0
 10
2767.074135324523
 20
4904.406164839244
 30
0.0
 10
2769.268217712851
 20
4904.406164839244
 30
0.0
 10
2770.836529934124
 20
4904.406164839244
 30
0.0
 10
2771.645679746161
 20
4904.406164839244
 30
0.0
 10
2771.580306171351
 20
4904.406164839244
 30
0.0
 10
2771.559021413889
 20
4904.406164839244
 30
0.0
  0
LINE
  5
119
330
1F
100
AcDbEntity
  8
0
  6
Continuous
 62
     7
370
    25
100
AcDbLine
 10
2907.502844792
 20
5084.4061648392
 30
0.0
 11
2907.502844792
 21
5065.7473907715
 31
0.0
  0
LINE
  5
11A
330
1F
100
AcDbEntity
  8
0
  6
Continuous
 62
     7
370
    25
100
AcDbLine
 10
2907.502844792
 20
5084.4061648392
 30
0.0
 11
2926.2667285407
 21
5084.4061648392
 31
0.0
  0
LINE
  5
11B
330
1F
100
AcDbEntity
  8
0
  6
Continuous
 62
     7
370
    25
100
AcDbLine
 10
2926.2667285407
 20
5084.4061648392
 30
0.0
 11
2926.2667285407
 21
5062.2165726821
 31
0.0
  0
LINE
  5
11C
330
1F
100
AcDbEntity
  8
0
  6
Continuous
 62
     7
370
    25
100
AcDbLine
 10
2869.9750772947
 20
5084.4061648392
 30
0.0
 11
2869.9750772947
 21
5065.7473907715
 31
0.0
  0
LINE
  5
11D
330
1F
100
AcDbEntity
  8
0
  6
Continuous
 62
     7
370
    25
100
AcDbLine
 10
2869.9750772947
 20
5084.4061648392
 30
0.0
 11
2907.502844792
 21
5084.4061648392
 31
0.0
  0
LINE
  5
11E
330
1F
100
AcDbEntity
  8
0
  6
Continuous
 62
     7
370
    25
100
AcDbLine
 10
2851.211193546
 20
5084.4061648392
 30
0.0
 11
2851.211193546
 21
5062.2165726821
 31
0.0
  0
LINE
  5
11F
330
1F
100
AcDbEntity
  8
0
  6
Continuous
 62
     7
370
    25
100
AcDbLine
 10
2851.211193546
 20
5084.4061648392
 30
0.0
 11
2869.9750772947
 21
5084.4061648392
 31
0.0
  0
LINE
  5
120
330
1F
100
AcDbEntity
  8
0
  6
Continuous
 62
     7
370
    25
100
AcDbLine
 10
3098.7389610434
 20
4886.9061648392
 30
0.0
 11
3083.7389610434
 21
4886.9061648392
 31
0.0
  0
LINE
  5
121
330
1F
100
AcDbEntity
  8
0
  6
Continuous
 62
     7
370
    25
100
AcDbLine
 10
3113.7389610434
 20
4886.9061648392
 30
0.0
 11
3098.7389610434
 21
4886.9061648392
 31
0.0
  0
LINE
  5
122
330
1F
100
AcDbEntity
  8
0
  6
Continuous
 62
     7
370
    25
100
AcDbLine
 10
2678.7389610434
 20
4886.9061648392
 30
0.0
 11
2663.7389610434
 21
4886.9061648392
 31
0.0
  0
LINE
  5
123
330
1F
100
AcDbEntity
  8
0
  6
Continuous
 62
     7
370
    25
100
AcDbLine
 10
2693.7389610434
 20
4886.9061648392
 30
0.0
 11
2678.7389610434
 21
4886.9061648392
 31
0.0
  0
LINE
  5
124
330
1F
100
AcDbEntity
  8
0
  6
Continuous
 62
     7
370
    25
100
AcDbLine
 10
3086.2389610434
 20
4979.4061648392
 30
0.0
 11
3111.2389610434
 21
4979.4061648392
 31
0.0
  0
LINE
  5
125
330
1F
100
AcDbEntity
  8
0
  6
Continuous
 62
     7
370
    25
100
AcDbLine
 10
2691.2389610434
 20
4979.4061648392
 30
0.0
 11
2666.2389610434
 21
4979.4061648392
 31
0.0
  0
LINE
  5
126
330
1F
100
AcDbEntity
  8
0
  6
Continuous
 62
     7
370
    25
100
AcDbLine
 10
2908.7389610433
 20
5119.4061648392
 30
0.0
 11
2868.7389610433
 21
5119.4061648392
 31
0.0
  0
LINE
  5
127
330
1F
100
AcDbEntity
  8
0
  6
Continuous
 62
     7
370
    25
100
AcDbLine
 10
2868.7389610433
 20
6559.4061648392
 30
0.0
 11
2908.7389610433
 21
6559.4061648392
 31
0.0
  0
LINE
  5
128
330
1F
100
AcDbEntity
  8
0
  6
Continuous
 62
     7
370
    25
100
AcDbLine
 10
3763.7389610433
 20
7020.0081162548
 30
0.0
 11
3763.7389610433
 21
7010.6580440967
 31
0.0
  0
LINE
  5
129
330
1F
100
AcDbEntity
  8
0
  6
Continuous
 62
     7
370
    25
100
AcDbLine
 10
3763.7389610433
 20
7010.6580440967
 30
0.0
 11
3592.1716284407
 21
7010.6580440967
 31
0.0
  0
LINE
  5
12A
330
1F
100
AcDbEntity
  8
0
  6
Continuous
 62
     7
370
    25
100
AcDbLine
 10
3410.306293646
 20
7010.6580440967
 30
0.0
 11
2367.1716284407
 21
7010.6580440967
 31
0.0
  0
LINE
  5
12B
330
1F
100
AcDbEntity
  8
0
  6
Continuous
 62
     7
370
    25
100
AcDbLine
 10
2185.306293646
 20
7010.6580440966
 30
0.0
 11
2013.7389610433
 21
7010.6580440966
 31
0.0
  0
LINE
  5
12C
330
1F
100
AcDbEntity
  8
0
  6
Continuous
 62
     7
370
    25
100
AcDbLine
 10
2013.7389610433
 20
7020.0081162549
 30
0.0
 11
2013.7389610433
 21
7010.6580440966
 31
0.0
  0
LINE
  5
12D
330
1F
100
AcDbEntity
  8
0
  6
Continuous
 62
     7
370
    25
100
AcDbLine
 10
3163.7389610433
 20
6905.6580440967
 30
0.0
 11
2613.7389610433
 21
6905.6580440967
 31
0.0
  0
LINE
  5
12E
330
1F
100
AcDbEntity
  8
0
  6
Continuous
 62
     7
370
    25
100
AcDbLine
 10
3163.7389610433
 20
7055.6580440967
 30
0.0
 11
2613.7389610433
 21
7055.6580440967
 31
0.0
  0
LINE
  5
12F
330
1F
100
AcDbEntity
  8
0
  6
Continuous
 62
     7
370
    25
100
AcDbLine
 10
3763.7389610433
 20
6950.6580440967
 30
0.0
 11
3590.5068164001
 21
6950.6580440967
 31
0.0
  0
LINE
  5
130
330
1F
100
AcDbEntity
  8
0
  6
Continuous
 62
     7
370
    25
100
AcDbLine
 10
3411.9711056866
 20
6950.6580440967
 30
0.0
 11
2365.5068164001
 21
6950.6580440967
 31
0.0
  0
LINE
  5
131
330
1F
100
AcDbEntity
  8
0
  6
Continuous
 62
     7
370
    25
100
AcDbLine
 10
2186.9711056866
 20
6950.6580440966
 30
0.0
 11
2013.7389610433
 21
6950.6580440966
 31
0.0
  0
LINE
  5
132
330
1F
100
AcDbEntity
  8
0
  6
Continuous
 62
     7
370
    25
100
AcDbLine
 10
3763.7389610433
 20
6950.6580440967
 30
0.0
 11
3763.7389610433
 21
6935.0081162548
 31
0.0
  0
LINE
  5
133
330
1F
100
AcDbEntity
  8
0
  6
Continuous
 62
     7
370
    25
100
AcDbLine
 10
2013.7389610433
 20
6950.6580440966
 30
0.0
 11
2013.7389610433
 21
6935.0081162549
 31
0.0
  0
LINE
  5
134
330
1F
100
AcDbEntity
  8
0
  6
Continuous
 62
     7
370
    25
100
AcDbLine
 10
3763.7389610433
 20
7010.6580440967
 30
0.0
 11
3763.7389610433
 21
6950.6580440967
 31
0.0
  0
LINE
  5
135
330
1F
100
AcDbEntity
  8
0
  6
Continuous
 62
     7
370
    25
100
AcDbLine
 10
2013.7389610433
 20
7010.6580440966
 30
0.0
 11
2013.7389610433
 21
6950.6580440966
 31
0.0
  0
LINE
  5
136
330
1F
100
AcDbEntity
  8
0
  6
Continuous
 62
     7
370
    25
100
AcDbLine
 10
3876.2389610433
 20
8022.5081162549
 30
0.0
 11
1901.2389610433
 21
8022.5081162549
 31
0.0
  0
LINE
  5
137
330
1F
100
AcDbEntity
  8
0
  6
Continuous
 62
     7
370
    25
100
AcDbLine
 10
3876.2389610433
 20
8022.5081162549
 30
0.0
 11
3876.2389610433
 21
7952.5081162549
 31
0.0
  0
LINE
  5
138
330
1F
100
AcDbEntity
  8
0
  6
Continuous
 62
     7
370
    25
100
AcDbLine
 10
3876.2389610433
 20
7952.5081162549
 30
0.0
 11
1901.2389610433
 21
7952.5081162549
 31
0.0
  0
LINE
  5
139
330
1F
100
AcDbEntity
  8
0
  6
Continuous
 62
     7
370
    25
100
AcDbLine
 10
1901.2389610433
 20
8022.5081162549
 30
0.0
 11
1901.2389610433
 21
7952.5081162549
 31
0.0
  0
LINE
  5
13A
330
1F
100
AcDbEntity
  8
0
  6
Continuous
 62
     7
370
    25
100
AcDbLine
 10
3876.2389610433
 20
7952.5081162549
 30
0.0
 11
3876.2389610433
 21
7937.5081162549
 31
0.0
  0
LINE
  5
13B
330
1F
100
AcDbEntity
  8
0
  6
Continuous
 62
     7
370
    25
100
AcDbLine
 10
3876.2389610433
 20
7937.5081162549
 30
0.0
 11
1901.2389610433
 21
7937.5081162549
 31
0.0
  0
LINE
  5
13C
330
1F
100
AcDbEntity
  8
0
  6
Continuous
 62
     7
370
    25
100
AcDbLine
 10
1901.2389610433
 20
7952.5081162549
 30
0.0
 11
1901.2389610433
 21
7937.5081162549
 31
0.0
  0
LINE
  5
13D
330
1F
100
AcDbEntity
  8
0
  6
Continuous
 62
     7
370
    25
100
AcDbLine
 10
3876.2389610433
 20
8037.5081162549
 30
0.0
 11
1901.2389610433
 21
8037.5081162549
 31
0.0
  0
LINE
  5
13E
330
1F
100
AcDbEntity
  8
0
  6
Continuous
 62
     7
370
    25
100
AcDbLine
 10
3876.2389610433
 20
8037.5081162549
 30
0.0
 11
3876.2389610433
 21
8022.5081162549
 31
0.0
  0
LINE
  5
13F
330
1F
100
AcDbEntity
  8
0
  6
Continuous
 62
     7
370
    25
100
AcDbLine
 10
1901.2389610433
 20
8037.5081162549
 30
0.0
 11
1901.2389610433
 21
8022.5081162549
 31
0.0
  0
LINE
  5
140
330
1F
100
AcDbEntity
  8
0
  6
Continuous
 62
     7
370
    25
100
AcDbLine
 10
3876.2389610434
 20
6350.0081162549
 30
0.0
 11
1901.2389610434
 21
6350.0081162549
 31
0.0
  0
LINE
  5
141
330
1F
100
AcDbEntity
  8
0
  6
Continuous
 62
     7
370
    25
100
AcDbLine
 10
3876.2389610434
 20
6350.0081162549
 30
0.0
 11
3876.2389610434
 21
6280.0081162549
 31
0.0
  0
LINE
  5
142
330
1F
100
AcDbEntity
  8
0
  6
Continuous
 62
     7
370
    25
100
AcDbLine
 10
3876.2389610434
 20
6280.0081162549
 30
0.0
 11
1901.2389610434
 21
6280.0081162549
 31
0.0
  0
LINE
  5
143
330
1F
100
AcDbEntity
  8
0
  6
Continuous
 62
     7
370
    25
100
AcDbLine
 10
1901.2389610434
 20
6350.0081162549
 30
0.0
 11
1901.2389610434
 21
6280.0081162549
 31
0.0
  0
LINE
  5
144
330
1F
100
AcDbEntity
  8
0
  6
Continuous
 62
     7
370
    25
100
AcDbLine
 10
3876.2389610434
 20
6280.0081162549
 30
0.0
 11
3876.2389610434
 21
6265.0081162549
 31
0.0
  0
LINE
  5
145
330
1F
100
AcDbEntity
  8
0
  6
Continuous
 62
     7
370
    25
100
AcDbLine
 10
3876.2389610434
 20
6265.0081162549
 30
0.0
 11
1901.2389610434
 21
6265.0081162549
 31
0.0
  0
LINE
  5
146
330
1F
100
AcDbEntity
  8
0
  6
Continuous
 62
     7
370
    25
100
AcDbLine
 10
1901.2389610434
 20
6280.0081162549
 30
0.0
 11
1901.2389610434
 21
6265.0081162549
 31
0.0
  0
LINE
  5
147
330
1F
100
AcDbEntity
  8
0
  6
Continuous
 62
     7
370
    25
100
AcDbLine
 10
3876.2389610434
 20
6365.0081162549
 30
0.0
 11
1901.2389610434
 21
6365.0081162549
 31
0.0
  0
LINE
  5
148
330
1F
100
AcDbEntity
  8
0
  6
Continuous
 62
     7
370
    25
100
AcDbLine
 10
3876.2389610434
 20
6365.0081162549
 30
0.0
 11
3876.2389610434
 21
6350.0081162549
 31
0.0
  0
LINE
  5
149
330
1F
100
AcDbEntity
  8
0
  6
Continuous
 62
     7
370
    25
100
AcDbLine
 10
1901.2389610434
 20
6365.0081162549
 30
0.0
 11
1901.2389610434
 21
6350.0081162549
 31
0.0
  0
LINE
  5
14A
330
1F
100
AcDbEntity
  8
0
  6
Continuous
 62
     7
370
    25
100
AcDbLine
 10
3876.2389610433
 20
9150.0081162549
 30
0.0
 11
1901.2389610432
 21
9150.0081162549
 31
0.0
  0
LINE
  5
14B
330
1F
100
AcDbEntity
  8
0
  6
Continuous
 62
     7
370
    25
100
AcDbLine
 10
3876.2389610433
 20
9150.0081162549
 30
0.0
 11
3876.2389610433
 21
9080.0081162549
 31
0.0
  0
LINE
  5
14C
330
1F
100
AcDbEntity
  8
0
  6
Continuous
 62
     7
370
    25
100
AcDbLine
 10
3876.2389610433
 20
9080.0081162549
 30
0.0
 11
1901.2389610432
 21
9080.0081162549
 31
0.0
  0
LINE
  5
14D
330
1F
100
AcDbEntity
  8
0
  6
Continuous
 62
     7
370
    25
100
AcDbLine
 10
1901.2389610432
 20
9150.0081162549
 30
0.0
 11
1901.2389610432
 21
9080.0081162549
 31
0.0
  0
LINE
  5
14E
330
1F
100
AcDbEntity
  8
0
  6
Continuous
 62
     7
370
    25
100
AcDbLine
 10
3876.2389610433
 20
9080.0081162549
 30
0.0
 11
3876.2389610433
 21
9065.0081162549
 31
0.0
  0
LINE
  5
14F
330
1F
100
AcDbEntity
  8
0
  6
Continuous
 62
     7
370
    25
100
AcDbLine
 10
3876.2389610433
 20
9065.0081162549
 30
0.0
 11
1901.2389610432
 21
9065.0081162549
 31
0.0
  0
LINE
  5
150
330
1F
100
AcDbEntity
  8
0
  6
Continuous
 62
     7
370
    25
100
AcDbLine
 10
1901.2389610432
 20
9080.0081162549
 30
0.0
 11
1901.2389610432
 21
9065.0081162549
 31
0.0
  0
LINE
  5
151
330
1F
100
AcDbEntity
  8
0
  6
Continuous
 62
     7
370
    25
100
AcDbLine
 10
3876.2389610433
 20
9165.0081162549
 30
0.0
 11
1901.2389610432
 21
9165.0081162549
 31
0.0
  0
LINE
  5
152
330
1F
100
AcDbEntity
  8
0
  6
Continuous
 62
     7
370
    25
100
AcDbLine
 10
3876.2389610433
 20
9165.0081162549
 30
0.0
 11
3876.2389610433
 21
9150.0081162549
 31
0.0
  0
LINE
  5
153
330
1F
100
AcDbEntity
  8
0
  6
Continuous
 62
     7
370
    25
100
AcDbLine
 10
1901.2389610432
 20
9165.0081162549
 30
0.0
 11
1901.2389610432
 21
9150.0081162549
 31
0.0
  0
CIRCLE
  5
154
330
1F
100
AcDbEntity
  8
0
  6
Continuous
 62
     7
370
    25
100
AcDbCircle
 10
2276.2389610433
 20
6983.1580440967
 30
0.0
 40
25.00000000000091
  0
CIRCLE
  5
155
330
1F
100
AcDbEntity
  8
0
  6
Continuous
 62
     7
370
    25
100
AcDbCircle
 10
3501.2389610433
 20
6983.1580440967
 30
0.0
 40
25.0
  0
LINE
  5
156
330
1F
100
AcDbEntity
  8
0
  6
Continuous
 62
     7
370
    25
100
AcDbLine
 10
4138.7389610433
 20
7325.0081162548
 30
0.0
 11
4123.7389610433
 21
7325.0081162548
 31
0.0
  0
LINE
  5
157
330
1F
100
AcDbEntity
  8
0
  6
Continuous
 62
     7
370
    25
100
AcDbLine
 10
4138.7389610433
 20
7325.0081162548
 30
0.0
 11
4138.7389610433
 21
6075.0081162548
 31
0.0
  0
LINE
  5
158
330
1F
100
AcDbEntity
  8
0
  6
Continuous
 62
     7
370
    25
100
AcDbLine
 10
4138.7389610433
 20
6075.0081162548
 30
0.0
 11
4123.7389610433
 21
6075.0081162548
 31
0.0
  0
LINE
  5
159
330
1F
100
AcDbEntity
  8
0
  6
Continuous
 62
     7
370
    25
100
AcDbLine
 10
4123.7389610433
 20
6905.0081162548
 30
0.0
 11
4123.7389610433
 21
6075.0081162548
 31
0.0
  0
LINE
  5
15A
330
1F
100
AcDbEntity
  8
0
  6
Continuous
 62
     7
370
    25
100
AcDbLine
 10
3163.7389610433
 20
6905.0081162548
 30
0.0
 11
3163.7389610433
 21
6935.0081162548
 31
0.0
  0
LINE
  5
15B
330
1F
100
AcDbEntity
  8
0
  6
Continuous
 62
     7
370
    25
100
AcDbLine
 10
3163.7389610433
 20
6935.0081162548
 30
0.0
 11
3419.3452222789
 21
6935.0081162548
 31
0.0
  0
LINE
  5
15C
330
1F
100
AcDbEntity
  8
0
  6
Continuous
 62
     7
370
    25
100
AcDbLine
 10
3583.1326998078
 20
6935.0081162548
 30
0.0
 11
4123.7389610433
 21
6935.0081162548
 31
0.0
  0
LINE
  5
15D
330
1F
100
AcDbEntity
  8
0
  6
Continuous
 62
     7
370
    25
100
AcDbLine
 10
4123.7389610433
 20
7020.0081162548
 30
0.0
 11
4123.7389610433
 21
6935.0081162548
 31
0.0
  0
LINE
  5
15E
330
1F
100
AcDbEntity
  8
0
  6
Continuous
 62
     7
370
    25
100
AcDbLine
 10
3163.7389610433
 20
7020.0081162548
 30
0.0
 11
3413.6771418415
 21
7020.0081162548
 31
0.0
  0
LINE
  5
15F
330
1F
100
AcDbEntity
  8
0
  6
Continuous
 62
     7
370
    25
100
AcDbLine
 10
3588.8007802452
 20
7020.0081162548
 30
0.0
 11
4123.7389610433
 21
7020.0081162548
 31
0.0
  0
LINE
  5
160
330
1F
100
AcDbEntity
  8
0
  6
Continuous
 62
     7
370
    25
100
AcDbLine
 10
3163.7389610433
 20
7020.0081162548
 30
0.0
 11
3163.7389610433
 21
7050.0081162548
 31
0.0
  0
LINE
  5
161
330
1F
100
AcDbEntity
  8
0
  6
Continuous
 62
     7
370
    25
100
AcDbLine
 10
4123.7389610433
 20
7325.0081162548
 30
0.0
 11
4123.7389610433
 21
7050.0081162548
 31
0.0
  0
LINE
  5
162
330
1F
100
AcDbEntity
  8
0
  6
Continuous
 62
     7
370
    25
100
AcDbLine
 10
3163.7389610433
 20
7065.0081162548
 30
0.0
 11
3453.0148416869
 21
7065.0081162548
 31
0.0
  0
LINE
  5
163
330
1F
100
AcDbEntity
  8
0
  6
Continuous
 62
     7
370
    25
100
AcDbLine
 10
3549.4630803998
 20
7065.0081162548
 30
0.0
 11
4123.7389610433
 21
7065.0081162548
 31
0.0
  0
LINE
  5
164
330
1F
100
AcDbEntity
  8
0
  6
Continuous
 62
     7
370
    25
100
AcDbLine
 10
3163.7389610433
 20
7050.0081162548
 30
0.0
 11
3163.7389610433
 21
7065.0081162548
 31
0.0
  0
LINE
  5
165
330
1F
100
AcDbEntity
  8
0
  6
Continuous
 62
     7
370
    25
100
AcDbLine
 10
3163.7389610433
 20
6890.0081162548
 30
0.0
 11
3482.5817655666
 21
6890.0081162548
 31
0.0
  0
LINE
  5
166
330
1F
100
AcDbEntity
  8
0
  6
Continuous
 62
     7
370
    25
100
AcDbLine
 10
3519.8961565201
 20
6890.0081162548
 30
0.0
 11
4123.7389610433
 21
6890.0081162548
 31
0.0
  0
LINE
  5
167
330
1F
100
AcDbEntity
  8
0
  6
Continuous
 62
     7
370
    25
100
AcDbLine
 10
3163.7389610433
 20
6890.0081162548
 30
0.0
 11
3163.7389610433
 21
6905.0081162548
 31
0.0
  0
LINE
  5
168
330
1F
100
AcDbEntity
  8
0
  6
Continuous
 62
     7
370
    25
100
AcDbLine
 10
3876.2389610434
 20
6275.0081162548
 30
0.0
 11
4123.7389610433
 21
6275.0081162548
 31
0.0
  0
LINE
  5
169
330
1F
100
AcDbEntity
  8
0
  6
Continuous
 62
     7
370
    25
100
AcDbLine
 10
3876.2389610434
 20
6352.5081162548
 30
0.0
 11
4123.7389610433
 21
6352.5081162548
 31
0.0
  0
LINE
  5
16A
330
1F
100
AcDbEntity
  8
0
  6
Continuous
 62
     7
370
    25
100
AcDbLine
 10
2613.7389610433
 20
7020.0081162549
 30
0.0
 11
2613.7389610433
 21
7050.0081162549
 31
0.0
  0
LINE
  5
16B
330
1F
100
AcDbEntity
  8
0
  6
Continuous
 62
     7
370
    25
100
AcDbLine
 10
2613.7389610433
 20
7020.0081162549
 30
0.0
 11
2363.8007802452
 21
7020.0081162549
 31
0.0
  0
LINE
  5
16C
330
1F
100
AcDbEntity
  8
0
  6
Continuous
 62
     7
370
    25
100
AcDbLine
 10
2188.6771418415
 20
7020.0081162549
 30
0.0
 11
1653.7389610433
 21
7020.0081162549
 31
0.0
  0
LINE
  5
16D
330
1F
100
AcDbEntity
  8
0
  6
Continuous
 62
     7
370
    25
100
AcDbLine
 10
1653.7389610433
 20
7020.0081162549
 30
0.0
 11
1653.7389610433
 21
6935.0081162549
 31
0.0
  0
LINE
  5
16E
330
1F
100
AcDbEntity
  8
0
  6
Continuous
 62
     7
370
    25
100
AcDbLine
 10
2613.7389610433
 20
6935.0081162549
 30
0.0
 11
2358.1326998078
 21
6935.0081162549
 31
0.0
  0
LINE
  5
16F
330
1F
100
AcDbEntity
  8
0
  6
Continuous
 62
     7
370
    25
100
AcDbLine
 10
2194.3452222789
 20
6935.0081162549
 30
0.0
 11
1653.7389610433
 21
6935.0081162549
 31
0.0
  0
LINE
  5
170
330
1F
100
AcDbEntity
  8
0
  6
Continuous
 62
     7
370
    25
100
AcDbLine
 10
2613.7389610433
 20
6905.0081162549
 30
0.0
 11
2613.7389610433
 21
6935.0081162549
 31
0.0
  0
LINE
  5
171
330
1F
100
AcDbEntity
  8
0
  6
Continuous
 62
     7
370
    25
100
AcDbLine
 10
1653.7389610433
 20
6905.0081162549
 30
0.0
 11
1653.7389610433
 21
6075.0081162549
 31
0.0
  0
LINE
  5
172
330
1F
100
AcDbEntity
  8
0
  6
Continuous
 62
     7
370
    25
100
AcDbLine
 10
1638.7389610433
 20
6075.0081162549
 30
0.0
 11
1653.7389610433
 21
6075.0081162549
 31
0.0
  0
LINE
  5
173
330
1F
100
AcDbEntity
  8
0
  6
Continuous
 62
     7
370
    25
100
AcDbLine
 10
1638.7389610433
 20
7325.0081162549
 30
0.0
 11
1638.7389610433
 21
6075.0081162549
 31
0.0
  0
LINE
  5
174
330
1F
100
AcDbEntity
  8
0
  6
Continuous
 62
     7
370
    25
100
AcDbLine
 10
1653.7389610433
 20
7325.0081162549
 30
0.0
 11
1653.7389610433
 21
7050.0081162549
 31
0.0
  0
LINE
  5
175
330
1F
100
AcDbEntity
  8
0
  6
Continuous
 62
     7
370
    25
100
AcDbLine
 10
1638.7389610433
 20
7325.0081162549
 30
0.0
 11
1653.7389610433
 21
7325.0081162549
 31
0.0
  0
LINE
  5
176
330
1F
100
AcDbEntity
  8
0
  6
Continuous
 62
     7
370
    25
100
AcDbLine
 10
2613.7389610433
 20
7065.0081162549
 30
0.0
 11
2324.4630803998
 21
7065.0081162549
 31
0.0
  0
LINE
  5
177
330
1F
100
AcDbEntity
  8
0
  6
Continuous
 62
     7
370
    25
100
AcDbLine
 10
2228.0148416869
 20
7065.0081162549
 30
0.0
 11
1653.7389610433
 21
7065.0081162549
 31
0.0
  0
LINE
  5
178
330
1F
100
AcDbEntity
  8
0
  6
Continuous
 62
     7
370
    25
100
AcDbLine
 10
2613.7389610433
 20
7050.0081162549
 30
0.0
 11
2613.7389610433
 21
7065.0081162549
 31
0.0
  0
LINE
  5
179
330
1F
100
AcDbEntity
  8
0
  6
Continuous
 62
     7
370
    25
100
AcDbLine
 10
2613.7389610433
 20
6890.0081162549
 30
0.0
 11
2613.7389610433
 21
6905.0081162549
 31
0.0
  0
LINE
  5
17A
330
1F
100
AcDbEntity
  8
0
  6
Continuous
 62
     7
370
    25
100
AcDbLine
 10
2613.7389610433
 20
6890.0081162549
 30
0.0
 11
2294.8961565202
 21
6890.0081162549
 31
0.0
  0
LINE
  5
17B
330
1F
100
AcDbEntity
  8
0
  6
Continuous
 62
     7
370
    25
100
AcDbLine
 10
2257.5817655665
 20
6890.0081162549
 30
0.0
 11
1653.7389610433
 21
6890.0081162549
 31
0.0
  0
LINE
  5
17C
330
1F
100
AcDbEntity
  8
0
  6
Continuous
 62
     7
370
    25
100
AcDbLine
 10
1901.2389610434
 20
6275.0081162549
 30
0.0
 11
1653.7389610433
 21
6275.0081162549
 31
0.0
  0
LINE
  5
17D
330
1F
100
AcDbEntity
  8
0
  6
Continuous
 62
     7
370
    25
100
AcDbLine
 10
1901.2389610434
 20
6352.5081162549
 30
0.0
 11
1653.7389610433
 21
6352.5081162549
 31
0.0
  0
LINE
  5
17E
330
1F
100
AcDbEntity
  8
0
  6
Continuous
 62
     8
370
    25
100
AcDbLine
 10
3098.7389610434
 20
4896.9061648392
 30
0.0
 11
3123.7389610434
 21
4896.9061648392
 31
0.0
  0
LINE
  5
17F
330
1F
100
AcDbEntity
  8
0
  6
Continuous
 62
     8
370
    25
100
AcDbLine
 10
3073.7389610434
 20
4896.9061648392
 30
0.0
 11
3098.7389610434
 21
4896.9061648392
 31
0.0
  0
LINE
  5
180
330
1F
100
AcDbEntity
  8
0
  6
Continuous
 62
     8
370
    25
100
AcDbLine
 10
2678.7389610434
 20
4896.9061648392
 30
0.0
 11
2703.7389610434
 21
4896.9061648392
 31
0.0
  0
LINE
  5
181
330
1F
100
AcDbEntity
  8
0
  6
Continuous
 62
     8
370
    25
100
AcDbLine
 10
2653.7389610434
 20
4896.9061648392
 30
0.0
 11
2678.7389610434
 21
4896.9061648392
 31
0.0
  0
LINE
  5
182
330
1F
100
AcDbEntity
  8
0
  6
Continuous
 62
     8
370
    25
100
AcDbLine
 10
3163.7389610433
 20
7040.6580440967
 30
0.0
 11
2613.7389610433
 21
7040.6580440967
 31
0.0
  0
LINE
  5
183
330
1F
100
AcDbEntity
  8
0
  6
Continuous
 62
     8
370
    25
100
AcDbLine
 10
3163.7389610433
 20
6920.6580440967
 30
0.0
 11
2613.7389610433
 21
6920.6580440967
 31
0.0
  0
LINE
  5
184
330
1F
100
AcDbEntity
  8
0
  6
Continuous
 62
     8
370
    25
100
AcDbLine
 10
3163.7389610433
 20
6905.0081162548
 30
0.0
 11
3447.2242521363
 21
6905.0081162548
 31
0.0
  0
LINE
  5
185
330
1F
100
AcDbEntity
  8
0
  6
Continuous
 62
     8
370
    25
100
AcDbLine
 10
3555.2536699504
 20
6905.0081162548
 30
0.0
 11
4123.7389610433
 21
6905.0081162548
 31
0.0
  0
LINE
  5
186
330
1F
100
AcDbEntity
  8
0
  6
Continuous
 62
     8
370
    25
100
AcDbLine
 10
3163.7389610433
 20
7050.0081162548
 30
0.0
 11
3433.7403102979
 21
7050.0081162548
 31
0.0
  0
LINE
  5
187
330
1F
100
AcDbEntity
  8
0
  6
Continuous
 62
     8
370
    25
100
AcDbLine
 10
3568.7376117888
 20
7050.0081162548
 30
0.0
 11
4123.7389610433
 21
7050.0081162548
 31
0.0
  0
LINE
  5
188
330
1F
100
AcDbEntity
  8
0
  6
Continuous
 62
     8
370
    25
100
AcDbLine
 10
2613.7389610433
 20
7050.0081162549
 30
0.0
 11
2343.7376117887
 21
7050.0081162549
 31
0.0
  0
LINE
  5
189
330
1F
100
AcDbEntity
  8
0
  6
Continuous
 62
     8
370
    25
100
AcDbLine
 10
2208.7403102979
 20
7050.0081162549
 30
0.0
 11
1653.7389610433
 21
7050.0081162549
 31
0.0
  0
LINE
  5
18A
330
1F
100
AcDbEntity
  8
0
  6
Continuous
 62
     8
370
    25
100
AcDbLine
 10
2613.7389610433
 20
6905.0081162549
 30
0.0
 11
2330.2536699504
 21
6905.0081162549
 31
0.0
  0
LINE
  5
18B
330
1F
100
AcDbEntity
  8
0
  6
Continuous
 62
     8
370
    25
100
AcDbLine
 10
2222.2242521363
 20
6905.0081162549
 30
0.0
 11
1653.7389610433
 21
6905.0081162549
 31
0.0
  0
LINE
  5
18C
330
1F
100
AcDbEntity
  8
0
  6
Continuous
 62
     7
370
    25
100
AcDbLine
 10
5763.9519733459
 20
6888.1580440967
 30
0.0
 11
5788.9519733459
 21
6888.1580440967
 31
0.0
  0
LINE
  5
18D
330
1F
100
AcDbEntity
  8
0
  6
Continuous
 62
     7
370
    25
100
AcDbLine
 10
5788.9519733459
 20
7078.1580440967
 30
0.0
 11
5763.9519733459
 21
7078.1580440967
 31
0.0
  0
LINE
  5
18E
330
1F
100
AcDbEntity
  8
0
  6
Continuous
 62
     7
370
    25
100
AcDbLine
 10
5763.9519733459
 20
7070.6580440967
 30
0.0
 11
5751.4519733459
 21
7070.6580440967
 31
0.0
  0
LINE
  5
18F
330
1F
100
AcDbEntity
  8
0
  6
Continuous
 62
     7
370
    25
100
AcDbLine
 10
5751.4519733459
 20
6895.6580440967
 30
0.0
 11
5763.9519733459
 21
6895.6580440967
 31
0.0
  0
LINE
  5
190
330
1F
100
AcDbEntity
  8
0
  6
Continuous
 62
     7
370
    25
100
AcDbLine
 10
5751.4519733459
 20
7023.1580440967
 30
0.0
 11
5708.9519733459
 21
7023.1580440967
 31
0.0
  0
LINE
  5
191
330
1F
100
AcDbEntity
  8
0
  6
Continuous
 62
     7
370
    25
100
AcDbLine
 10
5708.9519733459
 20
6943.1580440967
 30
0.0
 11
5751.4519733459
 21
6943.1580440967
 31
0.0
  0
LINE
  5
192
330
1F
100
AcDbEntity
  8
0
  6
Continuous
 62
     7
370
    25
100
AcDbLine
 10
5351.4519733449
 20
8001.2581162549
 30
0.0
 11
5346.4519733449
 21
8001.2581162549
 31
0.0
  0
LINE
  5
193
330
1F
100
AcDbEntity
  8
0
  6
Continuous
 62
     7
370
    25
100
AcDbLine
 10
5346.4519733449
 20
7976.2581162549
 30
0.0
 11
5351.4519733449
 21
7976.2581162549
 31
0.0
  0
LINE
  5
194
330
1F
100
AcDbEntity
  8
0
  6
Continuous
 62
     7
370
    25
100
AcDbLine
 10
5351.4519733449
 20
9123.7581162549
 30
0.0
 11
5346.4519733449
 21
9123.7581162549
 31
0.0
  0
LINE
  5
195
330
1F
100
AcDbEntity
  8
0
  6
Continuous
 62
     7
370
    25
100
AcDbLine
 10
5346.4519733449
 20
9098.7581162549
 30
0.0
 11
5351.4519733449
 21
9098.7581162549
 31
0.0
  0
LINE
  5
196
330
1F
100
AcDbEntity
  8
0
  6
Continuous
 62
     7
370
    25
100
AcDbLine
 10
5511.4519733459
 20
7058.1580440967
 30
0.0
 11
5501.4519733459
 21
7058.1580440967
 31
0.0
  0
LINE
  5
197
330
1F
100
AcDbEntity
  8
0
  6
Continuous
 62
     7
370
    25
100
AcDbLine
 10
5501.4519733459
 20
6908.1580440967
 30
0.0
 11
5511.4519733459
 21
6908.1580440967
 31
0.0
  0
ARC
  5
198
330
1F
100
AcDbEntity
  8
0
  6
Continuous
 62
     7
370
    25
100
AcDbCircle
 10
5438.9519733459
 20
4896.9061648392
 30
0.0
 40
10.00000000000091
100
AcDbArc
 50
270.0
 51
0.0
  0
ARC
  5
199
330
1F
100
AcDbEntity
  8
0
  6
Continuous
 62
     7
370
    25
100
AcDbCircle
 10
5408.9519733459
 20
4896.9061648392
 30
0.0
 40
10.00000000000091
100
AcDbArc
 50
180.0
 51
270.0
  0
LINE
  5
19A
330
1F
100
AcDbEntity
  8
0
  6
Continuous
 62
     7
370
    25
100
AcDbLine
 10
5398.9519733459
 20
4904.4061648392
 30
0.0
 11
5398.9519733459
 21
4896.9061648392
 31
0.0
  0
LINE
  5
19B
330
1F
100
AcDbEntity
  8
0
  6
Continuous
 62
     7
370
    25
100
AcDbLine
 10
5448.9519733459
 20
4896.9061648392
 30
0.0
 11
5448.9519733459
 21
4904.4061648392
 31
0.0
  0
LINE
  5
19C
330
1F
100
AcDbEntity
  8
0
  6
Continuous
 62
     7
370
    25
100
AcDbLine
 10
5436.4519733459
 20
4924.4061648392
 30
0.0
 11
5436.4519733459
 21
4979.4061648392
 31
0.0
  0
LINE
  5
19D
330
1F
100
AcDbEntity
  8
0
  6
Continuous
 62
     7
370
    25
100
AcDbLine
 10
5411.4519733459
 20
4979.4061648392
 30
0.0
 11
5411.4519733459
 21
4924.4061648392
 31
0.0
  0
LINE
  5
19E
330
1F
100
AcDbEntity
  8
0
  6
Continuous
 62
     7
370
    25
100
AcDbLine
 10
5391.4519733459
 20
5061.9240219821
 30
0.0
 11
5368.2019733459
 21
5066.9061648392
 31
0.0
  0
LINE
  5
19F
330
1F
100
AcDbEntity
  8
0
  6
Continuous
 62
     7
370
    25
100
AcDbLine
 10
5368.2019733459
 20
4761.9061648392
 30
0.0
 11
5403.2019733459
 21
4769.4061648392
 31
0.0
  0
LINE
  5
1A0
330
1F
100
AcDbEntity
  8
0
  6
Continuous
 62
     7
370
    25
100
AcDbLine
 10
5479.7019733459
 20
5066.9061648392
 30
0.0
 11
5456.4519733459
 21
5061.9240219821
 31
0.0
  0
LINE
  5
1A1
330
1F
100
AcDbEntity
  8
0
  6
Continuous
 62
     7
370
    25
100
AcDbLine
 10
5444.7019733459
 20
4769.4061648392
 30
0.0
 11
5479.7019733459
 21
4761.9061648392
 31
0.0
  0
LINE
  5
1A2
330
1F
100
AcDbEntity
  8
0
  6
Continuous
 62
     7
370
    25
100
AcDbLine
 10
5403.2019733459
 20
4774.4061648392
 30
0.0
 11
5444.7019733459
 21
4774.4061648392
 31
0.0
  0
LINE
  5
1A3
330
1F
100
AcDbEntity
  8
0
  6
Continuous
 62
     7
370
    25
100
AcDbLine
 10
5443.9519733459
 20
5119.4061648392
 30
0.0
 11
5443.9519733459
 21
6075.0081162549
 31
0.0
  0
LINE
  5
1A4
330
1F
100
AcDbEntity
  8
0
  6
Continuous
 62
     7
370
    25
100
AcDbLine
 10
5443.9519733459
 20
6167.1545451835
 30
0.0
 11
5443.9519733459
 21
6202.8616873262
 31
0.0
  0
LINE
  5
1A5
330
1F
100
AcDbEntity
  8
0
  6
Continuous
 62
     7
370
    25
100
AcDbLine
 10
5403.9519733459
 20
6195.9053636137
 30
0.0
 11
5403.9519733459
 21
6174.110868896
 31
0.0
  0
LINE
  5
1A6
330
1F
100
AcDbEntity
  8
0
  6
Continuous
 62
     7
370
    25
100
AcDbLine
 10
5403.9519733459
 20
6075.0081162549
 30
0.0
 11
5403.9519733459
 21
5119.4061648392
 31
0.0
  0
LINE
  5
1A7
330
1F
100
AcDbEntity
  8
0
  6
Continuous
 62
     7
370
    25
100
AcDbLine
 10
5442.7019733459
 20
5084.4061648392
 30
0.0
 11
5442.7019733459
 21
5119.4061648392
 31
0.0
  0
LINE
  5
1A8
330
1F
100
AcDbEntity
  8
0
  6
Continuous
 62
     7
370
    25
100
AcDbLine
 10
5405.2019733459
 20
5119.4061648392
 30
0.0
 11
5405.2019733459
 21
5084.4061648392
 31
0.0
  0
LINE
  5
1A9
330
1F
100
AcDbEntity
  8
0
  6
Continuous
 62
     7
370
    25
100
AcDbLine
 10
5551.4519733459
 20
6958.1580440967
 30
0.0
 11
5708.9519733459
 21
6958.1580440967
 31
0.0
  0
LINE
  5
1AA
330
1F
100
AcDbEntity
  8
0
  6
Continuous
 62
     7
370
    25
100
AcDbLine
 10
5851.4519733459
 20
6958.1580440967
 30
0.0
 11
5965.4519733459
 21
6958.1580440967
 31
0.0
  0
LINE
  5
1AB
330
1F
100
AcDbEntity
  8
0
  6
Continuous
 62
     7
370
    25
100
AcDbLine
 10
5965.4519733459
 20
7008.1580440967
 30
0.0
 11
5851.4519733459
 21
7008.1580440967
 31
0.0
  0
LINE
  5
1AC
330
1F
100
AcDbEntity
  8
0
  6
Continuous
 62
     7
370
    25
100
AcDbLine
 10
5708.9519733459
 20
7008.1580440967
 30
0.0
 11
5551.4519733459
 21
7008.1580440967
 31
0.0
  0
LINE
  5
1AD
330
1F
100
AcDbEntity
  8
0
  6
Continuous
 62
     7
370
    25
100
AcDbLine
 10
5351.4519733459
 20
6326.2581162549
 30
0.0
 11
5346.4519733459
 21
6326.2581162549
 31
0.0
  0
LINE
  5
1AE
330
1F
100
AcDbEntity
  8
0
  6
Continuous
 62
     7
370
    25
100
AcDbLine
 10
5346.4519733459
 20
6301.2581162549
 30
0.0
 11
5351.4519733459
 21
6301.2581162549
 31
0.0
  0
LINE
  5
1AF
330
1F
100
AcDbEntity
  8
0
  6
Continuous
 62
     7
370
    25
100
AcDbLine
 10
5351.4519733459
 20
9125.0081162548
 30
0.0
 11
5346.451973345
 21
9125.0081162548
 31
0.0
  0
LINE
  5
1B0
330
1F
100
AcDbEntity
  8
0
  6
Continuous
 62
     7
370
    25
100
AcDbLine
 10
5351.4519733459
 20
8002.5081162549
 30
0.0
 11
5346.4519733449
 21
8002.5081162549
 31
0.0
  0
LINE
  5
1B1
330
1F
100
AcDbEntity
  8
0
  6
Continuous
 62
     7
370
    25
100
AcDbLine
 10
5351.4519733459
 20
6327.5081162549
 30
0.0
 11
5346.4519733459
 21
6327.5081162549
 31
0.0
  0
SPLINE
  5
1B2
330
1F
100
AcDbEntity
  8
0
  6
Continuous
 62
     7
370
    25
100
AcDbSpline
210
0.0
220
0.0
230
1.0
 70
     8
 71
     3
 72
     9
 73
     5
 74
     0
 42
0.00000001
 43
0.00000001
 40
0.0
 40
0.0
 40
0.0
 40
0.0
 40
0.4962229202406773
 40
1.0
 40
1.0
 40
1.0
 40
1.0
 10
5511.451973345899
 20
6961.908044096691
 30
0.0
 10
5511.410400662825
 20
6965.462887329772
 30
0.0
 10
5511.326622422486
 20
6972.626690306381
 30
0.0
 10
5513.072460258924
 20
6979.629958232234
 30
0.0
 10
5513.951973345898
 20
6983.158044096691
 30
0.0
  0
SPLINE
  5
1B3
330
1F
100
AcDbEntity
  8
0
  6
Continuous
 62
     7
370
    25
100
AcDbSpline
210
0.0
220
0.0
230
1.0
 70
     8
 71
     3
 72
    10
 73
     6
 74
     0
 42
0.00000001
 43
0.00000001
 40
0.0
 40
0.0
 40
0.0
 40
0.0
 40
0.3315739395275114
 40
0.67216254130417
 40
1.0
 40
1.0
 40
1.0
 40
1.0
 10
5513.951973345898
 20
6983.158044096691
 30
0.0
 10
5513.272313112737
 20
6985.459386441534
 30
0.0
 10
5511.894514392496
 20
6990.124638846846
 30
0.0
 10
5511.5224735695
 20
6997.294947937109
 30
0.0
 10
5511.475172643773
 20
7002.06735880254
 30
0.0
 10
5511.451973345899
 20
7004.408044096692
 30
0.0
  0
SPLINE
  5
1B4
330
1F
100
AcDbEntity
  8
0
  6
Continuous
 62
     7
370
    25
100
AcDbSpline
210
0.0
220
0.0
230
1.0
 70
     8
 71
     3
 72
     9
 73
     5
 74
     0
 42
0.00000001
 43
0.00000001
 40
0.0
 40
0.0
 40
0.0
 40
0.0
 40
0.4962229202406788
 40
1.0
 40
1.0
 40
1.0
 40
1.0
 10
5511.451973345899
 20
7004.408044096692
 30
0.0
 10
5511.410400662825
 20
7007.962887329772
 30
0.0
 10
5511.326622422486
 20
7015.126690306382
 30
0.0
 10
5513.072460258924
 20
7022.129958232234
 30
0.0
 10
5513.951973345898
 20
7025.658044096692
 30
0.0
  0
LINE
  5
1B5
330
1F
100
AcDbEntity
  8
0
  6
Continuous
 62
     7
370
    25
100
AcDbLine
 10
5548.9519733459
 20
7025.6580440967
 30
0.0
 11
5513.9519733459
 21
7025.6580440967
 31
0.0
  0
SPLINE
  5
1B6
330
1F
100
AcDbEntity
  8
0
  6
Continuous
 62
     7
370
    25
100
AcDbSpline
210
0.0
220
0.0
230
1.0
 70
     8
 71
     3
 72
    10
 73
     6
 74
     0
 42
0.00000001
 43
0.00000001
 40
0.0
 40
0.0
 40
0.0
 40
0.0
 40
0.3315739395276497
 40
0.6721625413044551
 40
1.0
 40
1.0
 40
1.0
 40
1.0
 10
5548.951973345898
 20
7025.658044096692
 30
0.0
 10
5549.631633579062
 20
7023.356701751848
 30
0.0
 10
5551.009432299304
 20
7018.691449346534
 30
0.0
 10
5551.381473122297
 20
7011.52114025627
 30
0.0
 10
5551.428774048024
 20
7006.74872939084
 30
0.0
 10
5551.451973345899
 20
7004.408044096692
 30
0.0
  0
SPLINE
  5
1B7
330
1F
100
AcDbEntity
  8
0
  6
Continuous
 62
     7
370
    25
100
AcDbSpline
210
0.0
220
0.0
230
1.0
 70
     8
 71
     3
 72
     9
 73
     5
 74
     0
 42
0.00000001
 43
0.00000001
 40
0.0
 40
0.0
 40
0.0
 40
0.0
 40
0.4962229202406773
 40
0.9999999999999999
 40
0.9999999999999999
 40
0.9999999999999999
 40
0.9999999999999999
 10
5551.451973345899
 20
7004.408044096692
 30
0.0
 10
5551.493546028973
 20
7000.853200863609
 30
0.0
 10
5551.577324269312
 20
6993.689397887001
 30
0.0
 10
5549.831486432873
 20
6986.686129961149
 30
0.0
 10
5548.951973345898
 20
6983.158044096691
 30
0.0
  0
LINE
  5
1B8
330
1F
100
AcDbEntity
  8
0
  6
Continuous
 62
     7
370
    25
100
AcDbLine
 10
5548.9519733459
 20
6983.1580440967
 30
0.0
 11
5513.9519733459
 21
6983.1580440967
 31
0.0
  0
SPLINE
  5
1B9
330
1F
100
AcDbEntity
  8
0
  6
Continuous
 62
     7
370
    25
100
AcDbSpline
210
0.0
220
0.0
230
1.0
 70
     8
 71
     3
 72
    10
 73
     6
 74
     0
 42
0.00000001
 43
0.00000001
 40
0.0
 40
0.0
 40
0.0
 40
0.0
 40
0.3315739395275106
 40
0.672162541304169
 40
0.9999999999999999
 40
0.9999999999999999
 40
0.9999999999999999
 40
0.9999999999999999
 10
5548.951973345898
 20
6983.158044096691
 30
0.0
 10
5549.631633579062
 20
6980.85670175185
 30
0.0
 10
5551.009432299303
 20
6976.191449346537
 30
0.0
 10
5551.381473122297
 20
6969.021140256273
 30
0.0
 10
5551.428774048024
 20
6964.248729390843
 30
0.0
 10
5551.451973345899
 20
6961.908044096691
 30
0.0
  0
SPLINE
  5
1BA
330
1F
100
AcDbEntity
  8
0
  6
Continuous
 62
     7
370
    25
100
AcDbSpline
210
0.0
220
0.0
230
1.0
 70
     8
 71
     3
 72
     9
 73
     5
 74
     0
 42
0.00000001
 43
0.00000001
 40
0.0
 40
0.0
 40
0.0
 40
0.0
 40
0.4962229202406786
 40
1.0
 40
1.0
 40
1.0
 40
1.0
 10
5551.451973345899
 20
6961.908044096691
 30
0.0
 10
5551.493546028973
 20
6958.35320086361
 30
0.0
 10
5551.577324269312
 20
6951.189397887002
 30
0.0
 10
5549.831486432874
 20
6944.186129961149
 30
0.0
 10
5548.951973345898
 20
6940.658044096692
 30
0.0
  0
LINE
  5
1BB
330
1F
100
AcDbEntity
  8
0
  6
Continuous
 62
     7
370
    25
100
AcDbLine
 10
5548.9519733459
 20
6940.6580440967
 30
0.0
 11
5513.9519733459
 21
6940.6580440967
 31
0.0
  0
SPLINE
  5
1BC
330
1F
100
AcDbEntity
  8
0
  6
Continuous
 62
     7
370
    25
100
AcDbSpline
210
0.0
220
0.0
230
1.0
 70
     8
 71
     3
 72
    10
 73
     6
 74
     0
 42
0.00000001
 43
0.00000001
 40
0.0
 40
0.0
 40
0.0
 40
0.0
 40
0.3315739395276493
 40
0.6721625413044544
 40
1.0
 40
1.0
 40
1.0
 40
1.0
 10
5513.951973345899
 20
6940.658044096692
 30
0.0
 10
5513.272313112736
 20
6942.959386441534
 30
0.0
 10
5511.894514392495
 20
6947.624638846849
 30
0.0
 10
5511.5224735695
 20
6954.794947937113
 30
0.0
 10
5511.475172643773
 20
6959.567358802542
 30
0.0
 10
5511.451973345899
 20
6961.908044096691
 30
0.0
  0
LINE
  5
1BD
330
1F
100
AcDbEntity
  8
0
  6
Continuous
 62
     7
370
    25
100
AcDbLine
 10
5551.4519733459
 20
7004.4080440967
 30
0.0
 11
5551.4519733459
 21
6961.9080440967
 31
0.0
  0
SPLINE
  5
1BE
330
1F
100
AcDbEntity
  8
0
  6
Continuous
 62
     7
370
    25
100
AcDbSpline
210
0.0
220
0.0
230
1.0
 70
    24
 71
     3
 72
     9
 73
     5
 74
     0
 42
0.00000001
 43
0.00000001
 40
0.0
 40
0.0
 40
0.0
 40
0.0
 40
0.4054701119094976
 40
1.0
 40
1.0
 40
1.0
 40
1.0
 10
5513.951973345898
 20
7025.658044096692
 30
0.0
 10
5513.18624661745
 20
7025.658044096692
 30
0.0
 10
5511.297755441511
 20
7025.658044096692
 30
0.0
 10
5511.394472289242
 20
7025.658044096692
 30
0.0
 10
5511.451973345899
 20
7025.658044096692
 30
0.0
  0
SPLINE
  5
1BF
330
1F
100
AcDbEntity
  8
0
  6
Continuous
 62
     7
370
    25
100
AcDbSpline
210
0.0
220
0.0
230
1.0
 70
    24
 71
     3
 72
     9
 73
     5
 74
     0
 42
0.00000001
 43
0.00000001
 40
0.0
 40
0.0
 40
0.0
 40
0.0
 40
0.7169484261070697
 40
1.0
 40
1.0
 40
1.0
 40
1.0
 10
5511.451973345899
 20
6940.658044096692
 30
0.0
 10
5511.376207166411
 20
6940.658044096692
 30
0.0
 10
5511.270528463831
 20
6940.658044096692
 30
0.0
 10
5513.360424876906
 20
6940.658044096692
 30
0.0
 10
5513.951973345899
 20
6940.658044096692
 30
0.0
  0
SPLINE
  5
1C0
330
1F
100
AcDbEntity
  8
0
  6
Continuous
 62
     7
370
    25
100
AcDbSpline
210
0.0
220
0.0
230
1.0
 70
    24
 71
     3
 72
     9
 73
     5
 74
     0
 42
0.00000001
 43
0.00000001
 40
0.0
 40
0.0
 40
0.0
 40
0.0
 40
0.405470111909537
 40
1.0
 40
1.0
 40
1.0
 40
1.0
 10
5548.951973345898
 20
6940.658044096692
 30
0.0
 10
5549.717700074347
 20
6940.658044096692
 30
0.0
 10
5551.606191250287
 20
6940.658044096692
 30
0.0
 10
5551.509474402556
 20
6940.658044096692
 30
0.0
 10
5551.451973345899
 20
6940.658044096692
 30
0.0
  0
LINE
  5
1C1
330
1F
100
AcDbEntity
  8
0
  6
Continuous
 62
     7
370
    25
100
AcDbLine
 10
5551.4519733459
 20
6961.9080440967
 30
0.0
 11
5551.4519733459
 21
6940.6580440967
 31
0.0
  0
SPLINE
  5
1C2
330
1F
100
AcDbEntity
  8
0
  6
Continuous
 62
     7
370
    25
100
AcDbSpline
210
0.0
220
0.0
230
1.0
 70
    24
 71
     3
 72
     9
 73
     5
 74
     0
 42
0.00000001
 43
0.00000001
 40
0.0
 40
0.0
 40
0.0
 40
0.0
 40
0.7169484261070697
 40
1.0
 40
1.0
 40
1.0
 40
1.0
 10
5551.451973345899
 20
7025.658044096692
 30
0.0
 10
5551.527739525387
 20
7025.658044096692
 30
0.0
 10
5551.633418227967
 20
7025.658044096692
 30
0.0
 10
5549.543521814892
 20
7025.658044096692
 30
0.0
 10
5548.951973345898
 20
7025.658044096692
 30
0.0
  0
LINE
  5
1C3
330
1F
100
AcDbEntity
  8
0
  6
Continuous
 62
     7
370
    25
100
AcDbLine
 10
5551.4519733459
 20
7025.6580440967
 30
0.0
 11
5551.4519733459
 21
7004.4080440967
 31
0.0
  0
LINE
  5
1C4
330
1F
100
AcDbEntity
  8
0
  6
Continuous
 62
     7
370
    25
100
AcDbLine
 10
5763.9519733459
 20
7056.6815139465
 30
0.0
 11
5763.9519733459
 21
6888.1580440967
 31
0.0
  0
LINE
  5
1C5
330
1F
100
AcDbEntity
  8
0
  6
Continuous
 62
     7
370
    25
100
AcDbLine
 10
5763.9519733459
 20
7078.1580440967
 30
0.0
 11
5763.9519733459
 21
7056.6815139465
 31
0.0
  0
LINE
  5
1C6
330
1F
100
AcDbEntity
  8
0
  6
Continuous
 62
     7
370
    25
100
AcDbLine
 10
5788.9519733459
 20
7056.6815139465
 30
0.0
 11
5788.9519733459
 21
6888.1580440967
 31
0.0
  0
LINE
  5
1C7
330
1F
100
AcDbEntity
  8
0
  6
Continuous
 62
     7
370
    25
100
AcDbLine
 10
5788.9519733459
 20
7078.1580440967
 30
0.0
 11
5788.9519733459
 21
7056.6815139465
 31
0.0
  0
LINE
  5
1C8
330
1F
100
AcDbEntity
  8
0
  6
Continuous
 62
     7
370
    25
100
AcDbLine
 10
5751.4519733459
 20
6895.6580440967
 30
0.0
 11
5751.4519733459
 21
7070.6580440967
 31
0.0
  0
LINE
  5
1C9
330
1F
100
AcDbEntity
  8
0
  6
Continuous
 62
     7
370
    25
100
AcDbLine
 10
5851.4519733459
 20
7035.6605012059
 30
0.0
 11
5788.9519733459
 21
7035.6605012059
 31
0.0
  0
LINE
  5
1CA
330
1F
100
AcDbEntity
  8
0
  6
Continuous
 62
     7
370
    25
100
AcDbLine
 10
5851.4519733459
 20
7035.6605012059
 30
0.0
 11
5851.4519733459
 21
6972.2046829059
 31
0.0
  0
LINE
  5
1CB
330
1F
100
AcDbEntity
  8
0
  6
Continuous
 62
     7
370
    25
100
AcDbLine
 10
5851.4519733459
 20
6972.2046829059
 30
0.0
 11
5788.9519733459
 21
6972.2046829059
 31
0.0
  0
LINE
  5
1CC
330
1F
100
AcDbEntity
  8
0
  6
Continuous
 62
     7
370
    25
100
AcDbLine
 10
5851.4519733459
 20
6919.7022257967
 30
0.0
 11
5788.9519733459
 21
6919.7022257967
 31
0.0
  0
LINE
  5
1CD
330
1F
100
AcDbEntity
  8
0
  6
Continuous
 62
     7
370
    25
100
AcDbLine
 10
5851.4519733459
 20
6972.2046829059
 30
0.0
 11
5851.4519733459
 21
6919.7022257967
 31
0.0
  0
LINE
  5
1CE
330
1F
100
AcDbEntity
  8
0
  6
Continuous
 62
     7
370
    25
100
AcDbLine
 10
5708.9519733459
 20
6943.1580440967
 30
0.0
 11
5708.9519733459
 21
7023.1580440967
 31
0.0
  0
LINE
  5
1CF
330
1F
100
AcDbEntity
  8
0
  6
Continuous
 62
     7
370
    25
100
AcDbLine
 10
5851.4519733459
 20
7046.6138623967
 30
0.0
 11
5788.9519733459
 21
7046.6138623967
 31
0.0
  0
LINE
  5
1D0
330
1F
100
AcDbEntity
  8
0
  6
Continuous
 62
     7
370
    25
100
AcDbLine
 10
5851.4519733459
 20
7046.6138623967
 30
0.0
 11
5851.4519733459
 21
7035.6605012059
 31
0.0
  0
LINE
  5
1D1
330
1F
100
AcDbEntity
  8
0
  6
Continuous
 62
     7
370
    25
100
AcDbLine
 10
5851.4519733459
 20
6919.7022257967
 30
0.0
 11
5851.4519733459
 21
6915.3193874669
 31
0.0
  0
LINE
  5
1D2
330
1F
100
AcDbEntity
  8
0
  6
Continuous
 62
     7
370
    25
100
AcDbLine
 10
5851.4519733459
 20
6915.3193874669
 30
0.0
 11
5788.9519733459
 21
6915.3193874669
 31
0.0
  0
LINE
  5
1D3
330
1F
100
AcDbEntity
  8
0
  6
Continuous
 62
     7
370
    25
100
AcDbLine
 10
5851.4519733459
 20
7050.9967007265
 30
0.0
 11
5788.9519733459
 21
7050.9967007265
 31
0.0
  0
LINE
  5
1D4
330
1F
100
AcDbEntity
  8
0
  6
Continuous
 62
     7
370
    25
100
AcDbLine
 10
5851.4519733459
 20
7050.9967007265
 30
0.0
 11
5851.4519733459
 21
7046.6138623967
 31
0.0
  0
ARC
  5
1D5
330
1F
100
AcDbEntity
  8
0
  6
Continuous
 62
     7
370
    25
100
AcDbCircle
 10
5198.9519733459
 20
9035.0081162548
 30
0.0
 40
15.0
100
AcDbArc
 50
90.0
 51
180.0
  0
LINE
  5
1D6
330
1F
100
AcDbEntity
  8
0
  6
Continuous
 62
     7
370
    25
100
AcDbLine
 10
5198.9519733459
 20
9050.0081162548
 30
0.0
 11
5198.9519733459
 21
9040.0081162548
 31
0.0
  0
ARC
  5
1D7
330
1F
100
AcDbEntity
  8
0
  6
Continuous
 62
     7
370
    25
100
AcDbCircle
 10
5198.9519733459
 20
9035.0081162548
 30
0.0
 40
5.0
100
AcDbArc
 50
90.0
 51
180.0
  0
LINE
  5
1D8
330
1F
100
AcDbEntity
  8
0
  6
Continuous
 62
     7
370
    25
100
AcDbLine
 10
5193.9519733459
 20
9035.0081162548
 30
0.0
 11
5183.9519733459
 21
9035.0081162548
 31
0.0
  0
LINE
  5
1D9
330
1F
100
AcDbEntity
  8
0
  6
Continuous
 62
     7
370
    25
100
AcDbLine
 10
5183.9519733459
 20
8067.5081162548
 30
0.0
 11
5193.9519733459
 21
8067.5081162548
 31
0.0
  0
LINE
  5
1DA
330
1F
100
AcDbEntity
  8
0
  6
Continuous
 62
     7
370
    25
100
AcDbLine
 10
5183.9519733459
 20
8067.5081162548
 30
0.0
 11
5183.9519733459
 21
9035.0081162548
 31
0.0
  0
LINE
  5
1DB
330
1F
100
AcDbEntity
  8
0
  6
Continuous
 62
     7
370
    25
100
AcDbLine
 10
5193.9519733459
 20
8067.5081162548
 30
0.0
 11
5193.9519733459
 21
9035.0081162548
 31
0.0
  0
ARC
  5
1DC
330
1F
100
AcDbEntity
  8
0
  6
Continuous
 62
     7
370
    25
100
AcDbCircle
 10
5198.9519733459
 20
8067.5081162548
 30
0.0
 40
15.0
100
AcDbArc
 50
180.0
 51
270.0
  0
ARC
  5
1DD
330
1F
100
AcDbEntity
  8
0
  6
Continuous
 62
     7
370
    25
100
AcDbCircle
 10
5198.9519733459
 20
8067.5081162548
 30
0.0
 40
5.0
100
AcDbArc
 50
180.0
 51
270.0
  0
LINE
  5
1DE
330
1F
100
AcDbEntity
  8
0
  6
Continuous
 62
     7
370
    25
100
AcDbLine
 10
5198.9519733459
 20
8062.5081162548
 30
0.0
 11
5198.9519733459
 21
8052.5081162548
 31
0.0
  0
LINE
  5
1DF
330
1F
100
AcDbEntity
  8
0
  6
Continuous
 62
     7
370
    25
100
AcDbLine
 10
5351.4519733449
 20
8052.5081162548
 30
0.0
 11
5198.9519733459
 21
8052.5081162548
 31
0.0
  0
LINE
  5
1E0
330
1F
100
AcDbEntity
  8
0
  6
Continuous
 62
     7
370
    25
100
AcDbLine
 10
5351.4519733449
 20
8062.5081162548
 30
0.0
 11
5198.9519733459
 21
8062.5081162548
 31
0.0
  0
LINE
  5
1E1
330
1F
100
AcDbEntity
  8
0
  6
Continuous
 62
     7
370
    25
100
AcDbLine
 10
5198.9519733459
 20
9040.0081162548
 30
0.0
 11
5351.4519733449
 21
9040.0081162548
 31
0.0
  0
LINE
  5
1E2
330
1F
100
AcDbEntity
  8
0
  6
Continuous
 62
     7
370
    25
100
AcDbLine
 10
5198.9519733459
 20
9050.0081162548
 30
0.0
 11
5351.4519733449
 21
9050.0081162548
 31
0.0
  0
CIRCLE
  5
1E3
330
1F
100
AcDbEntity
  8
0
  6
Continuous
 62
     7
370
    25
100
AcDbCircle
 10
5426.4519733449
 20
8150.0081162549
 30
0.0
 40
25.0
  0
LINE
  5
1E4
330
1F
100
AcDbEntity
  8
0
  6
Continuous
 62
     7
370
    25
100
AcDbLine
 10
5351.4519733449
 20
9175.0081162549
 30
0.0
 11
5351.4519733449
 21
7925.0081162549
 31
0.0
  0
LINE
  5
1E5
330
1F
100
AcDbEntity
  8
0
  6
Continuous
 62
     7
370
    25
100
AcDbLine
 10
5501.4519733449
 20
9175.0081162549
 30
0.0
 11
5351.4519733449
 21
9175.0081162549
 31
0.0
  0
LINE
  5
1E6
330
1F
100
AcDbEntity
  8
0
  6
Continuous
 62
     7
370
    25
100
AcDbLine
 10
5501.4519733449
 20
7925.0081162549
 30
0.0
 11
5501.4519733449
 21
9175.0081162549
 31
0.0
  0
CIRCLE
  5
1E7
330
1F
100
AcDbEntity
  8
0
  6
Continuous
 62
     7
370
    25
100
AcDbCircle
 10
5426.4519733449
 20
8950.0081162549
 30
0.0
 40
25.0
  0
LINE
  5
1E8
330
1F
100
AcDbEntity
  8
0
  6
Continuous
 62
     7
370
    25
100
AcDbLine
 10
5351.4519733449
 20
7925.0081162549
 30
0.0
 11
5501.4519733449
 21
7925.0081162549
 31
0.0
  0
LINE
  5
1E9
330
1F
100
AcDbEntity
  8
0
  6
Continuous
 62
     7
370
    25
100
AcDbLine
 10
5346.4519733449
 20
8001.2581162549
 30
0.0
 11
5346.4519733449
 21
7976.2581162549
 31
0.0
  0
LINE
  5
1EA
330
1F
100
AcDbEntity
  8
0
  6
Continuous
 62
     7
370
    25
100
AcDbLine
 10
5346.4519733449
 20
9098.7581162549
 30
0.0
 11
5346.4519733449
 21
9123.7581162549
 31
0.0
  0
LINE
  5
1EB
330
1F
100
AcDbEntity
  8
0
  6
Continuous
 62
     7
370
    25
100
AcDbLine
 10
5511.4519733459
 20
6908.1580440967
 30
0.0
 11
5511.4519733459
 21
7058.1580440967
 31
0.0
  0
LINE
  5
1EC
330
1F
100
AcDbEntity
  8
0
  6
Continuous
 62
     7
370
    25
100
AcDbLine
 10
5473.9519733459
 20
4924.4061648392
 30
0.0
 11
5373.9519733459
 21
4924.4061648392
 31
0.0
  0
LINE
  5
1ED
330
1F
100
AcDbEntity
  8
0
  6
Continuous
 62
     7
370
    25
100
AcDbLine
 10
5473.9519733459
 20
4924.4061648392
 30
0.0
 11
5473.9519733459
 21
4904.4061648392
 31
0.0
  0
LINE
  5
1EE
330
1F
100
AcDbEntity
  8
0
  6
Continuous
 62
     7
370
    25
100
AcDbLine
 10
5473.9519733459
 20
4904.4061648392
 30
0.0
 11
5373.9519733459
 21
4904.4061648392
 31
0.0
  0
LINE
  5
1EF
330
1F
100
AcDbEntity
  8
0
  6
Continuous
 62
     7
370
    25
100
AcDbLine
 10
5373.9519733459
 20
4924.4061648392
 30
0.0
 11
5373.9519733459
 21
4904.4061648392
 31
0.0
  0
LINE
  5
1F0
330
1F
100
AcDbEntity
  8
0
  6
Continuous
 62
     7
370
    25
100
AcDbLine
 10
5438.9519733459
 20
4886.9061648392
 30
0.0
 11
5408.9519733459
 21
4886.9061648392
 31
0.0
  0
LINE
  5
1F1
330
1F
100
AcDbEntity
  8
0
  6
Continuous
 62
     7
370
    25
100
AcDbLine
 10
5436.4519733459
 20
4979.4061648392
 30
0.0
 11
5411.4519733459
 21
4979.4061648392
 31
0.0
  0
ELLIPSE
  5
1F2
330
1F
100
AcDbEntity
  8
0
  6
Continuous
 62
     7
370
    25
100
AcDbEllipse
 10
5243.7759378429
 20
4914.4061648392
 30
0.0
 11
310.3189371418594
 21
0.0
 31
0.0
210
0.0
220
0.0
230
1.0
 40
0.5361109642
 41
1.031247488784161
 42
1.074826660447567
  0
LINE
  5
1F3
330
1F
100
AcDbEntity
  8
0
  6
Continuous
 62
     7
370
    25
100
AcDbLine
 10
5403.2019733459
 20
4924.4061648392
 30
0.0
 11
5403.2019733459
 21
5057.1377748631
 31
0.0
  0
LINE
  5
1F4
330
1F
100
AcDbEntity
  8
0
  6
Continuous
 62
     7
370
    25
100
AcDbLine
 10
5368.2019733459
 20
4924.4061648392
 30
0.0
 11
5368.2019733459
 21
5066.9061648392
 31
0.0
  0
LINE
  5
1F5
330
1F
100
AcDbEntity
  8
0
  6
Continuous
 62
     7
370
    25
100
AcDbLine
 10
5373.9519733459
 20
4924.4061648392
 30
0.0
 11
5368.2019733459
 21
4924.4061648392
 31
0.0
  0
LINE
  5
1F6
330
1F
100
AcDbEntity
  8
0
  6
Continuous
 62
     7
370
    25
100
AcDbLine
 10
5403.2019733459
 20
4769.4061648392
 30
0.0
 11
5403.2019733459
 21
4888.7246307533
 31
0.0
  0
LINE
  5
1F7
330
1F
100
AcDbEntity
  8
0
  6
Continuous
 62
     7
370
    25
100
AcDbLine
 10
5368.2019733459
 20
4761.9061648392
 30
0.0
 11
5368.2019733459
 21
4904.4061648392
 31
0.0
  0
LINE
  5
1F8
330
1F
100
AcDbEntity
  8
0
  6
Continuous
 62
     7
370
    25
100
AcDbLine
 10
5368.2019733459
 20
4904.4061648392
 30
0.0
 11
5373.9519733459
 21
4904.4061648392
 31
0.0
  0
LINE
  5
1F9
330
1F
100
AcDbEntity
  8
0
  6
Continuous
 62
     7
370
    25
100
AcDbLine
 10
5479.7019733459
 20
4924.4061648392
 30
0.0
 11
5479.7019733459
 21
5066.9061648392
 31
0.0
  0
LINE
  5
1FA
330
1F
100
AcDbEntity
  8
0
  6
Continuous
 62
     7
370
    25
100
AcDbLine
 10
5444.7019733459
 20
4924.4061648392
 30
0.0
 11
5444.7019733459
 21
5057.1377748631
 31
0.0
  0
ELLIPSE
  5
1FB
330
1F
100
AcDbEntity
  8
0
  6
Continuous
 62
     7
370
    25
100
AcDbEllipse
 10
5604.1280088489
 20
4914.4061648392
 30
0.0
 11
310.3189371418602
 21
0.0
 31
0.0
210
0.0
220
0.0
230
1.0
 40
0.5361109642
 41
2.066765993142223
 42
2.110345164805628
  0
LINE
  5
1FC
330
1F
100
AcDbEntity
  8
0
  6
Continuous
 62
     7
370
    25
100
AcDbLine
 10
5479.7019733459
 20
4924.4061648392
 30
0.0
 11
5473.9519733459
 21
4924.4061648392
 31
0.0
  0
LINE
  5
1FD
330
1F
100
AcDbEntity
  8
0
  6
Continuous
 62
     7
370
    25
100
AcDbLine
 10
5444.7019733459
 20
4769.4061648392
 30
0.0
 11
5444.7019733459
 21
4888.7246307533
 31
0.0
  0
LINE
  5
1FE
330
1F
100
AcDbEntity
  8
0
  6
Continuous
 62
     7
370
    25
100
AcDbLine
 10
5479.7019733459
 20
4761.9061648392
 30
0.0
 11
5479.7019733459
 21
4904.4061648392
 31
0.0
  0
LINE
  5
1FF
330
1F
100
AcDbEntity
  8
0
  6
Continuous
 62
     7
370
    25
100
AcDbLine
 10
5473.9519733459
 20
4904.4061648392
 30
0.0
 11
5479.7019733459
 21
4904.4061648392
 31
0.0
  0
ELLIPSE
  5
200
330
1F
100
AcDbEntity
  8
0
  6
Continuous
 62
     7
370
    25
100
AcDbEllipse
 10
5358.9519733459
 20
4914.4061648392
 30
0.0
 11
242.487113059643
 21
0.0
 31
0.0
210
0.0
220
0.0
230
1.0
 40
0.5773502692
 41
1.299422247474154
 42
1.387284120242602
  0
ELLIPSE
  5
201
330
1F
100
AcDbEntity
  8
0
  6
Continuous
 62
     7
370
    25
100
AcDbEllipse
 10
5488.9519733459
 20
4914.4061648392
 30
0.0
 11
242.4871130596421
 21
0.0
 31
0.0
210
0.0
220
0.0
230
1.0
 40
0.5773502692
 41
1.754308533347192
 42
1.84217040611564
  0
LINE
  5
202
330
1F
100
AcDbEntity
  8
0
  6
Continuous
 62
     7
370
    25
100
AcDbLine
 10
5391.4519733459
 20
5084.4061648392
 30
0.0
 11
5391.4519733459
 21
5060.7257972974
 31
0.0
  0
LINE
  5
203
330
1F
100
AcDbEntity
  8
0
  6
Continuous
 62
     7
370
    25
100
AcDbLine
 10
5423.9519733459
 20
5084.4061648392
 30
0.0
 11
5423.9519733459
 21
5049.2826515471
 31
0.0
  0
LINE
  5
204
330
1F
100
AcDbEntity
  8
0
  6
Continuous
 62
     7
370
    25
100
AcDbLine
 10
5391.4519733459
 20
5084.4061648392
 30
0.0
 11
5423.9519733459
 21
5084.4061648392
 31
0.0
  0
LINE
  5
205
330
1F
100
AcDbEntity
  8
0
  6
Continuous
 62
     7
370
    25
100
AcDbLine
 10
5456.4519733459
 20
5084.4061648392
 30
0.0
 11
5456.4519733459
 21
5060.7257972974
 31
0.0
  0
LINE
  5
206
330
1F
100
AcDbEntity
  8
0
  6
Continuous
 62
     7
370
    25
100
AcDbLine
 10
5423.9519733459
 20
5084.4061648392
 30
0.0
 11
5456.4519733459
 21
5084.4061648392
 31
0.0
  0
LINE
  5
207
330
1F
100
AcDbEntity
  8
0
  6
Continuous
 62
     7
370
    25
100
AcDbLine
 10
5423.9519733459
 20
5119.4061648392
 30
0.0
 11
5403.9519733459
 21
5119.4061648392
 31
0.0
  0
LINE
  5
208
330
1F
100
AcDbEntity
  8
0
  6
Continuous
 62
     7
370
    25
100
AcDbLine
 10
5443.9519733459
 20
5119.4061648392
 30
0.0
 11
5423.9519733459
 21
5119.4061648392
 31
0.0
  0
ARC
  5
209
330
1F
100
AcDbEntity
  8
0
  6
Continuous
 62
     7
370
    25
100
AcDbCircle
 10
5351.4519733459
 20
7040.6580440966
 30
0.0
 40
5.000000000001819
100
AcDbArc
 50
90.0
 51
180.0
  0
ARC
  5
20A
330
1F
100
AcDbEntity
  8
0
  6
Continuous
 62
     7
370
    25
100
AcDbCircle
 10
5351.4519733459
 20
6920.6580440966
 30
0.0
 40
5.0
100
AcDbArc
 50
180.0
 51
270.0
  0
ARC
  5
20B
330
1F
100
AcDbEntity
  8
0
  6
Continuous
 62
     7
370
    25
100
AcDbCircle
 10
5351.4519733459
 20
6920.6580440966
 30
0.0
 40
15.00000000000091
100
AcDbArc
 50
180.0
 51
270.0
  0
ARC
  5
20C
330
1F
100
AcDbEntity
  8
0
  6
Continuous
 62
     7
370
    25
100
AcDbCircle
 10
5351.4519733459
 20
7040.6580440966
 30
0.0
 40
15.0
100
AcDbArc
 50
106.9279859705
 51
180.0
  0
LINE
  5
20D
330
1F
100
AcDbEntity
  8
0
  6
Continuous
 62
     7
370
    25
100
AcDbLine
 10
5346.4519733459
 20
7040.6580440966
 30
0.0
 11
5346.4519733459
 21
6920.6580440966
 31
0.0
  0
LINE
  5
20E
330
1F
100
AcDbEntity
  8
0
  6
Continuous
 62
     7
370
    25
100
AcDbLine
 10
5351.4519733459
 20
7040.6580440967
 30
0.0
 11
5346.4519733459
 21
7040.6580440967
 31
0.0
  0
LINE
  5
20F
330
1F
100
AcDbEntity
  8
0
  6
Continuous
 62
     7
370
    25
100
AcDbLine
 10
5351.4519733459
 20
6925.6580440967
 30
0.0
 11
5346.4519733459
 21
6925.6580440967
 31
0.0
  0
LINE
  5
210
330
1F
100
AcDbEntity
  8
0
  6
Continuous
 62
     7
370
    25
100
AcDbLine
 10
5965.4519733459
 20
6958.1580440967
 30
0.0
 11
5965.4519733459
 21
7008.1580440967
 31
0.0
  0
CIRCLE
  5
211
330
1F
100
AcDbEntity
  8
0
  6
Continuous
 62
     7
370
    25
100
AcDbCircle
 10
5426.4519733459
 20
7215.0081162549
 30
0.0
 40
24.99999999999909
  0
LINE
  5
212
330
1F
100
AcDbEntity
  8
0
  6
Continuous
 62
     7
370
    25
100
AcDbLine
 10
5501.4519733459
 20
6075.0081162549
 30
0.0
 11
5351.4519733459
 21
6075.0081162549
 31
0.0
  0
LINE
  5
213
330
1F
100
AcDbEntity
  8
0
  6
Continuous
 62
     7
370
    25
100
AcDbLine
 10
5351.4519733459
 20
6075.0081162549
 30
0.0
 11
5351.4519733459
 21
7325.0081162549
 31
0.0
  0
LINE
  5
214
330
1F
100
AcDbEntity
  8
0
  6
Continuous
 62
     7
370
    25
100
AcDbLine
 10
5501.4519733459
 20
7325.0081162549
 30
0.0
 11
5501.4519733459
 21
6075.0081162549
 31
0.0
  0
CIRCLE
  5
215
330
1F
100
AcDbEntity
  8
0
  6
Continuous
 62
     7
370
    25
100
AcDbCircle
 10
5426.4519733459
 20
6185.0081162549
 30
0.0
 40
24.99999999999909
  0
LINE
  5
216
330
1F
100
AcDbEntity
  8
0
  6
Continuous
 62
     7
370
    25
100
AcDbLine
 10
5351.4519733459
 20
7325.0081162549
 30
0.0
 11
5501.4519733459
 21
7325.0081162549
 31
0.0
  0
LINE
  5
217
330
1F
100
AcDbEntity
  8
0
  6
Continuous
 62
     7
370
    25
100
AcDbLine
 10
5341.4519733459
 20
7055.0081162549
 30
0.0
 11
5351.4519733459
 21
7055.0081162549
 31
0.0
  0
ARC
  5
218
330
1F
100
AcDbEntity
  8
0
  6
Continuous
 62
     7
370
    25
100
AcDbCircle
 10
5341.4519733459
 20
7050.0081162549
 30
0.0
 40
5.000000000000909
100
AcDbArc
 50
90.0
 51
180.0
  0
LINE
  5
219
330
1F
100
AcDbEntity
  8
0
  6
Continuous
 62
     7
370
    25
100
AcDbLine
 10
5336.4519733459
 20
6905.0081162549
 30
0.0
 11
5336.4519733459
 21
7050.0081162549
 31
0.0
  0
ARC
  5
21A
330
1F
100
AcDbEntity
  8
0
  6
Continuous
 62
     7
370
    25
100
AcDbCircle
 10
5341.4519733459
 20
6905.0081162549
 30
0.0
 40
5.000000000000909
100
AcDbArc
 50
180.0
 51
270.0
  0
LINE
  5
21B
330
1F
100
AcDbEntity
  8
0
  6
Continuous
 62
     7
370
    25
100
AcDbLine
 10
5351.4519733459
 20
6900.0081162549
 30
0.0
 11
5341.4519733459
 21
6900.0081162549
 31
0.0
  0
LINE
  5
21C
330
1F
100
AcDbEntity
  8
0
  6
Continuous
 62
     7
370
    25
100
AcDbLine
 10
5341.4519733459
 20
6890.0081162549
 30
0.0
 11
5351.4519733459
 21
6890.0081162549
 31
0.0
  0
ARC
  5
21D
330
1F
100
AcDbEntity
  8
0
  6
Continuous
 62
     7
370
    25
100
AcDbCircle
 10
5341.4519733459
 20
6905.0081162549
 30
0.0
 40
15.00000000000091
100
AcDbArc
 50
180.0
 51
270.0
  0
LINE
  5
21E
330
1F
100
AcDbEntity
  8
0
  6
Continuous
 62
     7
370
    25
100
AcDbLine
 10
5326.4519733459
 20
7050.0081162549
 30
0.0
 11
5326.4519733459
 21
6905.0081162549
 31
0.0
  0
ARC
  5
21F
330
1F
100
AcDbEntity
  8
0
  6
Continuous
 62
     7
370
    25
100
AcDbCircle
 10
5341.4519733459
 20
7050.0081162549
 30
0.0
 40
15.0
100
AcDbArc
 50
90.0
 51
180.0
  0
LINE
  5
220
330
1F
100
AcDbEntity
  8
0
  6
Continuous
 62
     7
370
    25
100
AcDbLine
 10
5351.4519733459
 20
7065.0081162549
 30
0.0
 11
5341.4519733459
 21
7065.0081162549
 31
0.0
  0
LINE
  5
221
330
1F
100
AcDbEntity
  8
0
  6
Continuous
 62
     7
370
    25
100
AcDbLine
 10
5346.4519733459
 20
6326.2581162549
 30
0.0
 11
5346.4519733459
 21
6301.2581162549
 31
0.0
  0
LINE
  5
222
330
1F
100
AcDbEntity
  8
0
  6
Continuous
 62
     7
370
    25
100
AcDbLine
 10
5346.451973345
 20
9123.7581162549
 30
0.0
 11
5346.451973345
 21
9125.0081162548
 31
0.0
  0
LINE
  5
223
330
1F
100
AcDbEntity
  8
0
  6
Continuous
 62
     7
370
    25
100
AcDbLine
 10
5346.4519733449
 20
8001.2581162549
 30
0.0
 11
5346.4519733449
 21
8002.5081162549
 31
0.0
  0
LINE
  5
224
330
1F
100
AcDbEntity
  8
0
  6
Continuous
 62
     7
370
    25
100
AcDbLine
 10
5346.4519733459
 20
6326.2581162549
 30
0.0
 11
5346.4519733459
 21
6327.5081162549
 31
0.0
  0
LINE
  5
225
330
1F
100
AcDbEntity
  8
0
  6
Continuous
 62
     8
370
    25
100
AcDbLine
 10
5398.9519733459
 20
4896.9061648392
 30
0.0
 11
5448.9519733459
 21
4896.9061648392
 31
0.0
  0
LINE
  5
226
330
1F
100
AcDbEntity
  8
0
  6
Continuous
 62
     8
370
    25
100
AcDbLine
 10
5351.4519733459
 20
7020.6580440967
 30
0.0
 11
5346.4519733459
 21
7020.6580440967
 31
0.0
  0
LINE
  5
227
330
1F
100
AcDbEntity
  8
0
  6
Continuous
 62
     8
370
    25
100
AcDbLine
 10
5351.4519733459
 20
6945.6580440967
 30
0.0
 11
5346.4519733459
 21
6945.6580440967
 31
0.0
  0
ARC
  5
228
330
1F
100
AcDbEntity
  8
0
  6
Continuous
 62
     7
370
    25
100
AcDbCircle
 10
3546.5360360437
 20
3335.7216249198
 30
0.0
 40
15.00000000000017
100
AcDbArc
 50
223.5756298267
 51
238.6808278062
  0
ARC
  5
229
330
1F
100
AcDbEntity
  8
0
  6
Continuous
 62
     7
370
    25
100
AcDbCircle
 10
3546.5360360437
 20
3333.5930766628
 30
0.0
 40
15.00000000000048
100
AcDbArc
 50
121.3191721938
 51
136.5295682622
  0
ARC
  5
22A
330
1F
100
AcDbEntity
  8
0
  6
Continuous
 62
     7
370
    25
100
AcDbCircle
 10
3570.9418860432
 20
3333.5930766628
 30
0.0
 40
15.0000000000002
100
AcDbArc
 50
43.5756298267
 51
58.6808278062
  0
ARC
  5
22B
330
1F
100
AcDbEntity
  8
0
  6
Continuous
 62
     7
370
    25
100
AcDbCircle
 10
3570.9418860432
 20
3335.7216249198
 30
0.0
 40
15.0000000000001
100
AcDbArc
 50
301.3191721938
 51
316.5295682622
  0
ARC
  5
22C
330
1F
100
AcDbEntity
  8
0
  6
Continuous
 62
     7
370
    25
100
AcDbCircle
 10
2206.5360360436
 20
3335.7216249199
 30
0.0
 40
15.00000000000017
100
AcDbArc
 50
223.5756298267
 51
238.6808278062
  0
ARC
  5
22D
330
1F
100
AcDbEntity
  8
0
  6
Continuous
 62
     7
370
    25
100
AcDbCircle
 10
2206.5360360436
 20
3333.5930766629
 30
0.0
 40
15.00000000000012
100
AcDbArc
 50
121.3191721938
 51
136.5295682622
  0
ARC
  5
22E
330
1F
100
AcDbEntity
  8
0
  6
Continuous
 62
     7
370
    25
100
AcDbCircle
 10
2230.9418860432
 20
3335.7216249199
 30
0.0
 40
15.0000000000001
100
AcDbArc
 50
301.3191721938
 51
316.5295682622
  0
ARC
  5
22F
330
1F
100
AcDbEntity
  8
0
  6
Continuous
 62
     7
370
    25
100
AcDbCircle
 10
2230.9418860432
 20
3333.5930766629
 30
0.0
 40
15.00000000000029
100
AcDbArc
 50
43.5756298267
 51
58.6808278062
  0
ARC
  5
230
330
1F
100
AcDbEntity
  8
0
  6
Continuous
 62
     7
370
    25
100
AcDbCircle
 10
2475.9418860431
 20
3343.5930766628
 30
0.0
 40
15.00000000000005
100
AcDbArc
 50
57.7083025434
 51
58.6808278062
  0
ARC
  5
231
330
1F
100
AcDbEntity
  8
0
  6
Continuous
 62
     7
370
    25
100
AcDbCircle
 10
2475.9418860431
 20
3345.7216249198
 30
0.0
 40
15.00000000000012
100
AcDbArc
 50
301.3191721938
 51
302.3544441536
  0
ARC
  5
232
330
1F
100
AcDbEntity
  8
0
  6
Continuous
 62
     7
370
    25
100
AcDbCircle
 10
2451.5360360436
 20
3343.5930766628
 30
0.0
 40
15.00000000000006
100
AcDbArc
 50
121.3191721938
 51
122.2870633086
  0
ARC
  5
233
330
1F
100
AcDbEntity
  8
0
  6
Continuous
 62
     7
370
    25
100
AcDbCircle
 10
2451.5360360436
 20
3345.7216249198
 30
0.0
 40
15.00000000000006
100
AcDbArc
 50
237.6472411645
 51
238.6808278062
  0
ARC
  5
234
330
1F
100
AcDbEntity
  8
0
  6
Continuous
 62
     7
370
    25
100
AcDbCircle
 10
3301.5360360436
 20
3345.7216249198
 30
0.0
 40
15.0
100
AcDbArc
 50
229.1151952716
 51
238.6808278062
  0
ARC
  5
235
330
1F
100
AcDbEntity
  8
0
  6
Continuous
 62
     7
370
    25
100
AcDbCircle
 10
3301.5360360436
 20
3343.5930766628
 30
0.0
 40
14.99999999999991
100
AcDbArc
 50
121.3191721938
 51
130.8872388111
  0
ARC
  5
236
330
1F
100
AcDbEntity
  8
0
  6
Continuous
 62
     7
370
    25
100
AcDbCircle
 10
3325.9418860431
 20
3345.7216249198
 30
0.0
 40
15.00000000000014
100
AcDbArc
 50
301.3191721938
 51
310.9769093491
  0
ARC
  5
237
330
1F
100
AcDbEntity
  8
0
  6
Continuous
 62
     7
370
    25
100
AcDbCircle
 10
3325.9418860431
 20
3343.5930766628
 30
0.0
 40
15.00000000000023
100
AcDbArc
 50
49.197975436
 51
52.2006516252
  0
LWPOLYLINE
  5
238
330
1F
100
AcDbEntity
  8
0
  6
Continuous
 62
     7
370
    25
100
AcDbPolyline
 90
        3
 70
   128
 43
0.0
 10
2233.7389610433
 20
3249.4073507913
 10
2232.8650498766
 20
3249.2697423864
 10
2232.0052024114
 20
3249.0819593016
  0
LWPOLYLINE
  5
239
330
1F
100
AcDbEntity
  8
0
  6
Continuous
 62
     7
370
    25
100
AcDbPolyline
 90
        3
 70
   128
 43
0.0
 10
2228.5326873274
 20
3247.7400084577
 10
2227.9273316826
 20
3247.3963002954
 10
2227.1820856678
 20
3246.9195769186
  0
ARC
  5
23A
330
1F
100
AcDbEntity
  8
0
  6
Continuous
 62
     7
370
    25
100
AcDbCircle
 10
2316.843739021
 20
3234.5275613611
 30
0.0
 40
15.00000000000037
100
AcDbArc
 50
55.6727826662
 51
82.7413844723
  0
LWPOLYLINE
  5
23B
330
1F
100
AcDbEntity
  8
0
  6
Continuous
 62
     7
370
    25
100
AcDbPolyline
 90
        3
 70
   128
 43
0.0
 10
2318.7389610433
 20
3209.4073507913
 10
2319.6128722101
 20
3209.5449591962
 10
2320.4727196753
 20
3209.7327422809
  0
LWPOLYLINE
  5
23C
330
1F
100
AcDbEntity
  8
0
  6
Continuous
 62
     7
370
    25
100
AcDbPolyline
 90
        3
 70
   128
 43
0.0
 10
2323.9452347593
 20
3211.0746931249
 10
2324.5505904041
 20
3211.4184012872
 10
2325.2958364189
 20
3211.895124664
  0
ARC
  5
23D
330
1F
100
AcDbEntity
  8
0
  6
Continuous
 62
     7
370
    25
100
AcDbCircle
 10
2235.6341830657
 20
3224.2871402214
 30
0.0
 40
14.99999999999992
100
AcDbArc
 50
235.6727826662
 51
262.7413844723
  0
ARC
  5
23E
330
1F
100
AcDbEntity
  8
0
  6
Continuous
 62
     7
370
    25
100
AcDbCircle
 10
3541.843739021
 20
3234.5275613611
 30
0.0
 40
15.00000000000037
100
AcDbArc
 50
55.6727826662
 51
82.7413844723
  0
LWPOLYLINE
  5
23F
330
1F
100
AcDbEntity
  8
0
  6
Continuous
 62
     7
370
    25
100
AcDbPolyline
 90
        3
 70
   128
 43
0.0
 10
3458.7389610433
 20
3249.4073507913
 10
3457.8650498766
 20
3249.2697423864
 10
3457.0052024114
 20
3249.0819593016
  0
LWPOLYLINE
  5
240
330
1F
100
AcDbEntity
  8
0
  6
Continuous
 62
     7
370
    25
100
AcDbPolyline
 90
        3
 70
   128
 43
0.0
 10
3453.5326873274
 20
3247.7400084577
 10
3452.9273316826
 20
3247.3963002954
 10
3452.1820856678
 20
3246.9195769186
  0
LWPOLYLINE
  5
241
330
1F
100
AcDbEntity
  8
0
  6
Continuous
 62
     7
370
    25
100
AcDbPolyline
 90
        3
 70
   128
 43
0.0
 10
3543.7389610433
 20
3209.4073507913
 10
3544.6128722101
 20
3209.5449591962
 10
3545.4727196753
 20
3209.7327422809
  0
LWPOLYLINE
  5
242
330
1F
100
AcDbEntity
  8
0
  6
Continuous
 62
     7
370
    25
100
AcDbPolyline
 90
        3
 70
   128
 43
0.0
 10
3548.9452347593
 20
3211.0746931249
 10
3549.5505904041
 20
3211.4184012872
 10
3550.2958364189
 20
3211.895124664
  0
ARC
  5
243
330
1F
100
AcDbEntity
  8
0
  6
Continuous
 62
     7
370
    25
100
AcDbCircle
 10
3460.6341830657
 20
3224.2871402214
 30
0.0
 40
14.99999999999998
100
AcDbArc
 50
235.6727826662
 51
262.7413844723
  0
LINE
  5
244
330
1F
100
AcDbEntity
  8
0
  6
Continuous
 62
     7
370
    25
100
AcDbLine
 10
2181.2389610433
 20
2996.9073507913
 30
0.0
 11
2181.2389610433
 21
2971.9073507913
 31
0.0
  0
LINE
  5
245
330
1F
100
AcDbEntity
  8
0
  6
Continuous
 62
     7
370
    25
100
AcDbLine
 10
2371.2389610433
 20
2971.9073507913
 30
0.0
 11
2371.2389610433
 21
2996.9073507913
 31
0.0
  0
LINE
  5
246
330
1F
100
AcDbEntity
  8
0
  6
Continuous
 62
     7
370
    25
100
AcDbLine
 10
2363.7389610433
 20
2996.9073507913
 30
0.0
 11
2363.7389610433
 21
3009.4073507913
 31
0.0
  0
LINE
  5
247
330
1F
100
AcDbEntity
  8
0
  6
Continuous
 62
     7
370
    25
100
AcDbLine
 10
2188.7389610433
 20
3009.4073507913
 30
0.0
 11
2188.7389610433
 21
2996.9073507913
 31
0.0
  0
LINE
  5
248
330
1F
100
AcDbEntity
  8
0
  6
Continuous
 62
     7
370
    25
100
AcDbLine
 10
2316.2389610433
 20
3009.4073507913
 30
0.0
 11
2316.2389610433
 21
3051.9073507913
 31
0.0
  0
LINE
  5
249
330
1F
100
AcDbEntity
  8
0
  6
Continuous
 62
     7
370
    25
100
AcDbLine
 10
2236.2389610433
 20
3051.9073507913
 30
0.0
 11
2236.2389610433
 21
3009.4073507913
 31
0.0
  0
LINE
  5
24A
330
1F
100
AcDbEntity
  8
0
  6
Continuous
 62
     7
370
    25
100
AcDbLine
 10
3406.2389610433
 20
2996.9073507913
 30
0.0
 11
3406.2389610433
 21
2971.9073507913
 31
0.0
  0
LINE
  5
24B
330
1F
100
AcDbEntity
  8
0
  6
Continuous
 62
     7
370
    25
100
AcDbLine
 10
3596.2389610433
 20
2971.9073507913
 30
0.0
 11
3596.2389610433
 21
2996.9073507913
 31
0.0
  0
LINE
  5
24C
330
1F
100
AcDbEntity
  8
0
  6
Continuous
 62
     7
370
    25
100
AcDbLine
 10
3588.7389610433
 20
2996.9073507913
 30
0.0
 11
3588.7389610433
 21
3009.4073507913
 31
0.0
  0
LINE
  5
24D
330
1F
100
AcDbEntity
  8
0
  6
Continuous
 62
     7
370
    25
100
AcDbLine
 10
3413.7389610433
 20
3009.4073507913
 30
0.0
 11
3413.7389610433
 21
2996.9073507913
 31
0.0
  0
LINE
  5
24E
330
1F
100
AcDbEntity
  8
0
  6
Continuous
 62
     7
370
    25
100
AcDbLine
 10
3541.2389610433
 20
3009.4073507913
 30
0.0
 11
3541.2389610433
 21
3051.9073507913
 31
0.0
  0
LINE
  5
24F
330
1F
100
AcDbEntity
  8
0
  6
Continuous
 62
     7
370
    25
100
AcDbLine
 10
3461.2389610433
 20
3051.9073507913
 30
0.0
 11
3461.2389610433
 21
3009.4073507913
 31
0.0
  0
LINE
  5
250
330
1F
100
AcDbEntity
  8
0
  6
Continuous
 62
     7
370
    25
100
AcDbLine
 10
2231.2389610433
 20
3346.4073507914
 30
0.0
 11
2231.2389610433
 21
3414.4073507923
 31
0.0
  0
LINE
  5
251
330
1F
100
AcDbEntity
  8
0
  6
Continuous
 62
     7
370
    25
100
AcDbLine
 10
2206.2389610433
 20
3414.4073507923
 30
0.0
 11
2206.2389610433
 21
3346.4073507914
 31
0.0
  0
LINE
  5
252
330
1F
100
AcDbEntity
  8
0
  6
Continuous
 62
     7
370
    25
100
AcDbLine
 10
3571.2389610433
 20
3346.4073507913
 30
0.0
 11
3571.2389610433
 21
3414.4073507913
 31
0.0
  0
LINE
  5
253
330
1F
100
AcDbEntity
  8
0
  6
Continuous
 62
     7
370
    25
100
AcDbLine
 10
3546.2389610433
 20
3414.4073507913
 30
0.0
 11
3546.2389610433
 21
3346.4073507913
 31
0.0
  0
LINE
  5
254
330
1F
100
AcDbEntity
  8
0
  6
Continuous
 62
     7
370
    25
100
AcDbLine
 10
2351.2389610433
 20
3249.4073507913
 30
0.0
 11
2351.2389610433
 21
3259.4073507913
 31
0.0
  0
LINE
  5
255
330
1F
100
AcDbEntity
  8
0
  6
Continuous
 62
     7
370
    25
100
AcDbLine
 10
2201.2389610433
 20
3259.4073507913
 30
0.0
 11
2201.2389610433
 21
3249.4073507913
 31
0.0
  0
LINE
  5
256
330
1F
100
AcDbEntity
  8
0
  6
Continuous
 62
     7
370
    25
100
AcDbLine
 10
3576.2389610433
 20
3249.4073507913
 30
0.0
 11
3576.2389610433
 21
3259.4073507913
 31
0.0
  0
LINE
  5
257
330
1F
100
AcDbEntity
  8
0
  6
Continuous
 62
     7
370
    25
100
AcDbLine
 10
3426.2389610433
 20
3259.4073507913
 30
0.0
 11
3426.2389610433
 21
3249.4073507913
 31
0.0
  0
LINE
  5
258
330
1F
100
AcDbEntity
  8
0
  6
Continuous
 62
     7
370
    25
100
AcDbLine
 10
2181.2389610434
 20
3322.9073507913
 30
0.0
 11
2181.2389610434
 21
3316.9073507913
 31
0.0
  0
LINE
  5
259
330
1F
100
AcDbEntity
  8
0
  6
Continuous
 62
     7
370
    25
100
AcDbLine
 10
2256.2389610434
 20
3316.9073507913
 30
0.0
 11
2256.2389610434
 21
3322.9073507913
 31
0.0
  0
LINE
  5
25A
330
1F
100
AcDbEntity
  8
0
  6
Continuous
 62
     7
370
    25
100
AcDbLine
 10
2426.2389610433
 20
3332.9073507913
 30
0.0
 11
2426.2389610433
 21
3326.9073507913
 31
0.0
  0
LINE
  5
25B
330
1F
100
AcDbEntity
  8
0
  6
Continuous
 62
     7
370
    25
100
AcDbLine
 10
2501.2389610433
 20
3326.9073507913
 30
0.0
 11
2501.2389610433
 21
3332.9073507913
 31
0.0
  0
LINE
  5
25C
330
1F
100
AcDbEntity
  8
0
  6
Continuous
 62
     7
370
    25
100
AcDbLine
 10
3276.2389610433
 20
3332.9073507913
 30
0.0
 11
3276.2389610433
 21
3326.9073507913
 31
0.0
  0
LINE
  5
25D
330
1F
100
AcDbEntity
  8
0
  6
Continuous
 62
     7
370
    25
100
AcDbLine
 10
3351.2389610433
 20
3326.9073507913
 30
0.0
 11
3351.2389610433
 21
3332.9073507913
 31
0.0
  0
LINE
  5
25E
330
1F
100
AcDbEntity
  8
0
  6
Continuous
 62
     7
370
    25
100
AcDbLine
 10
3521.2389610434
 20
3322.9073507913
 30
0.0
 11
3521.2389610434
 21
3316.9073507913
 31
0.0
  0
LINE
  5
25F
330
1F
100
AcDbEntity
  8
0
  6
Continuous
 62
     7
370
    25
100
AcDbLine
 10
3596.2389610434
 20
3316.9073507913
 30
0.0
 11
3596.2389610434
 21
3322.9073507913
 31
0.0
  0
LINE
  5
260
330
1F
100
AcDbEntity
  8
0
  6
Continuous
 62
     7
370
    25
100
AcDbLine
 10
2251.2389610433
 20
3209.4073507913
 30
0.0
 11
2251.2389610433
 21
3051.9073507913
 31
0.0
  0
LINE
  5
261
330
1F
100
AcDbEntity
  8
0
  6
Continuous
 62
     7
370
    25
100
AcDbLine
 10
2251.2389610433
 20
2909.4073507913
 30
0.0
 11
2251.2389610433
 21
2795.4073507913
 31
0.0
  0
LINE
  5
262
330
1F
100
AcDbEntity
  8
0
  6
Continuous
 62
     7
370
    25
100
AcDbLine
 10
2301.2389610433
 20
2795.4073507913
 30
0.0
 11
2301.2389610433
 21
2909.4073507913
 31
0.0
  0
LINE
  5
263
330
1F
100
AcDbEntity
  8
0
  6
Continuous
 62
     7
370
    25
100
AcDbLine
 10
2301.2389610433
 20
3051.9073507913
 30
0.0
 11
2301.2389610433
 21
3209.4073507913
 31
0.0
  0
LINE
  5
264
330
1F
100
AcDbEntity
  8
0
  6
Continuous
 62
     7
370
    25
100
AcDbLine
 10
3476.2389610433
 20
3209.4073507913
 30
0.0
 11
3476.2389610433
 21
3051.9073507913
 31
0.0
  0
LINE
  5
265
330
1F
100
AcDbEntity
  8
0
  6
Continuous
 62
     7
370
    25
100
AcDbLine
 10
3476.2389610433
 20
2909.4073507913
 30
0.0
 11
3476.2389610433
 21
2795.4073507913
 31
0.0
  0
LINE
  5
266
330
1F
100
AcDbEntity
  8
0
  6
Continuous
 62
     7
370
    25
100
AcDbLine
 10
3526.2389610433
 20
2795.4073507913
 30
0.0
 11
3526.2389610433
 21
2909.4073507913
 31
0.0
  0
LINE
  5
267
330
1F
100
AcDbEntity
  8
0
  6
Continuous
 62
     7
370
    25
100
AcDbLine
 10
3526.2389610433
 20
3051.9073507913
 30
0.0
 11
3526.2389610433
 21
3209.4073507913
 31
0.0
  0
LINE
  5
268
330
1F
100
AcDbEntity
  8
0
  6
Continuous
 62
     7
370
    25
100
AcDbLine
 10
2476.2389610432
 20
3356.4073507913
 30
0.0
 11
2476.2389610432
 21
3414.4073507922
 31
0.0
  0
LINE
  5
269
330
1F
100
AcDbEntity
  8
0
  6
Continuous
 62
     7
370
    25
100
AcDbLine
 10
2451.2389610432
 20
3414.4073507922
 30
0.0
 11
2451.2389610432
 21
3356.4073507913
 31
0.0
  0
LINE
  5
26A
330
1F
100
AcDbEntity
  8
0
  6
Continuous
 62
     7
370
    25
100
AcDbLine
 10
3326.2389610432
 20
3356.4073507913
 30
0.0
 11
3326.2389610432
 21
3414.4073507922
 31
0.0
  0
LINE
  5
26B
330
1F
100
AcDbEntity
  8
0
  6
Continuous
 62
     7
370
    25
100
AcDbLine
 10
3301.2389610432
 20
3414.4073507922
 30
0.0
 11
3301.2389610432
 21
3356.4073507913
 31
0.0
  0
SPLINE
  5
26C
330
1F
100
AcDbEntity
  8
0
  6
Continuous
 62
     7
370
    25
100
AcDbSpline
210
0.0
220
0.0
230
1.0
 70
     8
 71
     3
 72
     9
 73
     5
 74
     0
 42
0.00000001
 43
0.00000001
 40
0.0
 40
0.0
 40
0.0
 40
0.0
 40
0.472659224254
 40
1.0
 40
1.0
 40
1.0
 40
1.0
 10
3541.418452967756
 20
3322.907350791304
 30
0.0
 10
3540.474362100562
 20
3322.972682922301
 30
0.0
 10
3538.476959281047
 20
3323.110905404048
 30
0.0
 10
3536.622750285806
 20
3324.61446336814
 30
0.0
 10
3535.644950275861
 20
3325.407350791303
 30
0.0
  0
LINE
  5
26D
330
1F
100
AcDbEntity
  8
0
  6
Continuous
 62
     7
370
    25
100
AcDbLine
 10
3535.6449502759
 20
3343.9073507913
 30
0.0
 11
3535.6449502759
 21
3325.4073507913
 31
0.0
  0
SPLINE
  5
26E
330
1F
100
AcDbEntity
  8
0
  6
Continuous
 62
     7
370
    25
100
AcDbSpline
210
0.0
220
0.0
230
1.0
 70
     8
 71
     3
 72
     9
 73
     5
 74
     0
 42
0.00000001
 43
0.00000001
 40
0.0
 40
0.0
 40
0.0
 40
0.0
 40
0.5843443298746618
 40
1.0
 40
1.0
 40
1.0
 40
1.0
 10
3535.644950275861
 20
3343.907350791303
 30
0.0
 10
3536.733052931048
 20
3344.766361536769
 30
0.0
 10
3538.595144508834
 20
3346.23640360195
 30
0.0
 10
3540.589491381808
 20
3346.357158382197
 30
0.0
 10
3541.418452967756
 20
3346.407350791301
 30
0.0
  0
SPLINE
  5
26F
330
1F
100
AcDbEntity
  8
0
  6
Continuous
 62
     7
370
    25
100
AcDbSpline
210
0.0
220
0.0
230
1.0
 70
     8
 71
     3
 72
     9
 73
     5
 74
     0
 42
0.00000001
 43
0.00000001
 40
0.0
 40
0.0
 40
0.0
 40
0.0
 40
0.4726592242541232
 40
1.0
 40
1.0
 40
1.0
 40
1.0
 10
3541.418452967756
 20
3346.407350791301
 30
0.0
 10
3542.362543834952
 20
3346.342018660303
 30
0.0
 10
3544.359946654468
 20
3346.203796178555
 30
0.0
 10
3546.214155649709
 20
3344.700238214465
 30
0.0
 10
3547.191955659655
 20
3343.907350791302
 30
0.0
  0
LINE
  5
270
330
1F
100
AcDbEntity
  8
0
  6
Continuous
 62
     7
370
    25
100
AcDbLine
 10
3547.1919556597
 20
3343.9073507913
 30
0.0
 11
3547.1919556597
 21
3325.4073507913
 31
0.0
  0
SPLINE
  5
271
330
1F
100
AcDbEntity
  8
0
  6
Continuous
 62
     7
370
    25
100
AcDbSpline
210
0.0
220
0.0
230
1.0
 70
     8
 71
     3
 72
     9
 73
     5
 74
     0
 42
0.00000001
 43
0.00000001
 40
0.0
 40
0.0
 40
0.0
 40
0.0
 40
0.5843443298746224
 40
1.0
 40
1.0
 40
1.0
 40
1.0
 10
3547.191955659654
 20
3325.407350791303
 30
0.0
 10
3546.103853004467
 20
3324.548340045837
 30
0.0
 10
3544.24176142668
 20
3323.078297980654
 30
0.0
 10
3542.247414553705
 20
3322.957543200408
 30
0.0
 10
3541.418452967756
 20
3322.907350791304
 30
0.0
  0
LINE
  5
272
330
1F
100
AcDbEntity
  8
0
  6
Continuous
 62
     7
370
    25
100
AcDbLine
 10
3558.7389610434
 20
3346.4073507913
 30
0.0
 11
3576.0594691191
 21
3346.4073507913
 31
0.0
  0
SPLINE
  5
273
330
1F
100
AcDbEntity
  8
0
  6
Continuous
 62
     7
370
    25
100
AcDbSpline
210
0.0
220
0.0
230
1.0
 70
     8
 71
     3
 72
     9
 73
     5
 74
     0
 42
0.00000001
 43
0.00000001
 40
0.0
 40
0.0
 40
0.0
 40
0.0
 40
0.5843443298746522
 40
1.0
 40
1.0
 40
1.0
 40
1.0
 10
3570.285966427238
 20
3343.907350791303
 30
0.0
 10
3571.374069082426
 20
3344.766361536769
 30
0.0
 10
3573.236160660213
 20
3346.236403601951
 30
0.0
 10
3575.230507533187
 20
3346.357158382197
 30
0.0
 10
3576.059469119135
 20
3346.407350791301
 30
0.0
  0
SPLINE
  5
274
330
1F
100
AcDbEntity
  8
0
  6
Continuous
 62
     7
370
    25
100
AcDbSpline
210
0.0
220
0.0
230
1.0
 70
     8
 71
     3
 72
     9
 73
     5
 74
     0
 42
0.00000001
 43
0.00000001
 40
0.0
 40
0.0
 40
0.0
 40
0.0
 40
0.865960471897706
 40
0.9999999999999999
 40
0.9999999999999999
 40
0.9999999999999999
 40
0.9999999999999999
 10
3558.738961043448
 20
3346.407350791302
 30
0.0
 10
3562.226488051875
 20
3346.168912041415
 30
0.0
 10
3566.253839324369
 20
3345.893566043966
 30
0.0
 10
3569.809383027168
 20
3344.142114526234
 30
0.0
 10
3570.285966427238
 20
3343.907350791303
 30
0.0
  0
LINE
  5
275
330
1F
100
AcDbEntity
  8
0
  6
Continuous
 62
     7
370
    25
100
AcDbLine
 10
3541.4184529678
 20
3346.4073507913
 30
0.0
 11
3558.7389610434
 21
3346.4073507913
 31
0.0
  0
SPLINE
  5
276
330
1F
100
AcDbEntity
  8
0
  6
Continuous
 62
     7
370
    25
100
AcDbSpline
210
0.0
220
0.0
230
1.0
 70
     8
 71
     3
 72
     9
 73
     5
 74
     0
 42
0.00000001
 43
0.00000001
 40
0.0
 40
0.0
 40
0.0
 40
0.0
 40
0.3219001480455979
 40
1.0
 40
1.0
 40
1.0
 40
1.0
 10
3547.191955659655
 20
3343.907350791302
 30
0.0
 10
3548.36336210902
 20
3344.432100345015
 30
0.0
 10
3552.002398799367
 20
3346.062262856275
 30
0.0
 10
3556.016797725769
 20
3346.267904930926
 30
0.0
 10
3558.738961043448
 20
3346.407350791302
 30
0.0
  0
LINE
  5
277
330
1F
100
AcDbEntity
  8
0
  6
Continuous
 62
     7
370
    25
100
AcDbLine
 10
3570.2859664272
 20
3343.9073507913
 30
0.0
 11
3570.2859664272
 21
3325.4073507913
 31
0.0
  0
SPLINE
  5
278
330
1F
100
AcDbEntity
  8
0
  6
Continuous
 62
     7
370
    25
100
AcDbSpline
210
0.0
220
0.0
230
1.0
 70
     8
 71
     3
 72
     9
 73
     5
 74
     0
 42
0.00000001
 43
0.00000001
 40
0.0
 40
0.0
 40
0.0
 40
0.0
 40
0.3219001480455793
 40
1.0
 40
1.0
 40
1.0
 40
1.0
 10
3570.285966427241
 20
3325.407350791301
 30
0.0
 10
3569.114559977875
 20
3324.882601237589
 30
0.0
 10
3565.475523287528
 20
3323.252438726331
 30
0.0
 10
3561.461124361126
 20
3323.04679665168
 30
0.0
 10
3558.738961043447
 20
3322.907350791304
 30
0.0
  0
SPLINE
  5
279
330
1F
100
AcDbEntity
  8
0
  6
Continuous
 62
     7
370
    25
100
AcDbSpline
210
0.0
220
0.0
230
1.0
 70
     8
 71
     3
 72
     9
 73
     5
 74
     0
 42
0.00000001
 43
0.00000001
 40
0.0
 40
0.0
 40
0.0
 40
0.0
 40
0.8659604718976489
 40
1.0
 40
1.0
 40
1.0
 40
1.0
 10
3558.738961043447
 20
3322.907350791304
 30
0.0
 10
3555.25143403502
 20
3323.145789541193
 30
0.0
 10
3551.224082762526
 20
3323.421135538646
 30
0.0
 10
3547.668539059724
 20
3325.172587056373
 30
0.0
 10
3547.191955659654
 20
3325.407350791303
 30
0.0
  0
SPLINE
  5
27A
330
1F
100
AcDbEntity
  8
0
  6
Continuous
 62
     7
370
    25
100
AcDbSpline
210
0.0
220
0.0
230
1.0
 70
     8
 71
     3
 72
     9
 73
     5
 74
     0
 42
0.00000001
 43
0.00000001
 40
0.0
 40
0.0
 40
0.0
 40
0.0
 40
0.4726592242541554
 40
1.0
 40
1.0
 40
1.0
 40
1.0
 10
3576.059469119134
 20
3322.907350791304
 30
0.0
 10
3575.11537825194
 20
3322.972682922301
 30
0.0
 10
3573.117975432426
 20
3323.110905404048
 30
0.0
 10
3571.263766437185
 20
3324.614463368139
 30
0.0
 10
3570.285966427241
 20
3325.407350791301
 30
0.0
  0
SPLINE
  5
27B
330
1F
100
AcDbEntity
  8
0
  6
Continuous
 62
     7
370
    25
100
AcDbSpline
210
0.0
220
0.0
230
1.0
 70
     8
 71
     3
 72
     9
 73
     5
 74
     0
 42
0.00000001
 43
0.00000001
 40
0.0
 40
0.0
 40
0.0
 40
0.0
 40
0.4726592242540095
 40
1.0
 40
1.0
 40
1.0
 40
1.0
 10
3576.059469119135
 20
3346.407350791301
 30
0.0
 10
3577.00355998633
 20
3346.342018660304
 30
0.0
 10
3579.000962805846
 20
3346.203796178556
 30
0.0
 10
3580.855171801086
 20
3344.700238214465
 30
0.0
 10
3581.832971811032
 20
3343.907350791302
 30
0.0
  0
LINE
  5
27C
330
1F
100
AcDbEntity
  8
0
  6
Continuous
 62
     7
370
    25
100
AcDbLine
 10
3581.832971811
 20
3343.9073507913
 30
0.0
 11
3581.832971811
 21
3325.4073507913
 31
0.0
  0
SPLINE
  5
27D
330
1F
100
AcDbEntity
  8
0
  6
Continuous
 62
     7
370
    25
100
AcDbSpline
210
0.0
220
0.0
230
1.0
 70
     8
 71
     3
 72
     9
 73
     5
 74
     0
 42
0.00000001
 43
0.00000001
 40
0.0
 40
0.0
 40
0.0
 40
0.0
 40
0.5843443298745221
 40
1.0
 40
1.0
 40
1.0
 40
1.0
 10
3581.832971811031
 20
3325.407350791302
 30
0.0
 10
3580.744869155845
 20
3324.548340045836
 30
0.0
 10
3578.882777578061
 20
3323.078297980654
 30
0.0
 10
3576.888430705083
 20
3322.957543200408
 30
0.0
 10
3576.059469119134
 20
3322.907350791304
 30
0.0
  0
LINE
  5
27E
330
1F
100
AcDbEntity
  8
0
  6
Continuous
 62
     7
370
    25
100
AcDbLine
 10
3538.7389610434
 20
3346.4073507913
 30
0.0
 11
3541.4184529678
 21
3346.4073507913
 31
0.0
  0
LINE
  5
27F
330
1F
100
AcDbEntity
  8
0
  6
Continuous
 62
     7
370
    25
100
AcDbLine
 10
3576.0594691191
 20
3346.4073507913
 30
0.0
 11
3578.7389610434
 21
3346.4073507913
 31
0.0
  0
LINE
  5
280
330
1F
100
AcDbEntity
  8
0
  6
Continuous
 62
     7
370
    25
100
AcDbLine
 10
2207.1919556596
 20
3343.9073507914
 30
0.0
 11
2207.1919556596
 21
3325.4073507914
 31
0.0
  0
SPLINE
  5
281
330
1F
100
AcDbEntity
  8
0
  6
Continuous
 62
     7
370
    25
100
AcDbSpline
210
0.0
220
0.0
230
1.0
 70
     8
 71
     3
 72
     9
 73
     5
 74
     0
 42
0.00000001
 43
0.00000001
 40
0.0
 40
0.0
 40
0.0
 40
0.0
 40
0.3219001480455979
 40
1.0
 40
1.0
 40
1.0
 40
1.0
 10
2207.19195565958
 20
3343.907350791375
 30
0.0
 10
2208.363362108946
 20
3344.432100345088
 30
0.0
 10
2212.002398799292
 20
3346.062262856348
 30
0.0
 10
2216.016797725694
 20
3346.267904930999
 30
0.0
 10
2218.738961043373
 20
3346.407350791375
 30
0.0
  0
SPLINE
  5
282
330
1F
100
AcDbEntity
  8
0
  6
Continuous
 62
     7
370
    25
100
AcDbSpline
210
0.0
220
0.0
230
1.0
 70
     8
 71
     3
 72
     9
 73
     5
 74
     0
 42
0.00000001
 43
0.00000001
 40
0.0
 40
0.0
 40
0.0
 40
0.0
 40
0.865960471897706
 40
0.9999999999999999
 40
0.9999999999999999
 40
0.9999999999999999
 40
0.9999999999999999
 10
2218.738961043373
 20
3346.407350791375
 30
0.0
 10
2222.226488051801
 20
3346.168912041488
 30
0.0
 10
2226.253839324294
 20
3345.893566044039
 30
0.0
 10
2229.809383027093
 20
3344.142114526307
 30
0.0
 10
2230.285966427163
 20
3343.907350791376
 30
0.0
  0
LINE
  5
283
330
1F
100
AcDbEntity
  8
0
  6
Continuous
 62
     7
370
    25
100
AcDbLine
 10
2230.2859664272
 20
3343.9073507914
 30
0.0
 11
2230.2859664272
 21
3325.4073507914
 31
0.0
  0
SPLINE
  5
284
330
1F
100
AcDbEntity
  8
0
  6
Continuous
 62
     7
370
    25
100
AcDbSpline
210
0.0
220
0.0
230
1.0
 70
     8
 71
     3
 72
     9
 73
     5
 74
     0
 42
0.00000001
 43
0.00000001
 40
0.0
 40
0.0
 40
0.0
 40
0.0
 40
0.3219001480455793
 40
1.0
 40
1.0
 40
1.0
 40
1.0
 10
2230.285966427165
 20
3325.407350791374
 30
0.0
 10
2229.1145599778
 20
3324.882601237662
 30
0.0
 10
2225.475523287453
 20
3323.252438726403
 30
0.0
 10
2221.461124361051
 20
3323.046796651753
 30
0.0
 10
2218.738961043372
 20
3322.907350791376
 30
0.0
  0
SPLINE
  5
285
330
1F
100
AcDbEntity
  8
0
  6
Continuous
 62
     7
370
    25
100
AcDbSpline
210
0.0
220
0.0
230
1.0
 70
     8
 71
     3
 72
     9
 73
     5
 74
     0
 42
0.00000001
 43
0.00000001
 40
0.0
 40
0.0
 40
0.0
 40
0.0
 40
0.8659604718976489
 40
1.0
 40
1.0
 40
1.0
 40
1.0
 10
2218.738961043372
 20
3322.907350791376
 30
0.0
 10
2215.251434034945
 20
3323.145789541265
 30
0.0
 10
2211.224082762451
 20
3323.421135538718
 30
0.0
 10
2207.668539059649
 20
3325.172587056446
 30
0.0
 10
2207.191955659579
 20
3325.407350791376
 30
0.0
  0
LINE
  5
286
330
1F
100
AcDbEntity
  8
0
  6
Continuous
 62
     7
370
    25
100
AcDbLine
 10
2201.4184529677
 20
3346.4073507914
 30
0.0
 11
2218.7389610434
 21
3346.4073507914
 31
0.0
  0
SPLINE
  5
287
330
1F
100
AcDbEntity
  8
0
  6
Continuous
 62
     7
370
    25
100
AcDbSpline
210
0.0
220
0.0
230
1.0
 70
     8
 71
     3
 72
     9
 73
     5
 74
     0
 42
0.00000001
 43
0.00000001
 40
0.0
 40
0.0
 40
0.0
 40
0.0
 40
0.4726592242541232
 40
1.0
 40
1.0
 40
1.0
 40
1.0
 10
2201.418452967681
 20
3346.407350791374
 30
0.0
 10
2202.362543834877
 20
3346.342018660376
 30
0.0
 10
2204.359946654392
 20
3346.203796178628
 30
0.0
 10
2206.214155649634
 20
3344.700238214537
 30
0.0
 10
2207.19195565958
 20
3343.907350791375
 30
0.0
  0
SPLINE
  5
288
330
1F
100
AcDbEntity
  8
0
  6
Continuous
 62
     7
370
    25
100
AcDbSpline
210
0.0
220
0.0
230
1.0
 70
     8
 71
     3
 72
     9
 73
     5
 74
     0
 42
0.00000001
 43
0.00000001
 40
0.0
 40
0.0
 40
0.0
 40
0.0
 40
0.5843443298746522
 40
1.0
 40
1.0
 40
1.0
 40
1.0
 10
2230.285966427163
 20
3343.907350791376
 30
0.0
 10
2231.374069082351
 20
3344.766361536841
 30
0.0
 10
2233.236160660139
 20
3346.236403602024
 30
0.0
 10
2235.230507533112
 20
3346.35715838227
 30
0.0
 10
2236.05946911906
 20
3346.407350791374
 30
0.0
  0
LINE
  5
289
330
1F
100
AcDbEntity
  8
0
  6
Continuous
 62
     7
370
    25
100
AcDbLine
 10
2218.7389610434
 20
3346.4073507914
 30
0.0
 11
2236.0594691191
 21
3346.4073507914
 31
0.0
  0
SPLINE
  5
28A
330
1F
100
AcDbEntity
  8
0
  6
Continuous
 62
     7
370
    25
100
AcDbSpline
210
0.0
220
0.0
230
1.0
 70
     8
 71
     3
 72
     9
 73
     5
 74
     0
 42
0.00000001
 43
0.00000001
 40
0.0
 40
0.0
 40
0.0
 40
0.0
 40
0.472659224254
 40
1.0
 40
1.0
 40
1.0
 40
1.0
 10
2201.418452967681
 20
3322.907350791376
 30
0.0
 10
2200.474362100487
 20
3322.972682922373
 30
0.0
 10
2198.476959280972
 20
3323.110905404121
 30
0.0
 10
2196.622750285731
 20
3324.614463368212
 30
0.0
 10
2195.644950275786
 20
3325.407350791376
 30
0.0
  0
LINE
  5
28B
330
1F
100
AcDbEntity
  8
0
  6
Continuous
 62
     7
370
    25
100
AcDbLine
 10
2195.6449502758
 20
3343.9073507914
 30
0.0
 11
2195.6449502758
 21
3325.4073507914
 31
0.0
  0
SPLINE
  5
28C
330
1F
100
AcDbEntity
  8
0
  6
Continuous
 62
     7
370
    25
100
AcDbSpline
210
0.0
220
0.0
230
1.0
 70
     8
 71
     3
 72
     9
 73
     5
 74
     0
 42
0.00000001
 43
0.00000001
 40
0.0
 40
0.0
 40
0.0
 40
0.0
 40
0.5843443298746618
 40
1.0
 40
1.0
 40
1.0
 40
1.0
 10
2195.644950275787
 20
3343.907350791376
 30
0.0
 10
2196.733052930973
 20
3344.766361536841
 30
0.0
 10
2198.59514450876
 20
3346.236403602023
 30
0.0
 10
2200.589491381733
 20
3346.35715838227
 30
0.0
 10
2201.418452967681
 20
3346.407350791374
 30
0.0
  0
SPLINE
  5
28D
330
1F
100
AcDbEntity
  8
0
  6
Continuous
 62
     7
370
    25
100
AcDbSpline
210
0.0
220
0.0
230
1.0
 70
     8
 71
     3
 72
     9
 73
     5
 74
     0
 42
0.00000001
 43
0.00000001
 40
0.0
 40
0.0
 40
0.0
 40
0.0
 40
0.5843443298746224
 40
1.0
 40
1.0
 40
1.0
 40
1.0
 10
2207.191955659579
 20
3325.407350791376
 30
0.0
 10
2206.103853004392
 20
3324.548340045909
 30
0.0
 10
2204.241761426605
 20
3323.078297980727
 30
0.0
 10
2202.24741455363
 20
3322.95754320048
 30
0.0
 10
2201.418452967681
 20
3322.907350791376
 30
0.0
  0
SPLINE
  5
28E
330
1F
100
AcDbEntity
  8
0
  6
Continuous
 62
     7
370
    25
100
AcDbSpline
210
0.0
220
0.0
230
1.0
 70
     8
 71
     3
 72
     9
 73
     5
 74
     0
 42
0.00000001
 43
0.00000001
 40
0.0
 40
0.0
 40
0.0
 40
0.0
 40
0.4726592242541554
 40
1.0
 40
1.0
 40
1.0
 40
1.0
 10
2236.059469119059
 20
3322.907350791376
 30
0.0
 10
2235.115378251865
 20
3322.972682922374
 30
0.0
 10
2233.117975432351
 20
3323.110905404121
 30
0.0
 10
2231.26376643711
 20
3324.614463368212
 30
0.0
 10
2230.285966427165
 20
3325.407350791374
 30
0.0
  0
SPLINE
  5
28F
330
1F
100
AcDbEntity
  8
0
  6
Continuous
 62
     7
370
    25
100
AcDbSpline
210
0.0
220
0.0
230
1.0
 70
     8
 71
     3
 72
     9
 73
     5
 74
     0
 42
0.00000001
 43
0.00000001
 40
0.0
 40
0.0
 40
0.0
 40
0.0
 40
0.4726592242540095
 40
1.0
 40
1.0
 40
1.0
 40
1.0
 10
2236.05946911906
 20
3346.407350791374
 30
0.0
 10
2237.003559986255
 20
3346.342018660377
 30
0.0
 10
2239.000962805771
 20
3346.203796178629
 30
0.0
 10
2240.855171801011
 20
3344.700238214537
 30
0.0
 10
2241.832971810957
 20
3343.907350791374
 30
0.0
  0
LINE
  5
290
330
1F
100
AcDbEntity
  8
0
  6
Continuous
 62
     7
370
    25
100
AcDbLine
 10
2241.832971811
 20
3343.9073507914
 30
0.0
 11
2241.832971811
 21
3325.4073507914
 31
0.0
  0
SPLINE
  5
291
330
1F
100
AcDbEntity
  8
0
  6
Continuous
 62
     7
370
    25
100
AcDbSpline
210
0.0
220
0.0
230
1.0
 70
     8
 71
     3
 72
     9
 73
     5
 74
     0
 42
0.00000001
 43
0.00000001
 40
0.0
 40
0.0
 40
0.0
 40
0.0
 40
0.5843443298745221
 40
1.0
 40
1.0
 40
1.0
 40
1.0
 10
2241.832971810956
 20
3325.407350791374
 30
0.0
 10
2240.74486915577
 20
3324.548340045908
 30
0.0
 10
2238.882777577986
 20
3323.078297980726
 30
0.0
 10
2236.888430705009
 20
3322.95754320048
 30
0.0
 10
2236.059469119059
 20
3322.907350791376
 30
0.0
  0
LINE
  5
292
330
1F
100
AcDbEntity
  8
0
  6
Continuous
 62
     7
370
    25
100
AcDbLine
 10
2198.7389610434
 20
3346.4073507914
 30
0.0
 11
2201.4184529677
 21
3346.4073507914
 31
0.0
  0
LINE
  5
293
330
1F
100
AcDbEntity
  8
0
  6
Continuous
 62
     7
370
    25
100
AcDbLine
 10
2236.0594691191
 20
3346.4073507914
 30
0.0
 11
2238.7389610434
 21
3346.4073507914
 31
0.0
  0
SPLINE
  5
294
330
1F
100
AcDbEntity
  8
0
  6
Continuous
 62
     7
370
    25
100
AcDbSpline
210
0.0
220
0.0
230
1.0
 70
     8
 71
     3
 72
     9
 73
     5
 74
     0
 42
0.00000001
 43
0.00000001
 40
0.0
 40
0.0
 40
0.0
 40
0.0
 40
0.472659224254004
 40
1.0
 40
1.0
 40
1.0
 40
1.0
 10
2475.907909616198
 20
3356.4073507913
 30
0.0
 10
2477.406359656209
 20
3356.342018660303
 30
0.0
 10
2480.576614171764
 20
3356.203796178555
 30
0.0
 10
2483.519593115477
 20
3354.700238214463
 30
0.0
 10
2485.071545914658
 20
3353.9073507913
 30
0.0
  0
LINE
  5
295
330
1F
100
AcDbEntity
  8
0
  6
Continuous
 62
     7
370
    25
100
AcDbLine
 10
2485.0715459147
 20
3335.4073507913
 30
0.0
 11
2485.0715459147
 21
3353.9073507913
 31
0.0
  0
SPLINE
  5
296
330
1F
100
AcDbEntity
  8
0
  6
Continuous
 62
     7
370
    25
100
AcDbSpline
210
0.0
220
0.0
230
1.0
 70
     8
 71
     3
 72
     9
 73
     5
 74
     0
 42
0.00000001
 43
0.00000001
 40
0.0
 40
0.0
 40
0.0
 40
0.0
 40
0.5843443298746577
 40
1.0
 40
1.0
 40
1.0
 40
1.0
 10
2485.071545914657
 20
3335.4073507913
 30
0.0
 10
2483.344522040309
 20
3334.548340045834
 30
0.0
 10
2480.389031953292
 20
3333.078297980653
 30
0.0
 10
2477.223627800532
 20
3332.957543200406
 30
0.0
 10
2475.907909616198
 20
3332.907350791302
 30
0.0
  0
SPLINE
  5
297
330
1F
100
AcDbEntity
  8
0
  6
Continuous
 62
     7
370
    25
100
AcDbSpline
210
0.0
220
0.0
230
1.0
 70
     8
 71
     3
 72
     9
 73
     5
 74
     0
 42
0.00000001
 43
0.00000001
 40
0.0
 40
0.0
 40
0.0
 40
0.0
 40
0.4726592242541358
 40
1.0
 40
1.0
 40
1.0
 40
1.0
 10
2475.907909616198
 20
3332.907350791302
 30
0.0
 10
2474.409459576187
 20
3332.9726829223
 30
0.0
 10
2471.23920506063
 20
3333.110905404048
 30
0.0
 10
2468.296226116918
 20
3334.614463368139
 30
0.0
 10
2466.744273317737
 20
3335.407350791301
 30
0.0
  0
LINE
  5
298
330
1F
100
AcDbEntity
  8
0
  6
Continuous
 62
     7
370
    25
100
AcDbLine
 10
2466.7442733177
 20
3335.4073507913
 30
0.0
 11
2466.7442733177
 21
3353.9073507913
 31
0.0
  0
SPLINE
  5
299
330
1F
100
AcDbEntity
  8
0
  6
Continuous
 62
     7
370
    25
100
AcDbSpline
210
0.0
220
0.0
230
1.0
 70
     8
 71
     3
 72
     9
 73
     5
 74
     0
 42
0.00000001
 43
0.00000001
 40
0.0
 40
0.0
 40
0.0
 40
0.0
 40
0.5843443298746109
 40
1.0
 40
1.0
 40
1.0
 40
1.0
 10
2466.744273317738
 20
3353.9073507913
 30
0.0
 10
2468.471297192087
 20
3354.766361536766
 30
0.0
 10
2471.426787279102
 20
3356.236403601949
 30
0.0
 10
2474.592191431865
 20
3356.357158382195
 30
0.0
 10
2475.907909616198
 20
3356.4073507913
 30
0.0
  0
SPLINE
  5
29A
330
1F
100
AcDbEntity
  8
0
  6
Continuous
 62
     7
370
    25
100
AcDbSpline
210
0.0
220
0.0
230
1.0
 70
     8
 71
     3
 72
     9
 73
     5
 74
     0
 42
0.00000001
 43
0.00000001
 40
0.0
 40
0.0
 40
0.0
 40
0.0
 40
0.3219001480455977
 40
1.0
 40
1.0
 40
1.0
 40
1.0
 10
2466.744273317737
 20
3335.407350791301
 30
0.0
 10
2465.662212356071
 20
3334.882601237588
 30
0.0
 10
2462.300732194488
 20
3333.252438726328
 30
0.0
 10
2458.592519417305
 20
3333.046796651678
 30
0.0
 10
2456.077980882081
 20
3332.907350791301
 30
0.0
  0
SPLINE
  5
29B
330
1F
100
AcDbEntity
  8
0
  6
Continuous
 62
     7
370
    25
100
AcDbSpline
210
0.0
220
0.0
230
1.0
 70
     8
 71
     3
 72
     9
 73
     5
 74
     0
 42
0.00000001
 43
0.00000001
 40
0.0
 40
0.0
 40
0.0
 40
0.0
 40
0.8659604718976557
 40
1.0
 40
1.0
 40
1.0
 40
1.0
 10
2456.077980882083
 20
3356.407350791299
 30
0.0
 10
2459.29950730497
 20
3356.16891204141
 30
0.0
 10
2463.01968452718
 20
3355.893566043957
 30
0.0
 10
2466.304039876584
 20
3354.142114526231
 30
0.0
 10
2466.744273317738
 20
3353.9073507913
 30
0.0
  0
LINE
  5
29C
330
1F
100
AcDbEntity
  8
0
  6
Continuous
 62
     7
370
    25
100
AcDbLine
 10
2475.9079096162
 20
3356.4073507913
 30
0.0
 11
2456.0779808821
 21
3356.4073507913
 31
0.0
  0
SPLINE
  5
29D
330
1F
100
AcDbEntity
  8
0
  6
Continuous
 62
     7
370
    25
100
AcDbSpline
210
0.0
220
0.0
230
1.0
 70
     8
 71
     3
 72
     9
 73
     5
 74
     0
 42
0.00000001
 43
0.00000001
 40
0.0
 40
0.0
 40
0.0
 40
0.0
 40
0.8659604718977117
 40
1.0
 40
1.0
 40
1.0
 40
1.0
 10
2456.077980882081
 20
3332.907350791301
 30
0.0
 10
2452.856454459193
 20
3333.145789541188
 30
0.0
 10
2449.136277236983
 20
3333.421135538637
 30
0.0
 10
2445.851921887584
 20
3335.172587056369
 30
0.0
 10
2445.41168844643
 20
3335.4073507913
 30
0.0
  0
LINE
  5
29E
330
1F
100
AcDbEntity
  8
0
  6
Continuous
 62
     7
370
    25
100
AcDbLine
 10
2445.4116884464
 20
3335.4073507913
 30
0.0
 11
2445.4116884464
 21
3353.9073507913
 31
0.0
  0
SPLINE
  5
29F
330
1F
100
AcDbEntity
  8
0
  6
Continuous
 62
     7
370
    25
100
AcDbSpline
210
0.0
220
0.0
230
1.0
 70
     8
 71
     3
 72
     9
 73
     5
 74
     0
 42
0.00000001
 43
0.00000001
 40
0.0
 40
0.0
 40
0.0
 40
0.0
 40
0.3219001480455836
 40
1.0
 40
1.0
 40
1.0
 40
1.0
 10
2445.411688446427
 20
3353.907350791302
 30
0.0
 10
2446.493749408093
 20
3354.432100345014
 30
0.0
 10
2449.855229569676
 20
3356.062262856272
 30
0.0
 10
2453.56344234686
 20
3356.267904930923
 30
0.0
 10
2456.077980882083
 20
3356.407350791299
 30
0.0
  0
SPLINE
  5
2A0
330
1F
100
AcDbEntity
  8
0
  6
Continuous
 62
     7
370
    25
100
AcDbSpline
210
0.0
220
0.0
230
1.0
 70
     8
 71
     3
 72
     9
 73
     5
 74
     0
 42
0.00000001
 43
0.00000001
 40
0.0
 40
0.0
 40
0.0
 40
0.0
 40
0.4726592242541515
 40
1.0
 40
1.0
 40
1.0
 40
1.0
 10
2443.909032309235
 20
3356.407350791299
 30
0.0
 10
2444.154748646675
 20
3356.342018660303
 30
0.0
 10
2444.674608039725
 20
3356.203796178555
 30
0.0
 10
2445.157198708688
 20
3354.700238214464
 30
0.0
 10
2445.411688446427
 20
3353.907350791302
 30
0.0
  0
LINE
  5
2A1
330
1F
100
AcDbEntity
  8
0
  6
Continuous
 62
     7
370
    25
100
AcDbLine
 10
2456.0779808821
 20
3356.4073507913
 30
0.0
 11
2443.9090323092
 21
3356.4073507913
 31
0.0
  0
SPLINE
  5
2A2
330
1F
100
AcDbEntity
  8
0
  6
Continuous
 62
     7
370
    25
100
AcDbSpline
210
0.0
220
0.0
230
1.0
 70
     8
 71
     3
 72
     9
 73
     5
 74
     0
 42
0.00000001
 43
0.00000001
 40
0.0
 40
0.0
 40
0.0
 40
0.0
 40
0.5843443298746556
 40
1.0
 40
1.0
 40
1.0
 40
1.0
 10
2445.41168844643
 20
3335.4073507913
 30
0.0
 10
2445.128490495381
 20
3334.548340045834
 30
0.0
 10
2444.643848244963
 20
3333.078297980652
 30
0.0
 10
2444.124784216021
 20
3332.957543200406
 30
0.0
 10
2443.909032309233
 20
3332.907350791301
 30
0.0
  0
SPLINE
  5
2A3
330
1F
100
AcDbEntity
  8
0
  6
Continuous
 62
     7
370
    25
100
AcDbSpline
210
0.0
220
0.0
230
1.0
 70
     8
 71
     3
 72
     9
 73
     5
 74
     0
 42
0.00000001
 43
0.00000001
 40
0.0
 40
0.0
 40
0.0
 40
0.0
 40
0.7505156471202254
 40
1.0
 40
1.0
 40
1.0
 40
1.0
 10
2485.071545914658
 20
3353.9073507913
 30
0.0
 10
2484.78946209638
 20
3354.810034038414
 30
0.0
 10
2484.413608748938
 20
3356.012784774628
 30
0.0
 10
2484.010954932796
 20
3356.164993290504
 30
0.0
 10
2483.910499106042
 20
3356.20296693359
 30
0.0
  0
LINE
  5
2A4
330
1F
100
AcDbEntity
  8
0
  6
Continuous
 62
     7
370
    25
100
AcDbLine
 10
2483.7389610433
 20
3356.4073507913
 30
0.0
 11
2475.9079096162
 21
3356.4073507913
 31
0.0
  0
SPLINE
  5
2A5
330
1F
100
AcDbEntity
  8
0
  6
Continuous
 62
     7
370
    25
100
AcDbSpline
210
0.0
220
0.0
230
1.0
 70
     8
 71
     3
 72
     9
 73
     5
 74
     0
 42
0.00000001
 43
0.00000001
 40
0.0
 40
0.0
 40
0.0
 40
0.0
 40
0.3225849509417372
 40
1.0
 40
1.0
 40
1.0
 40
1.0
 10
2483.910495625966
 20
3333.142184086847
 30
0.0
 10
2484.040574333366
 20
3333.194046075342
 30
0.0
 10
2484.44381294391
 20
3333.35481609373
 30
0.0
 10
2484.818039329383
 20
3334.578445688995
 30
0.0
 10
2485.071545914657
 20
3335.4073507913
 30
0.0
  0
LINE
  5
2A6
330
1F
100
AcDbEntity
  8
0
  6
Continuous
 62
     7
370
    25
100
AcDbLine
 10
2443.1802093811
 20
3333.4083723365
 30
0.0
 11
2442.406376172
 21
3335.4073507913
 31
0.0
  0
LINE
  5
2A7
330
1F
100
AcDbEntity
  8
0
  6
Continuous
 62
     7
370
    25
100
AcDbLine
 10
2442.406376172
 20
3335.4073507913
 30
0.0
 11
2442.406376172
 21
3353.9073507913
 31
0.0
  0
LINE
  5
2A8
330
1F
100
AcDbEntity
  8
0
  6
Continuous
 62
     7
370
    25
100
AcDbLine
 10
2442.406376172
 20
3353.9073507913
 30
0.0
 11
2443.267723627
 21
3356.0236576908
 31
0.0
  0
LINE
  5
2A9
330
1F
100
AcDbEntity
  8
0
  6
Continuous
 62
     7
370
    25
100
AcDbLine
 10
2443.5676870131
 20
3356.2031249034
 30
0.0
 11
2443.9090323092
 21
3356.4073507913
 31
0.0
  0
LINE
  5
2AA
330
1F
100
AcDbEntity
  8
0
  6
Continuous
 62
     7
370
    25
100
AcDbLine
 10
2443.9090323092
 20
3356.4073507913
 30
0.0
 11
2443.7389610433
 21
3356.4073507913
 31
0.0
  0
SPLINE
  5
2AB
330
1F
100
AcDbEntity
  8
0
  6
Continuous
 62
     7
370
    25
100
AcDbSpline
210
0.0
220
0.0
230
1.0
 70
     8
 71
     3
 72
     9
 73
     5
 74
     0
 42
0.00000001
 43
0.00000001
 40
0.0
 40
0.0
 40
0.0
 40
0.0
 40
0.4726592242542969
 40
1.0
 40
1.0
 40
1.0
 40
1.0
 10
3297.53972746406
 20
3356.407350791279
 30
0.0
 10
3298.647113580856
 20
3356.342018660281
 30
0.0
 10
3300.989998390823
 20
3356.20379617853
 30
0.0
 10
3303.164921769822
 20
3354.70023821444
 30
0.0
 10
3304.311847551691
 20
3353.907350791277
 30
0.0
  0
LINE
  5
2AC
330
1F
100
AcDbEntity
  8
0
  6
Continuous
 62
     7
370
    25
100
AcDbLine
 10
3304.3118475517
 20
3335.4073507913
 30
0.0
 11
3304.3118475517
 21
3353.9073507913
 31
0.0
  0
SPLINE
  5
2AD
330
1F
100
AcDbEntity
  8
0
  6
Continuous
 62
     7
370
    25
100
AcDbSpline
210
0.0
220
0.0
230
1.0
 70
     8
 71
     3
 72
     9
 73
     5
 74
     0
 42
0.00000001
 43
0.00000001
 40
0.0
 40
0.0
 40
0.0
 40
0.0
 40
0.5843443298746273
 40
1.0
 40
1.0
 40
1.0
 40
1.0
 10
3304.311847551692
 20
3335.407350791279
 30
0.0
 10
3303.035540560628
 20
3334.548340045813
 30
0.0
 10
3300.851371183408
 20
3333.078297980632
 30
0.0
 10
3298.512070893632
 20
3332.957543200384
 30
0.0
 10
3297.53972746406
 20
3332.907350791279
 30
0.0
  0
SPLINE
  5
2AE
330
1F
100
AcDbEntity
  8
0
  6
Continuous
 62
     7
370
    25
100
AcDbSpline
210
0.0
220
0.0
230
1.0
 70
     8
 71
     3
 72
     9
 73
     5
 74
     0
 42
0.00000001
 43
0.00000001
 40
0.0
 40
0.0
 40
0.0
 40
0.0
 40
0.4726592242540557
 40
1.0
 40
1.0
 40
1.0
 40
1.0
 10
3297.53972746406
 20
3332.907350791279
 30
0.0
 10
3296.432341347266
 20
3332.972682922277
 30
0.0
 10
3294.089456537303
 20
3333.110905404026
 30
0.0
 10
3291.9145331583
 20
3334.614463368116
 30
0.0
 10
3290.767607376428
 20
3335.407350791278
 30
0.0
  0
LINE
  5
2AF
330
1F
100
AcDbEntity
  8
0
  6
Continuous
 62
     7
370
    25
100
AcDbLine
 10
3290.7676073764
 20
3335.4073507913
 30
0.0
 11
3290.7676073764
 21
3353.9073507913
 31
0.0
  0
SPLINE
  5
2B0
330
1F
100
AcDbEntity
  8
0
  6
Continuous
 62
     7
370
    25
100
AcDbSpline
210
0.0
220
0.0
230
1.0
 70
     8
 71
     3
 72
     9
 73
     5
 74
     0
 42
0.00000001
 43
0.00000001
 40
0.0
 40
0.0
 40
0.0
 40
0.0
 40
0.584344329874598
 40
1.0
 40
1.0
 40
1.0
 40
1.0
 10
3290.767607376427
 20
3353.907350791278
 30
0.0
 10
3292.043914367491
 20
3354.766361536745
 30
0.0
 10
3294.22808374471
 20
3356.236403601928
 30
0.0
 10
3296.567384034488
 20
3356.357158382175
 30
0.0
 10
3297.53972746406
 20
3356.407350791279
 30
0.0
  0
SPLINE
  5
2B1
330
1F
100
AcDbEntity
  8
0
  6
Continuous
 62
     7
370
    25
100
AcDbSpline
210
0.0
220
0.0
230
1.0
 70
     8
 71
     3
 72
     9
 73
     5
 74
     0
 42
0.00000001
 43
0.00000001
 40
0.0
 40
0.0
 40
0.0
 40
0.0
 40
0.3219001480456903
 40
1.0
 40
1.0
 40
1.0
 40
1.0
 10
3304.311847551691
 20
3353.907350791277
 30
0.0
 10
3305.477032417451
 20
3354.43210034499
 30
0.0
 10
3309.09674142608
 20
3356.062262856251
 30
0.0
 10
3313.089819043758
 20
3356.267904930902
 30
0.0
 10
3315.797524385147
 20
3356.407350791278
 30
0.0
  0
LINE
  5
2B2
330
1F
100
AcDbEntity
  8
0
  6
Continuous
 62
     7
370
    25
100
AcDbLine
 10
3315.7975243851
 20
3356.4073507913
 30
0.0
 11
3297.5397274641
 21
3356.4073507913
 31
0.0
  0
SPLINE
  5
2B3
330
1F
100
AcDbEntity
  8
0
  6
Continuous
 62
     7
370
    25
100
AcDbSpline
210
0.0
220
0.0
230
1.0
 70
     8
 71
     3
 72
     9
 73
     5
 74
     0
 42
0.00000001
 43
0.00000001
 40
0.0
 40
0.0
 40
0.0
 40
0.0
 40
0.8659604718976025
 40
1.0
 40
1.0
 40
1.0
 40
1.0
 10
3315.79752438515
 20
3332.907350791279
 30
0.0
 10
3312.328520358966
 20
3333.145789541167
 30
0.0
 10
3308.322559187803
 20
3333.421135538618
 30
0.0
 10
3304.785899718073
 20
3335.172587056348
 30
0.0
 10
3304.311847551692
 20
3335.407350791279
 30
0.0
  0
LINE
  5
2B4
330
1F
100
AcDbEntity
  8
0
  6
Continuous
 62
     7
370
    25
100
AcDbLine
 10
3327.2832012186
 20
3335.4073507913
 30
0.0
 11
3327.2832012186
 21
3353.9073507913
 31
0.0
  0
SPLINE
  5
2B5
330
1F
100
AcDbEntity
  8
0
  6
Continuous
 62
     7
370
    25
100
AcDbSpline
210
0.0
220
0.0
230
1.0
 70
     8
 71
     3
 72
     9
 73
     5
 74
     0
 42
0.00000001
 43
0.00000001
 40
0.0
 40
0.0
 40
0.0
 40
0.0
 40
0.321900148045444
 40
1.0
 40
1.0
 40
1.0
 40
1.0
 10
3327.283201218603
 20
3335.407350791277
 30
0.0
 10
3326.118016352844
 20
3334.882601237565
 30
0.0
 10
3322.498307344216
 20
3333.252438726305
 30
0.0
 10
3318.505229726539
 20
3333.046796651655
 30
0.0
 10
3315.79752438515
 20
3332.907350791279
 30
0.0
  0
SPLINE
  5
2B6
330
1F
100
AcDbEntity
  8
0
  6
Continuous
 62
     7
370
    25
100
AcDbSpline
210
0.0
220
0.0
230
1.0
 70
     8
 71
     3
 72
     9
 73
     5
 74
     0
 42
0.00000001
 43
0.00000001
 40
0.0
 40
0.0
 40
0.0
 40
0.0
 40
0.8659604718976482
 40
1.0
 40
1.0
 40
1.0
 40
1.0
 10
3315.797524385147
 20
3356.407350791278
 30
0.0
 10
3319.266528411331
 20
3356.168912041389
 30
0.0
 10
3323.272489582494
 20
3355.893566043936
 30
0.0
 10
3326.809149052225
 20
3354.142114526209
 30
0.0
 10
3327.283201218606
 20
3353.907350791279
 30
0.0
  0
SPLINE
  5
2B7
330
1F
100
AcDbEntity
  8
0
  6
Continuous
 62
     7
370
    25
100
AcDbSpline
210
0.0
220
0.0
230
1.0
 70
     8
 71
     3
 72
     9
 73
     5
 74
     0
 42
0.00000001
 43
0.00000001
 40
0.0
 40
0.0
 40
0.0
 40
0.0
 40
0.5843443298745998
 40
1.0
 40
1.0
 40
1.0
 40
1.0
 10
3327.283201218606
 20
3353.907350791279
 30
0.0
 10
3328.171541258302
 20
3354.766361536745
 30
0.0
 10
3329.691775124328
 20
3356.236403601926
 30
0.0
 10
3331.319983797342
 20
3356.357158382174
 30
0.0
 10
3331.996757964428
 20
3356.407350791278
 30
0.0
  0
LINE
  5
2B8
330
1F
100
AcDbEntity
  8
0
  6
Continuous
 62
     7
370
    25
100
AcDbLine
 10
3315.7975243851
 20
3356.4073507913
 30
0.0
 11
3331.9967579644
 21
3356.4073507913
 31
0.0
  0
SPLINE
  5
2B9
330
1F
100
AcDbEntity
  8
0
  6
Continuous
 62
     7
370
    25
100
AcDbSpline
210
0.0
220
0.0
230
1.0
 70
     8
 71
     3
 72
     9
 73
     5
 74
     0
 42
0.00000001
 43
0.00000001
 40
0.0
 40
0.0
 40
0.0
 40
0.0
 40
0.4726592242541525
 40
1.0
 40
1.0
 40
1.0
 40
1.0
 10
3331.996757964429
 20
3332.907350791279
 30
0.0
 10
3331.22599087325
 20
3332.972682922276
 30
0.0
 10
3329.595287288876
 20
3333.110905404024
 30
0.0
 10
3328.081488857649
 20
3334.614463368115
 30
0.0
 10
3327.283201218603
 20
3335.407350791277
 30
0.0
  0
SPLINE
  5
2BA
330
1F
100
AcDbEntity
  8
0
  6
Continuous
 62
     7
370
    25
100
AcDbSpline
210
0.0
220
0.0
230
1.0
 70
     8
 71
     3
 72
     9
 73
     5
 74
     0
 42
0.00000001
 43
0.00000001
 40
0.0
 40
0.0
 40
0.0
 40
0.0
 40
0.615381035287971
 40
1.0
 40
1.0
 40
1.0
 40
1.0
 10
3331.996757964428
 20
3356.407350791278
 30
0.0
 10
3332.770153815294
 20
3356.372719949145
 30
0.0
 10
3334.026929384441
 20
3356.316444503287
 30
0.0
 10
3335.193912945338
 20
3355.211488040427
 30
0.0
 10
3335.642756954366
 20
3354.78650082963
 30
0.0
  0
LINE
  5
2BB
330
1F
100
AcDbEntity
  8
0
  6
Continuous
 62
     7
370
    25
100
AcDbLine
 10
3336.7103147103
 20
3335.4073507913
 30
0.0
 11
3336.7103147103
 21
3353.9073507913
 31
0.0
  0
SPLINE
  5
2BC
330
1F
100
AcDbEntity
  8
0
  6
Continuous
 62
     7
370
    25
100
AcDbSpline
210
0.0
220
0.0
230
1.0
 70
     8
 71
     3
 72
     9
 73
     5
 74
     0
 42
0.00000001
 43
0.00000001
 40
0.0
 40
0.0
 40
0.0
 40
0.0
 40
0.4602289659709146
 40
1.0
 40
1.0
 40
1.0
 40
1.0
 10
3335.647115511039
 20
3334.574579426414
 30
0.0
 10
3335.106756047822
 20
3334.073374943755
 30
0.0
 10
3333.932645978332
 20
3332.984342049874
 30
0.0
 10
3332.675388911458
 20
3332.934340291889
 30
0.0
 10
3331.996757964429
 20
3332.907350791279
 30
0.0
  0
LINE
  5
2BD
330
1F
100
AcDbEntity
  8
0
  6
Continuous
 62
     7
370
    25
100
AcDbLine
 10
3290.7676073764
 20
3335.4073507913
 30
0.0
 11
3291.8355308502
 21
3334.5708790469
 31
0.0
  0
LINE
  5
2BE
330
1F
100
AcDbEntity
  8
0
  6
Continuous
 62
     7
370
    25
100
AcDbLine
 10
3291.8301268381
 20
3354.7823517178
 30
0.0
 11
3290.7676073764
 21
3353.9073507913
 31
0.0
  0
LINE
  5
2BF
330
1F
100
AcDbEntity
  8
0
  6
Continuous
 62
     7
370
    25
100
AcDbLine
 10
3297.5397274641
 20
3356.4073507913
 30
0.0
 11
3293.7389610433
 21
3356.4073507913
 31
0.0
  0
LINE
  5
2C0
330
1F
100
AcDbEntity
  8
0
  6
Continuous
 62
     7
370
    25
100
AcDbLine
 10
3333.7389610433
 20
3356.4073507913
 30
0.0
 11
3331.9967579644
 21
3356.4073507913
 31
0.0
  0
SPLINE
  5
2C1
330
1F
100
AcDbEntity
  8
0
  6
Continuous
 62
     7
370
    25
100
AcDbSpline
210
0.0
220
0.0
230
1.0
 70
     8
 71
     3
 72
    10
 73
     6
 74
     0
 42
0.00000001
 43
0.00000001
 40
0.0
 40
0.0
 40
0.0
 40
0.0
 40
0.3315739395276479
 40
0.6721625413044521
 40
1.0
 40
1.0
 40
1.0
 40
1.0
 10
2300.776347483903
 20
3246.90735079128
 30
0.0
 10
2302.105028106195
 20
3247.587011024443
 30
0.0
 10
2304.798512838241
 20
3248.964809744685
 30
0.0
 10
2308.938292721677
 20
3249.336850567679
 30
0.0
 10
2311.693645419517
 20
3249.384151493406
 30
0.0
 10
2313.045040704182
 20
3249.40735079128
 30
0.0
  0
SPLINE
  5
2C2
330
1F
100
AcDbEntity
  8
0
  6
Continuous
 62
     7
370
    25
100
AcDbSpline
210
0.0
220
0.0
230
1.0
 70
     8
 71
     3
 72
     9
 73
     5
 74
     0
 42
0.00000001
 43
0.00000001
 40
0.0
 40
0.0
 40
0.0
 40
0.0
 40
0.7169484261070647
 40
1.0
 40
1.0
 40
1.0
 40
1.0
 10
2276.238961043343
 20
3249.40735079128
 30
0.0
 10
2282.198226978841
 20
3249.483116970768
 30
0.0
 10
2290.510213892398
 20
3249.588795673348
 30
0.0
 10
2298.511555226134
 20
3247.498899260274
 30
0.0
 10
2300.776347483903
 20
3246.90735079128
 30
0.0
  0
SPLINE
  5
2C3
330
1F
100
AcDbEntity
  8
0
  6
Continuous
 62
     7
370
    25
100
AcDbSpline
210
0.0
220
0.0
230
1.0
 70
     8
 71
     3
 72
     9
 73
     5
 74
     0
 42
0.00000001
 43
0.00000001
 40
0.0
 40
0.0
 40
0.0
 40
0.0
 40
0.4962229202406788
 40
1.0
 40
1.0
 40
1.0
 40
1.0
 10
2239.432881382505
 20
3249.40735079128
 30
0.0
 10
2241.485271080051
 20
3249.448923474354
 30
0.0
 10
2245.621294657018
 20
3249.532701714693
 30
0.0
 10
2249.664633279215
 20
3247.786863878254
 30
0.0
 10
2251.701574602784
 20
3246.90735079128
 30
0.0
  0
LINE
  5
2C4
330
1F
100
AcDbEntity
  8
0
  6
Continuous
 62
     7
370
    25
100
AcDbLine
 10
2251.7015746028
 20
3211.9073507913
 30
0.0
 11
2251.7015746028
 21
3246.9073507913
 31
0.0
  0
SPLINE
  5
2C5
330
1F
100
AcDbEntity
  8
0
  6
Continuous
 62
     7
370
    25
100
AcDbSpline
210
0.0
220
0.0
230
1.0
 70
     8
 71
     3
 72
    10
 73
     6
 74
     0
 42
0.00000001
 43
0.00000001
 40
0.0
 40
0.0
 40
0.0
 40
0.0
 40
0.3315739395276497
 40
0.6721625413044551
 40
1.0
 40
1.0
 40
1.0
 40
1.0
 10
2251.701574602784
 20
3211.90735079128
 30
0.0
 10
2250.372893980492
 20
3211.227690558117
 30
0.0
 10
2247.679409248446
 20
3209.849891837876
 30
0.0
 10
2243.539629365009
 20
3209.477851014882
 30
0.0
 10
2240.78427666717
 20
3209.430550089155
 30
0.0
 10
2239.432881382505
 20
3209.40735079128
 30
0.0
  0
SPLINE
  5
2C6
330
1F
100
AcDbEntity
  8
0
  6
Continuous
 62
     7
370
    25
100
AcDbSpline
210
0.0
220
0.0
230
1.0
 70
     8
 71
     3
 72
     9
 73
     5
 74
     0
 42
0.00000001
 43
0.00000001
 40
0.0
 40
0.0
 40
0.0
 40
0.0
 40
0.4962229202406773
 40
0.9999999999999999
 40
0.9999999999999999
 40
0.9999999999999999
 40
0.9999999999999999
 10
2239.432881382505
 20
3209.40735079128
 30
0.0
 10
2237.380491684959
 20
3209.365778108207
 30
0.0
 10
2233.244468107992
 20
3209.281999867868
 30
0.0
 10
2229.201129485794
 20
3211.027837704306
 30
0.0
 10
2227.164188162225
 20
3211.90735079128
 30
0.0
  0
LINE
  5
2C7
330
1F
100
AcDbEntity
  8
0
  6
Continuous
 62
     7
370
    25
100
AcDbLine
 10
2227.1641881622
 20
3211.9073507913
 30
0.0
 11
2227.1641881622
 21
3246.9073507913
 31
0.0
  0
SPLINE
  5
2C8
330
1F
100
AcDbEntity
  8
0
  6
Continuous
 62
     7
370
    25
100
AcDbSpline
210
0.0
220
0.0
230
1.0
 70
     8
 71
     3
 72
    10
 73
     6
 74
     0
 42
0.00000001
 43
0.00000001
 40
0.0
 40
0.0
 40
0.0
 40
0.0
 40
0.3315739395275114
 40
0.67216254130417
 40
1.0
 40
1.0
 40
1.0
 40
1.0
 10
2227.164188162225
 20
3246.90735079128
 30
0.0
 10
2228.492868784517
 20
3247.587011024443
 30
0.0
 10
2231.186353516562
 20
3248.964809744684
 30
0.0
 10
2235.326133399999
 20
3249.336850567679
 30
0.0
 10
2238.081486097838
 20
3249.384151493406
 30
0.0
 10
2239.432881382505
 20
3249.40735079128
 30
0.0
  0
SPLINE
  5
2C9
330
1F
100
AcDbEntity
  8
0
  6
Continuous
 62
     7
370
    25
100
AcDbSpline
210
0.0
220
0.0
230
1.0
 70
     8
 71
     3
 72
     9
 73
     5
 74
     0
 42
0.00000001
 43
0.00000001
 40
0.0
 40
0.0
 40
0.0
 40
0.0
 40
0.4054701119094976
 40
1.0
 40
1.0
 40
1.0
 40
1.0
 10
2251.701574602784
 20
3246.90735079128
 30
0.0
 10
2254.96774243355
 20
3247.673077519729
 30
0.0
 10
2263.023004054153
 20
3249.561568695668
 30
0.0
 10
2271.311313409719
 20
3249.464851847938
 30
0.0
 10
2276.238961043343
 20
3249.40735079128
 30
0.0
  0
LINE
  5
2CA
330
1F
100
AcDbEntity
  8
0
  6
Continuous
 62
     7
370
    25
100
AcDbLine
 10
2300.7763474839
 20
3211.9073507913
 30
0.0
 11
2300.7763474839
 21
3246.9073507913
 31
0.0
  0
SPLINE
  5
2CB
330
1F
100
AcDbEntity
  8
0
  6
Continuous
 62
     7
370
    25
100
AcDbSpline
210
0.0
220
0.0
230
1.0
 70
     8
 71
     3
 72
     9
 73
     5
 74
     0
 42
0.00000001
 43
0.00000001
 40
0.0
 40
0.0
 40
0.0
 40
0.0
 40
0.4054701119095638
 40
1.0
 40
1.0
 40
1.0
 40
1.0
 10
2300.776347483903
 20
3211.90735079128
 30
0.0
 10
2297.510179653136
 20
3211.141624062832
 30
0.0
 10
2289.454918032533
 20
3209.253132886892
 30
0.0
 10
2281.166608676967
 20
3209.349849734623
 30
0.0
 10
2276.238961043343
 20
3209.40735079128
 30
0.0
  0
SPLINE
  5
2CC
330
1F
100
AcDbEntity
  8
0
  6
Continuous
 62
     7
370
    25
100
AcDbSpline
210
0.0
220
0.0
230
1.0
 70
     8
 71
     3
 72
     9
 73
     5
 74
     0
 42
0.00000001
 43
0.00000001
 40
0.0
 40
0.0
 40
0.0
 40
0.0
 40
0.7169484261070697
 40
1.0
 40
1.0
 40
1.0
 40
1.0
 10
2276.238961043343
 20
3209.40735079128
 30
0.0
 10
2270.279695107846
 20
3209.331584611793
 30
0.0
 10
2261.967708194288
 20
3209.225905909213
 30
0.0
 10
2253.966366860553
 20
3211.315802322286
 30
0.0
 10
2251.701574602784
 20
3211.90735079128
 30
0.0
  0
SPLINE
  5
2CD
330
1F
100
AcDbEntity
  8
0
  6
Continuous
 62
     7
370
    25
100
AcDbSpline
210
0.0
220
0.0
230
1.0
 70
     8
 71
     3
 72
     9
 73
     5
 74
     0
 42
0.00000001
 43
0.00000001
 40
0.0
 40
0.0
 40
0.0
 40
0.0
 40
0.4962229202406787
 40
1.0
 40
1.0
 40
1.0
 40
1.0
 10
2313.045040704182
 20
3249.40735079128
 30
0.0
 10
2315.097430401729
 20
3249.448923474354
 30
0.0
 10
2319.233453978695
 20
3249.532701714693
 30
0.0
 10
2323.276792600892
 20
3247.786863878254
 30
0.0
 10
2325.313733924462
 20
3246.90735079128
 30
0.0
  0
LINE
  5
2CE
330
1F
100
AcDbEntity
  8
0
  6
Continuous
 62
     7
370
    25
100
AcDbLine
 10
2325.3137339245
 20
3211.9073507913
 30
0.0
 11
2325.3137339245
 21
3246.9073507913
 31
0.0
  0
SPLINE
  5
2CF
330
1F
100
AcDbEntity
  8
0
  6
Continuous
 62
     7
370
    25
100
AcDbSpline
210
0.0
220
0.0
230
1.0
 70
     8
 71
     3
 72
    10
 73
     6
 74
     0
 42
0.00000001
 43
0.00000001
 40
0.0
 40
0.0
 40
0.0
 40
0.0
 40
0.3315739395275095
 40
0.6721625413041682
 40
1.0
 40
1.0
 40
1.0
 40
1.0
 10
2325.313733924462
 20
3211.90735079128
 30
0.0
 10
2323.98505330217
 20
3211.227690558118
 30
0.0
 10
2321.291568570125
 20
3209.849891837876
 30
0.0
 10
2317.151788686688
 20
3209.477851014882
 30
0.0
 10
2314.396435988849
 20
3209.430550089155
 30
0.0
 10
2313.045040704182
 20
3209.40735079128
 30
0.0
  0
SPLINE
  5
2D0
330
1F
100
AcDbEntity
  8
0
  6
Continuous
 62
     7
370
    25
100
AcDbSpline
210
0.0
220
0.0
230
1.0
 70
     8
 71
     3
 72
     9
 73
     5
 74
     0
 42
0.00000001
 43
0.00000001
 40
0.0
 40
0.0
 40
0.0
 40
0.0
 40
0.4962229202406787
 40
1.0
 40
1.0
 40
1.0
 40
1.0
 10
2313.045040704182
 20
3209.40735079128
 30
0.0
 10
2310.992651006635
 20
3209.365778108207
 30
0.0
 10
2306.856627429669
 20
3209.281999867868
 30
0.0
 10
2302.813288807472
 20
3211.027837704306
 30
0.0
 10
2300.776347483903
 20
3211.90735079128
 30
0.0
  0
LINE
  5
2D1
330
1F
100
AcDbEntity
  8
0
  6
Continuous
 62
     7
370
    25
100
AcDbLine
 10
2276.2389610433
 20
3209.4073507913
 30
0.0
 11
2313.0450407042
 21
3209.4073507913
 31
0.0
  0
LINE
  5
2D2
330
1F
100
AcDbEntity
  8
0
  6
Continuous
 62
     7
370
    25
100
AcDbLine
 10
2276.2389610433
 20
3209.4073507913
 30
0.0
 11
2239.4328813825
 21
3209.4073507913
 31
0.0
  0
LINE
  5
2D3
330
1F
100
AcDbEntity
  8
0
  6
Continuous
 62
     7
370
    25
100
AcDbLine
 10
2318.7389610433
 20
3209.4073507913
 30
0.0
 11
2313.0450407042
 21
3209.4073507913
 31
0.0
  0
LINE
  5
2D4
330
1F
100
AcDbEntity
  8
0
  6
Continuous
 62
     7
370
    25
100
AcDbLine
 10
2239.4328813825
 20
3209.4073507913
 30
0.0
 11
2233.7389610433
 21
3209.4073507913
 31
0.0
  0
SPLINE
  5
2D5
330
1F
100
AcDbEntity
  8
0
  6
Continuous
 62
     7
370
    25
100
AcDbSpline
210
0.0
220
0.0
230
1.0
 70
     8
 71
     3
 72
     9
 73
     5
 74
     0
 42
0.00000001
 43
0.00000001
 40
0.0
 40
0.0
 40
0.0
 40
0.0
 40
0.4962229202406788
 40
1.0
 40
1.0
 40
1.0
 40
1.0
 10
3464.432881382505
 20
3249.40735079128
 30
0.0
 10
3466.485271080051
 20
3249.448923474354
 30
0.0
 10
3470.621294657017
 20
3249.532701714692
 30
0.0
 10
3474.664633279216
 20
3247.786863878254
 30
0.0
 10
3476.701574602784
 20
3246.90735079128
 30
0.0
  0
LINE
  5
2D6
330
1F
100
AcDbEntity
  8
0
  6
Continuous
 62
     7
370
    25
100
AcDbLine
 10
3476.7015746028
 20
3211.9073507913
 30
0.0
 11
3476.7015746028
 21
3246.9073507913
 31
0.0
  0
SPLINE
  5
2D7
330
1F
100
AcDbEntity
  8
0
  6
Continuous
 62
     7
370
    25
100
AcDbSpline
210
0.0
220
0.0
230
1.0
 70
     8
 71
     3
 72
    10
 73
     6
 74
     0
 42
0.00000001
 43
0.00000001
 40
0.0
 40
0.0
 40
0.0
 40
0.0
 40
0.3315739395276496
 40
0.672162541304455
 40
1.0
 40
1.0
 40
1.0
 40
1.0
 10
3476.701574602784
 20
3211.90735079128
 30
0.0
 10
3475.372893980491
 20
3211.227690558117
 30
0.0
 10
3472.679409248446
 20
3209.849891837876
 30
0.0
 10
3468.539629365009
 20
3209.477851014882
 30
0.0
 10
3465.78427666717
 20
3209.430550089155
 30
0.0
 10
3464.432881382505
 20
3209.40735079128
 30
0.0
  0
SPLINE
  5
2D8
330
1F
100
AcDbEntity
  8
0
  6
Continuous
 62
     7
370
    25
100
AcDbSpline
210
0.0
220
0.0
230
1.0
 70
     8
 71
     3
 72
     9
 73
     5
 74
     0
 42
0.00000001
 43
0.00000001
 40
0.0
 40
0.0
 40
0.0
 40
0.0
 40
0.4962229202406795
 40
0.9999999999999999
 40
0.9999999999999999
 40
0.9999999999999999
 40
0.9999999999999999
 10
3464.432881382505
 20
3209.40735079128
 30
0.0
 10
3462.380491684958
 20
3209.365778108207
 30
0.0
 10
3458.244468107991
 20
3209.281999867867
 30
0.0
 10
3454.201129485794
 20
3211.027837704306
 30
0.0
 10
3452.164188162225
 20
3211.90735079128
 30
0.0
  0
LINE
  5
2D9
330
1F
100
AcDbEntity
  8
0
  6
Continuous
 62
     7
370
    25
100
AcDbLine
 10
3452.1641881622
 20
3211.9073507913
 30
0.0
 11
3452.1641881622
 21
3246.9073507913
 31
0.0
  0
SPLINE
  5
2DA
330
1F
100
AcDbEntity
  8
0
  6
Continuous
 62
     7
370
    25
100
AcDbSpline
210
0.0
220
0.0
230
1.0
 70
     8
 71
     3
 72
    10
 73
     6
 74
     0
 42
0.00000001
 43
0.00000001
 40
0.0
 40
0.0
 40
0.0
 40
0.0
 40
0.3315739395275105
 40
0.6721625413041695
 40
0.9999999999999999
 40
0.9999999999999999
 40
0.9999999999999999
 40
0.9999999999999999
 10
3452.164188162225
 20
3246.90735079128
 30
0.0
 10
3453.492868784517
 20
3247.587011024443
 30
0.0
 10
3456.186353516562
 20
3248.964809744684
 30
0.0
 10
3460.326133399998
 20
3249.336850567679
 30
0.0
 10
3463.081486097838
 20
3249.384151493406
 30
0.0
 10
3464.432881382505
 20
3249.40735079128
 30
0.0
  0
SPLINE
  5
2DB
330
1F
100
AcDbEntity
  8
0
  6
Continuous
 62
     7
370
    25
100
AcDbSpline
210
0.0
220
0.0
230
1.0
 70
     8
 71
     3
 72
     9
 73
     5
 74
     0
 42
0.00000001
 43
0.00000001
 40
0.0
 40
0.0
 40
0.0
 40
0.0
 40
0.4054701119094976
 40
1.0
 40
1.0
 40
1.0
 40
1.0
 10
3476.701574602784
 20
3246.90735079128
 30
0.0
 10
3479.96774243355
 20
3247.673077519729
 30
0.0
 10
3488.023004054154
 20
3249.561568695668
 30
0.0
 10
3496.311313409719
 20
3249.464851847938
 30
0.0
 10
3501.238961043343
 20
3249.40735079128
 30
0.0
  0
SPLINE
  5
2DC
330
1F
100
AcDbEntity
  8
0
  6
Continuous
 62
     7
370
    25
100
AcDbSpline
210
0.0
220
0.0
230
1.0
 70
     8
 71
     3
 72
    10
 73
     6
 74
     0
 42
0.00000001
 43
0.00000001
 40
0.0
 40
0.0
 40
0.0
 40
0.0
 40
0.3315739395276492
 40
0.6721625413044535
 40
1.0
 40
1.0
 40
1.0
 40
1.0
 10
3525.776347483903
 20
3246.90735079128
 30
0.0
 10
3527.105028106195
 20
3247.587011024443
 30
0.0
 10
3529.798512838241
 20
3248.964809744685
 30
0.0
 10
3533.938292721677
 20
3249.336850567679
 30
0.0
 10
3536.693645419517
 20
3249.384151493406
 30
0.0
 10
3538.045040704182
 20
3249.40735079128
 30
0.0
  0
SPLINE
  5
2DD
330
1F
100
AcDbEntity
  8
0
  6
Continuous
 62
     7
370
    25
100
AcDbSpline
210
0.0
220
0.0
230
1.0
 70
     8
 71
     3
 72
     9
 73
     5
 74
     0
 42
0.00000001
 43
0.00000001
 40
0.0
 40
0.0
 40
0.0
 40
0.0
 40
0.7169484261070639
 40
1.0
 40
1.0
 40
1.0
 40
1.0
 10
3501.238961043343
 20
3249.40735079128
 30
0.0
 10
3507.198226978841
 20
3249.483116970768
 30
0.0
 10
3515.510213892398
 20
3249.588795673348
 30
0.0
 10
3523.511555226134
 20
3247.498899260274
 30
0.0
 10
3525.776347483903
 20
3246.90735079128
 30
0.0
  0
LINE
  5
2DE
330
1F
100
AcDbEntity
  8
0
  6
Continuous
 62
     7
370
    25
100
AcDbLine
 10
3525.7763474839
 20
3211.9073507913
 30
0.0
 11
3525.7763474839
 21
3246.9073507913
 31
0.0
  0
SPLINE
  5
2DF
330
1F
100
AcDbEntity
  8
0
  6
Continuous
 62
     7
370
    25
100
AcDbSpline
210
0.0
220
0.0
230
1.0
 70
     8
 71
     3
 72
     9
 73
     5
 74
     0
 42
0.00000001
 43
0.00000001
 40
0.0
 40
0.0
 40
0.0
 40
0.0
 40
0.4054701119095593
 40
1.0
 40
1.0
 40
1.0
 40
1.0
 10
3525.776347483903
 20
3211.90735079128
 30
0.0
 10
3522.510179653135
 20
3211.141624062832
 30
0.0
 10
3514.454918032533
 20
3209.253132886892
 30
0.0
 10
3506.166608676967
 20
3209.349849734622
 30
0.0
 10
3501.238961043343
 20
3209.40735079128
 30
0.0
  0
SPLINE
  5
2E0
330
1F
100
AcDbEntity
  8
0
  6
Continuous
 62
     7
370
    25
100
AcDbSpline
210
0.0
220
0.0
230
1.0
 70
     8
 71
     3
 72
     9
 73
     5
 74
     0
 42
0.00000001
 43
0.00000001
 40
0.0
 40
0.0
 40
0.0
 40
0.0
 40
0.7169484261070668
 40
1.0
 40
1.0
 40
1.0
 40
1.0
 10
3501.238961043343
 20
3209.40735079128
 30
0.0
 10
3495.279695107846
 20
3209.331584611793
 30
0.0
 10
3486.967708194288
 20
3209.225905909213
 30
0.0
 10
3478.966366860553
 20
3211.315802322286
 30
0.0
 10
3476.701574602784
 20
3211.90735079128
 30
0.0
  0
SPLINE
  5
2E1
330
1F
100
AcDbEntity
  8
0
  6
Continuous
 62
     7
370
    25
100
AcDbSpline
210
0.0
220
0.0
230
1.0
 70
     8
 71
     3
 72
     9
 73
     5
 74
     0
 42
0.00000001
 43
0.00000001
 40
0.0
 40
0.0
 40
0.0
 40
0.0
 40
0.4962229202406774
 40
0.9999999999999999
 40
0.9999999999999999
 40
0.9999999999999999
 40
0.9999999999999999
 10
3538.045040704182
 20
3249.40735079128
 30
0.0
 10
3540.097430401728
 20
3249.448923474354
 30
0.0
 10
3544.233453978694
 20
3249.532701714692
 30
0.0
 10
3548.276792600892
 20
3247.786863878254
 30
0.0
 10
3550.313733924462
 20
3246.90735079128
 30
0.0
  0
LINE
  5
2E2
330
1F
100
AcDbEntity
  8
0
  6
Continuous
 62
     7
370
    25
100
AcDbLine
 10
3550.3137339245
 20
3211.9073507913
 30
0.0
 11
3550.3137339245
 21
3246.9073507913
 31
0.0
  0
SPLINE
  5
2E3
330
1F
100
AcDbEntity
  8
0
  6
Continuous
 62
     7
370
    25
100
AcDbSpline
210
0.0
220
0.0
230
1.0
 70
     8
 71
     3
 72
    10
 73
     6
 74
     0
 42
0.00000001
 43
0.00000001
 40
0.0
 40
0.0
 40
0.0
 40
0.0
 40
0.3315739395275099
 40
0.6721625413041677
 40
1.0
 40
1.0
 40
1.0
 40
1.0
 10
3550.313733924462
 20
3211.90735079128
 30
0.0
 10
3548.98505330217
 20
3211.227690558117
 30
0.0
 10
3546.291568570125
 20
3209.849891837876
 30
0.0
 10
3542.151788686688
 20
3209.477851014882
 30
0.0
 10
3539.396435988848
 20
3209.430550089155
 30
0.0
 10
3538.045040704182
 20
3209.40735079128
 30
0.0
  0
SPLINE
  5
2E4
330
1F
100
AcDbEntity
  8
0
  6
Continuous
 62
     7
370
    25
100
AcDbSpline
210
0.0
220
0.0
230
1.0
 70
     8
 71
     3
 72
     9
 73
     5
 74
     0
 42
0.00000001
 43
0.00000001
 40
0.0
 40
0.0
 40
0.0
 40
0.0
 40
0.4962229202406787
 40
1.0
 40
1.0
 40
1.0
 40
1.0
 10
3538.045040704182
 20
3209.40735079128
 30
0.0
 10
3535.992651006636
 20
3209.365778108207
 30
0.0
 10
3531.856627429669
 20
3209.281999867867
 30
0.0
 10
3527.813288807472
 20
3211.027837704306
 30
0.0
 10
3525.776347483903
 20
3211.90735079128
 30
0.0
  0
LINE
  5
2E5
330
1F
100
AcDbEntity
  8
0
  6
Continuous
 62
     7
370
    25
100
AcDbLine
 10
3501.2389610433
 20
3209.4073507913
 30
0.0
 11
3538.0450407042
 21
3209.4073507913
 31
0.0
  0
LINE
  5
2E6
330
1F
100
AcDbEntity
  8
0
  6
Continuous
 62
     7
370
    25
100
AcDbLine
 10
3501.2389610433
 20
3209.4073507913
 30
0.0
 11
3464.4328813825
 21
3209.4073507913
 31
0.0
  0
LINE
  5
2E7
330
1F
100
AcDbEntity
  8
0
  6
Continuous
 62
     7
370
    25
100
AcDbLine
 10
3543.7389610433
 20
3209.4073507913
 30
0.0
 11
3538.0450407042
 21
3209.4073507913
 31
0.0
  0
LINE
  5
2E8
330
1F
100
AcDbEntity
  8
0
  6
Continuous
 62
     7
370
    25
100
AcDbLine
 10
3464.4328813825
 20
3209.4073507913
 30
0.0
 11
3458.7389610433
 21
3209.4073507913
 31
0.0
  0
LINE
  5
2E9
330
1F
100
AcDbEntity
  8
0
  6
Continuous
 62
     7
370
    25
100
AcDbLine
 10
2216.078347838
 20
2996.9073507913
 30
0.0
 11
2181.2389610433
 21
2996.9073507913
 31
0.0
  0
LINE
  5
2EA
330
1F
100
AcDbEntity
  8
0
  6
Continuous
 62
     7
370
    25
100
AcDbLine
 10
2371.2389610433
 20
2996.9073507913
 30
0.0
 11
2216.078347838
 21
2996.9073507913
 31
0.0
  0
LINE
  5
2EB
330
1F
100
AcDbEntity
  8
0
  6
Continuous
 62
     7
370
    25
100
AcDbLine
 10
2216.078347838
 20
2971.9073507913
 30
0.0
 11
2181.2389610433
 21
2971.9073507913
 31
0.0
  0
LINE
  5
2EC
330
1F
100
AcDbEntity
  8
0
  6
Continuous
 62
     7
370
    25
100
AcDbLine
 10
2371.2389610433
 20
2971.9073507913
 30
0.0
 11
2216.078347838
 21
2971.9073507913
 31
0.0
  0
LINE
  5
2ED
330
1F
100
AcDbEntity
  8
0
  6
Continuous
 62
     7
370
    25
100
AcDbLine
 10
2188.7389610433
 20
3009.4073507913
 30
0.0
 11
2363.7389610433
 21
3009.4073507913
 31
0.0
  0
LINE
  5
2EE
330
1F
100
AcDbEntity
  8
0
  6
Continuous
 62
     7
370
    25
100
AcDbLine
 10
2300.2273427564
 20
2909.4073507913
 30
0.0
 11
2300.2273427564
 21
2971.9073507913
 31
0.0
  0
LINE
  5
2EF
330
1F
100
AcDbEntity
  8
0
  6
Continuous
 62
     7
370
    25
100
AcDbLine
 10
2300.2273427564
 20
2909.4073507913
 30
0.0
 11
2233.2788012342
 21
2909.4073507913
 31
0.0
  0
LINE
  5
2F0
330
1F
100
AcDbEntity
  8
0
  6
Continuous
 62
     7
370
    25
100
AcDbLine
 10
2233.2788012342
 20
2909.4073507913
 30
0.0
 11
2233.2788012342
 21
2971.9073507913
 31
0.0
  0
LINE
  5
2F1
330
1F
100
AcDbEntity
  8
0
  6
Continuous
 62
     7
370
    25
100
AcDbLine
 10
2343.1875025656
 20
2909.4073507913
 30
0.0
 11
2343.1875025656
 21
2971.9073507913
 31
0.0
  0
LINE
  5
2F2
330
1F
100
AcDbEntity
  8
0
  6
Continuous
 62
     7
370
    25
100
AcDbLine
 10
2343.1875025656
 20
2909.4073507913
 30
0.0
 11
2300.2273427564
 21
2909.4073507913
 31
0.0
  0
LINE
  5
2F3
330
1F
100
AcDbEntity
  8
0
  6
Continuous
 62
     7
370
    25
100
AcDbLine
 10
2236.2389610433
 20
3051.9073507913
 30
0.0
 11
2316.2389610433
 21
3051.9073507913
 31
0.0
  0
LINE
  5
2F4
330
1F
100
AcDbEntity
  8
0
  6
Continuous
 62
     7
370
    25
100
AcDbLine
 10
2209.2904195211
 20
2909.4073507913
 30
0.0
 11
2209.2904195211
 21
2971.9073507913
 31
0.0
  0
LINE
  5
2F5
330
1F
100
AcDbEntity
  8
0
  6
Continuous
 62
     7
370
    25
100
AcDbLine
 10
2233.2788012342
 20
2909.4073507913
 30
0.0
 11
2209.2904195211
 21
2909.4073507913
 31
0.0
  0
LINE
  5
2F6
330
1F
100
AcDbEntity
  8
0
  6
Continuous
 62
     7
370
    25
100
AcDbLine
 10
3596.2389610433
 20
2996.9073507913
 30
0.0
 11
3406.2389610433
 21
2996.9073507913
 31
0.0
  0
LINE
  5
2F7
330
1F
100
AcDbEntity
  8
0
  6
Continuous
 62
     7
370
    25
100
AcDbLine
 10
3596.2389610433
 20
2971.9073507913
 30
0.0
 11
3406.2389610433
 21
2971.9073507913
 31
0.0
  0
LINE
  5
2F8
330
1F
100
AcDbEntity
  8
0
  6
Continuous
 62
     7
370
    25
100
AcDbLine
 10
3501.2389610433
 20
3009.4073507913
 30
0.0
 11
3588.7389610433
 21
3009.4073507913
 31
0.0
  0
LINE
  5
2F9
330
1F
100
AcDbEntity
  8
0
  6
Continuous
 62
     7
370
    25
100
AcDbLine
 10
3413.7389610433
 20
3009.4073507913
 30
0.0
 11
3501.2389610433
 21
3009.4073507913
 31
0.0
  0
LINE
  5
2FA
330
1F
100
AcDbEntity
  8
0
  6
Continuous
 62
     7
370
    25
100
AcDbLine
 10
3501.2389610433
 20
2909.4073507913
 30
0.0
 11
3501.2389610433
 21
2971.9073507913
 31
0.0
  0
LINE
  5
2FB
330
1F
100
AcDbEntity
  8
0
  6
Continuous
 62
     7
370
    25
100
AcDbLine
 10
3501.2389610433
 20
2909.4073507913
 30
0.0
 11
3442.4889610433
 21
2909.4073507913
 31
0.0
  0
LINE
  5
2FC
330
1F
100
AcDbEntity
  8
0
  6
Continuous
 62
     7
370
    25
100
AcDbLine
 10
3442.4889610433
 20
2909.4073507913
 30
0.0
 11
3442.4889610433
 21
2971.9073507913
 31
0.0
  0
LINE
  5
2FD
330
1F
100
AcDbEntity
  8
0
  6
Continuous
 62
     7
370
    25
100
AcDbLine
 10
3559.9889610433
 20
2909.4073507913
 30
0.0
 11
3559.9889610433
 21
2971.9073507913
 31
0.0
  0
LINE
  5
2FE
330
1F
100
AcDbEntity
  8
0
  6
Continuous
 62
     7
370
    25
100
AcDbLine
 10
3559.9889610433
 20
2909.4073507913
 30
0.0
 11
3501.2389610433
 21
2909.4073507913
 31
0.0
  0
LINE
  5
2FF
330
1F
100
AcDbEntity
  8
0
  6
Continuous
 62
     7
370
    25
100
AcDbLine
 10
3501.2389610433
 20
3051.9073507913
 30
0.0
 11
3541.2389610433
 21
3051.9073507913
 31
0.0
  0
LINE
  5
300
330
1F
100
AcDbEntity
  8
0
  6
Continuous
 62
     7
370
    25
100
AcDbLine
 10
3461.2389610433
 20
3051.9073507913
 30
0.0
 11
3501.2389610433
 21
3051.9073507913
 31
0.0
  0
LINE
  5
301
330
1F
100
AcDbEntity
  8
0
  6
Continuous
 62
     7
370
    25
100
AcDbLine
 10
2513.7389610433
 20
3326.9073507913
 30
0.0
 11
2413.7389610433
 21
3326.9073507913
 31
0.0
  0
LINE
  5
302
330
1F
100
AcDbEntity
  8
0
  6
Continuous
 62
     7
370
    25
100
AcDbLine
 10
2513.7389610433
 20
3316.9073507913
 30
0.0
 11
2513.7389610433
 21
3326.9073507913
 31
0.0
  0
LINE
  5
303
330
1F
100
AcDbEntity
  8
0
  6
Continuous
 62
     7
370
    25
100
AcDbLine
 10
2513.7389610433
 20
3316.9073507913
 30
0.0
 11
2413.7389610433
 21
3316.9073507913
 31
0.0
  0
LINE
  5
304
330
1F
100
AcDbEntity
  8
0
  6
Continuous
 62
     7
370
    25
100
AcDbLine
 10
2413.7389610433
 20
3316.9073507913
 30
0.0
 11
2413.7389610433
 21
3326.9073507913
 31
0.0
  0
LINE
  5
305
330
1F
100
AcDbEntity
  8
0
  6
Continuous
 62
     7
370
    25
100
AcDbLine
 10
2513.7389610433
 20
3331.9073507913
 30
0.0
 11
2513.7389610433
 21
3326.9073507913
 31
0.0
  0
LINE
  5
306
330
1F
100
AcDbEntity
  8
0
  6
Continuous
 62
     7
370
    25
100
AcDbLine
 10
2413.7389610433
 20
3331.9073507913
 30
0.0
 11
2413.7389610433
 21
3326.9073507913
 31
0.0
  0
LINE
  5
307
330
1F
100
AcDbEntity
  8
0
  6
Continuous
 62
     7
370
    25
100
AcDbLine
 10
2513.7389610433
 20
3561.9073507913
 30
0.0
 11
2413.7389610433
 21
3561.9073507913
 31
0.0
  0
LINE
  5
308
330
1F
100
AcDbEntity
  8
0
  6
Continuous
 62
     7
370
    25
100
AcDbLine
 10
2513.7389610433
 20
3561.9073507913
 30
0.0
 11
2513.7389610433
 21
3331.9073507913
 31
0.0
  0
LINE
  5
309
330
1F
100
AcDbEntity
  8
0
  6
Continuous
 62
     7
370
    25
100
AcDbLine
 10
2413.7389610433
 20
3561.9073507913
 30
0.0
 11
2413.7389610433
 21
3331.9073507913
 31
0.0
  0
LINE
  5
30A
330
1F
100
AcDbEntity
  8
0
  6
Continuous
 62
     7
370
    25
100
AcDbLine
 10
2513.7389610433
 20
3576.9073507913
 30
0.0
 11
2413.7389610433
 21
3576.9073507913
 31
0.0
  0
LINE
  5
30B
330
1F
100
AcDbEntity
  8
0
  6
Continuous
 62
     7
370
    25
100
AcDbLine
 10
2513.7389610433
 20
3576.9073507913
 30
0.0
 11
2513.7389610433
 21
3561.9073507913
 31
0.0
  0
LINE
  5
30C
330
1F
100
AcDbEntity
  8
0
  6
Continuous
 62
     7
370
    25
100
AcDbLine
 10
2413.7389610433
 20
3576.9073507913
 30
0.0
 11
2413.7389610433
 21
3561.9073507913
 31
0.0
  0
LINE
  5
30D
330
1F
100
AcDbEntity
  8
0
  6
Continuous
 62
     7
370
    25
100
AcDbLine
 10
3363.7389610433
 20
3326.9073507913
 30
0.0
 11
3263.7389610433
 21
3326.9073507913
 31
0.0
  0
LINE
  5
30E
330
1F
100
AcDbEntity
  8
0
  6
Continuous
 62
     7
370
    25
100
AcDbLine
 10
3363.7389610433
 20
3316.9073507913
 30
0.0
 11
3363.7389610433
 21
3326.9073507913
 31
0.0
  0
LINE
  5
30F
330
1F
100
AcDbEntity
  8
0
  6
Continuous
 62
     7
370
    25
100
AcDbLine
 10
3363.7389610433
 20
3316.9073507913
 30
0.0
 11
3263.7389610433
 21
3316.9073507913
 31
0.0
  0
LINE
  5
310
330
1F
100
AcDbEntity
  8
0
  6
Continuous
 62
     7
370
    25
100
AcDbLine
 10
3263.7389610433
 20
3316.9073507913
 30
0.0
 11
3263.7389610433
 21
3326.9073507913
 31
0.0
  0
LINE
  5
311
330
1F
100
AcDbEntity
  8
0
  6
Continuous
 62
     7
370
    25
100
AcDbLine
 10
3263.7389610433
 20
3331.9073507913
 30
0.0
 11
3263.7389610433
 21
3326.9073507913
 31
0.0
  0
LINE
  5
312
330
1F
100
AcDbEntity
  8
0
  6
Continuous
 62
     7
370
    25
100
AcDbLine
 10
3363.7389610433
 20
3331.9073507913
 30
0.0
 11
3363.7389610433
 21
3326.9073507913
 31
0.0
  0
LINE
  5
313
330
1F
100
AcDbEntity
  8
0
  6
Continuous
 62
     7
370
    25
100
AcDbLine
 10
3363.7389610433
 20
3576.9073507913
 30
0.0
 11
3263.7389610433
 21
3576.9073507913
 31
0.0
  0
LINE
  5
314
330
1F
100
AcDbEntity
  8
0
  6
Continuous
 62
     7
370
    25
100
AcDbLine
 10
3363.7389610433
 20
3576.9073507913
 30
0.0
 11
3363.7389610433
 21
3561.9073507913
 31
0.0
  0
LINE
  5
315
330
1F
100
AcDbEntity
  8
0
  6
Continuous
 62
     7
370
    25
100
AcDbLine
 10
3363.7389610433
 20
3561.9073507913
 30
0.0
 11
3263.7389610433
 21
3561.9073507913
 31
0.0
  0
LINE
  5
316
330
1F
100
AcDbEntity
  8
0
  6
Continuous
 62
     7
370
    25
100
AcDbLine
 10
3263.7389610433
 20
3576.9073507913
 30
0.0
 11
3263.7389610433
 21
3561.9073507913
 31
0.0
  0
LINE
  5
317
330
1F
100
AcDbEntity
  8
0
  6
Continuous
 62
     7
370
    25
100
AcDbLine
 10
3363.7389610433
 20
3561.9073507913
 30
0.0
 11
3363.7389610433
 21
3331.9073507913
 31
0.0
  0
LINE
  5
318
330
1F
100
AcDbEntity
  8
0
  6
Continuous
 62
     7
370
    25
100
AcDbLine
 10
3263.7389610433
 20
3561.9073507913
 30
0.0
 11
3263.7389610433
 21
3331.9073507913
 31
0.0
  0
LINE
  5
319
330
1F
100
AcDbEntity
  8
0
  6
Continuous
 62
     7
370
    25
100
AcDbLine
 10
1638.7389610433
 20
3259.4073507923
 30
0.0
 11
1653.7389610433
 21
3259.4073507923
 31
0.0
  0
LINE
  5
31A
330
1F
100
AcDbEntity
  8
0
  6
Continuous
 62
     7
370
    25
100
AcDbLine
 10
1638.7389610433
 20
3259.4073507923
 30
0.0
 11
1638.7389610433
 21
3409.4073507923
 31
0.0
  0
LINE
  5
31B
330
1F
100
AcDbEntity
  8
0
  6
Continuous
 62
     7
370
    25
100
AcDbLine
 10
1653.7389610433
 20
3259.4073507923
 30
0.0
 11
1653.7389610433
 21
3409.4073507923
 31
0.0
  0
LINE
  5
31C
330
1F
100
AcDbEntity
  8
0
  6
Continuous
 62
     7
370
    25
100
AcDbLine
 10
1638.7389610433
 20
3409.4073507923
 30
0.0
 11
1653.7389610433
 21
3409.4073507923
 31
0.0
  0
LINE
  5
31D
330
1F
100
AcDbEntity
  8
0
  6
Continuous
 62
     7
370
    25
100
AcDbLine
 10
1901.2389610432
 20
3289.4073507923
 30
0.0
 11
1653.7389610433
 21
3289.4073507923
 31
0.0
  0
LINE
  5
31E
330
1F
100
AcDbEntity
  8
0
  6
Continuous
 62
     7
370
    25
100
AcDbLine
 10
1901.2389610432
 20
3274.4073507923
 30
0.0
 11
1653.7389610433
 21
3274.4073507923
 31
0.0
  0
LINE
  5
31F
330
1F
100
AcDbEntity
  8
0
  6
Continuous
 62
     7
370
    25
100
AcDbLine
 10
2206.2389610433
 20
3414.4073507923
 30
0.0
 11
2231.2389610433
 21
3414.4073507923
 31
0.0
  0
LINE
  5
320
330
1F
100
AcDbEntity
  8
0
  6
Continuous
 62
     7
370
    25
100
AcDbLine
 10
2108.7389610433
 20
3351.9073507923
 30
0.0
 11
1653.7389610433
 21
3351.9073507923
 31
0.0
  0
LINE
  5
321
330
1F
100
AcDbEntity
  8
0
  6
Continuous
 62
     7
370
    25
100
AcDbLine
 10
2108.7389610433
 20
3351.9073507923
 30
0.0
 11
2108.7389610433
 21
3316.9073507913
 31
0.0
  0
LINE
  5
322
330
1F
100
AcDbEntity
  8
0
  6
Continuous
 62
     7
370
    25
100
AcDbLine
 10
4138.7389610433
 20
3409.4073507913
 30
0.0
 11
4123.7389610433
 21
3409.4073507913
 31
0.0
  0
LINE
  5
323
330
1F
100
AcDbEntity
  8
0
  6
Continuous
 62
     7
370
    25
100
AcDbLine
 10
4138.7389610433
 20
3409.4073507913
 30
0.0
 11
4138.7389610433
 21
3259.4073507913
 31
0.0
  0
LINE
  5
324
330
1F
100
AcDbEntity
  8
0
  6
Continuous
 62
     7
370
    25
100
AcDbLine
 10
4138.7389610433
 20
3259.4073507913
 30
0.0
 11
4123.7389610433
 21
3259.4073507913
 31
0.0
  0
LINE
  5
325
330
1F
100
AcDbEntity
  8
0
  6
Continuous
 62
     7
370
    25
100
AcDbLine
 10
4123.7389610433
 20
3409.4073507913
 30
0.0
 11
4123.7389610433
 21
3259.4073507913
 31
0.0
  0
LINE
  5
326
330
1F
100
AcDbEntity
  8
0
  6
Continuous
 62
     7
370
    25
100
AcDbLine
 10
3876.2389610433
 20
3274.4073507913
 30
0.0
 11
4123.7389610433
 21
3274.4073507913
 31
0.0
  0
LINE
  5
327
330
1F
100
AcDbEntity
  8
0
  6
Continuous
 62
     7
370
    25
100
AcDbLine
 10
3876.2389610433
 20
3289.4073507913
 30
0.0
 11
4123.7389610433
 21
3289.4073507913
 31
0.0
  0
LINE
  5
328
330
1F
100
AcDbEntity
  8
0
  6
Continuous
 62
     7
370
    25
100
AcDbLine
 10
3571.2389610433
 20
3414.4073507913
 30
0.0
 11
3546.2389610433
 21
3414.4073507913
 31
0.0
  0
LINE
  5
329
330
1F
100
AcDbEntity
  8
0
  6
Continuous
 62
     7
370
    25
100
AcDbLine
 10
3668.7389610433
 20
3316.9073507913
 30
0.0
 11
3668.7389610433
 21
3351.9073507913
 31
0.0
  0
LINE
  5
32A
330
1F
100
AcDbEntity
  8
0
  6
Continuous
 62
     7
370
    25
100
AcDbLine
 10
3668.7389610433
 20
3351.9073507913
 30
0.0
 11
4123.7389610433
 21
3351.9073507913
 31
0.0
  0
LINE
  5
32B
330
1F
100
AcDbEntity
  8
0
  6
Continuous
 62
     7
370
    25
100
AcDbLine
 10
2276.2389610433
 20
3249.4073507913
 30
0.0
 11
2351.2389610433
 21
3249.4073507913
 31
0.0
  0
LINE
  5
32C
330
1F
100
AcDbEntity
  8
0
  6
Continuous
 62
     7
370
    25
100
AcDbLine
 10
2201.2389610433
 20
3249.4073507913
 30
0.0
 11
2276.2389610433
 21
3249.4073507913
 31
0.0
  0
LINE
  5
32D
330
1F
100
AcDbEntity
  8
0
  6
Continuous
 62
     7
370
    25
100
AcDbLine
 10
2276.2389610433
 20
3259.4073507913
 30
0.0
 11
2310.2399588588
 21
3259.4073507913
 31
0.0
  0
LINE
  5
32E
330
1F
100
AcDbEntity
  8
0
  6
Continuous
 62
     7
370
    25
100
AcDbLine
 10
2242.2379632279
 20
3259.4073507913
 30
0.0
 11
2276.2389610433
 21
3259.4073507913
 31
0.0
  0
LINE
  5
32F
330
1F
100
AcDbEntity
  8
0
  6
Continuous
 62
     7
370
    25
100
AcDbLine
 10
3501.2389610433
 20
3249.4073507913
 30
0.0
 11
3576.2389610433
 21
3249.4073507913
 31
0.0
  0
LINE
  5
330
330
1F
100
AcDbEntity
  8
0
  6
Continuous
 62
     7
370
    25
100
AcDbLine
 10
3426.2389610433
 20
3249.4073507913
 30
0.0
 11
3501.2389610433
 21
3249.4073507913
 31
0.0
  0
LINE
  5
331
330
1F
100
AcDbEntity
  8
0
  6
Continuous
 62
     7
370
    25
100
AcDbLine
 10
3501.2389610433
 20
3259.4073507913
 30
0.0
 11
3535.2399588589
 21
3259.4073507913
 31
0.0
  0
LINE
  5
332
330
1F
100
AcDbEntity
  8
0
  6
Continuous
 62
     7
370
    25
100
AcDbLine
 10
3467.2379632278
 20
3259.4073507913
 30
0.0
 11
3501.2389610433
 21
3259.4073507913
 31
0.0
  0
LINE
  5
333
330
1F
100
AcDbEntity
  8
0
  6
Continuous
 62
     7
370
    25
100
AcDbLine
 10
2256.2389610434
 20
3322.9073507913
 30
0.0
 11
2181.2389610434
 21
3322.9073507913
 31
0.0
  0
LINE
  5
334
330
1F
100
AcDbEntity
  8
0
  6
Continuous
 62
     7
370
    25
100
AcDbLine
 10
2501.2389610433
 20
3332.9073507913
 30
0.0
 11
2426.2389610433
 21
3332.9073507913
 31
0.0
  0
LINE
  5
335
330
1F
100
AcDbEntity
  8
0
  6
Continuous
 62
     7
370
    25
100
AcDbLine
 10
3351.2389610433
 20
3332.9073507913
 30
0.0
 11
3276.2389610433
 21
3332.9073507913
 31
0.0
  0
LINE
  5
336
330
1F
100
AcDbEntity
  8
0
  6
Continuous
 62
     7
370
    25
100
AcDbLine
 10
3596.2389610434
 20
3322.9073507913
 30
0.0
 11
3521.2389610434
 21
3322.9073507913
 31
0.0
  0
LINE
  5
337
330
1F
100
AcDbEntity
  8
0
  6
Continuous
 62
     7
370
    25
100
AcDbLine
 10
3163.7389610433
 20
3424.4073507913
 30
0.0
 11
2613.7389610433
 21
3424.4073507913
 31
0.0
  0
LINE
  5
338
330
1F
100
AcDbEntity
  8
0
  6
Continuous
 62
     7
370
    25
100
AcDbLine
 10
3876.2389610433
 20
3316.9073507913
 30
0.0
 11
3363.7389610433
 21
3316.9073507913
 31
0.0
  0
LINE
  5
339
330
1F
100
AcDbEntity
  8
0
  6
Continuous
 62
     7
370
    25
100
AcDbLine
 10
3263.7389610433
 20
3316.9073507913
 30
0.0
 11
2513.7389610433
 21
3316.9073507913
 31
0.0
  0
LINE
  5
33A
330
1F
100
AcDbEntity
  8
0
  6
Continuous
 62
     7
370
    25
100
AcDbLine
 10
2413.7389610433
 20
3316.9073507913
 30
0.0
 11
1901.2389610433
 21
3316.9073507913
 31
0.0
  0
LINE
  5
33B
330
1F
100
AcDbEntity
  8
0
  6
Continuous
 62
     7
370
    25
100
AcDbLine
 10
3876.2389610433
 20
3316.9073507913
 30
0.0
 11
3876.2389610433
 21
3301.9073507913
 31
0.0
  0
LINE
  5
33C
330
1F
100
AcDbEntity
  8
0
  6
Continuous
 62
     7
370
    25
100
AcDbLine
 10
3876.2389610433
 20
3301.9073507913
 30
0.0
 11
1901.2389610432
 21
3301.9073507913
 31
0.0
  0
LINE
  5
33D
330
1F
100
AcDbEntity
  8
0
  6
Continuous
 62
     7
370
    25
100
AcDbLine
 10
1901.2389610433
 20
3316.9073507913
 30
0.0
 11
1901.2389610432
 21
3301.9073507913
 31
0.0
  0
LINE
  5
33E
330
1F
100
AcDbEntity
  8
0
  6
Continuous
 62
     7
370
    25
100
AcDbLine
 10
3876.2389610433
 20
3281.9073507913
 30
0.0
 11
1901.2389610432
 21
3281.9073507913
 31
0.0
  0
LINE
  5
33F
330
1F
100
AcDbEntity
  8
0
  6
Continuous
 62
     7
370
    25
100
AcDbLine
 10
3876.2389610433
 20
3281.9073507913
 30
0.0
 11
3876.2389610433
 21
3266.9073507913
 31
0.0
  0
LINE
  5
340
330
1F
100
AcDbEntity
  8
0
  6
Continuous
 62
     7
370
    25
100
AcDbLine
 10
3876.2389610433
 20
3266.9073507913
 30
0.0
 11
1901.2389610432
 21
3266.9073507913
 31
0.0
  0
LINE
  5
341
330
1F
100
AcDbEntity
  8
0
  6
Continuous
 62
     7
370
    25
100
AcDbLine
 10
1901.2389610432
 20
3281.9073507913
 30
0.0
 11
1901.2389610432
 21
3266.9073507913
 31
0.0
  0
LINE
  5
342
330
1F
100
AcDbEntity
  8
0
  6
Continuous
 62
     7
370
    25
100
AcDbLine
 10
3876.2389610433
 20
3301.9073507913
 30
0.0
 11
3876.2389610433
 21
3281.9073507913
 31
0.0
  0
LINE
  5
343
330
1F
100
AcDbEntity
  8
0
  6
Continuous
 62
     7
370
    25
100
AcDbLine
 10
1901.2389610432
 20
3301.9073507913
 30
0.0
 11
1901.2389610432
 21
3281.9073507913
 31
0.0
  0
LINE
  5
344
330
1F
100
AcDbEntity
  8
0
  6
Continuous
 62
     7
370
    25
100
AcDbLine
 10
2276.2389610433
 20
2795.4073507913
 30
0.0
 11
2301.2389610433
 21
2795.4073507913
 31
0.0
  0
LINE
  5
345
330
1F
100
AcDbEntity
  8
0
  6
Continuous
 62
     7
370
    25
100
AcDbLine
 10
2251.2389610433
 20
2795.4073507913
 30
0.0
 11
2276.2389610433
 21
2795.4073507913
 31
0.0
  0
LINE
  5
346
330
1F
100
AcDbEntity
  8
0
  6
Continuous
 62
     7
370
    25
100
AcDbLine
 10
3501.2389610433
 20
2795.4073507913
 30
0.0
 11
3526.2389610433
 21
2795.4073507913
 31
0.0
  0
LINE
  5
347
330
1F
100
AcDbEntity
  8
0
  6
Continuous
 62
     7
370
    25
100
AcDbLine
 10
3476.2389610433
 20
2795.4073507913
 30
0.0
 11
3501.2389610433
 21
2795.4073507913
 31
0.0
  0
LINE
  5
348
330
1F
100
AcDbEntity
  8
0
  6
Continuous
 62
     7
370
    25
100
AcDbLine
 10
3163.7389610433
 20
3316.9073507913
 30
0.0
 11
3163.7389610433
 21
3419.4073507913
 31
0.0
  0
LINE
  5
349
330
1F
100
AcDbEntity
  8
0
  6
Continuous
 62
     7
370
    25
100
AcDbLine
 10
4123.7389610433
 20
3409.4073507913
 30
0.0
 11
4123.7389610433
 21
3419.4073507913
 31
0.0
  0
LINE
  5
34A
330
1F
100
AcDbEntity
  8
0
  6
Continuous
 62
     7
370
    25
100
AcDbLine
 10
3163.7389610433
 20
3419.4073507913
 30
0.0
 11
3163.7389610433
 21
3434.4073507913
 31
0.0
  0
LINE
  5
34B
330
1F
100
AcDbEntity
  8
0
  6
Continuous
 62
     7
370
    25
100
AcDbLine
 10
3163.7389610433
 20
3434.4073507913
 30
0.0
 11
3263.7389610433
 21
3434.4073507913
 31
0.0
  0
LINE
  5
34C
330
1F
100
AcDbEntity
  8
0
  6
Continuous
 62
     7
370
    25
100
AcDbLine
 10
3363.7389610433
 20
3434.4073507913
 30
0.0
 11
4123.7389610433
 21
3434.4073507913
 31
0.0
  0
LINE
  5
34D
330
1F
100
AcDbEntity
  8
0
  6
Continuous
 62
     7
370
    25
100
AcDbLine
 10
4123.7389610433
 20
3419.4073507913
 30
0.0
 11
4123.7389610433
 21
3434.4073507913
 31
0.0
  0
LINE
  5
34E
330
1F
100
AcDbEntity
  8
0
  6
Continuous
 62
     7
370
    25
100
AcDbLine
 10
3163.7389610433
 20
3259.4073507913
 30
0.0
 11
3163.7389610433
 21
3266.9073507913
 31
0.0
  0
LINE
  5
34F
330
1F
100
AcDbEntity
  8
0
  6
Continuous
 62
     7
370
    25
100
AcDbLine
 10
3163.7389610433
 20
3259.4073507913
 30
0.0
 11
3467.2379632278
 21
3259.4073507913
 31
0.0
  0
LINE
  5
350
330
1F
100
AcDbEntity
  8
0
  6
Continuous
 62
     7
370
    25
100
AcDbLine
 10
3535.2399588589
 20
3259.4073507913
 30
0.0
 11
4123.7389610433
 21
3259.4073507913
 31
0.0
  0
LINE
  5
351
330
1F
100
AcDbEntity
  8
0
  6
Continuous
 62
     7
370
    25
100
AcDbLine
 10
2613.7389610433
 20
3434.4073507913
 30
0.0
 11
2513.7389610433
 21
3434.4073507913
 31
0.0
  0
LINE
  5
352
330
1F
100
AcDbEntity
  8
0
  6
Continuous
 62
     7
370
    25
100
AcDbLine
 10
2413.7389610433
 20
3434.4073507913
 30
0.0
 11
1653.7389610433
 21
3434.4073507913
 31
0.0
  0
LINE
  5
353
330
1F
100
AcDbEntity
  8
0
  6
Continuous
 62
     7
370
    25
100
AcDbLine
 10
2613.7389610433
 20
3419.4073507913
 30
0.0
 11
2613.7389610433
 21
3434.4073507913
 31
0.0
  0
LINE
  5
354
330
1F
100
AcDbEntity
  8
0
  6
Continuous
 62
     7
370
    25
100
AcDbLine
 10
1653.7389610433
 20
3419.4073507913
 30
0.0
 11
1653.7389610433
 21
3434.4073507913
 31
0.0
  0
LINE
  5
355
330
1F
100
AcDbEntity
  8
0
  6
Continuous
 62
     7
370
    25
100
AcDbLine
 10
1653.7389610433
 20
3409.4073507913
 30
0.0
 11
1653.7389610433
 21
3419.4073507913
 31
0.0
  0
LINE
  5
356
330
1F
100
AcDbEntity
  8
0
  6
Continuous
 62
     7
370
    25
100
AcDbLine
 10
2613.7389610433
 20
3316.9073507913
 30
0.0
 11
2613.7389610433
 21
3419.4073507913
 31
0.0
  0
LINE
  5
357
330
1F
100
AcDbEntity
  8
0
  6
Continuous
 62
     7
370
    25
100
AcDbLine
 10
2613.7389610433
 20
3259.4073507913
 30
0.0
 11
2613.7389610433
 21
3266.9073507913
 31
0.0
  0
LINE
  5
358
330
1F
100
AcDbEntity
  8
0
  6
Continuous
 62
     7
370
    25
100
AcDbLine
 10
2613.7389610433
 20
3259.4073507913
 30
0.0
 11
2310.2399588588
 21
3259.4073507913
 31
0.0
  0
LINE
  5
359
330
1F
100
AcDbEntity
  8
0
  6
Continuous
 62
     7
370
    25
100
AcDbLine
 10
2242.2379632279
 20
3259.4073507913
 30
0.0
 11
1653.7389610433
 21
3259.4073507913
 31
0.0
  0
LINE
  5
35A
330
1F
100
AcDbEntity
  8
0
  6
Continuous
 62
     7
370
    25
100
AcDbLine
 10
2463.7389610432
 20
3414.4073507922
 30
0.0
 11
2476.2389610432
 21
3414.4073507922
 31
0.0
  0
LINE
  5
35B
330
1F
100
AcDbEntity
  8
0
  6
Continuous
 62
     7
370
    25
100
AcDbLine
 10
2451.2389610432
 20
3414.4073507922
 30
0.0
 11
2463.7389610432
 21
3414.4073507922
 31
0.0
  0
LINE
  5
35C
330
1F
100
AcDbEntity
  8
0
  6
Continuous
 62
     7
370
    25
100
AcDbLine
 10
3313.7389610432
 20
3414.4073507922
 30
0.0
 11
3326.2389610432
 21
3414.4073507922
 31
0.0
  0
LINE
  5
35D
330
1F
100
AcDbEntity
  8
0
  6
Continuous
 62
     7
370
    25
100
AcDbLine
 10
3301.2389610432
 20
3414.4073507922
 30
0.0
 11
3313.7389610432
 21
3414.4073507922
 31
0.0
  0
LINE
  5
35E
330
1F
100
AcDbEntity
  8
0
  6
Continuous
 62
     8
370
    25
100
AcDbLine
 10
2513.7389610433
 20
3331.9073507913
 30
0.0
 11
2501.2389610433
 21
3331.9073507913
 31
0.0
  0
LINE
  5
35F
330
1F
100
AcDbEntity
  8
0
  6
Continuous
 62
     8
370
    25
100
AcDbLine
 10
2426.2389610433
 20
3331.9073507913
 30
0.0
 11
2413.7389610433
 21
3331.9073507913
 31
0.0
  0
LINE
  5
360
330
1F
100
AcDbEntity
  8
0
  6
Continuous
 62
     8
370
    25
100
AcDbLine
 10
3363.7389610433
 20
3331.9073507913
 30
0.0
 11
3351.2389610433
 21
3331.9073507913
 31
0.0
  0
LINE
  5
361
330
1F
100
AcDbEntity
  8
0
  6
Continuous
 62
     8
370
    25
100
AcDbLine
 10
3276.2389610433
 20
3331.9073507913
 30
0.0
 11
3263.7389610433
 21
3331.9073507913
 31
0.0
  0
LINE
  5
362
330
1F
100
AcDbEntity
  8
0
  6
Continuous
 62
     8
370
    25
100
AcDbLine
 10
3163.7389610433
 20
3409.4073507913
 30
0.0
 11
2613.7389610433
 21
3409.4073507913
 31
0.0
  0
LINE
  5
363
330
1F
100
AcDbEntity
  8
0
  6
Continuous
 62
     8
370
    25
100
AcDbLine
 10
3163.7389610433
 20
3419.4073507913
 30
0.0
 11
3263.7389610433
 21
3419.4073507913
 31
0.0
  0
LINE
  5
364
330
1F
100
AcDbEntity
  8
0
  6
Continuous
 62
     8
370
    25
100
AcDbLine
 10
3363.7389610433
 20
3419.4073507913
 30
0.0
 11
4123.7389610433
 21
3419.4073507913
 31
0.0
  0
LINE
  5
365
330
1F
100
AcDbEntity
  8
0
  6
Continuous
 62
     8
370
    25
100
AcDbLine
 10
2613.7389610433
 20
3419.4073507913
 30
0.0
 11
2513.7389610433
 21
3419.4073507913
 31
0.0
  0
LINE
  5
366
330
1F
100
AcDbEntity
  8
0
  6
Continuous
 62
     8
370
    25
100
AcDbLine
 10
2413.7389610433
 20
3419.4073507913
 30
0.0
 11
1653.7389610433
 21
3419.4073507913
 31
0.0
  0
ENDSEC
  0
SECTION
  2
OBJECTS
  0
DICTIONARY
  5
C
330
0
100
AcDbDictionary
281
     1
  3
ACAD_GROUP
350
D
  3
ACAD_LAYOUT
350
1A
  3
ACAD_MLINESTYLE
350
17
  3
ACAD_PLOTSETTINGS
350
19
  3
ACAD_PLOTSTYLENAME
350
E
  3
ACAD_SCALELIST
350
47
  3
DWGPROPS
350
367
  0
DICTIONARY
  5
D
102
{ACAD_REACTORS
330
C
102
}
330
C
100
AcDbDictionary
281
     1
  0
DICTIONARY
  5
1A
102
{ACAD_REACTORS
330
C
102
}
330
C
100
AcDbDictionary
281
     1
  3
Layout1
350
1E
  3
Layout2
350
26
  3
Model
350
22
  0
DICTIONARY
  5
17
102
{ACAD_REACTORS
330
C
102
}
330
C
100
AcDbDictionary
281
     1
  3
Standard
350
18
  0
DICTIONARY
  5
19
102
{ACAD_REACTORS
330
C
102
}
330
C
100
AcDbDictionary
281
     1
  0
ACDBDICTIONARYWDFLT
  5
E
102
{ACAD_REACTORS
330
C
102
}
330
C
100
AcDbDictionary
281
     1
  3
Normal
350
F
100
AcDbDictionaryWithDefault
340
F
  0
DICTIONARY
  5
47
102
{ACAD_REACTORS
330
C
102
}
330
C
100
AcDbDictionary
281
     1
  3
A0
350
48
  3
A1
350
49
  3
A2
350
4A
  3
A3
350
4B
  3
A4
350
4C
  3
A5
350
4D
  3
A6
350
4E
  3
A7
350
4F
  3
A8
350
50
  3
A9
350
51
  3
B0
350
52
  3
B1
350
53
  3
B2
350
54
  3
B3
350
55
  3
B4
350
56
  3
B5
350
57
  3
B6
350
58
  3
B7
350
59
  3
B8
350
5A
  3
B9
350
5B
  3
C0
350
5C
  3
C1
350
5D
  3
C2
350
5E
  3
C3
350
5F
  3
C4
350
60
  3
C5
350
61
  3
C6
350
62
  3
C7
350
63
  3
C8
350
64
  3
C9
350
65
  3
D0
350
66
  3
D1
350
67
  3
D2
350
68
  0
XRECORD
  5
367
102
{ACAD_REACTORS
330
C
102
}
330
C
100
AcDbXrecord
280
     1
  1
DWGPROPS COOKIE
  2

  3

  4

  6

  7

  8
radek.stransky
  9

300
=
301
=
302
=
303
=
304
=
305
=
306
=
307
=
308
=
309
=
 40
0.0
 41
2459094.537205521
 42
2459094.537205868
  1

 90
        0
  0
LAYOUT
  5
1E
102
{ACAD_REACTORS
330
1A
102
}
330
1A
100
AcDbPlotSettings
  1

  2
none_device
  4

  6

 40
0.0
 41
0.0
 42
0.0
 43
0.0
 44
0.0
 45
0.0
 46
0.0
 47
0.0
 48
0.0
 49
0.0
140
0.0
141
0.0
142
1.0
143
1.0
 70
   688
 72
     1
 73
     0
 74
     5
  7

 75
    16
147
1.0
148
0.0
149
0.0
100
AcDbLayout
  1
Layout1
 70
     1
 71
     1
 10
0.0
 20
0.0
 11
420.0
 21
297.0
 12
0.0
 22
0.0
 32
0.0
 14
1.0000000000E+20
 24
1.0000000000E+20
 34
1.0000000000E+20
 15
-1.0000000000E+20
 25
-1.0000000000E+20
 35
-1.0000000000E+20
146
0.0
 13
0.0
 23
0.0
 33
0.0
 16
1.0
 26
0.0
 36
0.0
 17
0.0
 27
1.0
 37
0.0
 76
     0
330
1B
  0
LAYOUT
  5
26
102
{ACAD_REACTORS
330
1A
102
}
330
1A
100
AcDbPlotSettings
  1

  2
none_device
  4

  6

 40
0.0
 41
0.0
 42
0.0
 43
0.0
 44
0.0
 45
0.0
 46
0.0
 47
0.0
 48
0.0
 49
0.0
140
0.0
141
0.0
142
1.0
143
1.0
 70
   688
 72
     1
 73
     0
 74
     5
  7

 75
    16
147
1.0
148
0.0
149
0.0
100
AcDbLayout
  1
Layout2
 70
     1
 71
     2
 10
0.0
 20
0.0
 11
0.0
 21
0.0
 12
0.0
 22
0.0
 32
0.0
 14
0.0
 24
0.0
 34
0.0
 15
0.0
 25
0.0
 35
0.0
146
0.0
 13
0.0
 23
0.0
 33
0.0
 16
1.0
 26
0.0
 36
0.0
 17
0.0
 27
1.0
 37
0.0
 76
     0
330
23
  0
LAYOUT
  5
22
102
{ACAD_REACTORS
330
1A
102
}
330
1A
100
AcDbPlotSettings
  1

  2
none_device
  4
Letter_(8.50_x_11.00_Inches)
  6

 40
6.35
 41
6.35
 42
6.35000508
 43
6.35000508
 44
215.9
 45
279.4
 46
0.0
 47
0.0
 48
0.0
 49
0.0
140
0.0
141
0.0
142
1.0
143
1.0
 70
  1712
 72
     1
 73
     0
 74
     0
  7

 75
     0
147
1.0
148
0.0
149
0.0
100
AcDbLayout
  1
Model
 70
     1
 71
     0
 10
0.0
 20
0.0
 11
20000.0
 21
10000.0
 12
0.0
 22
0.0
 32
0.0
 14
0.0
 24
0.0
 34
0.0
 15
20000.0
 25
10000.0
 35
0.0
146
0.0
 13
0.0
 23
0.0
 33
0.0
 16
1.0
 26
0.0
 36
0.0
 17
0.0
 27
1.0
 37
0.0
 76
     0
330
1F
331
29
  0
MLINESTYLE
  5
18
102
{ACAD_REACTORS
330
17
102
}
330
17
100
AcDbMlineStyle
  2
Standard
 70
     0
  3

 62
   256
 51
90.0
 52
90.0
 71
     2
 49
0.5
 62
   256
  6
BYLAYER
 49
-0.5
 62
   256
  6
BYLAYER
  0
ACDBPLACEHOLDER
  5
F
102
{ACAD_REACTORS
330
E
102
}
330
E
  0
SCALE
  5
48
102
{ACAD_REACTORS
330
47
102
}
330
47
100
AcDbScale
 70
     0
300
1:1
140
1.0
141
1.0
290
     1
  0
SCALE
  5
49
102
{ACAD_REACTORS
330
47
102
}
330
47
100
AcDbScale
 70
     0
300
1:2
140
1.0
141
2.0
290
     0
  0
SCALE
  5
4A
102
{ACAD_REACTORS
330
47
102
}
330
47
100
AcDbScale
 70
     0
300
1:4
140
1.0
141
4.0
290
     0
  0
SCALE
  5
4B
102
{ACAD_REACTORS
330
47
102
}
330
47
100
AcDbScale
 70
     0
300
1:5
140
1.0
141
5.0
290
     0
  0
SCALE
  5
4C
102
{ACAD_REACTORS
330
47
102
}
330
47
100
AcDbScale
 70
     0
300
1:8
140
1.0
141
8.0
290
     0
  0
SCALE
  5
4D
102
{ACAD_REACTORS
330
47
102
}
330
47
100
AcDbScale
 70
     0
300
1:10
140
1.0
141
10.0
290
     0
  0
SCALE
  5
4E
102
{ACAD_REACTORS
330
47
102
}
330
47
100
AcDbScale
 70
     0
300
1:16
140
1.0
141
16.0
290
     0
  0
SCALE
  5
4F
102
{ACAD_REACTORS
330
47
102
}
330
47
100
AcDbScale
 70
     0
300
1:20
140
1.0
141
20.0
290
     0
  0
SCALE
  5
50
102
{ACAD_REACTORS
330
47
102
}
330
47
100
AcDbScale
 70
     0
300
1:30
140
1.0
141
30.0
290
     0
  0
SCALE
  5
51
102
{ACAD_REACTORS
330
47
102
}
330
47
100
AcDbScale
 70
     0
300
1:40
140
1.0
141
40.0
290
     0
  0
SCALE
  5
52
102
{ACAD_REACTORS
330
47
102
}
330
47
100
AcDbScale
 70
     0
300
1:50
140
1.0
141
50.0
290
     0
  0
SCALE
  5
53
102
{ACAD_REACTORS
330
47
102
}
330
47
100
AcDbScale
 70
     0
300
1:100
140
1.0
141
100.0
290
     0
  0
SCALE
  5
54
102
{ACAD_REACTORS
330
47
102
}
330
47
100
AcDbScale
 70
     0
300
2:1
140
2.0
141
1.0
290
     0
  0
SCALE
  5
55
102
{ACAD_REACTORS
330
47
102
}
330
47
100
AcDbScale
 70
     0
300
4:1
140
4.0
141
1.0
290
     0
  0
SCALE
  5
56
102
{ACAD_REACTORS
330
47
102
}
330
47
100
AcDbScale
 70
     0
300
8:1
140
8.0
141
1.0
290
     0
  0
SCALE
  5
57
102
{ACAD_REACTORS
330
47
102
}
330
47
100
AcDbScale
 70
     0
300
10:1
140
10.0
141
1.0
290
     0
  0
SCALE
  5
58
102
{ACAD_REACTORS
330
47
102
}
330
47
100
AcDbScale
 70
     0
300
100:1
140
100.0
141
1.0
290
     0
  0
SCALE
  5
59
102
{ACAD_REACTORS
330
47
102
}
330
47
100
AcDbScale
 70
     0
300
1/128" = 1'-0"
140
0.0078125
141
12.0
290
     0
  0
SCALE
  5
5A
102
{ACAD_REACTORS
330
47
102
}
330
47
100
AcDbScale
 70
     0
300
1/64" = 1'-0"
140
0.015625
141
12.0
290
     0
  0
SCALE
  5
5B
102
{ACAD_REACTORS
330
47
102
}
330
47
100
AcDbScale
 70
     0
300
1/32" = 1'-0"
140
0.03125
141
12.0
290
     0
  0
SCALE
  5
5C
102
{ACAD_REACTORS
330
47
102
}
330
47
100
AcDbScale
 70
     0
300
1/16" = 1'-0"
140
0.0625
141
12.0
290
     0
  0
SCALE
  5
5D
102
{ACAD_REACTORS
330
47
102
}
330
47
100
AcDbScale
 70
     0
300
3/32" = 1'-0"
140
0.09375
141
12.0
290
     0
  0
SCALE
  5
5E
102
{ACAD_REACTORS
330
47
102
}
330
47
100
AcDbScale
 70
     0
300
1/8" = 1'-0"
140
0.125
141
12.0
290
     0
  0
SCALE
  5
5F
102
{ACAD_REACTORS
330
47
102
}
330
47
100
AcDbScale
 70
     0
300
3/16" = 1'-0"
140
0.1875
141
12.0
290
     0
  0
SCALE
  5
60
102
{ACAD_REACTORS
330
47
102
}
330
47
100
AcDbScale
 70
     0
300
1/4" = 1'-0"
140
0.25
141
12.0
290
     0
  0
SCALE
  5
61
102
{ACAD_REACTORS
330
47
102
}
330
47
100
AcDbScale
 70
     0
300
3/8" = 1'-0"
140
0.375
141
12.0
290
     0
  0
SCALE
  5
62
102
{ACAD_REACTORS
330
47
102
}
330
47
100
AcDbScale
 70
     0
300
1/2" = 1'-0"
140
0.5
141
12.0
290
     0
  0
SCALE
  5
63
102
{ACAD_REACTORS
330
47
102
}
330
47
100
AcDbScale
 70
     0
300
3/4" = 1'-0"
140
0.75
141
12.0
290
     0
  0
SCALE
  5
64
102
{ACAD_REACTORS
330
47
102
}
330
47
100
AcDbScale
 70
     0
300
1" = 1'-0"
140
1.0
141
12.0
290
     0
  0
SCALE
  5
65
102
{ACAD_REACTORS
330
47
102
}
330
47
100
AcDbScale
 70
     0
300
1-1/2" = 1'-0"
140
1.5
141
12.0
290
     0
  0
SCALE
  5
66
102
{ACAD_REACTORS
330
47
102
}
330
47
100
AcDbScale
 70
     0
300
3" = 1'-0"
140
3.0
141
12.0
290
     0
  0
SCALE
  5
67
102
{ACAD_REACTORS
330
47
102
}
330
47
100
AcDbScale
 70
     0
300
6" = 1'-0"
140
6.0
141
12.0
290
     0
  0
SCALE
  5
68
102
{ACAD_REACTORS
330
47
102
}
330
47
100
AcDbScale
 70
     0
300
1'-0" = 1'-0"
140
12.0
141
12.0
290
     0
  0
ENDSEC
  0
EOF
