  0
SECTION
  2
HEADER
  9
$ACADVER
  1
AC1015
  9
$ACADMAINTVER
 70
     6
  9
$DWGCODEPAGE
  3
ANSI_1250
  9
$INSBASE
 10
0.0
 20
0.0
 30
0.0
  9
$EXTMIN
 10
0.0
 20
0.0
 30
0.0
  9
$EXTMAX
 10
20000.0
 20
10000.0
 30
0.0
  9
$LIMMIN
 10
0.0
 20
0.0
  9
$LIMMAX
 10
20000.0
 20
10000.0
  9
$ORTHOMODE
 70
     0
  9
$REGENMODE
 70
     1
  9
$FILLMODE
 70
     1
  9
$QTEXTMODE
 70
     0
  9
$MIRRTEXT
 70
     1
  9
$LTSCALE
 40
1.0
  9
$ATTMODE
 70
     1
  9
$TEXTSIZE
 40
2.0
  9
$TRACEWID
 40
1.0
  9
$TEXTSTYLE
  7
Standard
  9
$CLAYER
  8
0
  9
$CELTYPE
  6
ByLayer
  9
$CECOLOR
 62
   256
  9
$CELTSCALE
 40
1.0
  9
$DISPSILH
 70
     0
  9
$DIMSCALE
 40
1.0
  9
$DIMASZ
 40
2.0
  9
$DIMEXO
 40
1.0
  9
$DIMDLI
 40
3.75
  9
$DIMRND
 40
0.0
  9
$DIMDLE
 40
0.0
  9
$DIMEXE
 40
1.0
  9
$DIMTP
 40
0.0
  9
$DIMTM
 40
0.0
  9
$DIMTXT
 40
2.0
  9
$DIMCEN
 40
2.5
  9
$DIMTSZ
 40
0.0
  9
$DIMTOL
 70
     0
  9
$DIMLIM
 70
     0
  9
$DIMTIH
 70
     1
  9
$DIMTOH
 70
     1
  9
$DIMSE1
 70
     0
  9
$DIMSE2
 70
     0
  9
$DIMTAD
 70
     1
  9
$DIMZIN
 70
     0
  9
$DIMBLK
  1

  9
$DIMASO
 70
     1
  9
$DIMSHO
 70
     1
  9
$DIMPOST
  1

  9
$DIMAPOST
  1

  9
$DIMALT
 70
     0
  9
$DIMALTD
 70
     3
  9
$DIMALTF
 40
0.0393700787
  9
$DIMLFAC
 40
1.0
  9
$DIMTOFL
 70
     1
  9
$DIMTVP
 40
0.0
  9
$DIMTIX
 70
     0
  9
$DIMSOXD
 70
     0
  9
$DIMSAH
 70
     0
  9
$DIMBLK1
  1

  9
$DIMBLK2
  1

  9
$DIMSTYLE
  2
ISO-25
  9
$DIMCLRD
 70
     0
  9
$DIMCLRE
 70
     0
  9
$DIMCLRT
 70
     0
  9
$DIMTFAC
 40
1.0
  9
$DIMGAP
 40
1.524
  9
$DIMJUST
 70
     0
  9
$DIMSD1
 70
     0
  9
$DIMSD2
 70
     0
  9
$DIMTOLJ
 70
     0
  9
$DIMTZIN
 70
     0
  9
$DIMALTZ
 70
     0
  9
$DIMALTTZ
 70
     0
  9
$DIMUPT
 70
     0
  9
$DIMDEC
 70
     2
  9
$DIMTDEC
 70
     0
  9
$DIMALTU
 70
     2
  9
$DIMALTTD
 70
     3
  9
$DIMTXSTY
  7
Standard
  9
$DIMAUNIT
 70
     0
  9
$DIMADEC
 70
     2
  9
$DIMALTRND
 40
0.0
  9
$DIMAZIN
 70
     0
  9
$DIMDSEP
 70
    44
  9
$DIMATFIT
 70
     3
  9
$DIMFRAC
 70
     0
  9
$DIMLDRBLK
  1

  9
$DIMLUNIT
 70
     2
  9
$DIMLWD
 70
    -2
  9
$DIMLWE
 70
    -2
  9
$DIMTMOVE
 70
     0
  9
$LUNITS
 70
     2
  9
$LUPREC
 70
     3
  9
$SKETCHINC
 40
1.0
  9
$FILLETRAD
 40
10.0
  9
$AUNITS
 70
     0
  9
$AUPREC
 70
     2
  9
$MENU
  1
.
  9
$ELEVATION
 40
0.0
  9
$PELEVATION
 40
0.0
  9
$THICKNESS
 40
0.0
  9
$LIMCHECK
 70
     0
  9
$CHAMFERA
 40
0.0
  9
$CHAMFERB
 40
0.0
  9
$CHAMFERC
 40
0.0
  9
$CHAMFERD
 40
0.0
  9
$SKPOLY
 70
     0
  9
$TDCREATE
 40
2460369.426280116
  9
$TDUCREATE
 40
2460369.384613449
  9
$TDUPDATE
 40
2460369.426280972
  9
$TDUUPDATE
 40
2460369.384614306
  9
$TDINDWG
 40
0.0000000116
  9
$TDUSRTIMER
 40
0.0000000116
  9
$USRTIMER
 70
     1
  9
$ANGBASE
 50
0.0
  9
$ANGDIR
 70
     0
  9
$PDMODE
 70
     0
  9
$PDSIZE
 40
-1.0
  9
$PLINEWID
 40
0.0
  9
$SPLFRAME
 70
     0
  9
$SPLINETYPE
 70
     6
  9
$SPLINESEGS
 70
     8
  9
$HANDSEED
  5
218
  9
$SURFTAB1
 70
     6
  9
$SURFTAB2
 70
     6
  9
$SURFTYPE
 70
     6
  9
$SURFU
 70
     6
  9
$SURFV
 70
     6
  9
$UCSBASE
  2

  9
$UCSNAME
  2

  9
$UCSORG
 10
0.0
 20
0.0
 30
0.0
  9
$UCSXDIR
 10
1.0
 20
0.0
 30
0.0
  9
$UCSYDIR
 10
0.0
 20
1.0
 30
0.0
  9
$UCSORTHOREF
  2

  9
$UCSORTHOVIEW
 70
     0
  9
$UCSORGTOP
 10
0.0
 20
0.0
 30
0.0
  9
$UCSORGBOTTOM
 10
0.0
 20
0.0
 30
0.0
  9
$UCSORGLEFT
 10
0.0
 20
0.0
 30
0.0
  9
$UCSORGRIGHT
 10
0.0
 20
0.0
 30
0.0
  9
$UCSORGFRONT
 10
0.0
 20
0.0
 30
0.0
  9
$UCSORGBACK
 10
0.0
 20
0.0
 30
0.0
  9
$PUCSBASE
  2

  9
$PUCSNAME
  2

  9
$PUCSORG
 10
0.0
 20
0.0
 30
0.0
  9
$PUCSXDIR
 10
1.0
 20
0.0
 30
0.0
  9
$PUCSYDIR
 10
0.0
 20
1.0
 30
0.0
  9
$PUCSORTHOREF
  2

  9
$PUCSORTHOVIEW
 70
     0
  9
$PUCSORGTOP
 10
0.0
 20
0.0
 30
0.0
  9
$PUCSORGBOTTOM
 10
0.0
 20
0.0
 30
0.0
  9
$PUCSORGLEFT
 10
0.0
 20
0.0
 30
0.0
  9
$PUCSORGRIGHT
 10
0.0
 20
0.0
 30
0.0
  9
$PUCSORGFRONT
 10
0.0
 20
0.0
 30
0.0
  9
$PUCSORGBACK
 10
0.0
 20
0.0
 30
0.0
  9
$USERI1
 70
     0
  9
$USERI2
 70
     0
  9
$USERI3
 70
     0
  9
$USERI4
 70
     0
  9
$USERI5
 70
     0
  9
$USERR1
 40
0.0
  9
$USERR2
 40
0.0
  9
$USERR3
 40
0.0
  9
$USERR4
 40
0.0
  9
$USERR5
 40
0.0
  9
$WORLDVIEW
 70
     1
  9
$SHADEDGE
 70
     3
  9
$SHADEDIF
 70
    70
  9
$TILEMODE
 70
     1
  9
$MAXACTVP
 70
    64
  9
$PINSBASE
 10
0.0
 20
0.0
 30
0.0
  9
$PLIMCHECK
 70
     0
  9
$PEXTMIN
 10
1.0000000000E+20
 20
1.0000000000E+20
 30
1.0000000000E+20
  9
$PEXTMAX
 10
-1.0000000000E+20
 20
-1.0000000000E+20
 30
-1.0000000000E+20
  9
$PLIMMIN
 10
0.0
 20
0.0
  9
$PLIMMAX
 10
420.0
 20
297.0
  9
$UNITMODE
 70
     0
  9
$VISRETAIN
 70
     1
  9
$PLINEGEN
 70
     0
  9
$PSLTSCALE
 70
     1
  9
$TREEDEPTH
 70
  3020
  9
$CMLSTYLE
  2
Standard
  9
$CMLJUST
 70
     0
  9
$CMLSCALE
 40
20.0
  9
$PROXYGRAPHICS
 70
     1
  9
$MEASUREMENT
 70
     1
  9
$CELWEIGHT
370
    -1
  9
$ENDCAPS
280
     0
  9
$JOINSTYLE
280
     0
  9
$LWDISPLAY
290
     1
  9
$INSUNITS
 70
     4
  9
$HYPERLINKBASE
  1

  9
$STYLESHEET
  1

  9
$XEDIT
290
     1
  9
$CEPSNTYPE
380
     0
  9
$PSTYLEMODE
290
     1
  9
$FINGERPRINTGUID
  2
{49c9f240-296d-4f58-b585-923294a34cfc}
  9
$VERSIONGUID
  2
{FAEB1C32-E019-11D5-929B-00C0DF256EC4}
  9
$EXTNAMES
290
     1
  9
$PSVPSCALE
 40
0.0
  9
$OLESTARTUP
290
     0
  0
ENDSEC
  0
SECTION
  2
CLASSES
  0
CLASS
  1
ACDBDICTIONARYWDFLT
  2
AcDbDictionaryWithDefault
  3
ObjectDBX Classes
 90
        0
280
     0
281
     0
  0
CLASS
  1
VISUALSTYLE
  2
AcDbVisualStyle
  3
ObjectDBX Classes
 90
     4095
280
     0
281
     0
  0
CLASS
  1
MATERIAL
  2
AcDbMaterial
  3
ObjectDBX Classes
 90
     1153
280
     0
281
     0
  0
CLASS
  1
SCALE
  2
AcDbScale
  3
ObjectDBX Classes
 90
     1153
280
     0
281
     0
  0
CLASS
  1
TABLESTYLE
  2
AcDbTableStyle
  3
ObjectDBX Classes
 90
     4095
280
     0
281
     0
  0
CLASS
  1
MLEADERSTYLE
  2
AcDbMLeaderStyle
  3
ACDB_MLEADERSTYLE_CLASS
 90
     4095
280
     0
281
     0
  0
CLASS
  1
SUN
  2
AcDbSun
  3
SCENEOE
 90
     1153
280
     0
281
     0
  0
CLASS
  1
ACDBPLACEHOLDER
  2
AcDbPlaceHolder
  3
ObjectDBX Classes
 90
        0
280
     0
281
     0
  0
CLASS
  1
LAYOUT
  2
AcDbLayout
  3
ObjectDBX Classes
 90
        0
280
     0
281
     0
  0
ENDSEC
  0
SECTION
  2
TABLES
  0
TABLE
  2
VPORT
  5
8
330
0
100
AcDbSymbolTable
 70
     1
  0
VPORT
  5
29
330
8
100
AcDbSymbolTableRecord
100
AcDbViewportTableRecord
  2
*Active
 70
     0
 10
0.0
 20
0.0
 11
1.0
 21
1.0
 12
10000.0
 22
5000.0
 13
0.0
 23
0.0
 14
10.0
 24
10.0
 15
10.0
 25
10.0
 16
0.0
 26
0.0
 36
1.0
 17
0.0
 27
0.0
 37
0.0
 40
10000.0
 41
2.0
 42
50.0
 43
0.0
 44
0.0
 50
0.0
 51
0.0
 71
     0
 72
  2000
 73
     1
 74
     3
 75
     0
 76
     0
 77
     0
 78
     0
281
     0
 65
     1
110
0.0
120
0.0
130
0.0
111
1.0
121
0.0
131
0.0
112
0.0
122
1.0
132
0.0
 79
     0
146
0.0
  0
ENDTAB
  0
TABLE
  2
LTYPE
  5
5
330
0
100
AcDbSymbolTable
 70
     6
  0
LTYPE
  5
14
330
5
100
AcDbSymbolTableRecord
100
AcDbLinetypeTableRecord
  2
ByBlock
 70
     0
  3

 72
    65
 73
     0
 40
0.0
  0
LTYPE
  5
15
330
5
100
AcDbSymbolTableRecord
100
AcDbLinetypeTableRecord
  2
ByLayer
 70
     0
  3

 72
    65
 73
     0
 40
0.0
  0
LTYPE
  5
16
330
5
100
AcDbSymbolTableRecord
100
AcDbLinetypeTableRecord
  2
Continuous
 70
     0
  3
Solid line
 72
    65
 73
     0
 40
0.0
  0
LTYPE
  5
6E
330
5
100
AcDbSymbolTableRecord
100
AcDbLinetypeTableRecord
  2
HIDDEN
 70
     0
  3
Hidden __ __ __ __ __ __ __ __ __ __ __ __ __ __
 72
    65
 73
     2
 40
1.905
 49
1.27
 74
     0
 49
-0.635
 74
     0
  0
LTYPE
  5
6F
330
5
100
AcDbSymbolTableRecord
100
AcDbLinetypeTableRecord
  2
PHANTOM
 70
     0
  3
Phantom ______  __  __  ______  __  __  ______
 72
    65
 73
     6
 40
12.7
 49
6.35
 74
     0
 49
-1.27
 74
     0
 49
1.27
 74
     0
 49
-1.27
 74
     0
 49
1.27
 74
     0
 49
-1.27
 74
     0
  0
LTYPE
  5
70
330
5
100
AcDbSymbolTableRecord
100
AcDbLinetypeTableRecord
  2
CENTER
 70
     0
  3
Center ____ _ ____ _ ____ _ ____ _ ____ _ ____
 72
    65
 73
     4
 40
10.16
 49
6.35
 74
     0
 49
-1.27
 74
     0
 49
1.27
 74
     0
 49
-1.27
 74
     0
  0
LTYPE
  5
71
330
5
100
AcDbSymbolTableRecord
100
AcDbLinetypeTableRecord
  2
CENTERX2
 70
     0
  3
Center (2x) ________  __  ________  __  _____
 72
    65
 73
     4
 40
20.32
 49
12.7
 74
     0
 49
-2.54
 74
     0
 49
2.54
 74
     0
 49
-2.54
 74
     0
  0
LTYPE
  5
72
330
5
100
AcDbSymbolTableRecord
100
AcDbLinetypeTableRecord
  2
DOT2
 70
     0
  3
Dot (.5x) ........................................
 72
    65
 73
     2
 40
0.635
 49
0.0
 74
     0
 49
-0.635
 74
     0
  0
ENDTAB
  0
TABLE
  2
LAYER
  5
2
330
0
100
AcDbSymbolTable
 70
    13
  0
LAYER
  5
10
330
2
100
AcDbSymbolTableRecord
100
AcDbLayerTableRecord
  2
0
 70
     0
 62
     7
  6
Continuous
370
    -3
390
F
  0
LAYER
  5
73
330
2
100
AcDbSymbolTableRecord
100
AcDbLayerTableRecord
  2
FORMAT
 70
     0
 62
     7
  6
Continuous
370
    -3
390
F
  0
LAYER
  5
74
330
2
100
AcDbSymbolTableRecord
100
AcDbLayerTableRecord
  2
OSA
 70
     0
 62
     7
  6
CENTER
370
    -3
390
F
  0
LAYER
  5
75
330
2
100
AcDbSymbolTableRecord
100
AcDbLayerTableRecord
  2
0_35
 70
     0
 62
     7
  6
Continuous
370
    35
390
F
  0
LAYER
  5
76
330
2
100
AcDbSymbolTableRecord
100
AcDbLayerTableRecord
  2
0_5
 70
     0
 62
     7
  6
Continuous
370
    50
390
F
  0
LAYER
  5
77
330
2
100
AcDbSymbolTableRecord
100
AcDbLayerTableRecord
  2
0_25
 70
     0
 62
     7
  6
Continuous
370
    25
390
F
  0
LAYER
  5
78
330
2
100
AcDbSymbolTableRecord
100
AcDbLayerTableRecord
  2
0_18
 70
     0
 62
     7
  6
Continuous
370
    -3
390
F
  0
LAYER
  5
79
330
2
100
AcDbSymbolTableRecord
100
AcDbLayerTableRecord
  2
SLD-0
 70
     0
 62
   179
  6
Continuous
370
    -3
390
F
  0
LAYER
  5
7A
330
2
100
AcDbSymbolTableRecord
100
AcDbLayerTableRecord
  2
KOTY
 70
     0
 62
     7
  6
Continuous
370
    -3
390
F
  0
LAYER
  5
7B
330
2
100
AcDbSymbolTableRecord
100
AcDbLayerTableRecord
  2
SILNA
 70
     0
 62
   179
  6
Continuous
370
    -3
390
F
  0
LAYER
  5
7C
330
2
100
AcDbSymbolTableRecord
100
AcDbLayerTableRecord
  2
0_18_1
 70
     0
 62
   179
  6
Continuous
370
    -3
390
F
  0
LAYER
  5
7D
330
2
100
AcDbSymbolTableRecord
100
AcDbLayerTableRecord
  2
0_35_1
 70
     0
 62
   179
  6
Continuous
370
    35
390
F
  0
LAYER
  5
7E
330
2
100
AcDbSymbolTableRecord
100
AcDbLayerTableRecord
  2
0_5_1
 70
     0
 62
   179
  6
Continuous
370
    50
390
F
  0
ENDTAB
  0
TABLE
  2
STYLE
  5
3
330
0
100
AcDbSymbolTable
 70
     1
  0
STYLE
  5
11
330
3
100
AcDbSymbolTableRecord
100
AcDbTextStyleTableRecord
  2
Standard
 70
     0
 40
0.0
 41
1.0
 50
0.0
 71
     0
 42
2.0
  3
txt
  4

  0
ENDTAB
  0
TABLE
  2
VIEW
  5
6
330
0
100
AcDbSymbolTable
 70
     0
  0
ENDTAB
  0
TABLE
  2
UCS
  5
7
330
0
100
AcDbSymbolTable
 70
     0
  0
ENDTAB
  0
TABLE
  2
APPID
  5
9
330
0
100
AcDbSymbolTable
 70
     1
  0
APPID
  5
12
330
9
100
AcDbSymbolTableRecord
100
AcDbRegAppTableRecord
  2
ACAD
 70
     0
  0
ENDTAB
  0
TABLE
  2
DIMSTYLE
  5
A
330
0
100
AcDbSymbolTable
 70
     1
100
AcDbDimStyleTable
  0
DIMSTYLE
105
27
330
A
100
AcDbSymbolTableRecord
100
AcDbDimStyleTableRecord
  2
ISO-25
 70
     0
 41
2.5
 42
0.625
 43
3.75
 44
1.25
 73
     0
 74
     0
 77
     1
 78
     8
140
2.5
141
2.5
143
0.0393700787
147
0.625
171
     3
172
     1
178
     0
271
     2
272
     2
274
     3
278
    44
283
     0
284
     8
340
11
  0
ENDTAB
  0
TABLE
  2
BLOCK_RECORD
  5
1
330
0
100
AcDbSymbolTable
 70
     1
  0
BLOCK_RECORD
  5
1F
330
1
100
AcDbSymbolTableRecord
100
AcDbBlockTableRecord
  2
*Model_Space
340
22
  0
BLOCK_RECORD
  5
1B
330
1
100
AcDbSymbolTableRecord
100
AcDbBlockTableRecord
  2
*Paper_Space
340
1E
  0
BLOCK_RECORD
  5
23
330
1
100
AcDbSymbolTableRecord
100
AcDbBlockTableRecord
  2
*Paper_Space0
340
26
  0
ENDTAB
  0
ENDSEC
  0
SECTION
  2
BLOCKS
  0
BLOCK
  5
20
330
1F
100
AcDbEntity
  8
0
100
AcDbBlockBegin
  2
*Model_Space
 70
     0
 10
0.0
 20
0.0
 30
0.0
  3
*Model_Space
  1

  0
ENDBLK
  5
21
330
1F
100
AcDbEntity
  8
0
100
AcDbBlockEnd
  0
BLOCK
  5
1C
330
1B
100
AcDbEntity
 67
     1
  8
0
100
AcDbBlockBegin
  2
*Paper_Space
 70
     0
 10
0.0
 20
0.0
 30
0.0
  3
*Paper_Space
  1

  0
ENDBLK
  5
1D
330
1B
100
AcDbEntity
 67
     1
  8
0
100
AcDbBlockEnd
  0
BLOCK
  5
24
330
23
100
AcDbEntity
  8
0
100
AcDbBlockBegin
  2
*Paper_Space0
 70
     0
 10
0.0
 20
0.0
 30
0.0
  3
*Paper_Space0
  1

  0
ENDBLK
  5
25
330
23
100
AcDbEntity
  8
0
100
AcDbBlockEnd
  0
ENDSEC
  0
SECTION
  2
ENTITIES
  0
SPLINE
  5
7F
330
1F
100
AcDbEntity
  8
0
  6
Continuous
 62
     7
370
    25
100
AcDbSpline
210
0.0
220
0.0
230
1.0
 70
     8
 71
     3
 72
    22
 73
    18
 74
     0
 42
0.00000001
 43
0.00000001
 40
0.0
 40
0.0
 40
0.0
 40
0.0
 40
0.0575339516894582
 40
0.124321785656261
 40
0.1947557413605751
 40
0.2656452672040126
 40
0.3364402956965323
 40
0.4065138385341895
 40
0.4756993202750751
 40
0.5461488687420393
 40
0.6171290624976186
 40
0.6881379682797003
 40
0.7585488002573441
 40
0.8279290041882553
 40
0.896039400281838
 40
0.9638254749637781
 40
1.0
 40
1.0
 40
1.0
 40
1.0
 10
6211.653941194477
 20
5310.047123838956
 30
0.0
 10
6210.761642044868
 20
5310.061923882962
 30
0.0
 10
6208.833524466266
 20
5310.093904441305
 30
0.0
 10
6205.831447637203
 20
5310.281441284114
 30
0.0
 10
6202.674653743598
 20
5310.623756789599
 30
0.0
 10
6199.538716675339
 20
5311.12032378516
 30
0.0
 10
6196.517714411973
 20
5311.75661993875
 30
0.0
 10
6193.663644301862
 20
5312.52161843327
 30
0.0
 10
6190.980160137742
 20
5313.409082115552
 30
0.0
 10
6188.471159763902
 20
5314.40879012582
 30
0.0
 10
6186.151289099945
 20
5315.511959648859
 30
0.0
 10
6184.064675399554
 20
5316.691252119705
 30
0.0
 10
6182.245785060353
 20
5317.916432444907
 30
0.0
 10
6180.721713620697
 20
5319.147715729052
 30
0.0
 10
6179.494155626691
 20
5320.366426426157
 30
0.0
 10
6178.724592653905
 20
5321.312161767765
 30
0.0
 10
6178.250174917077
 20
5322.028443441052
 30
0.0
 10
6178.085094719915
 20
5322.277683531948
 30
0.0
  0
SPLINE
  5
80
330
1F
100
AcDbEntity
  8
0
  6
Continuous
 62
     7
370
    25
100
AcDbSpline
210
0.0
220
0.0
230
1.0
 70
     8
 71
     3
 72
    22
 73
    18
 74
     0
 42
0.00000001
 43
0.00000001
 40
0.0
 40
0.0
 40
0.0
 40
0.0
 40
0.0374140999430109
 40
0.1066937538944309
 40
0.1707896107505883
 40
0.2389333303512085
 40
0.3081104407144896
 40
0.3783242294521624
 40
0.449290435000067
 40
0.5205873669344008
 40
0.5916394988350899
 40
0.6620477537141802
 40
0.7314082162759137
 40
0.802227215950804
 40
0.8733901080610933
 40
0.944267547524669
 40
1.0
 40
1.0
 40
1.0
 40
1.0
 10
6369.950013873039
 20
5322.292745183253
 30
0.0
 10
6369.782418207018
 20
5322.03203405995
 30
0.0
 10
6369.304485802619
 20
5321.288564392912
 30
0.0
 10
6368.523936613991
 20
5320.351902766482
 30
0.0
 10
6367.317414078396
 20
5319.154341806336
 30
0.0
 10
6365.847251319346
 20
5317.961464333001
 30
0.0
 10
6364.068476894569
 20
5316.753427026109
 30
0.0
 10
6362.016520011285
 20
5315.581687513887
 30
0.0
 10
6359.711062395797
 20
5314.472715752358
 30
0.0
 10
6357.182142889715
 20
5313.454012987017
 30
0.0
 10
6354.466909164939
 20
5312.548754643727
 30
0.0
 10
6351.606436184448
 20
5311.77788124822
 30
0.0
 10
6348.606451965891
 20
5311.140620075298
 30
0.0
 10
6345.486614807425
 20
5310.63927302198
 30
0.0
 10
6342.260605148394
 20
5310.283261506545
 30
0.0
 10
6339.211533226818
 20
5310.092390343727
 30
0.0
 10
6337.247929091705
 20
5310.062014726136
 30
0.0
 10
6336.383569502857
 20
5310.048643672439
 30
0.0
  0
LINE
  5
81
330
1F
100
AcDbEntity
  8
0
  6
Continuous
 62
     7
370
    25
100
AcDbLine
 10
6336.3845423161
 20
5310.0586597902
 30
0.0
 11
6211.6529683565
 21
5310.0586597902
 31
0.0
  0
SPLINE
  5
82
330
1F
100
AcDbEntity
  8
0
  6
Continuous
 62
     7
370
    25
100
AcDbSpline
210
0.0
220
0.0
230
1.0
 70
     8
 71
     3
 72
     9
 73
     5
 74
     0
 42
0.00000001
 43
0.00000001
 40
0.0
 40
0.0
 40
0.0
 40
0.0
 40
0.6732841373566585
 40
1.0
 40
1.0
 40
1.0
 40
1.0
 10
6396.943632030784
 20
5214.429420990247
 30
0.0
 10
6396.96406725509
 20
5214.482666510551
 30
0.0
 10
6396.994418815701
 20
5214.561749794043
 30
0.0
 10
6396.984545748687
 20
5214.541740393273
 30
0.0
 10
6396.981320061081
 20
5214.535203004641
 30
0.0
  0
SPLINE
  5
83
330
1F
100
AcDbEntity
  8
0
  6
Continuous
 62
     7
370
    25
100
AcDbSpline
210
0.0
220
0.0
230
1.0
 70
     8
 71
     3
 72
     9
 73
     5
 74
     0
 42
0.00000001
 43
0.00000001
 40
0.0
 40
0.0
 40
0.0
 40
0.0
 40
0.3274139210202686
 40
1.0
 40
1.0
 40
1.0
 40
1.0
 10
6151.054654457965
 20
5214.537969533962
 30
0.0
 10
6151.051996845035
 20
5214.543403158023
 30
0.0
 10
6151.043879862958
 20
5214.559998738459
 30
0.0
 10
6151.071238105716
 20
5214.48984494428
 30
0.0
 10
6151.089638878941
 20
5214.442660478929
 30
0.0
  0
SPLINE
  5
84
330
1F
100
AcDbEntity
  8
0
  6
Continuous
 62
     7
370
    25
100
AcDbSpline
210
0.0
220
0.0
230
1.0
 70
     8
 71
     3
 72
    12
 73
     8
 74
     0
 42
0.00000001
 43
0.00000001
 40
0.0
 40
0.0
 40
0.0
 40
0.0
 40
0.0307653878007965
 40
0.3103518054062177
 40
0.5886987428313141
 40
0.8575557085039373
 40
0.9999999999999999
 40
0.9999999999999999
 40
0.9999999999999999
 40
0.9999999999999999
 10
6153.699929130191
 20
5196.78530370681
 30
0.0
 10
6153.703902166487
 20
5196.725314561869
 30
0.0
 10
6153.743980939263
 20
5196.120162448789
 30
0.0
 10
6153.828035036677
 20
5195.086730420855
 30
0.0
 10
6153.934588445047
 20
5193.830773642294
 30
0.0
 10
6154.007054461901
 20
5192.974066465282
 30
0.0
 10
6154.02481954119
 20
5192.64722118039
 30
0.0
 10
6154.030972048844
 20
5192.534026182262
 30
0.0
  0
SPLINE
  5
85
330
1F
100
AcDbEntity
  8
0
  6
Continuous
 62
     7
370
    25
100
AcDbSpline
210
0.0
220
0.0
230
1.0
 70
     8
 71
     3
 72
     9
 73
     5
 74
     0
 42
0.00000001
 43
0.00000001
 40
0.0
 40
0.0
 40
0.0
 40
0.0
 40
0.4068702229291607
 40
1.0
 40
1.0
 40
1.0
 40
1.0
 10
6393.996370437294
 20
5192.160608798144
 30
0.0
 10
6393.995305750098
 20
5192.171972495645
 30
0.0
 10
6393.99268897665
 20
5192.199902034008
 30
0.0
 10
6393.999261376639
 20
5192.394347657548
 30
0.0
 10
6394.003159662778
 20
5192.50967914689
 30
0.0
  0
SPLINE
  5
86
330
1F
100
AcDbEntity
  8
0
  6
Continuous
 62
     7
370
    25
100
AcDbSpline
210
0.0
220
0.0
230
1.0
 70
     8
 71
     3
 72
     9
 73
     5
 74
     0
 42
0.00000001
 43
0.00000001
 40
0.0
 40
0.0
 40
0.0
 40
0.0
 40
0.4945052859846755
 40
1.0
 40
1.0
 40
1.0
 40
1.0
 10
6154.034351009423
 20
5192.509679146884
 30
0.0
 10
6154.038019217667
 20
5192.412737101199
 30
0.0
 10
6154.045437153023
 20
5192.216698659482
 30
0.0
 10
6154.042445480059
 20
5192.17650827298
 30
0.0
 10
6154.04093320519
 20
5192.156192245049
 30
0.0
  0
ARC
  5
87
330
1F
100
AcDbEntity
  8
0
  6
Continuous
 62
     7
370
    25
100
AcDbCircle
 10
6122.0187553361
 20
5439.8958590062
 30
0.0
 40
3.00000000000027
100
AcDbArc
 50
180.0
 51
187.0018891158
  0
LINE
  5
88
330
1F
100
AcDbEntity
  8
0
  6
Continuous
 62
     7
370
    25
100
AcDbLine
 10
6119.0411289374
 20
5439.5301527996
 30
0.0
 11
6147.7982501051
 21
5205.3860185327
 31
0.0
  0
SPLINE
  5
89
330
1F
100
AcDbEntity
  8
0
  6
Continuous
 62
     7
370
    25
100
AcDbSpline
210
0.0
220
0.0
230
1.0
 70
     8
 71
     3
 72
     9
 73
     5
 74
     0
 42
0.00000001
 43
0.00000001
 40
0.0
 40
0.0
 40
0.0
 40
0.0
 40
0.2501038757049412
 40
1.0
 40
1.0
 40
1.0
 40
1.0
 10
6399.367849000499
 20
5200.167485415314
 30
0.0
 10
6399.456920367586
 20
5200.599618700295
 30
0.0
 10
6399.813057859799
 20
5202.327433928116
 30
0.0
 10
6400.056616721008
 20
5204.075300308385
 30
0.0
 10
6400.239260567066
 20
5205.386018532733
 30
0.0
  0
LINE
  5
8A
330
1F
100
AcDbEntity
  8
0
  6
Continuous
 62
     7
370
    25
100
AcDbLine
 10
6400.2392605671
 20
5205.3860185327
 30
0.0
 11
6428.9963817348
 21
5439.5301527996
 31
0.0
  0
ARC
  5
8B
330
1F
100
AcDbEntity
  8
0
  6
Continuous
 62
     7
370
    25
100
AcDbCircle
 10
6426.0187553361
 20
5439.8958590062
 30
0.0
 40
3.0
100
AcDbArc
 50
352.9981108842
 51
0.0
  0
SPLINE
  5
8C
330
1F
100
AcDbEntity
  8
0
  6
Continuous
 62
     7
370
    25
100
AcDbSpline
210
0.0
220
0.0
230
1.0
 70
     8
 71
     3
 72
     9
 73
     5
 74
     0
 42
0.00000001
 43
0.00000001
 40
0.0
 40
0.0
 40
0.0
 40
0.0
 40
0.2499526785360884
 40
1.0
 40
1.0
 40
1.0
 40
1.0
 10
6147.798250105136
 20
5205.386018532733
 30
0.0
 10
6147.854372171217
 20
5204.948653764436
 30
0.0
 10
6148.078902936042
 20
5203.198863480697
 30
0.0
 10
6148.416470228318
 20
5201.466694282639
 30
0.0
 10
6148.669661671703
 20
5200.167485415314
 30
0.0
  0
LINE
  5
8D
330
1F
100
AcDbEntity
  8
0
  6
Continuous
 62
     7
370
    25
100
AcDbLine
 10
6148.6696616717
 20
5200.1674854153
 30
0.0
 11
6197.1799109687
 21
4971.0779778796
 31
0.0
  0
ARC
  5
8E
330
1F
100
AcDbEntity
  8
0
  6
Continuous
 62
     7
370
    25
100
AcDbCircle
 10
6200.1148328918
 20
4971.6994545927
 30
0.0
 40
3.0
100
AcDbArc
 50
191.955908533
 51
270.0
  0
ARC
  5
8F
330
1F
100
AcDbEntity
  8
0
  6
Continuous
 62
     7
370
    25
100
AcDbCircle
 10
6347.9226777804
 20
4971.6994545927
 30
0.0
 40
3.0
100
AcDbArc
 50
270.0
 51
348.044091467
  0
LINE
  5
90
330
1F
100
AcDbEntity
  8
0
  6
Continuous
 62
     7
370
    25
100
AcDbLine
 10
6350.8575997035
 20
4971.0779778796
 30
0.0
 11
6399.3678490005
 21
5200.1674854153
 31
0.0
  0
LINE
  5
91
330
1F
100
AcDbEntity
  8
0
  6
Continuous
 62
     7
370
    25
100
AcDbLine
 10
6336.384542316
 20
5296.3247664293
 30
0.0
 11
6211.6529683562
 21
5296.3247664293
 31
0.0
  0
LINE
  5
92
330
1F
100
AcDbEntity
  8
0
  6
Continuous
 62
     7
370
    25
100
AcDbLine
 10
6211.6529683562
 20
5296.3247664293
 30
0.0
 11
6211.6529683562
 21
5300.05139092
 31
0.0
  0
LINE
  5
93
330
1F
100
AcDbEntity
  8
0
  6
Continuous
 62
     7
370
    25
100
AcDbLine
 10
6211.6529683562
 20
5300.05139092
 30
0.0
 11
6336.384542316
 21
5300.05139092
 31
0.0
  0
LINE
  5
94
330
1F
100
AcDbEntity
  8
0
  6
Continuous
 62
     7
370
    25
100
AcDbLine
 10
6336.384542316
 20
5296.3247664293
 30
0.0
 11
6336.384542316
 21
5300.05139092
 31
0.0
  0
ELLIPSE
  5
95
330
1F
100
AcDbEntity
  8
0
  6
Continuous
 62
     7
370
    25
100
AcDbEllipse
 10
6210.9402279951
 20
5327.7111754449
 30
0.0
 11
60.18761090259886
 21
-0.198647988436278
 31
0.0
210
0.0
220
0.0
230
1.0
 40
0.5214794418
 41
3.410246694005519
 42
4.725952348197737
  0
SPLINE
  5
96
330
1F
100
AcDbEntity
  8
0
  6
Continuous
 62
     7
370
    25
100
AcDbSpline
210
0.0
220
0.0
230
1.0
 70
     8
 71
     3
 72
    10
 73
     6
 74
     0
 42
0.00000001
 43
0.00000001
 40
0.0
 40
0.0
 40
0.0
 40
0.0
 40
0.46366722607672
 40
0.8511584555574665
 40
1.0
 40
1.0
 40
1.0
 40
1.0
 10
6152.884108365267
 20
5319.571626530578
 30
0.0
 10
6152.89306590742
 20
5319.593255694111
 30
0.0
 10
6152.90950935504
 20
5319.632960560858
 30
0.0
 10
6152.925731023109
 20
5319.721638714938
 30
0.0
 10
6152.931824341798
 20
5319.781878517025
 30
0.0
 10
6152.933515342253
 20
5319.798596095392
 30
0.0
  0
SPLINE
  5
97
330
1F
100
AcDbEntity
  8
0
  6
Continuous
 62
     7
370
    25
100
AcDbSpline
210
0.0
220
0.0
230
1.0
 70
     8
 71
     3
 72
    13
 73
     9
 74
     0
 42
0.00000001
 43
0.00000001
 40
0.0
 40
0.0
 40
0.0
 40
0.0
 40
0.2255584982863817
 40
0.4511068971022571
 40
0.6769343595136557
 40
0.903285007818283
 40
0.99343591143207
 40
1.0
 40
1.0
 40
1.0
 40
1.0
 10
6152.933515342253
 20
5319.798596095392
 30
0.0
 10
6152.992280624877
 20
5320.088512693606
 30
0.0
 10
6153.109808558886
 20
5320.668332908906
 30
0.0
 10
6153.685043515801
 20
5321.455347143578
 30
0.0
 10
6154.481689800807
 20
5322.067857191583
 30
0.0
 10
6155.250906348064
 20
5322.363555652663
 30
0.0
 10
6155.721188573903
 20
5322.44512231528
 30
0.0
 10
6155.862070102879
 20
5322.460520528867
 30
0.0
 10
6155.871631793501
 20
5322.461565612319
 30
0.0
  0
ELLIPSE
  5
98
330
1F
100
AcDbEntity
  8
0
  6
Continuous
 62
     7
370
    25
100
AcDbEllipse
 10
6210.9402279951
 20
5330.2661503951
 30
0.0
 11
57.19741260329464
 21
-0.5221798517231946
 31
0.0
210
0.0
220
0.0
230
1.0
 40
0.5281750613
 41
3.420141713795324
 42
4.72967211810124
  0
SPLINE
  5
99
330
1F
100
AcDbEntity
  8
0
  6
Continuous
 62
     7
370
    25
100
AcDbSpline
210
0.0
220
0.0
230
1.0
 70
     8
 71
     3
 72
    10
 73
     6
 74
     0
 42
0.00000001
 43
0.00000001
 40
0.0
 40
0.0
 40
0.0
 40
0.0
 40
0.3703553510444295
 40
0.8515461599619317
 40
1.0
 40
1.0
 40
1.0
 40
1.0
 10
6395.103995329948
 20
5319.798596095392
 30
0.0
 10
6395.108649543763
 20
5319.758645484895
 30
0.0
 10
6395.119350828059
 20
5319.666788329703
 30
0.0
 10
6395.138295071871
 20
5319.604217181224
 30
0.0
 10
6395.15051998922
 20
5319.577844518797
 30
0.0
 10
6395.153402306933
 20
5319.571626530578
 30
0.0
  0
ELLIPSE
  5
9A
330
1F
100
AcDbEntity
  8
0
  6
Continuous
 62
     7
370
    25
100
AcDbEllipse
 10
6337.0972826771
 20
5327.7111754449
 30
0.0
 11
60.18761090259795
 21
0.1986479884371875
 31
0.0
210
0.0
220
0.0
230
1.0
 40
0.5214794418
 41
4.698825612571649
 42
6.014531266763883
  0
ELLIPSE
  5
9B
330
1F
100
AcDbEntity
  8
0
  6
Continuous
 62
     7
370
    25
100
AcDbEllipse
 10
6337.0972826771
 20
5330.2661503951
 30
0.0
 11
57.19741260329375
 21
0.5221798517222852
 31
0.0
210
0.0
220
0.0
230
1.0
 40
0.5281750613
 41
4.695105842668163
 42
6.004636246974136
  0
SPLINE
  5
9C
330
1F
100
AcDbEntity
  8
0
  6
Continuous
 62
     7
370
    25
100
AcDbSpline
210
0.0
220
0.0
230
1.0
 70
     8
 71
     3
 72
    13
 73
     9
 74
     0
 42
0.00000001
 43
0.00000001
 40
0.0
 40
0.0
 40
0.0
 40
0.0
 40
0.2255584982863837
 40
0.4511068971022699
 40
0.6769343595136701
 40
0.9032850078182896
 40
0.9934359114321645
 40
1.0
 40
1.0
 40
1.0
 40
1.0
 10
6395.103995329948
 20
5319.798596095392
 30
0.0
 10
6395.045230047324
 20
5320.088512693607
 30
0.0
 10
6394.927702113315
 20
5320.668332908907
 30
0.0
 10
6394.352467156396
 20
5321.45534714357
 30
0.0
 10
6393.555820871404
 20
5322.06785719161
 30
0.0
 10
6392.786604324107
 20
5322.363555652589
 30
0.0
 10
6392.316322098322
 20
5322.445122315346
 30
0.0
 10
6392.175440569323
 20
5322.460520528872
 30
0.0
 10
6392.165878878699
 20
5322.461565612319
 30
0.0
  0
LWPOLYLINE
  5
9D
330
1F
100
AcDbEntity
  8
0
  6
Continuous
 62
     7
370
    25
100
AcDbPolyline
 90
       20
 70
   128
 43
0.0
 10
6164.0166449747
 20
5181.4896015594
 10
6164.7319765035
 20
5179.7759815384
 10
6165.7895992241
 20
5178.1149132683
 10
6167.1833415492
 20
5176.5160896457
 10
6168.9050705198
 20
5174.9888403487
 10
6170.9447392633
 20
5173.5420773949
 10
6173.2904456209
 20
5172.1842431368
 10
6175.9285016007
 20
5170.9232609976
 10
6178.8435132512
 20
5169.7664892359
 10
6182.0184704909
 20
5168.7206780071
 10
6185.4348463678
 20
5167.7919299745
 10
6189.0727051698
 20
5166.9856646977
 10
6192.9108187573
 20
5166.3065870081
 10
6196.9267904357
 20
5165.7586595543
 10
6201.0971856486
 20
5165.3450796788
 10
6205.3976687255
 20
5165.0682607604
 10
6209.8031448892
 20
5164.9298181314
 10
6214.2879066923
 20
5164.9305596515
 10
6218.8257840289
 20
5165.0704809937
 10
6223.3902968457
 20
5165.3487656695
  0
LINE
  5
9E
330
1F
100
AcDbEntity
  8
0
  6
Continuous
 62
     7
370
    25
100
AcDbLine
 10
6164.0166449747
 20
5181.4896015594
 30
0.0
 11
6151.5859742186
 21
5320.2025585878
 31
0.0
  0
ELLIPSE
  5
9F
330
1F
100
AcDbEntity
  8
0
  6
Continuous
 62
     7
370
    25
100
AcDbEllipse
 10
6176.1926226662
 20
5715.4571932914
 30
0.0
 11
23.9143131829187
 21
396.5137678886858
 31
0.0
210
0.0
220
0.0
230
1.0
 40
0.0247004074
 41
3.063354096999372
 42
3.19940000398133
  0
LINE
  5
A0
330
1F
100
AcDbEntity
  8
0
  6
Continuous
 62
     7
370
    25
100
AcDbLine
 10
6211.6529683562
 20
5296.3247664293
 30
0.0
 11
6223.3902968457
 21
5165.3487656695
 31
0.0
  0
LINE
  5
A1
330
1F
100
AcDbEntity
  8
0
  6
Continuous
 62
     7
370
    25
100
AcDbLine
 10
6288.826496166
 20
4970.5278050522
 30
0.0
 11
6324.6472138265
 21
5165.3487656695
 31
0.0
  0
LINE
  5
A2
330
1F
100
AcDbEntity
  8
0
  6
Continuous
 62
     7
370
    25
100
AcDbLine
 10
6259.2110145062
 20
4970.5278050522
 30
0.0
 11
6288.826496166
 21
4970.5278050522
 31
0.0
  0
LINE
  5
A3
330
1F
100
AcDbEntity
  8
0
  6
Continuous
 62
     7
370
    25
100
AcDbLine
 10
6223.3902968457
 20
5165.3487656695
 30
0.0
 11
6259.2110145062
 21
4970.5278050522
 31
0.0
  0
LINE
  5
A4
330
1F
100
AcDbEntity
  8
0
  6
Continuous
 62
     7
370
    25
100
AcDbLine
 10
6324.6472138265
 20
5165.3487656695
 30
0.0
 11
6336.384542316
 21
5296.3247664293
 31
0.0
  0
LINE
  5
A5
330
1F
100
AcDbEntity
  8
0
  6
Continuous
 62
     7
370
    25
100
AcDbLine
 10
6396.4515364536
 20
5320.2025585878
 30
0.0
 11
6384.0208656975
 21
5181.4896015594
 31
0.0
  0
LWPOLYLINE
  5
A6
330
1F
100
AcDbEntity
  8
0
  6
Continuous
 62
     7
370
    25
100
AcDbPolyline
 90
       20
 70
   128
 43
0.0
 10
6324.6472138265
 20
5165.3487656695
 10
6329.2117266433
 20
5165.0704809937
 10
6333.7496039799
 20
5164.9305596515
 10
6338.234365783
 20
5164.9298181314
 10
6342.6398419467
 20
5165.0682607604
 10
6346.9403250236
 20
5165.3450796788
 10
6351.1107202365
 20
5165.7586595543
 10
6355.1266919149
 20
5166.3065870081
 10
6358.9648055024
 20
5166.9856646977
 10
6362.6026643044
 20
5167.7919299745
 10
6366.0190401813
 20
5168.7206780071
 10
6369.193997421
 20
5169.7664892359
 10
6372.1090090715
 20
5170.9232609976
 10
6374.7470650513
 20
5172.1842431368
 10
6377.0927714089
 20
5173.5420773949
 10
6379.1324401524
 20
5174.9888403487
 10
6380.854169123
 20
5176.5160896457
 10
6382.2479114481
 20
5178.1149132683
 10
6383.3055341687
 20
5179.7759815384
 10
6384.0208656975
 20
5181.4896015594
  0
ELLIPSE
  5
A7
330
1F
100
AcDbEntity
  8
0
  6
Continuous
 62
     7
370
    25
100
AcDbEllipse
 10
6371.844888006
 20
5715.4571932914
 30
0.0
 11
-23.9143131829187
 21
396.5137678886867
 31
0.0
210
0.0
220
0.0
230
1.0
 40
0.0247004074
 41
3.083785303198635
 42
3.219831210180712
  0
LINE
  5
A8
330
1F
100
AcDbEntity
  8
0
  6
Continuous
 62
     7
370
    25
100
AcDbLine
 10
6392.1658788787
 20
5322.4615656123
 30
0.0
 11
6426.0187553361
 21
5457.8730714419
 31
0.0
  0
LINE
  5
A9
330
1F
100
AcDbEntity
  8
0
  6
Continuous
 62
     7
370
    25
100
AcDbLine
 10
6122.0187553361
 20
5457.8730714419
 30
0.0
 11
6155.8716317935
 21
5322.4615656123
 31
0.0
  0
LINE
  5
AA
330
1F
100
AcDbEntity
  8
0
  6
Continuous
 62
     7
370
    25
100
AcDbLine
 10
6122.0187553361
 20
5457.8730714419
 30
0.0
 11
6122.0187553361
 21
5458.2544295428
 31
0.0
  0
LINE
  5
AB
330
1F
100
AcDbEntity
  8
0
  6
Continuous
 62
     7
370
    25
100
AcDbLine
 10
6426.0187553361
 20
5458.2544295428
 30
0.0
 11
6122.0187553361
 21
5458.2544295428
 31
0.0
  0
LINE
  5
AC
330
1F
100
AcDbEntity
  8
0
  6
Continuous
 62
     7
370
    25
100
AcDbLine
 10
6426.0187553361
 20
5458.2544295428
 30
0.0
 11
6426.0187553361
 21
5457.8730714419
 31
0.0
  0
LINE
  5
AD
330
1F
100
AcDbEntity
  8
0
  6
Continuous
 62
     7
370
    25
100
AcDbLine
 10
6398.5911393862
 20
5418.3415070908
 30
0.0
 11
6375.0887788124
 21
5324.3320647956
 31
0.0
  0
ELLIPSE
  5
AE
330
1F
100
AcDbEntity
  8
0
  6
Continuous
 62
     7
370
    25
100
AcDbEllipse
 10
6371.3287965964
 20
5417.8811209235
 30
0.0
 11
27.45783920842587
 21
4.081810659312396
 31
0.0
210
0.0
220
0.0
230
1.0
 40
0.5634303236
 41
6.05399867443058
 42
7.596016893691202
  0
LINE
  5
AF
330
1F
100
AcDbEntity
  8
0
  6
Continuous
 62
     7
370
    25
100
AcDbLine
 10
6171.9275755349
 20
5433.8811209235
 30
0.0
 11
6376.1099351373
 21
5433.8811209235
 31
0.0
  0
ELLIPSE
  5
B0
330
1F
100
AcDbEntity
  8
0
  6
Continuous
 62
     7
370
    25
100
AcDbEllipse
 10
6176.7087140758
 20
5417.8811209235
 30
0.0
 11
27.45783920842587
 21
-4.081810659311487
 31
0.0
210
0.0
220
0.0
230
1.0
 40
0.5634303236
 41
1.828761067078191
 42
3.370779286338792
  0
LINE
  5
B1
330
1F
100
AcDbEntity
  8
0
  6
Continuous
 62
     7
370
    25
100
AcDbLine
 10
6172.9487318598
 20
5324.3320647957
 30
0.0
 11
6149.446371286
 21
5418.3415070908
 31
0.0
  0
SPLINE
  5
B2
330
1F
100
AcDbEntity
  8
0
  6
Continuous
 62
     7
370
    25
100
AcDbSpline
210
0.0
220
0.0
230
1.0
 70
     8
 71
     3
 72
    15
 73
    11
 74
     0
 42
0.00000001
 43
0.00000001
 40
0.0
 40
0.0
 40
0.0
 40
0.0
 40
0.129012809532927
 40
0.2580384749041252
 40
0.3875228079808328
 40
0.5170194840550382
 40
0.6491687243047998
 40
0.781329943780331
 40
0.8906283643738484
 40
1.0
 40
1.0
 40
1.0
 40
1.0
 10
6211.652968356357
 20
5309.16860969039
 30
0.0
 10
6209.428696270221
 20
5309.227043949917
 30
0.0
 10
6204.979930454205
 20
5309.343918291815
 30
0.0
 10
6198.484819930099
 20
5310.251451866618
 30
0.0
 10
6192.357476351291
 20
5311.680199468388
 30
0.0
 10
6186.708114797862
 20
5313.634532237515
 30
0.0
 10
6181.728318465501
 20
5316.072350418311
 30
0.0
 10
6177.787961032362
 20
5318.756168861108
 30
0.0
 10
6174.847579157557
 20
5321.539021148214
 30
0.0
 10
6173.58182222582
 20
5323.400842455088
 30
0.0
 10
6172.948731859803
 20
5324.332064795708
 30
0.0
  0
LINE
  5
B3
330
1F
100
AcDbEntity
  8
0
  6
Continuous
 62
     7
370
    25
100
AcDbLine
 10
6336.3845423161
 20
5309.1686096904
 30
0.0
 11
6211.6529683564
 21
5309.1686096904
 31
0.0
  0
SPLINE
  5
B4
330
1F
100
AcDbEntity
  8
0
  6
Continuous
 62
     7
370
    25
100
AcDbSpline
210
0.0
220
0.0
230
1.0
 70
     8
 71
     3
 72
    15
 73
    11
 74
     0
 42
0.00000001
 43
0.00000001
 40
0.0
 40
0.0
 40
0.0
 40
0.0
 40
0.1096749440369244
 40
0.2192813217500753
 40
0.3514154101918792
 40
0.4835441089000945
 40
0.6130002370618383
 40
0.7424463738594299
 40
0.8712290939827014
 40
1.0
 40
1.0
 40
1.0
 40
1.0
 10
6375.088778812374
 20
5324.332064795615
 30
0.0
 10
6374.453259173923
 20
5323.398388504343
 30
0.0
 10
6373.182617209693
 20
5321.531619635347
 30
0.0
 10
6370.234825530894
 20
5318.744850400058
 30
0.0
 10
6366.28903550538
 20
5316.060217738007
 30
0.0
 10
6361.30620679855
 20
5313.62527195815
 30
0.0
 10
6355.656067092353
 20
5311.673284410798
 30
0.0
 10
6349.531916677512
 20
5310.247939130941
 30
0.0
 10
6343.045040347722
 20
5309.343121794564
 30
0.0
 10
6338.60464043225
 20
5309.226778612876
 30
0.0
 10
6336.384542316129
 20
5309.16860969039
 30
0.0
  0
SPLINE
  5
B5
330
1F
100
AcDbEntity
  8
0
  6
Continuous
 62
     7
370
    25
100
AcDbSpline
210
0.0
220
0.0
230
1.0
 70
     8
 71
     3
 72
    12
 73
     8
 74
     0
 42
0.00000001
 43
0.00000001
 40
0.0
 40
0.0
 40
0.0
 40
0.0
 40
0.0899207113079001
 40
0.4044129437211904
 40
0.7197310688194117
 40
0.9942459709852776
 40
1.0
 40
1.0
 40
1.0
 40
1.0
 10
6178.040870704659
 20
5322.251384688903
 30
0.0
 10
6177.967895206442
 20
5322.393944155981
 30
0.0
 10
6177.639692330555
 20
5323.035096710242
 30
0.0
 10
6176.476212075311
 20
5323.813030273442
 30
0.0
 10
6174.797240031317
 20
5324.383477319739
 30
0.0
 10
6173.544281317192
 20
5324.400558400446
 30
0.0
 10
6172.960712747125
 20
5324.333442706729
 30
0.0
 10
6172.948731859803
 20
5324.332064795709
 30
0.0
  0
SPLINE
  5
B6
330
1F
100
AcDbEntity
  8
0
  6
Continuous
 62
     7
370
    25
100
AcDbSpline
210
0.0
220
0.0
230
1.0
 70
     8
 71
     3
 72
    12
 73
     8
 74
     0
 42
0.00000001
 43
0.00000001
 40
0.0
 40
0.0
 40
0.0
 40
0.0
 40
0.0057669165970555
 40
0.2808956730616407
 40
0.5969203409671263
 40
0.9121173457366892
 40
1.0
 40
1.0
 40
1.0
 40
1.0
 10
6375.088778812374
 20
5324.332064795615
 30
0.0
 10
6375.076797930498
 20
5324.333442703227
 30
0.0
 10
6374.493231682966
 20
5324.400557994287
 30
0.0
 10
6373.240192649405
 20
5324.383528637488
 30
0.0
 10
6371.561633680582
 20
5323.812824934611
 30
0.0
 10
6370.400581922011
 20
5323.038044590174
 30
0.0
 10
6370.073742027195
 20
5322.400720114962
 30
0.0
 10
6370.002481776691
 20
5322.261765530544
 30
0.0
  0
LINE
  5
B7
330
1F
100
AcDbEntity
  8
0
  6
Continuous
 62
     7
370
    25
100
AcDbLine
 10
6428.9838704291
 20
5455.3180964918
 30
0.0
 11
6395.1039953299
 21
5319.7985960954
 31
0.0
  0
ARC
  5
B8
330
1F
100
AcDbEntity
  8
0
  6
Continuous
 62
     7
370
    25
100
AcDbCircle
 10
6425.9525306043
 20
5454.7981817227
 30
0.0
 40
3.075602786518649
100
AcDbArc
 50
9.7322884655
 51
88.7661960393
  0
LINE
  5
B9
330
1F
100
AcDbEntity
  8
0
  6
Continuous
 62
     7
370
    25
100
AcDbLine
 10
6152.9335153423
 20
5319.7985960954
 30
0.0
 11
6119.0536402431
 21
5455.3180964918
 31
0.0
  0
ARC
  5
BA
330
1F
100
AcDbEntity
  8
0
  6
Continuous
 62
     7
370
    25
100
AcDbCircle
 10
6122.0849800679
 20
5454.7981817227
 30
0.0
 40
3.075602786519035
100
AcDbArc
 50
91.2338039607
 51
170.2677115345
  0
LINE
  5
BB
330
1F
100
AcDbEntity
  8
0
  6
Continuous
 62
     7
370
    25
100
AcDbLine
 10
6428.9838704291
 20
5450.3318944896
 30
0.0
 11
6428.9838704291
 21
5455.3180964918
 31
0.0
  0
LINE
  5
BC
330
1F
100
AcDbEntity
  8
0
  6
Continuous
 62
     7
370
    25
100
AcDbLine
 10
6428.9838704291
 20
5450.3318944896
 30
0.0
 11
6396.4515364536
 21
5320.2025585878
 31
0.0
  0
LINE
  5
BD
330
1F
100
AcDbEntity
  8
0
  6
Continuous
 62
     7
370
    25
100
AcDbLine
 10
6119.0536402431
 20
5450.3318944896
 30
0.0
 11
6151.5859742186
 21
5320.2025585878
 31
0.0
  0
LINE
  5
BE
330
1F
100
AcDbEntity
  8
0
  6
Continuous
 62
     7
370
    25
100
AcDbLine
 10
6119.0536402431
 20
5455.3180964918
 30
0.0
 11
6119.0536402431
 21
5450.3318944896
 31
0.0
  0
ARC
  5
BF
330
1F
100
AcDbEntity
  8
0
  6
Continuous
 62
     7
370
    25
100
AcDbCircle
 10
6397.8901937645
 20
5412.9658876708
 30
0.0
 40
5.42112616654614
100
AcDbArc
 50
82.570919984
 51
158.5456831571
  0
ARC
  5
C0
330
1F
100
AcDbEntity
  8
0
  6
Continuous
 62
     7
370
    25
100
AcDbCircle
 10
6150.1473169077
 20
5412.9658876708
 30
0.0
 40
5.421126166546375
100
AcDbArc
 50
21.454316843
 51
97.429080016
  0
LINE
  5
C1
330
1F
100
AcDbEntity
  8
0
  6
Continuous
 62
     7
370
    25
100
AcDbLine
 10
6169.4216022412
 20
5367.3323016614
 30
0.0
 11
6155.1928104856
 21
5414.9487148112
 31
0.0
  0
LINE
  5
C2
330
1F
100
AcDbEntity
  8
0
  6
Continuous
 62
     7
370
    25
100
AcDbLine
 10
6169.4216022412
 20
5367.3323016614
 30
0.0
 11
6181.6442185014
 21
5318.4418366204
 31
0.0
  0
LINE
  5
C3
330
1F
100
AcDbEntity
  8
0
  6
Continuous
 62
     7
370
    25
100
AcDbLine
 10
6392.8447001866
 20
5414.9487148112
 30
0.0
 11
6378.615908431
 21
5367.3323016614
 31
0.0
  0
LINE
  5
C4
330
1F
100
AcDbEntity
  8
0
  6
Continuous
 62
     7
370
    25
100
AcDbLine
 10
6366.3935799214
 20
5318.4429876229
 30
0.0
 11
6378.615908431
 21
5367.3323016614
 31
0.0
  0
LINE
  5
C5
330
1F
100
AcDbEntity
  8
0
  6
Continuous
 62
     7
370
    25
100
AcDbLine
 10
6119.0500727426
 20
5439.5312512602
 30
0.0
 11
6147.8071939103
 21
5205.3871169933
 31
0.0
  0
LINE
  5
C6
330
1F
100
AcDbEntity
  8
0
  6
Continuous
 62
     7
370
    25
100
AcDbLine
 10
6119.0500727426
 20
5450.3457591303
 30
0.0
 11
6119.0500727426
 21
5439.5312512602
 31
0.0
  0
ELLIPSE
  5
C7
330
1F
100
AcDbEntity
  8
0
  6
Continuous
 62
     7
370
    25
100
AcDbEllipse
 10
6122.0187553361
 20
5425.8988552057
 30
0.0
 11
-2.991120726762347
 21
24.50106315208086
 31
0.0
210
0.0
220
0.0
230
1.0
 40
0.009413645
 41
6.207493355652441
 42
6.215523537277581
  0
LINE
  5
C8
330
1F
100
AcDbEntity
  8
0
  6
Continuous
 62
     7
370
    25
100
AcDbLine
 10
6153.7157199239
 20
5196.6762056219
 30
0.0
 11
6164.0166449747
 21
5181.4896015594
 31
0.0
  0
ELLIPSE
  5
C9
330
1F
100
AcDbEntity
  8
0
  6
Continuous
 62
     7
370
    25
100
AcDbEllipse
 10
6152.1080843484
 20
5203.456382762
 30
0.0
 11
-1.4826960258697
 21
11.99945554162787
 31
0.0
210
0.0
220
0.0
230
1.0
 40
0.0770958341
 41
0.4933838275140625
 42
1.881765177691026
  0
ELLIPSE
  5
CA
330
1F
100
AcDbEntity
  8
0
  6
Continuous
 62
     7
370
    25
100
AcDbEllipse
 10
6152.1080843484
 20
5203.456382762
 30
0.0
 11
-1.4826960258697
 21
11.99945554162787
 31
0.0
210
0.0
220
0.0
230
1.0
 40
0.0770958341
 41
4.10241188441976
 42
5.973804323944857
  0
LINE
  5
CB
330
1F
100
AcDbEntity
  8
0
  6
Continuous
 62
     7
370
    25
100
AcDbLine
 10
6147.8071939103
 20
5205.3871169933
 30
0.0
 11
6151.6810238005
 21
5199.6759482916
 31
0.0
  0
ELLIPSE
  5
CC
330
1F
100
AcDbEntity
  8
0
  6
Continuous
 62
     7
370
    25
100
AcDbEllipse
 10
6426.0187553361
 20
5425.8988552057
 30
0.0
 11
2.991120726762347
 21
24.50106315208086
 31
0.0
210
0.0
220
0.0
230
1.0
 40
0.009413645
 41
0.0676617699034805
 42
0.0756919515290502
  0
LINE
  5
CD
330
1F
100
AcDbEntity
  8
0
  6
Continuous
 62
     7
370
    25
100
AcDbLine
 10
6428.9874379296
 20
5439.5312512602
 30
0.0
 11
6428.9874379296
 21
5450.3457591303
 31
0.0
  0
LINE
  5
CE
330
1F
100
AcDbEntity
  8
0
  6
Continuous
 62
     7
370
    25
100
AcDbLine
 10
6400.2303167619
 20
5205.3871169933
 30
0.0
 11
6428.9874379296
 21
5439.5312512602
 31
0.0
  0
LINE
  5
CF
330
1F
100
AcDbEntity
  8
0
  6
Continuous
 62
     7
370
    25
100
AcDbLine
 10
6396.3564868717
 20
5199.6759482916
 30
0.0
 11
6400.2303167619
 21
5205.3871169933
 31
0.0
  0
ELLIPSE
  5
D0
330
1F
100
AcDbEntity
  8
0
  6
Continuous
 62
     7
370
    25
100
AcDbEllipse
 10
6395.9294263238
 20
5203.456382762
 30
0.0
 11
1.4826960258697
 21
11.99945554162787
 31
0.0
210
0.0
220
0.0
230
1.0
 40
0.0770958341
 41
0.3116990436833804
 42
2.180773422759302
  0
ELLIPSE
  5
D1
330
1F
100
AcDbEntity
  8
0
  6
Continuous
 62
     7
370
    25
100
AcDbEllipse
 10
6395.9294263238
 20
5203.456382762
 30
0.0
 11
1.4826960258697
 21
11.99945554162787
 31
0.0
210
0.0
220
0.0
230
1.0
 40
0.0770958341
 41
4.40142012948886
 42
5.767492194924711
  0
LINE
  5
D2
330
1F
100
AcDbEntity
  8
0
  6
Continuous
 62
     7
370
    25
100
AcDbLine
 10
6384.0208656975
 20
5181.4896015594
 30
0.0
 11
6394.3217907483
 21
5196.6762056219
 31
0.0
  0
LWPOLYLINE
  5
D3
330
1F
100
AcDbEntity
  8
0
  6
Continuous
 62
     7
370
    25
100
AcDbPolyline
 90
       19
 70
   128
 43
0.0
 10
6223.3902968457
 20
5165.3487656695
 10
6218.6937245898
 20
5164.6909078753
 10
6214.026800239
 20
5164.1851276289
 10
6209.4189845408
 20
5163.8346177534
 10
6204.8993651095
 20
5163.6415909016
 10
6200.4964728056
 20
5163.607265588
 10
6196.2381016299
 20
5163.731858497
 10
6192.151133269
 20
5164.0145831149
 10
6188.2613674007
 20
5164.4536546946
 10
6184.5933588283
 20
5165.0463015229
 10
6181.1702624751
 20
5165.7887824165
 10
6178.0136872145
 20
5166.6764103395
 10
6175.1435594607
 20
5167.7035819909
 10
6172.5779973794
 20
5168.8638131762
 10
6170.3331965144
 20
5170.1497797403
 10
6168.4233275498
 20
5171.5533638021
 10
6166.860446856
 20
5173.0657050004
 10
6165.6544203811
 20
5174.6772564262
 10
6164.8128613707
 20
5176.3778448891
  0
ARC
  5
D4
330
1F
100
AcDbEntity
  8
0
  6
Continuous
 62
     7
370
    25
100
AcDbCircle
 10
6222.4214831451
 20
5187.9689556232
 30
0.0
 40
58.76314449382147
100
AcDbArc
 50
186.3304309297
 51
191.376272442
  0
ELLIPSE
  5
D5
330
1F
100
AcDbEntity
  8
0
  6
Continuous
 62
     7
370
    25
100
AcDbEllipse
 10
6263.3040916468
 20
4971.6994545927
 30
0.0
 11
60.90636904342592
 21
0.5387886101680125
 31
0.0
210
0.0
220
0.0
230
1.0
 40
0.018683395
 41
3.214452315827175
 42
4.644970240839488
  0
LINE
  5
D6
330
1F
100
AcDbEntity
  8
0
  6
Continuous
 62
     7
370
    25
100
AcDbLine
 10
6202.5600455416
 20
4971.0792590131
 30
0.0
 11
6164.8128613707
 21
5176.3778448891
 31
0.0
  0
LWPOLYLINE
  5
D7
330
1F
100
AcDbEntity
  8
0
  6
Continuous
 62
     7
370
    25
100
AcDbPolyline
 90
       19
 70
   128
 43
0.0
 10
6324.6472138265
 20
5165.3487656695
 10
6329.3437860824
 20
5164.6909078753
 10
6334.0107104332
 20
5164.1851276289
 10
6338.6185261314
 20
5163.8346177534
 10
6343.1381455627
 20
5163.6415909016
 10
6347.5410378666
 20
5163.607265588
 10
6351.7994090423
 20
5163.731858497
 10
6355.8863774032
 20
5164.0145831149
 10
6359.7761432715
 20
5164.4536546946
 10
6363.4441518439
 20
5165.0463015229
 10
6366.8672481971
 20
5165.7887824165
 10
6370.0238234577
 20
5166.6764103395
 10
6372.8939512115
 20
5167.7035819909
 10
6375.4595132928
 20
5168.8638131762
 10
6377.7043141578
 20
5170.1497797403
 10
6379.6141831224
 20
5171.5533638021
 10
6381.1770638162
 20
5173.0657050004
 10
6382.3830902911
 20
5174.6772564262
 10
6383.2246493015
 20
5176.3778448891
  0
ARC
  5
D8
330
1F
100
AcDbEntity
  8
0
  6
Continuous
 62
     7
370
    25
100
AcDbCircle
 10
6325.6160275271
 20
5187.9689556232
 30
0.0
 40
58.76314449383362
100
AcDbArc
 50
348.623727558
 51
353.6695690703
  0
LINE
  5
D9
330
1F
100
AcDbEntity
  8
0
  6
Continuous
 62
     7
370
    25
100
AcDbLine
 10
6383.2246493015
 20
5176.3778448891
 30
0.0
 11
6345.4774651306
 21
4971.0792590131
 31
0.0
  0
ELLIPSE
  5
DA
330
1F
100
AcDbEntity
  8
0
  6
Continuous
 62
     7
370
    25
100
AcDbEllipse
 10
6284.7334190254
 20
4971.6994545927
 30
0.0
 11
60.90636904342682
 21
-0.5387886101680124
 31
0.0
210
0.0
220
0.0
230
1.0
 40
0.018683395
 41
4.779807719929914
 42
6.210325644943697
  0
SPLINE
  5
DB
330
1F
100
AcDbEntity
  8
0
  6
Continuous
 62
     7
370
    25
100
AcDbSpline
210
0.0
220
0.0
230
1.0
 70
     8
 71
     3
 72
    11
 73
     7
 74
     0
 42
0.00000001
 43
0.00000001
 40
0.0
 40
0.0
 40
0.0
 40
0.0
 40
0.0886633428313302
 40
0.3706821138587193
 40
0.6606868482832706
 40
1.0
 40
1.0
 40
1.0
 40
1.0
 10
6393.95858475222
 20
5192.202834093301
 30
0.0
 10
6393.964085964094
 20
5192.288658830847
 30
0.0
 10
6393.987085332054
 20
5192.647473354628
 30
0.0
 10
6394.056487827845
 20
5193.463532992309
 30
0.0
 10
6394.182381772343
 20
5194.848694510925
 30
0.0
 10
6394.272955539501
 20
5196.036025273933
 30
0.0
 10
6394.321790748342
 20
5196.676205621891
 30
0.0
  0
LINE
  5
DC
330
1F
100
AcDbEntity
  8
0
  6
Continuous
 62
     7
370
    25
100
AcDbLine
 10
6393.9585847522
 20
5192.2028340933
 30
0.0
 11
6383.2246493015
 21
5176.3778448891
 31
0.0
  0
LINE
  5
DD
330
1F
100
AcDbEntity
  8
0
  6
Continuous
 62
     7
370
    25
100
AcDbLine
 10
6164.8128613707
 20
5176.3778448891
 30
0.0
 11
6154.07892592
 21
5192.2028340933
 31
0.0
  0
SPLINE
  5
DE
330
1F
100
AcDbEntity
  8
0
  6
Continuous
 62
     7
370
    25
100
AcDbSpline
210
0.0
220
0.0
230
1.0
 70
     8
 71
     3
 72
    10
 73
     6
 74
     0
 42
0.00000001
 43
0.00000001
 40
0.0
 40
0.0
 40
0.0
 40
0.0
 40
0.289438234388524
 40
0.58699487523158
 40
1.0
 40
1.0
 40
1.0
 40
1.0
 10
6153.715719923858
 20
5196.67620562189
 30
0.0
 10
6153.756831246676
 20
5196.129481150208
 30
0.0
 10
6153.840207017186
 20
5195.020697220125
 30
0.0
 10
6153.986311285876
 20
5193.425362817733
 30
0.0
 10
6154.044882269493
 20
5192.65221599721
 30
0.0
 10
6154.078925919979
 20
5192.202834093303
 30
0.0
  0
LINE
  5
DF
330
1F
100
AcDbEntity
  8
0
  6
Continuous
 62
     7
370
    25
100
AcDbLine
 10
6350.8515495541
 20
4971.0792590131
 30
0.0
 11
6399.3617988511
 21
5200.1687665489
 31
0.0
  0
LINE
  5
E0
330
1F
100
AcDbEntity
  8
0
  6
Continuous
 62
     7
370
    25
100
AcDbLine
 10
6345.4774651306
 20
4971.0792590131
 30
0.0
 11
6350.8515495541
 21
4971.0792590131
 31
0.0
  0
ELLIPSE
  5
E1
330
1F
100
AcDbEntity
  8
0
  6
Continuous
 62
     7
370
    25
100
AcDbEllipse
 10
6396.607876643
 20
5203.285990873
 30
0.0
 11
2.551350969235501
 21
11.99892678065317
 31
0.0
210
0.0
220
0.0
230
1.0
 40
0.0629027962
 41
2.761528690642066
 42
3.828361608105703
  0
LINE
  5
E2
330
1F
100
AcDbEntity
  8
0
  6
Continuous
 62
     7
370
    25
100
AcDbLine
 10
6399.3617988511
 20
5200.1687665489
 30
0.0
 11
6395.1134736642
 21
5193.9054812397
 31
0.0
  0
LINE
  5
E3
330
1F
100
AcDbEntity
  8
0
  6
Continuous
 62
     7
370
    25
100
AcDbLine
 10
6197.1859611181
 20
4971.0792590131
 30
0.0
 11
6202.5600455416
 21
4971.0792590131
 31
0.0
  0
LINE
  5
E4
330
1F
100
AcDbEntity
  8
0
  6
Continuous
 62
     7
370
    25
100
AcDbLine
 10
6148.6757118211
 20
5200.1687665489
 30
0.0
 11
6197.1859611181
 21
4971.0792590131
 31
0.0
  0
LINE
  5
E5
330
1F
100
AcDbEntity
  8
0
  6
Continuous
 62
     7
370
    25
100
AcDbLine
 10
6152.924037008
 20
5193.9054812397
 30
0.0
 11
6148.6757118211
 21
5200.1687665489
 31
0.0
  0
ELLIPSE
  5
E6
330
1F
100
AcDbEntity
  8
0
  6
Continuous
 62
     7
370
    25
100
AcDbEllipse
 10
6151.4296340292
 20
5203.285990873
 30
0.0
 11
-2.551350969235501
 21
11.99892678065317
 31
0.0
210
0.0
220
0.0
230
1.0
 40
0.0629027962
 41
2.454823699074437
 42
3.52165661653676
  0
LINE
  5
E7
330
1F
100
AcDbEntity
  8
0
  6
Continuous
 62
     7
370
    25
100
AcDbLine
 10
6288.826496166
 20
4968.6994545927
 30
0.0
 11
6259.2110145062
 21
4968.6994545927
 31
0.0
  0
LINE
  5
E8
330
1F
100
AcDbEntity
  8
0
  6
Continuous
 62
     7
370
    25
100
AcDbLine
 10
6259.2110145062
 20
4968.6994545927
 30
0.0
 11
6259.2110145062
 21
4970.5278050522
 31
0.0
  0
LINE
  5
E9
330
1F
100
AcDbEntity
  8
0
  6
Continuous
 62
     7
370
    25
100
AcDbLine
 10
6288.826496166
 20
4968.6994545927
 30
0.0
 11
6288.826496166
 21
4970.5278050522
 31
0.0
  0
LINE
  5
EA
330
1F
100
AcDbEntity
  8
0
  6
Continuous
 62
     7
370
    25
100
AcDbLine
 10
6259.2110145062
 20
4968.6994545927
 30
0.0
 11
6205.4889173153
 21
4968.6994545927
 31
0.0
  0
ARC
  5
EB
330
1F
100
AcDbEntity
  8
0
  6
Continuous
 62
     7
370
    25
100
AcDbCircle
 10
6205.4912714776
 20
4971.6945639603
 30
0.0
 40
2.995110292790808
100
AcDbArc
 50
191.8550519744
 51
269.9549654061
  0
LINE
  5
EC
330
1F
100
AcDbEntity
  8
0
  6
Continuous
 62
     7
370
    25
100
AcDbLine
 10
6342.5485933569
 20
4968.6994545927
 30
0.0
 11
6288.826496166
 21
4968.6994545927
 31
0.0
  0
ARC
  5
ED
330
1F
100
AcDbEntity
  8
0
  6
Continuous
 62
     7
370
    25
100
AcDbCircle
 10
6342.5462391946
 20
4971.6945639603
 30
0.0
 40
2.995110292790808
100
AcDbArc
 50
270.0450345939
 51
348.1449480256
  0
LINE
  5
EE
330
1F
100
AcDbEntity
  8
0
  6
Continuous
 62
     7
370
    25
100
AcDbLine
 10
6370.5660678513
 20
5377.8882849008
 30
0.0
 11
6177.4714428209
 21
5377.8882849008
 31
0.0
  0
ELLIPSE
  5
EF
330
1F
100
AcDbEntity
  8
0
  6
Continuous
 62
     7
370
    25
100
AcDbEllipse
 10
6176.7087140758
 20
5412.7711710232
 30
0.0
 11
21.17698097098946
 21
-8.914999516072386
 31
0.0
210
0.0
220
0.0
230
1.0
 40
0.6326107273
 41
2.051004697739685
 42
3.593022917000389
  0
LINE
  5
F0
330
1F
100
AcDbEntity
  8
0
  6
Continuous
 62
     7
370
    25
100
AcDbLine
 10
6171.9275755349
 20
5433.8811209235
 30
0.0
 11
6171.9275755349
 21
5428.7711710232
 31
0.0
  0
ELLIPSE
  5
F1
330
1F
100
AcDbEntity
  8
0
  6
Continuous
 62
     7
370
    25
100
AcDbEllipse
 10
6371.3287965964
 20
5412.7711710232
 30
0.0
 11
21.17698097098946
 21
8.914999516072386
 31
0.0
210
0.0
220
0.0
230
1.0
 40
0.6326107273
 41
5.831755043769045
 42
7.373773263029728
  0
LINE
  5
F2
330
1F
100
AcDbEntity
  8
0
  6
Continuous
 62
     7
370
    25
100
AcDbLine
 10
6376.1099351373
 20
5433.8811209235
 30
0.0
 11
6376.1099351373
 21
5428.7711710232
 31
0.0
  0
ARC
  5
F3
330
1F
100
AcDbEntity
  8
0
  6
Continuous
 62
     7
370
    25
100
AcDbCircle
 10
6347.9203236181
 20
4971.6945639603
 30
0.0
 40
2.995110292788988
100
AcDbArc
 50
270.0450345938
 51
348.1449480257
  0
LINE
  5
F4
330
1F
100
AcDbEntity
  8
0
  6
Continuous
 62
     7
370
    25
100
AcDbLine
 10
6347.9226777804
 20
4968.6994545927
 30
0.0
 11
6342.5485933569
 21
4968.6994545927
 31
0.0
  0
ARC
  5
F5
330
1F
100
AcDbEntity
  8
0
  6
Continuous
 62
     7
370
    25
100
AcDbCircle
 10
6200.1171870541
 20
4971.6945639603
 30
0.0
 40
2.995110292788988
100
AcDbArc
 50
191.8550519743
 51
269.9549654062
  0
LINE
  5
F6
330
1F
100
AcDbEntity
  8
0
  6
Continuous
 62
     7
370
    25
100
AcDbLine
 10
6205.4889173153
 20
4968.6994545927
 30
0.0
 11
6200.1148328918
 21
4968.6994545927
 31
0.0
  0
LINE
  5
F7
330
1F
100
AcDbEntity
  8
0
  6
Continuous
 62
     7
370
    25
100
AcDbLine
 10
6171.9275755349
 20
5428.7711710232
 30
0.0
 11
6186.7148362788
 21
5379.2858507635
 31
0.0
  0
ELLIPSE
  5
F8
330
1F
100
AcDbEntity
  8
0
  6
Continuous
 62
     7
370
    25
100
AcDbEllipse
 10
6190.3926351564
 20
5366.9781584559
 30
0.0
 11
21.12141477571367
 21
-3.139854353324154
 31
0.0
210
0.0
220
0.0
230
1.0
 40
0.5634303236
 41
1.828761067078475
 42
3.370779286343997
  0
LINE
  5
F9
330
1F
100
AcDbEntity
  8
0
  6
Continuous
 62
     7
370
    25
100
AcDbLine
 10
6361.3226743934
 20
5379.2858507635
 30
0.0
 11
6376.1099351373
 21
5428.7711710232
 31
0.0
  0
ELLIPSE
  5
FA
330
1F
100
AcDbEntity
  8
0
  6
Continuous
 62
     7
370
    25
100
AcDbEllipse
 10
6357.6448755158
 20
5366.9781584558
 30
0.0
 11
21.12141477571186
 21
3.139854353318696
 31
0.0
210
0.0
220
0.0
230
1.0
 40
0.5634303236
 41
6.053998674425862
 42
7.596016893691063
  0
LINE
  5
FB
330
1F
100
AcDbEntity
  8
0
  6
Continuous
 62
     7
370
    25
100
AcDbLine
 10
6154.07892592
 20
5192.2028340933
 30
0.0
 11
6154.0332317266
 21
5192.5338709287
 31
0.0
  0
LINE
  5
FC
330
1F
100
AcDbEntity
  8
0
  6
Continuous
 62
     7
370
    25
100
AcDbLine
 10
6376.1099351373
 20
5428.7711710232
 30
0.0
 11
6171.9275755349
 21
5428.7711710232
 31
0.0
  0
LINE
  5
FD
330
1F
100
AcDbEntity
  8
0
  6
Continuous
 62
     7
370
    25
100
AcDbLine
 10
6361.3226743934
 20
5379.2858507635
 30
0.0
 11
6186.7148362788
 21
5379.2858507635
 31
0.0
  0
SPLINE
  5
FE
330
1F
100
AcDbEntity
  8
0
  6
Continuous
 62
     7
370
    25
100
AcDbSpline
210
0.0
220
0.0
230
1.0
 70
     8
 71
     3
 72
    11
 73
     7
 74
     0
 42
0.00000001
 43
0.00000001
 40
0.0
 40
0.0
 40
0.0
 40
0.0
 40
0.0371759532177888
 40
0.3256052883688251
 40
0.6222578707680795
 40
1.0
 40
1.0
 40
1.0
 40
1.0
 10
6152.924037007964
 20
5193.905481239695
 30
0.0
 10
6152.907855374416
 20
5193.961294189035
 30
0.0
 10
6152.766128666643
 20
5194.450131458593
 30
0.0
 10
6152.487935728555
 20
5195.500200316977
 30
0.0
 10
6152.062718420934
 20
5197.353608870493
 30
0.0
 10
6151.818061239976
 20
5198.842173250529
 30
0.0
 10
6151.681023800516
 20
5199.675948291637
 30
0.0
  0
SPLINE
  5
FF
330
1F
100
AcDbEntity
  8
0
  6
Continuous
 62
     7
370
    25
100
AcDbSpline
210
0.0
220
0.0
230
1.0
 70
     8
 71
     3
 72
    10
 73
     6
 74
     0
 42
0.00000001
 43
0.00000001
 40
0.0
 40
0.0
 40
0.0
 40
0.0
 40
0.2921926700517868
 40
0.5927826374273327
 40
1.0
 40
1.0
 40
1.0
 40
1.0
 10
6396.356486871685
 20
5199.675948291637
 30
0.0
 10
6396.252578067263
 20
5199.030077055737
 30
0.0
 10
6396.041774233182
 20
5197.719772951985
 30
0.0
 10
6395.608735018696
 20
5195.708123876805
 30
0.0
 10
6395.294347705771
 20
5194.563823055146
 30
0.0
 10
6395.113473664236
 20
5193.905481239696
 30
0.0
  0
ELLIPSE
  5
100
330
1F
100
AcDbEntity
  8
0
  6
Continuous
 62
     7
370
    25
100
AcDbEllipse
 10
6207.6027510703
 20
5212.0572589845
 30
0.0
 11
-34.11705514273126
 21
50.29860965655916
 31
0.0
210
0.0
220
0.0
230
1.0
 40
0.9872048875
 41
1.091170939517258
 42
1.178437402116976
  0
ELLIPSE
  5
101
330
1F
100
AcDbEntity
  8
0
  6
Continuous
 62
     7
370
    25
100
AcDbEllipse
 10
6340.4347596019
 20
5212.0572589845
 30
0.0
 11
34.11705514273126
 21
50.29860965656007
 31
0.0
210
0.0
220
0.0
230
1.0
 40
0.9872048875
 41
5.104747905062629
 42
5.192014367662345
  0
ARC
  5
102
330
1F
100
AcDbEntity
  8
0
  6
Continuous
 62
     7
370
    25
100
AcDbCircle
 10
6426.2247639198
 20
5455.0762053723
 30
0.0
 40
2.804442787456712
100
AcDbArc
 50
4.9480711971
 51
94.2126242146
  0
LINE
  5
103
330
1F
100
AcDbEntity
  8
0
  6
Continuous
 62
     7
370
    25
100
AcDbLine
 10
6429.0187553361
 20
5455.3180964918
 30
0.0
 11
6428.9838704291
 21
5455.3180964918
 31
0.0
  0
LINE
  5
104
330
1F
100
AcDbEntity
  8
0
  6
Continuous
 62
     7
370
    25
100
AcDbLine
 10
6119.0536402431
 20
5455.3180964918
 30
0.0
 11
6119.0187553361
 21
5455.3180964918
 31
0.0
  0
ARC
  5
105
330
1F
100
AcDbEntity
  8
0
  6
Continuous
 62
     7
370
    25
100
AcDbCircle
 10
6121.8127467524
 20
5455.0762053723
 30
0.0
 40
2.804442787456712
100
AcDbArc
 50
85.7873757854
 51
175.0519288029
  0
ARC
  5
106
330
1F
100
AcDbEntity
  8
0
  6
Continuous
 62
     7
370
    25
100
AcDbCircle
 10
6426.2247639198
 20
5455.4575634732
 30
0.0
 40
2.804442787454965
100
AcDbArc
 50
4.9480711971
 51
94.2126242146
  0
LINE
  5
107
330
1F
100
AcDbEntity
  8
0
  6
Continuous
 62
     7
370
    25
100
AcDbLine
 10
6429.0187553361
 20
5455.3180964918
 30
0.0
 11
6429.0187553361
 21
5455.6994545927
 31
0.0
  0
LINE
  5
108
330
1F
100
AcDbEntity
  8
0
  6
Continuous
 62
     7
370
    25
100
AcDbLine
 10
6119.0187553361
 20
5455.6994545927
 30
0.0
 11
6119.0187553361
 21
5455.3180964918
 31
0.0
  0
ARC
  5
109
330
1F
100
AcDbEntity
  8
0
  6
Continuous
 62
     7
370
    25
100
AcDbCircle
 10
6121.8127467524
 20
5455.4575634732
 30
0.0
 40
2.804442787456712
100
AcDbArc
 50
85.7873757854
 51
175.0519288029
  0
LINE
  5
10A
330
1F
100
AcDbEntity
  8
0
  6
Continuous
 62
     7
370
    25
100
AcDbLine
 10
6426.0187553361
 20
5458.2544295428
 30
0.0
 11
6426.0187553361
 21
5458.6994545927
 31
0.0
  0
ARC
  5
10B
330
1F
100
AcDbEntity
  8
0
  6
Continuous
 62
     7
370
    25
100
AcDbCircle
 10
6426.0187553361
 20
5455.6994545927
 30
0.0
 40
3.0
100
AcDbArc
 50
0.0
 51
90.0
  0
ARC
  5
10C
330
1F
100
AcDbEntity
  8
0
  6
Continuous
 62
     7
370
    25
100
AcDbCircle
 10
6122.0187553361
 20
5455.6994545927
 30
0.0
 40
3.0
100
AcDbArc
 50
90.0
 51
180.0
  0
LINE
  5
10D
330
1F
100
AcDbEntity
  8
0
  6
Continuous
 62
     7
370
    25
100
AcDbLine
 10
6122.0187553361
 20
5458.2544295428
 30
0.0
 11
6122.0187553361
 21
5458.6994545927
 31
0.0
  0
LINE
  5
10E
330
1F
100
AcDbEntity
  8
0
  6
Continuous
 62
     7
370
    25
100
AcDbLine
 10
6122.0187553361
 20
5458.6994545927
 30
0.0
 11
6426.0187553361
 21
5458.6994545927
 31
0.0
  0
LINE
  5
10F
330
1F
100
AcDbEntity
  8
0
  6
Continuous
 62
     7
370
    25
100
AcDbLine
 10
6429.0187553361
 20
5455.3180964918
 30
0.0
 11
6429.0187553361
 21
5450.5829166304
 31
0.0
  0
ELLIPSE
  5
110
330
1F
100
AcDbEntity
  8
0
  6
Continuous
 62
     7
370
    25
100
AcDbEllipse
 10
6426.0187553361
 20
5450.5829166304
 30
0.0
 11
3.0
 21
0.0
 31
0.0
210
0.0
220
0.0
230
1.0
 40
0.5485354847
 41
6.138566160413957
 42
6.283185307179586
  0
ELLIPSE
  5
111
330
1F
100
AcDbEntity
  8
0
  6
Continuous
 62
     7
370
    25
100
AcDbEllipse
 10
6122.0187553361
 20
5450.5829166304
 30
0.0
 11
3.0
 21
0.0
 31
0.0
210
0.0
220
0.0
230
1.0
 40
0.5485354847
 41
3.141592653589793
 42
3.286211800355004
  0
LINE
  5
112
330
1F
100
AcDbEntity
  8
0
  6
Continuous
 62
     7
370
    25
100
AcDbLine
 10
6119.0187553361
 20
5450.5829166304
 30
0.0
 11
6119.0187553361
 21
5455.3180964918
 31
0.0
  0
LINE
  5
113
330
1F
100
AcDbEntity
  8
0
  6
Continuous
 62
     7
370
    25
100
AcDbLine
 10
6429.0187553361
 20
5450.5829166304
 30
0.0
 11
6429.0187553361
 21
5439.8958590062
 31
0.0
  0
ARC
  5
114
330
1F
100
AcDbEntity
  8
0
  6
Continuous
 62
     7
370
    25
100
AcDbCircle
 10
6426.8770861209
 20
5439.8961654481
 30
0.0
 40
2.141669237121604
100
AcDbArc
 50
350.1896359785
 51
359.9918018037
  0
ARC
  5
115
330
1F
100
AcDbEntity
  8
0
  6
Continuous
 62
     7
370
    25
100
AcDbCircle
 10
6121.1604245513
 20
5439.8961654481
 30
0.0
 40
2.141669237141612
100
AcDbArc
 50
180.0081981963
 51
189.8103640214
  0
LINE
  5
116
330
1F
100
AcDbEntity
  8
0
  6
Continuous
 62
     7
370
    25
100
AcDbLine
 10
6119.0187553361
 20
5439.8958590062
 30
0.0
 11
6119.0187553361
 21
5450.5829166304
 31
0.0
  0
LINE
  5
117
330
1F
100
AcDbEntity
  8
0
  6
Continuous
 62
     7
370
    25
100
AcDbLine
 10
6147.8071939103
 20
5205.3871169933
 30
0.0
 11
6147.7982501051
 21
5205.3860185327
 31
0.0
  0
LINE
  5
118
330
1F
100
AcDbEntity
  8
0
  6
Continuous
 62
     7
370
    25
100
AcDbLine
 10
6399.3678490005
 20
5200.1674854153
 30
0.0
 11
6399.3617988511
 21
5200.1687665489
 31
0.0
  0
LINE
  5
119
330
1F
100
AcDbEntity
  8
0
  6
Continuous
 62
     7
370
    25
100
AcDbLine
 10
6400.2392605671
 20
5205.3860185327
 30
0.0
 11
6400.2303167619
 21
5205.3871169933
 31
0.0
  0
LINE
  5
11A
330
1F
100
AcDbEntity
  8
0
  6
Continuous
 62
     7
370
    25
100
AcDbLine
 10
6148.6757118211
 20
5200.1687665489
 30
0.0
 11
6148.6696616717
 21
5200.1674854153
 31
0.0
  0
LINE
  5
11B
330
1F
100
AcDbEntity
  8
0
  6
Continuous
 62
     8
370
    25
100
AcDbLine
 10
6211.6529683565
 20
5310.058635222
 30
0.0
 11
6211.6529683564
 21
5309.1686096904
 31
0.0
  0
LINE
  5
11C
330
1F
100
AcDbEntity
  8
0
  6
Continuous
 62
     8
370
    25
100
AcDbLine
 10
6336.3845423161
 20
5310.058641186
 30
0.0
 11
6336.3845423161
 21
5309.1686096904
 31
0.0
  0
LINE
  5
11D
330
1F
100
AcDbEntity
  8
0
  6
Continuous
 62
     8
370
    25
100
AcDbLine
 10
6369.516821462
 20
5321.637199913
 30
0.0
 11
6392.8447001866
 21
5414.9487148112
 31
0.0
  0
LINE
  5
11E
330
1F
100
AcDbEntity
  8
0
  6
Continuous
 62
     8
370
    25
100
AcDbLine
 10
6155.1928104856
 20
5414.9487148112
 30
0.0
 11
6178.5219745352
 21
5321.6320586128
 31
0.0
  0
ELLIPSE
  5
11F
330
1F
100
AcDbEntity
  8
0
  6
Continuous
 62
     8
370
    25
100
AcDbEllipse
 10
6152.1080843484
 20
5203.456382762
 30
0.0
 11
-1.4826960258697
 21
11.99945554162787
 31
0.0
210
0.0
220
0.0
230
1.0
 40
0.0770958341
 41
5.973804323944857
 42
6.776569134693642
  0
ELLIPSE
  5
120
330
1F
100
AcDbEntity
  8
0
  6
Continuous
 62
     8
370
    25
100
AcDbEllipse
 10
6395.9294263238
 20
5203.456382762
 30
0.0
 11
1.4826960258697
 21
11.99945554162787
 31
0.0
210
0.0
220
0.0
230
1.0
 40
0.0770958341
 41
5.767492194924711
 42
6.594884350862966
  0
ARC
  5
121
330
1F
100
AcDbEntity
  8
0
  6
Continuous
 62
     8
370
    25
100
AcDbCircle
 10
6394.5844801068
 20
5198.2008933654
 30
0.0
 40
2.305600791592737
100
AcDbArc
 50
39.7746940027
 51
88.2064805593
  0
ARC
  5
122
330
1F
100
AcDbEntity
  8
0
  6
Continuous
 62
     8
370
    25
100
AcDbCircle
 10
6153.4530305654
 20
5198.2008933654
 30
0.0
 40
2.30560079157276
100
AcDbArc
 50
91.793519441
 51
140.2253059974
  0
ARC
  5
123
330
1F
100
AcDbEntity
  8
0
  6
Continuous
 62
     8
370
    25
100
AcDbCircle
 10
6393.4166777747
 20
5194.0142749469
 30
0.0
 40
1.700280083271883
100
AcDbArc
 50
356.3313799708
 51
60.6763524908
  0
ARC
  5
124
330
1F
100
AcDbEntity
  8
0
  6
Continuous
 62
     8
370
    25
100
AcDbCircle
 10
6154.618994875
 20
5194.01471666
 30
0.0
 40
1.698474182347106
100
AcDbArc
 50
119.5732836667
 51
183.6874574301
  0
LINE
  5
125
330
1F
100
AcDbEntity
  8
0
  6
Continuous
 62
     8
370
    25
100
AcDbLine
 10
6119.0500727426
 20
5439.5312512602
 30
0.0
 11
6119.0411289374
 21
5439.5301527996
 31
0.0
  0
LINE
  5
126
330
1F
100
AcDbEntity
  8
0
  6
Continuous
 62
     8
370
    25
100
AcDbLine
 10
6428.9963817348
 20
5439.5301527996
 30
0.0
 11
6428.9874379296
 21
5439.5312512602
 31
0.0
  0
LINE
  5
127
330
1F
100
AcDbEntity
  8
0
  6
Continuous
 62
     8
370
    25
100
AcDbLine
 10
6197.1799109687
 20
4971.0779778796
 30
0.0
 11
6197.1859611181
 21
4971.0792590131
 31
0.0
  0
LINE
  5
128
330
1F
100
AcDbEntity
  8
0
  6
Continuous
 62
     8
370
    25
100
AcDbLine
 10
6350.8575997035
 20
4971.0779778796
 30
0.0
 11
6350.8515495541
 21
4971.0792590131
 31
0.0
  0
LINE
  5
129
330
1F
100
AcDbEntity
  8
0
  6
Continuous
 62
     7
370
    25
100
AcDbLine
 10
6643.6116906163
 20
5450.3457591303
 30
0.0
 11
6626.6411099865
 21
5439.5312512602
 31
0.0
  0
LINE
  5
12A
330
1F
100
AcDbEntity
  8
0
  6
Continuous
 62
     7
370
    25
100
AcDbLine
 10
6626.6411099865
 20
5439.5312512602
 30
0.0
 11
6626.4087635851
 21
5439.8958590062
 31
0.0
  0
LINE
  5
12B
330
1F
100
AcDbEntity
  8
0
  6
Continuous
 62
     7
370
    25
100
AcDbLine
 10
6626.4087635851
 20
5439.8958590062
 30
0.0
 11
6643.1793439282
 21
5450.5829166304
 31
0.0
  0
LINE
  5
12C
330
1F
100
AcDbEntity
  8
0
  6
Continuous
 62
     7
370
    25
100
AcDbLine
 10
6643.6116906163
 20
5450.3457591303
 30
0.0
 11
6643.1793439282
 21
5450.5829166304
 31
0.0
  0
LINE
  5
12D
330
1F
100
AcDbEntity
  8
0
  6
Continuous
 62
     7
370
    25
100
AcDbLine
 10
6642.5596370142
 20
5455.6994545927
 30
0.0
 11
6626.4087635851
 21
5455.6994545927
 31
0.0
  0
LINE
  5
12E
330
1F
100
AcDbEntity
  8
0
  6
Continuous
 62
     7
370
    25
100
AcDbLine
 10
6626.4087635851
 20
5455.6994545927
 30
0.0
 11
6623.4087635851
 21
5458.6994545927
 31
0.0
  0
LINE
  5
12F
330
1F
100
AcDbEntity
  8
0
  6
Continuous
 62
     7
370
    25
100
AcDbLine
 10
6623.4087635851
 20
5458.6994545927
 30
0.0
 11
6642.5596370142
 21
5458.6994545927
 31
0.0
  0
LINE
  5
130
330
1F
100
AcDbEntity
  8
0
  6
Continuous
 62
     7
370
    25
100
AcDbLine
 10
6642.5596370142
 20
5455.6994545927
 30
0.0
 11
6642.5596370142
 21
5458.6994545927
 31
0.0
  0
LINE
  5
131
330
1F
100
AcDbEntity
  8
0
  6
Continuous
 62
     7
370
    25
100
AcDbLine
 10
6626.4087635851
 20
5455.6994545927
 30
0.0
 11
6626.4087635851
 21
5439.8958590062
 31
0.0
  0
LINE
  5
132
330
1F
100
AcDbEntity
  8
0
  6
Continuous
 62
     7
370
    25
100
AcDbLine
 10
6626.4087635851
 20
5439.8958590062
 30
0.0
 11
6623.4087635851
 21
5439.8958590062
 31
0.0
  0
LINE
  5
133
330
1F
100
AcDbEntity
  8
0
  6
Continuous
 62
     7
370
    25
100
AcDbLine
 10
6623.4087635851
 20
5439.8958590062
 30
0.0
 11
6623.4087635851
 21
5458.6994545927
 31
0.0
  0
LINE
  5
134
330
1F
100
AcDbEntity
  8
0
  6
Continuous
 62
     7
370
    25
100
AcDbLine
 10
6643.1793439282
 20
5450.5829166304
 30
0.0
 11
6643.1793439282
 21
5455.3180964918
 31
0.0
  0
LINE
  5
135
330
1F
100
AcDbEntity
  8
0
  6
Continuous
 62
     7
370
    25
100
AcDbLine
 10
6642.5596370142
 20
5455.6994545927
 30
0.0
 11
6643.1793439282
 21
5455.3180964918
 31
0.0
  0
ARC
  5
136
330
1F
100
AcDbEntity
  8
0
  6
Continuous
 62
     7
370
    25
100
AcDbCircle
 10
6625.8005234452
 20
5446.5893408905
 30
0.0
 40
7.107968413227336
100
AcDbArc
 50
250.3368341218
 51
276.7916782203
  0
LINE
  5
137
330
1F
100
AcDbEntity
  8
0
  6
Continuous
 62
     7
370
    25
100
AcDbLine
 10
6642.5596370142
 20
5455.6994545927
 30
0.0
 11
6644.1319292912
 21
5458.2544295428
 31
0.0
  0
LINE
  5
138
330
1F
100
AcDbEntity
  8
0
  6
Continuous
 62
     7
370
    25
100
AcDbLine
 10
6644.7516362052
 20
5457.8730714419
 30
0.0
 11
6644.1319292912
 21
5458.2544295428
 31
0.0
  0
LINE
  5
139
330
1F
100
AcDbEntity
  8
0
  6
Continuous
 62
     7
370
    25
100
AcDbLine
 10
6644.7516362052
 20
5457.8730714419
 30
0.0
 11
6643.1793439282
 21
5455.3180964918
 31
0.0
  0
ARC
  5
13A
330
1F
100
AcDbEntity
  8
0
  6
Continuous
 62
     7
370
    25
100
AcDbCircle
 10
6642.5596370142
 20
5455.6994545927
 30
0.0
 40
3.0
100
AcDbArc
 50
58.3924977538
 51
90.0
  0
LINE
  5
13B
330
1F
100
AcDbEntity
  8
0
  6
Continuous
 62
     7
370
    25
100
AcDbLine
 10
6643.6355154809
 20
5455.3180964918
 30
0.0
 11
6643.1793439282
 21
5455.3180964918
 31
0.0
  0
ARC
  5
13C
330
1F
100
AcDbEntity
  8
0
  6
Continuous
 62
     7
370
    25
100
AcDbCircle
 10
6639.3201355423
 20
5458.7245080558
 30
0.0
 40
5.497830822969724
100
AcDbArc
 50
321.7136594554
 51
351.090874527
  0
LINE
  5
13D
330
1F
100
AcDbEntity
  8
0
  6
Continuous
 62
     7
370
    25
100
AcDbLine
 10
6643.6355154809
 20
5455.3180964918
 30
0.0
 11
6643.6355154809
 21
5450.3318944896
 31
0.0
  0
ELLIPSE
  5
13E
330
1F
100
AcDbEntity
  8
0
  6
Continuous
 62
     7
370
    25
100
AcDbEllipse
 10
6643.1793439282
 20
5425.8988552057
 30
0.0
 11
0.2376219903235324
 21
24.5010621645788
 31
0.0
210
0.0
220
0.0
230
1.0
 40
0.1220589733
 41
6.209826365432487
 42
6.217856547062407
  0
LINE
  5
13F
330
1F
100
AcDbEntity
  8
0
  6
Continuous
 62
     7
370
    25
100
AcDbLine
 10
6626.6411099865
 20
5439.5312512602
 30
0.0
 11
6626.6411099865
 21
5205.3871169933
 31
0.0
  0
ARC
  5
140
330
1F
100
AcDbEntity
  8
0
  6
Continuous
 62
     7
370
    25
100
AcDbCircle
 10
6625.8005234452
 20
5212.4452066236
 30
0.0
 40
7.107968413236208
100
AcDbArc
 50
250.3368341218
 51
276.7916782203
  0
LINE
  5
141
330
1F
100
AcDbEntity
  8
0
  6
Continuous
 62
     7
370
    25
100
AcDbLine
 10
6623.4087635851
 20
5205.7517247393
 30
0.0
 11
6623.4087635851
 21
5439.8958590062
 31
0.0
  0
LINE
  5
142
330
1F
100
AcDbEntity
  8
0
  6
Continuous
 62
     7
370
    25
100
AcDbLine
 10
6643.6355154809
 20
5450.3318944896
 30
0.0
 11
6855.0956863214
 21
5320.2025585878
 31
0.0
  0
LINE
  5
143
330
1F
100
AcDbEntity
  8
0
  6
Continuous
 62
     7
370
    25
100
AcDbLine
 10
6796.2477651579
 20
5181.4896015594
 30
0.0
 11
6855.0956863214
 21
5320.2025585878
 31
0.0
  0
LINE
  5
144
330
1F
100
AcDbEntity
  8
0
  6
Continuous
 62
     7
370
    25
100
AcDbLine
 10
6688.464630732
 20
5196.6762056219
 30
0.0
 11
6796.2477651579
 21
5181.4896015594
 31
0.0
  0
ARC
  5
145
330
1F
100
AcDbEntity
  8
0
  6
Continuous
 62
     7
370
    25
100
AcDbCircle
 10
6678.5636611861
 20
5203.456382762
 30
0.0
 40
12.00000000000003
100
AcDbArc
 50
325.5966836072
 51
198.362999522
  0
LINE
  5
146
330
1F
100
AcDbEntity
  8
0
  6
Continuous
 62
     7
370
    25
100
AcDbLine
 10
6626.6411099865
 20
5205.3871169933
 30
0.0
 11
6667.1747053421
 21
5199.6759482916
 31
0.0
  0
LINE
  5
147
330
1F
100
AcDbEntity
  8
0
  6
Continuous
 62
     7
370
    25
100
AcDbLine
 10
6863.8547036251
 20
5319.7985960954
 30
0.0
 11
6643.6355154809
 21
5455.3180964918
 31
0.0
  0
LINE
  5
148
330
1F
100
AcDbEntity
  8
0
  6
Continuous
 62
     7
370
    25
100
AcDbLine
 10
6644.7516362052
 20
5457.8730714419
 30
0.0
 11
6864.7953331783
 21
5322.4615656123
 31
0.0
  0
SPLINE
  5
149
330
1F
100
AcDbEntity
  8
0
  6
Continuous
 62
     7
370
    25
100
AcDbSpline
210
0.0
220
0.0
230
1.0
 70
     8
 71
     3
 72
    13
 73
     9
 74
     0
 42
0.00000001
 43
0.00000001
 40
0.0
 40
0.0
 40
0.0
 40
0.0
 40
0.2255584982863817
 40
0.4511068971022571
 40
0.6769343595136557
 40
0.903285007818283
 40
0.99343591143207
 40
1.0
 40
1.0
 40
1.0
 40
1.0
 10
6863.854703625098
 20
5319.798596095392
 30
0.0
 10
6864.019213513004
 20
5320.088512693606
 30
0.0
 10
6864.348225922817
 20
5320.668332908906
 30
0.0
 10
6864.696318256631
 20
5321.455347143578
 30
0.0
 10
6864.884183596193
 20
5322.067857191583
 30
0.0
 10
6864.883093087838
 20
5322.363555652663
 30
0.0
 10
6864.821120848776
 20
5322.44512231528
 30
0.0
 10
6864.79697216025
 20
5322.460520528867
 30
0.0
 10
6864.795333178261
 20
5322.461565612319
 30
0.0
  0
SPLINE
  5
14A
330
1F
100
AcDbEntity
  8
0
  6
Continuous
 62
     7
370
    25
100
AcDbSpline
210
0.0
220
0.0
230
1.0
 70
     8
 71
     3
 72
    10
 73
     6
 74
     0
 42
0.00000001
 43
0.00000001
 40
0.0
 40
0.0
 40
0.0
 40
0.0
 40
0.46366722607672
 40
0.8511584555574665
 40
1.0
 40
1.0
 40
1.0
 40
1.0
 10
6863.533558274697
 20
5319.571626530578
 30
0.0
 10
6863.591782298693
 20
5319.593255694111
 30
0.0
 10
6863.698664708217
 20
5319.632960560858
 30
0.0
 10
6863.804105550666
 20
5319.721638714938
 30
0.0
 10
6863.843712122144
 20
5319.781878517025
 30
0.0
 10
6863.854703625098
 20
5319.798596095392
 30
0.0
  0
ELLIPSE
  5
14B
330
1F
100
AcDbEntity
  8
0
  6
Continuous
 62
     7
370
    25
100
AcDbEllipse
 10
7015.0389012309
 20
5715.4571932914
 30
0.0
 11
158.6672911903379
 21
395.8979964640021
 31
0.0
210
0.0
220
0.0
230
1.0
 40
0.1392685447
 41
3.117622324684347
 42
3.253668231665872
  0
ELLIPSE
  5
14C
330
1F
100
AcDbEntity
  8
0
  6
Continuous
 62
     7
370
    25
100
AcDbEllipse
 10
6626.4087635851
 20
5212.0572589845
 30
0.0
 11
0.4183910399306114
 21
60.53369143404324
 31
0.0
210
0.0
220
0.0
230
1.0
 40
0.0046278367
 41
4.514741380173589
 42
4.602007842773085
  0
ARC
  5
14D
330
1F
100
AcDbEntity
  8
0
  6
Continuous
 62
     7
370
    25
100
AcDbCircle
 10
6625.7965781771
 20
5204.5534601149
 30
0.0
 40
4.45792593205811
100
AcDbArc
 50
237.6131141117
 51
280.3996582272
  0
LINE
  5
14E
330
1F
100
AcDbEntity
  8
0
  6
Continuous
 62
     7
370
    25
100
AcDbLine
 10
6623.4087635851
 20
5200.7889621285
 30
0.0
 11
6623.4087635851
 21
5205.7517247393
 31
0.0
  0
SPLINE
  5
14F
330
1F
100
AcDbEntity
  8
0
  6
Continuous
 62
     7
370
    25
100
AcDbSpline
210
0.0
220
0.0
230
1.0
 70
     8
 71
     3
 72
    11
 73
     7
 74
     0
 42
0.00000001
 43
0.00000001
 40
0.0
 40
0.0
 40
0.0
 40
0.0
 40
0.0371759532177888
 40
0.3256052883688251
 40
0.6222578707680795
 40
1.0
 40
1.0
 40
1.0
 40
1.0
 10
6671.053398267412
 20
5193.905481239695
 30
0.0
 10
6670.986523546788
 20
5193.961294189035
 30
0.0
 10
6670.400801842059
 20
5194.450131458593
 30
0.0
 10
6669.382546104106
 20
5195.500200316977
 30
0.0
 10
6668.068390872862
 20
5197.353608870493
 30
0.0
 10
6667.495559685522
 20
5198.842173250529
 30
0.0
 10
6667.174705342117
 20
5199.675948291637
 30
0.0
  0
LINE
  5
150
330
1F
100
AcDbEntity
  8
0
  6
Continuous
 62
     7
370
    25
100
AcDbLine
 10
6671.0533982674
 20
5193.9054812397
 30
0.0
 11
6626.601293001
 21
5200.1687665489
 31
0.0
  0
LINE
  5
151
330
1F
100
AcDbEntity
  8
0
  6
Continuous
 62
     7
370
    25
100
AcDbLine
 10
6626.601293001
 20
5200.1687665489
 30
0.0
 11
6626.601293001
 21
4971.0792590131
 31
0.0
  0
ARC
  5
152
330
1F
100
AcDbEntity
  8
0
  6
Continuous
 62
     7
370
    25
100
AcDbCircle
 10
6625.7965781771
 20
4975.4639525791
 30
0.0
 40
4.457925932045691
100
AcDbArc
 50
237.6131141116
 51
280.3996582273
  0
LINE
  5
153
330
1F
100
AcDbEntity
  8
0
  6
Continuous
 62
     7
370
    25
100
AcDbLine
 10
6623.4087635851
 20
4971.6994545927
 30
0.0
 11
6623.4087635851
 21
5200.7889621285
 31
0.0
  0
LINE
  5
154
330
1F
100
AcDbEntity
  8
0
  6
Continuous
 62
     7
370
    25
100
AcDbLine
 10
6708.3550556821
 20
4971.0792590131
 30
0.0
 11
6795.4514254477
 21
5176.3778448891
 31
0.0
  0
LINE
  5
155
330
1F
100
AcDbEntity
  8
0
  6
Continuous
 62
     7
370
    25
100
AcDbLine
 10
6626.601293001
 20
4971.0792590131
 30
0.0
 11
6708.3550556821
 21
4971.0792590131
 31
0.0
  0
ARC
  5
156
330
1F
100
AcDbEntity
  8
0
  6
Continuous
 62
     7
370
    25
100
AcDbCircle
 10
6678.5371165291
 20
5203.285990873
 30
0.0
 40
12.00000000000034
100
AcDbArc
 50
231.4173297565
 51
292.5423533727
  0
LINE
  5
157
330
1F
100
AcDbEntity
  8
0
  6
Continuous
 62
     7
370
    25
100
AcDbLine
 10
6795.4514254477
 20
5176.3778448891
 30
0.0
 11
6683.1375117074
 21
5192.2028340933
 31
0.0
  0
ARC
  5
158
330
1F
100
AcDbEntity
  8
0
  6
Continuous
 62
     7
370
    25
100
AcDbCircle
 10
6678.4087635851
 20
5203.6994545927
 30
0.0
 40
10.00000000000007
100
AcDbArc
 50
325.5966836072
 51
198.362999522
  0
ARC
  5
159
330
1F
100
AcDbEntity
  8
0
  6
Continuous
 62
     7
370
    25
100
AcDbCircle
 10
6666.4715329777
 20
5203.2566677493
 30
0.0
 40
3.64910992007403
100
AcDbArc
 50
281.1102173261
 51
312.099442288
  0
ARC
  5
15A
330
1F
100
AcDbEntity
  8
0
  6
Continuous
 62
     7
370
    25
100
AcDbCircle
 10
6693.8419959451
 20
5205.6182152394
 30
0.0
 40
10.43434677564759
100
AcDbArc
 50
226.5008019766
 51
238.9789900189
  0
SPLINE
  5
15B
330
1F
100
AcDbEntity
  8
0
  6
Continuous
 62
     7
370
    25
100
AcDbSpline
210
0.0
220
0.0
230
1.0
 70
     8
 71
     3
 72
    10
 73
     6
 74
     0
 42
0.00000001
 43
0.00000001
 40
0.0
 40
0.0
 40
0.0
 40
0.0
 40
0.375898278315411
 40
0.962394564200825
 40
1.0
 40
1.0
 40
1.0
 40
1.0
 10
6668.917967048491
 20
5200.54909253408
 30
0.0
 10
6669.190712551986
 20
5199.876195376567
 30
0.0
 10
6669.88900995082
 20
5198.153408644055
 30
0.0
 10
6671.189051486807
 20
5196.678711637006
 30
0.0
 10
6672.11645096748
 20
5195.927620455309
 30
0.0
 10
6672.172331700411
 20
5195.882363231637
 30
0.0
  0
ARC
  5
15C
330
1F
100
AcDbEntity
  8
0
  6
Continuous
 62
     7
370
    25
100
AcDbCircle
 10
6668.7049756701
 20
5196.5398143961
 30
0.0
 40
3.529135853844251
100
AcDbArc
 50
311.7159688083
 51
349.2635089288
  0
LWPOLYLINE
  5
15D
330
1F
100
AcDbEntity
  8
0
  6
Continuous
 62
     7
370
    25
100
AcDbPolyline
 90
       20
 70
   128
 43
0.0
 10
6796.2477651579
 20
5181.4896015594
 10
6800.4381145564
 20
5179.7759815384
 10
6804.5768954441
 20
5178.1149132683
 10
6808.6399566311
 20
5176.5160896457
 10
6812.6035887774
 20
5174.9888403487
 10
6816.4446627452
 20
5173.5420773949
 10
6820.1407645654
 20
5172.1842431368
 10
6823.6703262304
 20
5170.9232609976
 10
6827.0127515508
 20
5169.7664892359
 10
6830.1485363415
 20
5168.7206780071
 10
6833.0593822347
 20
5167.7919299745
 10
6835.7283034576
 20
5166.9856646977
 10
6838.1397259497
 20
5166.3065870081
 10
6840.279578243
 20
5165.7586595543
 10
6842.1353735736
 20
5165.3450796788
 10
6843.6962827465
 20
5165.0682607604
 10
6844.9531973273
 20
5164.9298181314
 10
6845.8987827932
 20
5164.9305596515
 10
6846.5275213322
 20
5165.0704809937
 10
6846.8357440419
 20
5165.3487656695
  0
ELLIPSE
  5
15E
330
1F
100
AcDbEntity
  8
0
  6
Continuous
 62
     7
370
    25
100
AcDbEllipse
 10
6850.5405906293
 20
5327.7111754449
 30
0.0
 11
51.86066490732629
 21
-31.3865354185864
 31
0.0
210
0.0
220
0.0
230
1.0
 40
0.0040273965
 41
4.968059577838302
 42
6.283765232029583
  0
LINE
  5
15F
330
1F
100
AcDbEntity
  8
0
  6
Continuous
 62
     7
370
    25
100
AcDbLine
 10
6902.4013201219
 20
5296.3247664293
 30
0.0
 11
6846.8357440419
 21
5165.3487656695
 31
0.0
  0
ARC
  5
160
330
1F
100
AcDbEntity
  8
0
  6
Continuous
 62
     7
370
    25
100
AcDbCircle
 10
6899.6395747762
 20
5297.4964159699
 30
0.0
 40
3.000000000000408
100
AcDbArc
 50
337.0112831979
 51
58.3924977538
  0
LINE
  5
161
330
1F
100
AcDbEntity
  8
0
  6
Continuous
 62
     7
370
    25
100
AcDbLine
 10
6864.7953331783
 20
5322.4615656123
 30
0.0
 11
6901.2118670532
 21
5300.05139092
 31
0.0
  0
ARC
  5
162
330
1F
100
AcDbEntity
  8
0
  6
Continuous
 62
     7
370
    25
100
AcDbCircle
 10
6712.0211177492
 20
5204.9465520937
 30
0.0
 40
31.57000231952735
100
AcDbArc
 50
199.3937154985
 51
203.807522006
  0
ARC
  5
163
330
1F
100
AcDbEntity
  8
0
  6
Continuous
 62
     7
370
    25
100
AcDbCircle
 10
6678.4087635851
 20
5203.6994545927
 30
0.0
 40
10.00000000000025
100
AcDbArc
 50
231.4173297565
 51
292.5423533727
  0
SPLINE
  5
164
330
1F
100
AcDbEntity
  8
0
  6
Continuous
 62
     7
370
    25
100
AcDbSpline
210
0.0
220
0.0
230
1.0
 70
     8
 71
     3
 72
    10
 73
     6
 74
     0
 42
0.00000001
 43
0.00000001
 40
0.0
 40
0.0
 40
0.0
 40
0.0
 40
0.289438234388524
 40
0.58699487523158
 40
1.0
 40
1.0
 40
1.0
 40
1.0
 10
6688.464630731951
 20
5196.67620562189
 30
0.0
 10
6688.060649808107
 20
5196.129481150208
 30
0.0
 10
6687.241356764503
 20
5195.020697220125
 30
0.0
 10
6685.488535480659
 20
5193.425362817733
 30
0.0
 10
6684.001710247876
 20
5192.65221599721
 30
0.0
 10
6683.137511707379
 20
5192.202834093303
 30
0.0
  0
SPLINE
  5
165
330
1F
100
AcDbEntity
  8
0
  6
Continuous
 62
     7
370
    25
100
AcDbSpline
210
0.0
220
0.0
230
1.0
 70
     8
 71
     3
 72
     9
 73
     5
 74
     0
 42
0.00000001
 43
0.00000001
 40
0.0
 40
0.0
 40
0.0
 40
0.0
 40
0.4160679977892974
 40
1.0
 40
1.0
 40
1.0
 40
1.0
 10
6682.242426233715
 20
5194.463490609643
 30
0.0
 10
6682.966639970754
 20
5194.817689276496
 30
0.0
 10
6684.707253862922
 20
5195.668989229232
 30
0.0
 10
6685.939830560894
 20
5197.171779591068
 30
0.0
 10
6686.65957154002
 20
5198.049306975959
 30
0.0
  0
LWPOLYLINE
  5
166
330
1F
100
AcDbEntity
  8
0
  6
Continuous
 62
     7
370
    25
100
AcDbPolyline
 90
        9
 70
   128
 43
0.0
 10
6796.2477651579
 20
5181.4896015594
 10
6796.1500348808
 20
5180.84679384
 10
6796.0517632947
 20
5180.2049303018
 10
6795.9529620928
 20
5179.5640873202
 10
6795.8536430316
 20
5178.924341149
 10
6795.7538179291
 20
5178.2857679117
 10
6795.6534986633
 20
5177.6484435921
 10
6795.5526971714
 20
5177.0124440253
 10
6795.4514254477
 20
5176.3778448891
  0
LWPOLYLINE
  5
167
330
1F
100
AcDbEntity
  8
0
  6
Continuous
 62
     7
370
    25
100
AcDbPolyline
 90
       19
 70
   128
 43
0.0
 10
6846.8357440419
 20
5165.3487656695
 10
6846.3509350518
 20
5164.6909078753
 10
6845.5205068281
 20
5164.1851276289
 10
6844.3497015892
 20
5163.8346177534
 10
6842.8459102406
 20
5163.6415909016
 10
6841.0186257192
 20
5163.607265588
 10
6838.8793830669
 20
5163.731858497
 10
6836.4416866139
 20
5164.0145831149
 10
6833.7209247305
 20
5164.4536546946
 10
6830.7342726854
 20
5165.0463015229
 10
6827.5005842235
 20
5165.7887824165
 10
6824.0402725492
 20
5166.6764103395
 10
6820.3751814638
 20
5167.7035819909
 10
6816.5284474734
 20
5168.8638131762
 10
6812.5243537356
 20
5170.1497797403
 10
6808.3881767679
 20
5171.5533638021
 10
6804.1460268854
 20
5173.0657050004
 10
6799.8246833752
 20
5174.6772564262
 10
6795.4514254477
 20
5176.3778448891
  0
LINE
  5
168
330
1F
100
AcDbEntity
  8
0
  6
Continuous
 62
     7
370
    25
100
AcDbLine
 10
6846.8357440419
 20
5165.3487656695
 30
0.0
 11
6764.1844274164
 21
4970.5278050522
 31
0.0
  0
ELLIPSE
  5
169
330
1F
100
AcDbEntity
  8
0
  6
Continuous
 62
     7
370
    25
100
AcDbEllipse
 10
6699.5053151163
 20
4971.6994545927
 30
0.0
 11
64.67940732078115
 21
-1.170311120716178
 31
0.0
210
0.0
220
0.0
230
1.0
 40
0.0071783641
 41
4.84977411869596
 42
6.280292043712376
  0
ARC
  5
16A
330
1F
100
AcDbEntity
  8
0
  6
Continuous
 62
     7
370
    25
100
AcDbCircle
 10
6618.1208313887
 20
4970.5676497412
 30
0.0
 40
8.49587977818009
100
AcDbArc
 50
347.2971778807
 51
3.4523554888
  0
ARC
  5
16B
330
1F
100
AcDbEntity
  8
0
  6
Continuous
 62
     7
370
    25
100
AcDbCircle
 10
6626.4087635851
 20
4971.6994545927
 30
0.0
 40
3.0
100
AcDbArc
 50
180.0
 51
270.0
  0
LINE
  5
16C
330
1F
100
AcDbEntity
  8
0
  6
Continuous
 62
     7
370
    25
100
AcDbLine
 10
6708.1625262662
 20
4968.6994545927
 30
0.0
 11
6626.4087635851
 21
4968.6994545927
 31
0.0
  0
ARC
  5
16D
330
1F
100
AcDbEntity
  8
0
  6
Continuous
 62
     7
370
    25
100
AcDbCircle
 10
6699.8745940698
 20
4970.5676497412
 30
0.0
 40
8.495879778180997
100
AcDbArc
 50
347.2971778807
 51
3.4523554888
  0
ARC
  5
16E
330
1F
100
AcDbEntity
  8
0
  6
Continuous
 62
     7
370
    25
100
AcDbCircle
 10
6761.4226820708
 20
4971.6994545927
 30
0.0
 40
3.0
100
AcDbArc
 50
270.0
 51
337.0112831979
  0
LINE
  5
16F
330
1F
100
AcDbEntity
  8
0
  6
Continuous
 62
     7
370
    25
100
AcDbLine
 10
6761.4226820708
 20
4968.6994545927
 30
0.0
 11
6708.1625262662
 21
4968.6994545927
 31
0.0
  0
ARC
  5
170
330
1F
100
AcDbEntity
  8
0
  6
Continuous
 62
     7
370
    25
100
AcDbCircle
 10
6678.4087635851
 20
5203.6994545927
 30
0.0
 40
10.00000000000091
100
AcDbArc
 50
0.0
 51
198.362999522
  0
ARC
  5
171
330
1F
100
AcDbEntity
  8
0
  6
Continuous
 62
     7
370
    25
100
AcDbCircle
 10
6678.4087635851
 20
5203.6994545927
 30
0.0
 40
10.00000000000091
100
AcDbArc
 50
325.5966836072
 51
0.0
  0
SPLINE
  5
172
330
1F
100
AcDbEntity
  8
0
  6
Continuous
 62
     7
370
    25
100
AcDbSpline
210
0.0
220
0.0
230
1.0
 70
     8
 71
     3
 72
    26
 73
    22
 74
     0
 42
0.00000001
 43
0.00000001
 40
0.0
 40
0.0
 40
0.0
 40
0.0
 40
0.0218553228451966
 40
0.0771376678971968
 40
0.1324773819118855
 40
0.1878853507451273
 40
0.2433524620528551
 40
0.298866696504238
 40
0.3544138593443394
 40
0.4099784301997268
 40
0.4655430584718798
 40
0.5210880764405931
 40
0.5765993181264375
 40
0.6320643454343925
 40
0.6874728015593004
 40
0.7428166310793105
 40
0.7980901837312708
 40
0.8532902199241194
 40
0.9084158346153179
 40
0.9634683135247903
 40
1.0
 40
1.0
 40
1.0
 40
1.0
 10
6152.971824471043
 20
4532.368764730333
 30
0.0
 10
6153.128217121438
 20
4531.887465665248
 30
0.0
 10
6153.680200014267
 20
4530.188735900204
 30
0.0
 10
6154.852703701929
 20
4527.330382885667
 30
0.0
 10
6156.588637993838
 20
4523.842492343703
 30
0.0
 10
6158.618365761484
 20
4520.471165813107
 30
0.0
 10
6160.922403014174
 20
4517.231874714565
 30
0.0
 10
6163.491233615678
 20
4514.142570765373
 30
0.0
 10
6166.310652742578
 20
4511.219716292315
 30
0.0
 10
6169.365807226058
 20
4508.479107768014
 30
0.0
 10
6172.640160757625
 20
4505.935530632017
 30
0.0
 10
6176.115968123086
 20
4503.602622467065
 30
0.0
 10
6179.774377563089
 20
4501.492746656685
 30
0.0
 10
6183.59567664214
 20
4499.616898778974
 30
0.0
 10
6187.559344448275
 20
4497.98476708121
 30
0.0
 10
6191.644196219248
 20
4496.604531922608
 30
0.0
 10
6195.828507425515
 20
4495.483473894348
 30
0.0
 10
6200.090184916538
 20
4494.625629647789
 30
0.0
 10
6204.406735260275
 20
4494.040495042156
 30
0.0
 10
6208.270082369229
 20
4493.747472807649
 30
0.0
 10
6210.688352904913
 20
4493.717601412905
 30
0.0
 10
6211.652968356184
 20
4493.705686117039
 30
0.0
  0
SPLINE
  5
173
330
1F
100
AcDbEntity
  8
0
  6
Continuous
 62
     7
370
    25
100
AcDbSpline
210
0.0
220
0.0
230
1.0
 70
     8
 71
     3
 72
    26
 73
    22
 74
     0
 42
0.00000001
 43
0.00000001
 40
0.0
 40
0.0
 40
0.0
 40
0.0
 40
0.029318489578618
 40
0.0842053594639634
 40
0.1391676853031923
 40
0.1942114085771574
 40
0.2493377362307081
 40
0.3045457895430486
 40
0.3598324402263404
 40
0.4151921985400104
 40
0.4706171633977284
 40
0.5260970476388493
 40
0.5816192949333836
 40
0.6371693072191367
 40
0.6927308016699693
 40
0.7482827505226838
 40
0.8038050279537996
 40
0.8592801374013851
 40
0.9146920304976224
 40
0.9700270145035153
 40
1.0
 40
1.0
 40
1.0
 40
1.0
 10
6336.384542316016
 20
4493.705686117039
 30
0.0
 10
6337.160257153641
 20
4493.713503664177
 30
0.0
 10
6339.388180477201
 20
4493.735956368133
 30
0.0
 10
6343.063301814792
 20
4493.983275138344
 30
0.0
 10
6347.382295118164
 20
4494.532982938462
 30
0.0
 10
6351.649975996458
 20
4495.355037351193
 30
0.0
 10
6355.844008155635
 20
4496.440950947246
 30
0.0
 10
6359.942396091788
 20
4497.786885306175
 30
0.0
 10
6363.923451956784
 20
4499.386018700504
 30
0.0
 10
6367.765966401564
 20
4501.23059762662
 30
0.0
 10
6371.449311763521
 20
4503.311392244344
 30
0.0
 10
6374.953572894466
 20
4505.617857604137
 30
0.0
 10
6378.259672160065
 20
4508.138118461277
 30
0.0
 10
6381.349525570936
 20
4510.859010946569
 30
0.0
 10
6384.20604981929
 20
4513.766085470365
 30
0.0
 10
6386.813624001537
 20
4516.843619521668
 30
0.0
 10
6389.157279534141
 20
4520.074984299173
 30
0.0
 10
6391.226613271891
 20
4523.441966697736
 30
0.0
 10
6393.00190440291
 20
4526.928188094974
 30
0.0
 10
6394.27709479894
 20
4529.962064151974
 30
0.0
 10
6394.8926901481
 20
4531.843743603289
 30
0.0
 10
6395.108979793483
 20
4532.504872349317
 30
0.0
  0
LINE
  5
174
330
1F
100
AcDbEntity
  8
0
  6
Continuous
 62
     7
370
    25
100
AcDbLine
 10
6211.6529683562
 20
4493.705686117
 30
0.0
 11
6336.384542316
 21
4493.705686117
 31
0.0
  0
LINE
  5
175
330
1F
100
AcDbEntity
  8
0
  6
Continuous
 62
     7
370
    25
100
AcDbLine
 10
6119.0187553361
 20
4753.7856238791
 30
0.0
 11
6119.0187553361
 21
4769.9364973082
 31
0.0
  0
ARC
  5
176
330
1F
100
AcDbEntity
  8
0
  6
Continuous
 62
     7
370
    25
100
AcDbCircle
 10
6122.0187553361
 20
4769.9364973082
 30
0.0
 40
3.0
100
AcDbArc
 50
90.0
 51
180.0
  0
LINE
  5
177
330
1F
100
AcDbEntity
  8
0
  6
Continuous
 62
     7
370
    25
100
AcDbLine
 10
6122.0187553361
 20
4772.9364973082
 30
0.0
 11
6122.0187553361
 21
4753.7856238791
 31
0.0
  0
LINE
  5
178
330
1F
100
AcDbEntity
  8
0
  6
Continuous
 62
     7
370
    25
100
AcDbLine
 10
6119.0187553361
 20
4753.7856238791
 30
0.0
 11
6122.0187553361
 21
4753.7856238791
 31
0.0
  0
LINE
  5
179
330
1F
100
AcDbEntity
  8
0
  6
Continuous
 62
     7
370
    25
100
AcDbLine
 10
6426.0187553361
 20
4753.7856238791
 30
0.0
 11
6426.0187553361
 21
4772.9364973082
 31
0.0
  0
LINE
  5
17A
330
1F
100
AcDbEntity
  8
0
  6
Continuous
 62
     7
370
    25
100
AcDbLine
 10
6429.0187553361
 20
4769.9364973082
 30
0.0
 11
6429.0187553361
 21
4753.7856238791
 31
0.0
  0
LINE
  5
17B
330
1F
100
AcDbEntity
  8
0
  6
Continuous
 62
     7
370
    25
100
AcDbLine
 10
6429.0187553361
 20
4753.7856238791
 30
0.0
 11
6426.0187553361
 21
4753.7856238791
 31
0.0
  0
ARC
  5
17C
330
1F
100
AcDbEntity
  8
0
  6
Continuous
 62
     7
370
    25
100
AcDbCircle
 10
6426.0187553361
 20
4769.9364973082
 30
0.0
 40
3.0
100
AcDbArc
 50
0.0
 51
90.0
  0
LINE
  5
17D
330
1F
100
AcDbEntity
  8
0
  6
Continuous
 62
     7
370
    25
100
AcDbLine
 10
6122.0187553361
 20
4753.7856238791
 30
0.0
 11
6426.0187553361
 21
4753.7856238791
 31
0.0
  0
LINE
  5
17E
330
1F
100
AcDbEntity
  8
0
  6
Continuous
 62
     7
370
    25
100
AcDbLine
 10
6426.0187553361
 20
4772.9364973082
 30
0.0
 11
6122.0187553361
 21
4772.9364973082
 31
0.0
  0
LINE
  5
17F
330
1F
100
AcDbEntity
  8
0
  6
Continuous
 62
     7
370
    25
100
AcDbLine
 10
6426.0187553361
 20
4752.2133316021
 30
0.0
 11
6426.0187553361
 21
4753.7856238791
 31
0.0
  0
LWPOLYLINE
  5
180
330
1F
100
AcDbEntity
  8
0
  6
Continuous
 62
     7
370
    25
100
AcDbPolyline
 90
        9
 70
   128
 43
0.0
 10
6426.0187553361
 20
4752.2133316021
 10
6426.6040263021
 20
4752.2435427573
 10
6427.1668056332
 20
4752.3330152253
 10
6427.6854660352
 20
4752.4783106291
 10
6428.1400756797
 20
4752.673845348
 10
6428.513164173
 20
4752.9121050924
 10
6428.7903939336
 20
4753.1839336739
 10
6428.9611111773
 20
4753.4788848725
 10
6429.0187553361
 20
4753.7856238791
  0
LINE
  5
181
330
1F
100
AcDbEntity
  8
0
  6
Continuous
 62
     7
370
    25
100
AcDbLine
 10
6426.0187553361
 20
4752.2133316021
 30
0.0
 11
6122.0187553361
 21
4752.2133316021
 31
0.0
  0
LINE
  5
182
330
1F
100
AcDbEntity
  8
0
  6
Continuous
 62
     7
370
    25
100
AcDbLine
 10
6122.0187553361
 20
4752.2133316021
 30
0.0
 11
6122.0187553361
 21
4753.7856238791
 31
0.0
  0
LWPOLYLINE
  5
183
330
1F
100
AcDbEntity
  8
0
  6
Continuous
 62
     7
370
    25
100
AcDbPolyline
 90
        9
 70
   128
 43
0.0
 10
6119.0187553361
 20
4753.7856238791
 10
6119.0763994949
 20
4753.4788848725
 10
6119.2471167386
 20
4753.1839336739
 10
6119.5243464992
 20
4752.9121050924
 10
6119.8974349925
 20
4752.673845348
 10
6120.352044637
 20
4752.4783106291
 10
6120.870705039
 20
4752.3330152253
 10
6121.4334843701
 20
4752.2435427573
 10
6122.0187553361
 20
4752.2133316021
  0
LINE
  5
184
330
1F
100
AcDbEntity
  8
0
  6
Continuous
 62
     7
370
    25
100
AcDbLine
 10
6392.1658788787
 20
4531.549927715
 30
0.0
 11
6426.0187553361
 21
4751.5936246881
 31
0.0
  0
ELLIPSE
  5
185
330
1F
100
AcDbEntity
  8
0
  6
Continuous
 62
     7
370
    25
100
AcDbEllipse
 10
6337.0972826771
 20
4544.232377987
 30
0.0
 11
57.16343935207533
 21
2.319790281935639
 31
0.0
210
0.0
220
0.0
230
1.0
 40
0.8579636262
 41
4.665124168940387
 42
5.974654573246308
  0
LINE
  5
186
330
1F
100
AcDbEntity
  8
0
  6
Continuous
 62
     7
370
    25
100
AcDbLine
 10
6211.6529683562
 20
4495.13339384
 30
0.0
 11
6336.384542316
 21
4495.13339384
 31
0.0
  0
ELLIPSE
  5
187
330
1F
100
AcDbEntity
  8
0
  6
Continuous
 62
     7
370
    25
100
AcDbEllipse
 10
6210.9402279951
 20
4544.232377987
 30
0.0
 11
57.16343935207624
 21
-2.319790281936548
 31
0.0
210
0.0
220
0.0
230
1.0
 40
0.8579636262
 41
3.450123387523125
 42
4.759653791829029
  0
LINE
  5
188
330
1F
100
AcDbEntity
  8
0
  6
Continuous
 62
     7
370
    25
100
AcDbLine
 10
6122.0187553361
 20
4751.5936246881
 30
0.0
 11
6155.8716317935
 21
4531.549927715
 31
0.0
  0
LINE
  5
189
330
1F
100
AcDbEntity
  8
0
  6
Continuous
 62
     7
370
    25
100
AcDbLine
 10
6122.0187553361
 20
4751.5936246881
 30
0.0
 11
6122.0187553361
 21
4752.2133316021
 31
0.0
  0
LINE
  5
18A
330
1F
100
AcDbEntity
  8
0
  6
Continuous
 62
     7
370
    25
100
AcDbLine
 10
6426.0187553361
 20
4752.2133316021
 30
0.0
 11
6426.0187553361
 21
4751.5936246881
 31
0.0
  0
LINE
  5
18B
330
1F
100
AcDbEntity
  8
0
  6
Continuous
 62
     7
370
    25
100
AcDbLine
 10
6398.5911393862
 20
4687.3548326175
 30
0.0
 11
6375.0887788124
 21
4534.5894888879
 31
0.0
  0
ELLIPSE
  5
18C
330
1F
100
AcDbEntity
  8
0
  6
Continuous
 62
     7
370
    25
100
AcDbEllipse
 10
6371.3287965964
 20
4686.6067050956
 30
0.0
 11
23.64423113983322
 21
17.01912138015451
 31
0.0
210
0.0
220
0.0
230
1.0
 40
0.8313137909
 41
5.598334383603374
 42
7.140352602864065
  0
LINE
  5
18D
330
1F
100
AcDbEntity
  8
0
  6
Continuous
 62
     7
370
    25
100
AcDbLine
 10
6171.9275755349
 20
4712.6067050956
 30
0.0
 11
6376.1099351373
 21
4712.6067050956
 31
0.0
  0
ELLIPSE
  5
18E
330
1F
100
AcDbEntity
  8
0
  6
Continuous
 62
     7
370
    25
100
AcDbEllipse
 10
6176.7087140758
 20
4686.6067050956
 30
0.0
 11
23.64423113983321
 21
-17.01912138015359
 31
0.0
210
0.0
220
0.0
230
1.0
 40
0.8313137909
 41
2.284425357905331
 42
3.826443577166
  0
LINE
  5
18F
330
1F
100
AcDbEntity
  8
0
  6
Continuous
 62
     7
370
    25
100
AcDbLine
 10
6172.9487318598
 20
4534.589488888
 30
0.0
 11
6149.446371286
 21
4687.3548326175
 31
0.0
  0
SPLINE
  5
190
330
1F
100
AcDbEntity
  8
0
  6
Continuous
 62
     7
370
    25
100
AcDbSpline
210
0.0
220
0.0
230
1.0
 70
     8
 71
     3
 72
    15
 73
    11
 74
     0
 42
0.00000001
 43
0.00000001
 40
0.0
 40
0.0
 40
0.0
 40
0.0
 40
0.129012809532927
 40
0.2580384749041252
 40
0.3875228079808328
 40
0.5170194840550382
 40
0.6491687243047998
 40
0.781329943780331
 40
0.8906283643738484
 40
1.0
 40
1.0
 40
1.0
 40
1.0
 10
6211.652968356357
 20
4509.948874341881
 30
0.0
 10
6209.428696270221
 20
4510.043830013611
 30
0.0
 10
6204.979930454205
 20
4510.233750819194
 30
0.0
 10
6198.484819930099
 20
4511.708492878249
 30
0.0
 10
6192.357476351291
 20
4514.030207731126
 30
0.0
 10
6186.708114797862
 20
4517.205998480958
 30
0.0
 10
6181.728318465501
 20
4521.16745302475
 30
0.0
 10
6177.787961032362
 20
4525.528657994295
 30
0.0
 10
6174.847579157557
 20
4530.050792960844
 30
0.0
 10
6173.58182222582
 20
4533.076252584515
 30
0.0
 10
6172.948731859803
 20
4534.589488888022
 30
0.0
  0
LINE
  5
191
330
1F
100
AcDbEntity
  8
0
  6
Continuous
 62
     7
370
    25
100
AcDbLine
 10
6336.3845423161
 20
4509.9488743419
 30
0.0
 11
6211.6529683564
 21
4509.9488743419
 31
0.0
  0
SPLINE
  5
192
330
1F
100
AcDbEntity
  8
0
  6
Continuous
 62
     7
370
    25
100
AcDbSpline
210
0.0
220
0.0
230
1.0
 70
     8
 71
     3
 72
    15
 73
    11
 74
     0
 42
0.00000001
 43
0.00000001
 40
0.0
 40
0.0
 40
0.0
 40
0.0
 40
0.1096749440369244
 40
0.2192813217500753
 40
0.3514154101918792
 40
0.4835441089000945
 40
0.6130002370618383
 40
0.7424463738594299
 40
0.8712290939827014
 40
1.0
 40
1.0
 40
1.0
 40
1.0
 10
6375.088778812374
 20
4534.58948888787
 30
0.0
 10
6374.453259173923
 20
4533.072264914552
 30
0.0
 10
6373.182617209693
 20
4530.038765502434
 30
0.0
 10
6370.234825530894
 20
4525.510265495089
 30
0.0
 10
6366.28903550538
 20
4521.147737419255
 30
0.0
 10
6361.30620679855
 20
4517.190950526989
 30
0.0
 10
6355.656067092353
 20
4514.018970762542
 30
0.0
 10
6349.531916677512
 20
4511.702784682773
 30
0.0
 10
6343.045040347722
 20
4510.232456511163
 30
0.0
 10
6338.60464043225
 20
4510.04339884092
 30
0.0
 10
6336.384542316129
 20
4509.948874341881
 30
0.0
  0
LINE
  5
193
330
1F
100
AcDbEntity
  8
0
  6
Continuous
 62
     7
370
    25
100
AcDbLine
 10
6429.0187553361
 20
4753.1659169651
 30
0.0
 11
6429.0187553361
 21
4753.7856238791
 31
0.0
  0
LWPOLYLINE
  5
194
330
1F
100
AcDbEntity
  8
0
  6
Continuous
 62
     7
370
    25
100
AcDbPolyline
 90
        9
 70
   128
 43
0.0
 10
6426.0187553361
 20
4751.5936246881
 10
6426.6040263021
 20
4751.6238358433
 10
6427.1668056332
 20
4751.7133083113
 10
6427.6854660352
 20
4751.8586037151
 10
6428.1400756797
 20
4752.054138434
 10
6428.513164173
 20
4752.2923981784
 10
6428.7903939336
 20
4752.5642267599
 10
6428.9611111773
 20
4752.8591779585
 10
6429.0187553361
 20
4753.1659169651
  0
LINE
  5
195
330
1F
100
AcDbEntity
  8
0
  6
Continuous
 62
     7
370
    25
100
AcDbLine
 10
6119.0187553361
 20
4753.7856238791
 30
0.0
 11
6119.0187553361
 21
4753.1659169651
 31
0.0
  0
LWPOLYLINE
  5
196
330
1F
100
AcDbEntity
  8
0
  6
Continuous
 62
     7
370
    25
100
AcDbPolyline
 90
        9
 70
   128
 43
0.0
 10
6122.0187553361
 20
4751.5936246881
 10
6121.4334843701
 20
4751.6238358433
 10
6120.870705039
 20
4751.7133083113
 10
6120.352044637
 20
4751.8586037151
 10
6119.8974349925
 20
4752.054138434
 10
6119.5243464992
 20
4752.2923981784
 10
6119.2471167386
 20
4752.5642267599
 10
6119.0763994949
 20
4752.8591779585
 10
6119.0187553361
 20
4753.1659169651
  0
ARC
  5
197
330
1F
100
AcDbEntity
  8
0
  6
Continuous
 62
     7
370
    25
100
AcDbCircle
 10
6122.0187553361
 20
4753.1659169651
 30
0.0
 40
3.000000000000394
100
AcDbArc
 50
180.0
 51
188.7461622626
  0
LWPOLYLINE
  5
198
330
1F
100
AcDbEntity
  8
0
  6
Continuous
 62
     7
370
    25
100
AcDbPolyline
 90
        9
 70
   128
 43
0.0
 10
6119.0536402431
 20
4752.7097454124
 10
6119.1489160648
 20
4752.4321275282
 10
6119.3435918915
 20
4752.1799252395
 10
6119.6309249143
 20
4751.9618738468
 10
6120.0009630415
 20
4751.7855257974
 10
6120.4408895998
 20
4751.6569890977
 10
6120.9354672544
 20
4751.5807157562
 10
6121.4675657701
 20
4751.559347583
 10
6122.0187553361
 20
4751.5936246881
  0
LINE
  5
199
330
1F
100
AcDbEntity
  8
0
  6
Continuous
 62
     7
370
    25
100
AcDbLine
 10
6152.9335153423
 20
4532.4905572682
 30
0.0
 11
6119.0536402431
 21
4752.7097454124
 31
0.0
  0
SPLINE
  5
19A
330
1F
100
AcDbEntity
  8
0
  6
Continuous
 62
     7
370
    25
100
AcDbSpline
210
0.0
220
0.0
230
1.0
 70
     8
 71
     3
 72
    13
 73
     9
 74
     0
 42
0.00000001
 43
0.00000001
 40
0.0
 40
0.0
 40
0.0
 40
0.0
 40
0.2255584982863817
 40
0.4511068971022571
 40
0.6769343595136557
 40
0.903285007818283
 40
0.99343591143207
 40
1.0
 40
1.0
 40
1.0
 40
1.0
 10
6152.933515342253
 20
4532.490557268175
 30
0.0
 10
6152.992280624877
 20
4532.32604738027
 30
0.0
 10
6153.109808558886
 20
4531.997034970456
 30
0.0
 10
6153.685043515801
 20
4531.648942636642
 30
0.0
 10
6154.481689800807
 20
4531.46107729708
 30
0.0
 10
6155.250906348064
 20
4531.462167805435
 30
0.0
 10
6155.721188573903
 20
4531.524140044497
 30
0.0
 10
6155.862070102879
 20
4531.548288733024
 30
0.0
 10
6155.871631793501
 20
4531.549927715012
 30
0.0
  0
LINE
  5
19B
330
1F
100
AcDbEntity
  8
0
  6
Continuous
 62
     7
370
    25
100
AcDbLine
 10
6428.9838704291
 20
4752.7097454124
 30
0.0
 11
6395.1039953299
 21
4532.4905572682
 31
0.0
  0
SPLINE
  5
19C
330
1F
100
AcDbEntity
  8
0
  6
Continuous
 62
     7
370
    25
100
AcDbSpline
210
0.0
220
0.0
230
1.0
 70
     8
 71
     3
 72
    13
 73
     9
 74
     0
 42
0.00000001
 43
0.00000001
 40
0.0
 40
0.0
 40
0.0
 40
0.0
 40
0.2255584982863837
 40
0.4511068971022699
 40
0.6769343595136701
 40
0.9032850078182896
 40
0.9934359114321645
 40
1.0
 40
1.0
 40
1.0
 40
1.0
 10
6395.103995329948
 20
4532.490557268174
 30
0.0
 10
6395.045230047324
 20
4532.326047380271
 30
0.0
 10
6394.927702113315
 20
4531.997034970459
 30
0.0
 10
6394.352467156396
 20
4531.64894263663
 30
0.0
 10
6393.555820871404
 20
4531.461077297123
 30
0.0
 10
6392.786604324107
 20
4531.462167805313
 30
0.0
 10
6392.316322098322
 20
4531.524140044607
 30
0.0
 10
6392.175440569323
 20
4531.54828873303
 30
0.0
 10
6392.165878878699
 20
4531.549927715012
 30
0.0
  0
LWPOLYLINE
  5
19D
330
1F
100
AcDbEntity
  8
0
  6
Continuous
 62
     7
370
    25
100
AcDbPolyline
 90
        9
 70
   128
 43
0.0
 10
6426.0187553361
 20
4751.5936246881
 10
6426.5699449021
 20
4751.559347583
 10
6427.1020434178
 20
4751.5807157562
 10
6427.5966210724
 20
4751.6569890977
 10
6428.0365476307
 20
4751.7855257974
 10
6428.4065857579
 20
4751.9618738468
 10
6428.6939187807
 20
4752.1799252395
 10
6428.8885946074
 20
4752.4321275282
 10
6428.9838704291
 20
4752.7097454124
  0
ARC
  5
19E
330
1F
100
AcDbEntity
  8
0
  6
Continuous
 62
     7
370
    25
100
AcDbCircle
 10
6426.0187553361
 20
4753.1659169651
 30
0.0
 40
3.000000000000394
100
AcDbArc
 50
351.2538377374
 51
0.0
  0
ELLIPSE
  5
19F
330
1F
100
AcDbEntity
  8
0
  6
Continuous
 62
     7
370
    25
100
AcDbEllipse
 10
6176.7087140758
 20
4689.7512896496
 30
0.0
 11
19.42055645908022
 21
-12.91052872459568
 31
0.0
210
0.0
220
0.0
230
1.0
 40
0.7865252759
 41
2.272508698505977
 42
3.814526917766587
  0
ARC
  5
1A0
330
1F
100
AcDbEntity
  8
0
  6
Continuous
 62
     7
370
    25
100
AcDbCircle
 10
6149.2767361803
 20
4694.7243603933
 30
0.0
 40
7.371479885850754
100
AcDbArc
 50
271.3186271705
 51
323.3755173064
  0
LINE
  5
1A1
330
1F
100
AcDbEntity
  8
0
  6
Continuous
 62
     7
370
    25
100
AcDbLine
 10
6171.9275755349
 20
4712.6067050956
 30
0.0
 11
6171.9275755349
 21
4709.7512896496
 31
0.0
  0
ARC
  5
1A2
330
1F
100
AcDbEntity
  8
0
  6
Continuous
 62
     7
370
    25
100
AcDbCircle
 10
6398.7607744919
 20
4694.7243603933
 30
0.0
 40
7.371479885850754
100
AcDbArc
 50
216.6244826936
 51
268.6813728296
  0
ELLIPSE
  5
1A3
330
1F
100
AcDbEntity
  8
0
  6
Continuous
 62
     7
370
    25
100
AcDbEllipse
 10
6371.3287965964
 20
4689.7512896496
 30
0.0
 11
19.42055645908022
 21
12.91052872459568
 31
0.0
210
0.0
220
0.0
230
1.0
 40
0.7865252759
 41
5.610251043002838
 42
7.152269262263431
  0
LINE
  5
1A4
330
1F
100
AcDbEntity
  8
0
  6
Continuous
 62
     7
370
    25
100
AcDbLine
 10
6376.1099351373
 20
4712.6067050956
 30
0.0
 11
6376.1099351373
 21
4709.7512896496
 31
0.0
  0
LINE
  5
1A5
330
1F
100
AcDbEntity
  8
0
  6
Continuous
 62
     7
370
    25
100
AcDbLine
 10
6376.1099351373
 20
4709.7512896496
 30
0.0
 11
6171.9275755349
 21
4709.7512896496
 31
0.0
  0
ELLIPSE
  5
1A6
330
1F
100
AcDbEntity
  8
0
  6
Continuous
 62
     7
370
    25
100
AcDbEllipse
 10
6190.3926351564
 20
4689.7512896496
 30
0.0
 11
18.18787010756569
 21
-13.09163183088731
 31
0.0
210
0.0
220
0.0
230
1.0
 40
0.8313137909
 41
2.28442535790438
 42
3.826443577165973
  0
LINE
  5
1A7
330
1F
100
AcDbEntity
  8
0
  6
Continuous
 62
     7
370
    25
100
AcDbLine
 10
6169.4216022412
 20
4690.3267723588
 30
0.0
 11
6155.1928104856
 21
4690.3267723588
 31
0.0
  0
ELLIPSE
  5
1A8
330
1F
100
AcDbEntity
  8
0
  6
Continuous
 62
     7
370
    25
100
AcDbEllipse
 10
6357.6448755158
 20
4689.7512896496
 30
0.0
 11
18.18787010756296
 21
13.09163183089004
 31
0.0
210
0.0
220
0.0
230
1.0
 40
0.8313137909
 41
5.598334383603274
 42
7.140352602864823
  0
LINE
  5
1A9
330
1F
100
AcDbEntity
  8
0
  6
Continuous
 62
     7
370
    25
100
AcDbLine
 10
6392.8447001866
 20
4690.3267723588
 30
0.0
 11
6378.615908431
 21
4690.3267723588
 31
0.0
  0
LINE
  5
1AA
330
1F
100
AcDbEntity
  8
0
  6
Continuous
 62
     7
370
    25
100
AcDbLine
 10
6155.1928104856
 20
4690.3267723588
 30
0.0
 11
6178.6279083009
 21
4537.9986362008
 31
0.0
  0
SPLINE
  5
1AB
330
1F
100
AcDbEntity
  8
0
  6
Continuous
 62
     7
370
    25
100
AcDbSpline
210
0.0
220
0.0
230
1.0
 70
     8
 71
     3
 72
    12
 73
     8
 74
     0
 42
0.00000001
 43
0.00000001
 40
0.0
 40
0.0
 40
0.0
 40
0.0
 40
0.2568381503130096
 40
0.513649432644613
 40
0.7711351308683289
 40
0.9953013161612774
 40
1.0
 40
1.0
 40
1.0
 40
1.0
 10
6178.627908300901
 20
4537.998636200773
 30
0.0
 10
6178.394392457812
 20
4537.621909926876
 30
0.0
 10
6177.927385199856
 20
4536.86849678863
 30
0.0
 10
6176.496655632136
 20
4535.829267700673
 30
0.0
 10
6174.792214866664
 20
4535.042078800001
 30
0.0
 10
6173.544298001323
 20
4534.70314689012
 30
0.0
 10
6172.960713082766
 20
4534.591775387824
 30
0.0
 10
6172.948731859803
 20
4534.589488888022
 30
0.0
  0
SPLINE
  5
1AC
330
1F
100
AcDbEntity
  8
0
  6
Continuous
 62
     7
370
    25
100
AcDbSpline
210
0.0
220
0.0
230
1.0
 70
     8
 71
     3
 72
    12
 73
     8
 74
     0
 42
0.00000001
 43
0.00000001
 40
0.0
 40
0.0
 40
0.0
 40
0.0
 40
0.0046986833962122
 40
0.2288640407521192
 40
0.4863499667041519
 40
0.7431615414723296
 40
1.0
 40
1.0
 40
1.0
 40
1.0
 10
6375.088778812374
 20
4534.58948888787
 30
0.0
 10
6375.07679758941
 20
4534.591775387674
 30
0.0
 10
6374.493214728137
 20
4534.703146497403
 30
0.0
 10
6373.245299340707
 20
4535.042077530613
 30
0.0
 10
6371.540858349609
 20
4535.829266083574
 30
0.0
 10
6370.110125967706
 20
4536.868494120195
 30
0.0
 10
6369.643119662974
 20
4537.621917580245
 30
0.0
 10
6369.409604289363
 20
4537.99864902686
 30
0.0
  0
LINE
  5
1AD
330
1F
100
AcDbEntity
  8
0
  6
Continuous
 62
     7
370
    25
100
AcDbLine
 10
6369.4096042894
 20
4537.9986490269
 30
0.0
 11
6392.8447001866
 21
4690.3267723588
 31
0.0
  0
LINE
  5
1AE
330
1F
100
AcDbEntity
  8
0
  6
Continuous
 62
     7
370
    25
100
AcDbLine
 10
6169.4216022412
 20
4690.3267723588
 30
0.0
 11
6189.2623273664
 21
4561.3620590446
 31
0.0
  0
LINE
  5
1AF
330
1F
100
AcDbEntity
  8
0
  6
Continuous
 62
     7
370
    25
100
AcDbLine
 10
6189.2623273664
 20
4561.3620590446
 30
0.0
 11
6178.6279083009
 21
4537.9986362008
 31
0.0
  0
LINE
  5
1B0
330
1F
100
AcDbEntity
  8
0
  6
Continuous
 62
     7
370
    25
100
AcDbLine
 10
6358.7753032093
 20
4561.3628384174
 30
0.0
 11
6378.615908431
 21
4690.3267723588
 31
0.0
  0
LINE
  5
1B1
330
1F
100
AcDbEntity
  8
0
  6
Continuous
 62
     7
370
    25
100
AcDbLine
 10
6358.7753032093
 20
4561.3628384174
 30
0.0
 11
6369.4096042894
 21
4537.9986490269
 31
0.0
  0
LINE
  5
1B2
330
1F
100
AcDbEntity
  8
0
  6
Continuous
 62
     7
370
    25
100
AcDbLine
 10
6190.9729997909
 20
4609.1533551534
 30
0.0
 11
6184.8398294821
 21
4590.1082952924
 31
0.0
  0
LINE
  5
1B3
330
1F
100
AcDbEntity
  8
0
  6
Continuous
 62
     7
370
    25
100
AcDbLine
 10
6172.8756884797
 20
4703.7087387604
 30
0.0
 11
6173.0819014453
 21
4703.5438683699
 31
0.0
  0
ELLIPSE
  5
1B4
330
1F
100
AcDbEntity
  8
0
  6
Continuous
 62
     7
370
    25
100
AcDbEllipse
 10
6172.251766972
 20
4674.2400241638
 30
0.0
 11
-11.6711300436391
 21
32.83624524928837
 31
0.0
210
0.0
220
0.0
230
1.0
 40
0.4901746958
 41
5.413104347131681
 42
5.614034016469869
  0
LINE
  5
1B5
330
1F
100
AcDbEntity
  8
0
  6
Continuous
 62
     7
370
    25
100
AcDbLine
 10
6177.0297286986
 20
4699.7846172528
 30
0.0
 11
6190.9729997909
 21
4609.1533551534
 31
0.0
  0
LINE
  5
1B6
330
1F
100
AcDbEntity
  8
0
  6
Continuous
 62
     7
370
    25
100
AcDbLine
 10
6357.0646853656
 20
4609.1544893013
 30
0.0
 11
6363.1976867899
 21
4590.1083316915
 31
0.0
  0
LINE
  5
1B7
330
1F
100
AcDbEntity
  8
0
  6
Continuous
 62
     7
370
    25
100
AcDbLine
 10
6357.0646853656
 20
4609.1544893013
 30
0.0
 11
6371.104477034
 21
4700.4131351459
 31
0.0
  0
ELLIPSE
  5
1B8
330
1F
100
AcDbEntity
  8
0
  6
Continuous
 62
     7
370
    25
100
AcDbEllipse
 10
6372.9565521748
 20
4671.9780426727
 30
0.0
 11
9.412804211516233
 21
32.36702139617865
 31
0.0
210
0.0
220
0.0
230
1.0
 40
0.4749664983
 41
0.5935839355820008
 42
0.6523294596045334
  0
LINE
  5
1B9
330
1F
100
AcDbEntity
  8
0
  6
Continuous
 62
     7
370
    25
100
AcDbLine
 10
6372.1604104901
 20
4701.3090646283
 30
0.0
 11
6375.1618221925
 21
4703.7087387604
 31
0.0
  0
LINE
  5
1BA
330
1F
100
AcDbEntity
  8
0
  6
Continuous
 62
     7
370
    25
100
AcDbLine
 10
6308.3513292232
 20
4684.2206807667
 30
0.0
 11
6372.1604104901
 21
4701.3090646283
 31
0.0
  0
LINE
  5
1BB
330
1F
100
AcDbEntity
  8
0
  6
Continuous
 62
     7
370
    25
100
AcDbLine
 10
6239.8107669592
 20
4684.2206807667
 30
0.0
 11
6308.3513292232
 21
4684.2206807667
 31
0.0
  0
LINE
  5
1BC
330
1F
100
AcDbEntity
  8
0
  6
Continuous
 62
     7
370
    25
100
AcDbLine
 10
6173.0819014453
 20
4703.5438683699
 30
0.0
 11
6239.8107669592
 21
4684.2206807667
 31
0.0
  0
SPLINE
  5
1BD
330
1F
100
AcDbEntity
  8
0
  6
Continuous
 62
     7
370
    25
100
AcDbSpline
210
0.0
220
0.0
230
1.0
 70
     8
 71
     3
 72
    15
 73
    11
 74
     0
 42
0.00000001
 43
0.00000001
 40
0.0
 40
0.0
 40
0.0
 40
0.0
 40
0.1055194529285804
 40
0.2110344064403396
 40
0.344872175341301
 40
0.4786957714336932
 40
0.6094889781957232
 40
0.7402676614334147
 40
0.8701414006942052
 40
1.0
 40
1.0
 40
1.0
 40
1.0
 10
6178.627908300901
 20
4537.998636200773
 30
0.0
 10
6179.156182104647
 20
4536.762659154267
 30
0.0
 10
6180.212707186205
 20
4534.290757764104
 30
0.0
 10
6182.698004901644
 20
4530.535468577826
 30
0.0
 10
6186.031077417197
 20
4526.835453004408
 30
0.0
 10
6190.308135069228
 20
4523.434441442
 30
0.0
 10
6195.153524873837
 20
4520.709319610354
 30
0.0
 10
6200.399117174965
 20
4518.721077582606
 30
0.0
 10
6205.953061803589
 20
4517.459177527352
 30
0.0
 10
6209.753073340425
 20
4517.29666475415
 30
0.0
 10
6211.652968356357
 20
4517.215413104032
 30
0.0
  0
LINE
  5
1BE
330
1F
100
AcDbEntity
  8
0
  6
Continuous
 62
     7
370
    25
100
AcDbLine
 10
6211.6529683564
 20
4517.215413104
 30
0.0
 11
6211.6529683564
 21
4509.9488743419
 31
0.0
  0
SPLINE
  5
1BF
330
1F
100
AcDbEntity
  8
0
  6
Continuous
 62
     7
370
    25
100
AcDbSpline
210
0.0
220
0.0
230
1.0
 70
     8
 71
     3
 72
    16
 73
    12
 74
     0
 42
0.00000001
 43
0.00000001
 40
0.0
 40
0.0
 40
0.0
 40
0.0
 40
0.0000013684111137
 40
0.1296093867344848
 40
0.259231319520906
 40
0.3899674848055704
 40
0.5207154175886749
 40
0.6544910587539284
 40
0.7882730531355464
 40
0.8941368771910323
 40
1.0
 40
1.0
 40
1.0
 40
1.0
 10
6336.384542316016
 20
4517.215413104032
 30
0.0
 10
6336.384562316017
 20
4517.215413104042
 30
0.0
 10
6338.278867100009
 20
4517.215414012882
 30
0.0
 10
6342.074389438935
 20
4517.495545225683
 30
0.0
 10
6347.619895188762
 20
4518.705923225961
 30
0.0
 10
6352.862919360383
 20
4520.702131079594
 30
0.0
 10
6357.708483169165
 20
4523.420225454654
 30
0.0
 10
6361.987792704716
 20
4526.817375871679
 30
0.0
 10
6365.325497055942
 20
4530.51808003007
 30
0.0
 10
6367.817601234879
 20
4534.27931989446
 30
0.0
 10
6368.878937776262
 20
4536.75887538685
 30
0.0
 10
6369.409604289363
 20
4537.99864902686
 30
0.0
  0
LINE
  5
1C0
330
1F
100
AcDbEntity
  8
0
  6
Continuous
 62
     7
370
    25
100
AcDbLine
 10
6336.384542316
 20
4517.215413104
 30
0.0
 11
6336.3845423161
 21
4509.9488743419
 31
0.0
  0
LINE
  5
1C1
330
1F
100
AcDbEntity
  8
0
  6
Continuous
 62
     7
370
    25
100
AcDbLine
 10
6211.6529683579
 20
4547.7233130809
 30
0.0
 11
6211.6529683564
 21
4517.215413104
 31
0.0
  0
SPLINE
  5
1C2
330
1F
100
AcDbEntity
  8
0
  6
Continuous
 62
     7
370
    25
100
AcDbSpline
210
0.0
220
0.0
230
1.0
 70
     8
 71
     3
 72
    14
 73
    10
 74
     0
 42
0.00000001
 43
0.00000001
 40
0.0
 40
0.0
 40
0.0
 40
0.0
 40
0.1412758807267546
 40
0.2825602398733501
 40
0.4238806986871687
 40
0.5651863754592772
 40
0.7053141398179487
 40
0.8454185110303972
 40
1.0
 40
1.0
 40
1.0
 40
1.0
 10
6189.26232736641
 20
4561.362059044615
 30
0.0
 10
6189.796678437378
 20
4560.277019203218
 30
0.0
 10
6190.865412647436
 20
4558.106874403694
 30
0.0
 10
6193.24432008011
 20
4555.194512608745
 30
0.0
 10
6196.126661697464
 20
4552.650812191957
 30
0.0
 10
6199.468529884637
 20
4550.557335861495
 30
0.0
 10
6203.173804817141
 20
4549.007941637602
 30
0.0
 10
6207.261812833859
 20
4547.937340610321
 30
0.0
 10
6210.142083222377
 20
4547.79695452011
 30
0.0
 10
6211.652968356184
 20
4547.723313080912
 30
0.0
  0
LINE
  5
1C3
330
1F
100
AcDbEntity
  8
0
  6
Continuous
 62
     7
370
    25
100
AcDbLine
 10
6336.384542316
 20
4547.7233130809
 30
0.0
 11
6336.384542316
 21
4517.215413104
 31
0.0
  0
SPLINE
  5
1C4
330
1F
100
AcDbEntity
  8
0
  6
Continuous
 62
     7
370
    25
100
AcDbSpline
210
0.0
220
0.0
230
1.0
 70
     8
 71
     3
 72
    14
 73
    10
 74
     0
 42
0.00000001
 43
0.00000001
 40
0.0
 40
0.0
 40
0.0
 40
0.0
 40
0.1341989807138585
 40
0.2684205758513291
 40
0.4024464816465513
 40
0.536490115212208
 40
0.6738889782815697
 40
0.8112970895777682
 40
1.0
 40
1.0
 40
1.0
 40
1.0
 10
6336.384542316016
 20
4547.723313080916
 30
0.0
 10
6337.695254063728
 20
4547.78050105207
 30
0.0
 10
6340.31689843259
 20
4547.894886631356
 30
0.0
 10
6344.13428208845
 20
4548.777418464997
 30
0.0
 10
6347.724310934511
 20
4550.156304705853
 30
0.0
 10
6351.035239101388
 20
4552.032341154591
 30
0.0
 10
6353.945750152745
 20
4554.371683096821
 30
0.0
 10
6356.758576092518
 20
4557.424065441923
 30
0.0
 10
6358.036080253769
 20
4559.919097528611
 30
0.0
 10
6358.775303209297
 20
4561.362838417446
 30
0.0
  0
LINE
  5
1C5
330
1F
100
AcDbEntity
  8
0
  6
Continuous
 62
     7
370
    25
100
AcDbLine
 10
6211.6529683564
 20
4517.215413104
 30
0.0
 11
6336.384542316
 21
4517.215413104
 31
0.0
  0
LINE
  5
1C6
330
1F
100
AcDbEntity
  8
0
  6
Continuous
 62
     7
370
    25
100
AcDbLine
 10
6211.6529683562
 20
4547.7233130809
 30
0.0
 11
6336.384542316
 21
4547.7233130809
 31
0.0
  0
SPLINE
  5
1C7
330
1F
100
AcDbEntity
  8
0
  6
Continuous
 62
     7
370
    25
100
AcDbSpline
210
0.0
220
0.0
230
1.0
 70
     8
 71
     3
 72
    12
 73
     8
 74
     0
 42
0.00000001
 43
0.00000001
 40
0.0
 40
0.0
 40
0.0
 40
0.0
 40
0.1790512116938925
 40
0.357548371573974
 40
0.537681692659105
 40
0.7174946839562844
 40
1.0
 40
1.0
 40
1.0
 40
1.0
 10
6190.972999790858
 20
4609.153355153443
 30
0.0
 10
6191.409064529707
 20
4608.269955947113
 30
0.0
 10
6192.279844659041
 20
4606.505891103961
 30
0.0
 10
6194.154215664154
 20
4604.097329062542
 30
0.0
 10
6196.397509042364
 20
4601.940203519501
 30
0.0
 10
6199.485328578074
 20
4599.697123903233
 30
0.0
 10
6202.110951416012
 20
4598.619483596451
 30
0.0
 10
6203.715370704336
 20
4597.960978167151
 30
0.0
  0
SPLINE
  5
1C8
330
1F
100
AcDbEntity
  8
0
  6
Continuous
 62
     7
370
    25
100
AcDbSpline
210
0.0
220
0.0
230
1.0
 70
     8
 71
     3
 72
    12
 73
     8
 74
     0
 42
0.00000001
 43
0.00000001
 40
0.0
 40
0.0
 40
0.0
 40
0.0
 40
0.0060664836042512
 40
0.0161672998608576
 40
0.1631024779276123
 40
0.5815539880672227
 40
1.0
 40
1.0
 40
1.0
 40
1.0
 10
6211.652974181939
 20
4593.383378495935
 30
0.0
 10
6211.636190355515
 20
4593.389924635858
 30
0.0
 10
6211.591461123177
 20
4593.407370229379
 30
0.0
 10
6211.140597193994
 20
4593.585009737534
 30
0.0
 10
6209.560129209723
 20
4594.258462861866
 30
0.0
 10
6206.889286962206
 20
4595.639657072449
 30
0.0
 10
6204.773545392061
 20
4597.187110264837
 30
0.0
 10
6203.715681556935
 20
4597.960831777842
 30
0.0
  0
LINE
  5
1C9
330
1F
100
AcDbEntity
  8
0
  6
Continuous
 62
     7
370
    25
100
AcDbLine
 10
6336.8553869121
 20
4596.6543683966
 30
0.0
 11
6336.384542316
 21
4596.4596179828
 31
0.0
  0
SPLINE
  5
1CA
330
1F
100
AcDbEntity
  8
0
  6
Continuous
 62
     7
370
    25
100
AcDbSpline
210
0.0
220
0.0
230
1.0
 70
     8
 71
     3
 72
    15
 73
    11
 74
     0
 42
0.00000001
 43
0.00000001
 40
0.0
 40
0.0
 40
0.0
 40
0.0
 40
0.118141827947403
 40
0.2362576643097523
 40
0.3636538596834367
 40
0.4904322325785547
 40
0.6179631015739308
 40
0.7446202062922668
 40
0.8723197215671148
 40
0.9999999999999999
 40
0.9999999999999999
 40
0.9999999999999999
 40
0.9999999999999999
 10
6336.855379217885
 20
4596.654368258412
 30
0.0
 10
6337.898162782854
 20
4596.711961693161
 30
0.0
 10
6339.983500497029
 20
4596.827135891919
 30
0.0
 10
6343.108383145132
 20
4597.515677537564
 30
0.0
 10
6346.156212035252
 20
4598.586757875793
 30
0.0
 10
6349.045555039954
 20
4600.086063931582
 30
0.0
 10
6351.636384178221
 20
4601.930247445955
 30
0.0
 10
6353.874165573272
 20
4604.088788706065
 30
0.0
 10
6355.749650093506
 20
4606.495309723798
 30
0.0
 10
6356.626362288112
 20
4608.268140622465
 30
0.0
 10
6357.064685365625
 20
4609.154489301308
 30
0.0
  0
LINE
  5
1CB
330
1F
100
AcDbEntity
  8
0
  6
Continuous
 62
     7
370
    25
100
AcDbLine
 10
6214.1872601055
 20
4654.6764481763
 30
0.0
 11
6190.4001382911
 21
4661.5646668478
 31
0.0
  0
ELLIPSE
  5
1CC
330
1F
100
AcDbEntity
  8
0
  6
Continuous
 62
     7
370
    25
100
AcDbEllipse
 10
6173.8835397264
 20
4673.7674992555
 30
0.0
 11
-9.307282222983305
 21
32.92069983088004
 31
0.0
210
0.0
220
0.0
230
1.0
 40
0.4175538255
 41
4.217899300472635
 42
5.497331608979922
  0
LWPOLYLINE
  5
1CD
330
1F
100
AcDbEntity
  8
0
  6
Continuous
 62
     7
370
    25
100
AcDbPolyline
 90
       14
 70
   128
 43
0.0
 10
6239.8107669592
 20
4684.2206807667
 10
6236.8872712268
 20
4683.7249100894
 10
6234.0016443561
 20
4682.8528665223
 10
6231.1912646828
 20
4681.615845891
 10
6228.4925358446
 20
4680.0298716711
 10
6225.9404152344
 20
4678.1154874324
 10
6223.5679611876
 20
4675.8974907319
 10
6221.4059047682
 20
4673.4046119042
 10
6219.4822517004
 20
4670.669141909
 10
6217.8219196031
 20
4667.7265140581
 10
6216.4464152244
 20
4664.6148450367
 10
6215.3735558591
 20
4661.3744411682
 10
6214.6172385559
 20
4658.0472763143
 10
6214.1872601055
 20
4654.6764481763
  0
LINE
  5
1CE
330
1F
100
AcDbEntity
  8
0
  6
Continuous
 62
     7
370
    25
100
AcDbLine
 10
6214.1195783012
 20
4596.6499629276
 30
0.0
 11
6336.1312324062
 21
4596.6499629276
 31
0.0
  0
ELLIPSE
  5
1CF
330
1F
100
AcDbEntity
  8
0
  6
Continuous
 62
     7
370
    25
100
AcDbEllipse
 10
4114.6980907346
 20
7411.6448152054
 30
0.0
 11
-2221.591121422886
 21
2814.9473159819
 31
0.0
210
0.0
220
0.0
230
1.0
 40
0.0073637751
 41
3.135781136969297
 42
3.138873152716984
  0
LINE
  5
1D0
330
1F
100
AcDbEntity
  8
0
  6
Continuous
 62
     7
370
    25
100
AcDbLine
 10
6336.2351844539
 20
4596.6499629276
 30
0.0
 11
6336.224625585
 21
4596.6634193824
 31
0.0
  0
LINE
  5
1D1
330
1F
100
AcDbEntity
  8
0
  6
Continuous
 62
     7
370
    25
100
AcDbLine
 10
6336.384542316
 20
4596.4596179828
 30
0.0
 11
6336.2351844539
 21
4596.6499629276
 31
0.0
  0
LINE
  5
1D2
330
1F
100
AcDbEntity
  8
0
  6
Continuous
 62
     7
370
    25
100
AcDbLine
 10
6214.0234421969
 20
4596.6499629276
 30
0.0
 11
6211.6529741819
 21
4593.3833784959
 31
0.0
  0
LINE
  5
1D3
330
1F
100
AcDbEntity
  8
0
  6
Continuous
 62
     7
370
    25
100
AcDbLine
 10
6214.0320476821
 20
4596.6618215748
 30
0.0
 11
6214.0234421969
 21
4596.6499629276
 31
0.0
  0
ELLIPSE
  5
1D4
330
1F
100
AcDbEntity
  8
0
  6
Continuous
 62
     7
370
    25
100
AcDbEllipse
 10
8268.5276717274
 20
7411.6448152053
 30
0.0
 11
2054.561571339704
 21
2814.950622812963
 31
0.0
210
0.0
220
0.0
230
1.0
 40
0.0076804873
 41
3.144295744165141
 42
3.147198389156617
  0
ELLIPSE
  5
1D5
330
1F
100
AcDbEntity
  8
0
  6
Continuous
 62
     7
370
    25
100
AcDbEllipse
 10
6371.8299283258
 20
4671.676327299
 30
0.0
 11
7.769497863125252
 21
32.42843346722293
 31
0.0
210
0.0
220
0.0
230
1.0
 40
0.4011330528
 41
0.5863149541875178
 42
2.002727382697932
  0
LINE
  5
1D6
330
1F
100
AcDbEntity
  8
0
  6
Continuous
 62
     7
370
    25
100
AcDbLine
 10
6356.7639812522
 20
4660.9313356928
 30
0.0
 11
6333.4078447628
 21
4654.6764481763
 31
0.0
  0
LWPOLYLINE
  5
1D7
330
1F
100
AcDbEntity
  8
0
  6
Continuous
 62
     7
370
    25
100
AcDbPolyline
 90
       14
 70
   128
 43
0.0
 10
6308.3513292232
 20
4684.2206807667
 10
6311.2015115831
 20
4683.7097565097
 10
6314.0150335653
 20
4682.8253922708
 10
6316.7557063351
 20
4681.578963156
 10
6319.3882780782
 20
4679.9865013193
 10
6321.8788874264
 20
4678.0684897491
 10
6324.1954989983
 20
4675.8495988067
 10
6326.3083154529
 20
4673.3583689046
 10
6328.1901607575
 20
4670.6268434061
 10
6329.8168297382
 20
4667.6901564689
 10
6331.1673994183
 20
4664.586081133
 10
6332.2244981393
 20
4661.3545434663
 10
6332.9745290033
 20
4658.0371090165
 10
6333.4078447628
 20
4654.6764481763
  0
LINE
  5
1D8
330
1F
100
AcDbEntity
  8
0
  6
Continuous
 62
     7
370
    25
100
AcDbLine
 10
6354.9433288097
 20
4617.7102066149
 30
0.0
 11
6357.0646853656
 21
4609.1544893013
 31
0.0
  0
ELLIPSE
  5
1D9
330
1F
100
AcDbEntity
  8
0
  6
Continuous
 62
     7
370
    25
100
AcDbEllipse
 10
6367.0751888941
 20
4580.8727035088
 30
0.0
 11
-8.853552758870137
 21
57.83758073013814
 31
0.0
210
0.0
220
0.0
230
1.0
 40
0.1449499399
 41
0.6106631970092479
 42
0.8583275718600948
  0
LINE
  5
1DA
330
1F
100
AcDbEntity
  8
0
  6
Continuous
 62
     7
370
    25
100
AcDbLine
 10
6355.0145358532
 20
4627.5213067861
 30
0.0
 11
6356.7639812522
 21
4660.9313356928
 31
0.0
  0
LINE
  5
1DB
330
1F
100
AcDbEntity
  8
0
  6
Continuous
 62
     7
370
    25
100
AcDbLine
 10
6190.4001382911
 20
4661.5646668478
 30
0.0
 11
6192.377704768
 21
4625.0378849923
 31
0.0
  0
ELLIPSE
  5
1DC
330
1F
100
AcDbEntity
  8
0
  6
Continuous
 62
     7
370
    25
100
AcDbEllipse
 10
6179.3644665702
 20
4572.5316512927
 30
0.0
 11
10.07599042565744
 21
62.65778873417912
 31
0.0
210
0.0
220
0.0
230
1.0
 40
0.1347163711
 41
5.479584378480997
 42
5.727267764475441
  0
LINE
  5
1DD
330
1F
100
AcDbEntity
  8
0
  6
Continuous
 62
     7
370
    25
100
AcDbLine
 10
6192.4347651748
 20
4615.0464771786
 30
0.0
 11
6190.9729997909
 21
4609.1533551534
 31
0.0
  0
SPLINE
  5
1DE
330
1F
100
AcDbEntity
  8
0
  6
Continuous
 62
     7
370
    25
100
AcDbSpline
210
0.0
220
0.0
230
1.0
 70
     8
 71
     3
 72
    10
 73
     6
 74
     0
 42
0.00000001
 43
0.00000001
 40
0.0
 40
0.0
 40
0.0
 40
0.0
 40
0.8496185787852054
 40
0.9682252747398544
 40
0.9999999999999999
 40
0.9999999999999999
 40
0.9999999999999999
 40
0.9999999999999999
 10
6340.11329993197
 20
4598.172285809275
 30
0.0
 10
6339.225149670296
 20
4597.678248127792
 30
0.0
 10
6338.213013692349
 20
4597.115242819493
 30
0.0
 10
6337.073578735603
 20
4596.710252751903
 30
0.0
 10
6336.893447597391
 20
4596.664116687485
 30
0.0
 10
6336.855386928851
 20
4596.654368403691
 30
0.0
  0
SPLINE
  5
1DF
330
1F
100
AcDbEntity
  8
0
  6
Continuous
 62
     7
370
    25
100
AcDbSpline
210
0.0
220
0.0
230
1.0
 70
     8
 71
     3
 72
    13
 73
     9
 74
     0
 42
0.00000001
 43
0.00000001
 40
0.0
 40
0.0
 40
0.0
 40
0.0
 40
0.162905878724734
 40
0.3293842534632294
 40
0.5158985582660186
 40
0.7075487080705406
 40
0.852644074837732
 40
1.0
 40
1.0
 40
1.0
 40
1.0
 10
6354.943328809683
 20
4617.710206614935
 30
0.0
 10
6354.5690677362
 20
4616.370401143547
 30
0.0
 10
6353.812338112602
 20
4613.661408512748
 30
0.0
 10
6351.857326152521
 20
4609.69993620786
 30
0.0
 10
6349.242109222013
 20
4605.866271073643
 30
0.0
 10
6346.215870101836
 20
4602.646161225521
 30
0.0
 10
6343.116238664116
 20
4600.070831124513
 30
0.0
 10
6341.119424428987
 20
4598.808387015708
 30
0.0
 10
6340.11329993197
 20
4598.172285809275
 30
0.0
  0
LINE
  5
1E0
330
1F
100
AcDbEntity
  8
0
  6
Continuous
 62
     7
370
    25
100
AcDbLine
 10
6194.0836091706
 20
4610.0691480622
 30
0.0
 11
6192.4347651748
 21
4615.0464771786
 31
0.0
  0
SPLINE
  5
1E1
330
1F
100
AcDbEntity
  8
0
  6
Continuous
 62
     7
370
    25
100
AcDbSpline
210
0.0
220
0.0
230
1.0
 70
     8
 71
     3
 72
    11
 73
     7
 74
     0
 42
0.00000001
 43
0.00000001
 40
0.0
 40
0.0
 40
0.0
 40
0.0
 40
0.2233030170932997
 40
0.4499803371954535
 40
0.7219477886115198
 40
1.0
 40
1.0
 40
1.0
 40
1.0
 10
6203.715716508051
 20
4597.960860473834
 30
0.0
 10
6202.820049157296
 20
4598.682240272241
 30
0.0
 10
6201.015180142296
 20
4600.135900545885
 30
0.0
 10
6198.447972379411
 20
4602.892807625402
 30
0.0
 10
6196.002984879817
 20
4606.161858023897
 30
0.0
 10
6194.728102332437
 20
4608.757147655552
 30
0.0
 10
6194.083609170588
 20
4610.069148062221
 30
0.0
  0
ELLIPSE
  5
1E2
330
1F
100
AcDbEntity
  8
0
  6
Continuous
 62
     7
370
    25
100
AcDbEllipse
 10
6214.0713730547
 20
4619.6973465509
 30
0.0
 11
24.22203763692141
 21
-17.70022605178019
 31
0.0
210
0.0
220
0.0
230
1.0
 40
0.6958665468
 41
4.356334160010417
 42
5.18136918466128
  0
LINE
  5
1E3
330
1F
100
AcDbEntity
  8
0
  6
Continuous
 62
     7
370
    25
100
AcDbLine
 10
6192.377704768
 20
4625.0378849923
 30
0.0
 11
6214.1872601055
 21
4654.6764481763
 31
0.0
  0
LINE
  5
1E4
330
1F
100
AcDbEntity
  8
0
  6
Continuous
 62
     7
370
    25
100
AcDbLine
 10
6333.4078447628
 20
4654.6764481763
 30
0.0
 11
6355.0145358532
 21
4627.5213067861
 31
0.0
  0
ELLIPSE
  5
1E5
330
1F
100
AcDbEntity
  8
0
  6
Continuous
 62
     7
370
    25
100
AcDbEllipse
 10
6336.1833567775
 20
4619.697346552
 30
0.0
 11
23.53871923172028
 21
18.59930569739936
 31
0.0
210
0.0
220
0.0
230
1.0
 40
0.6855307575
 41
4.217499396019179
 42
4.363293150133996
  0
LINE
  5
1E6
330
1F
100
AcDbEntity
  8
0
  6
Continuous
 62
     7
370
    25
100
AcDbLine
 10
6336.1312324062
 20
4596.6499629276
 30
0.0
 11
6308.3513292232
 21
4631.5635549991
 31
0.0
  0
ARC
  5
1E7
330
1F
100
AcDbEntity
  8
0
  6
Continuous
 62
     7
370
    25
100
AcDbCircle
 10
6295.7829277838
 20
4670.3271031238
 30
0.0
 40
40.75018255126
100
AcDbArc
 50
287.9643782892
 51
337.4143907492
  0
LINE
  5
1E8
330
1F
100
AcDbEntity
  8
0
  6
Continuous
 62
     7
370
    25
100
AcDbLine
 10
6239.8107669592
 20
4631.563554999
 30
0.0
 11
6214.1195783012
 21
4596.6499629276
 31
0.0
  0
LINE
  5
1E9
330
1F
100
AcDbEntity
  8
0
  6
Continuous
 62
     7
370
    25
100
AcDbLine
 10
6308.3513292232
 20
4631.5635549991
 30
0.0
 11
6239.8107669592
 21
4631.563554999
 31
0.0
  0
ARC
  5
1EA
330
1F
100
AcDbEntity
  8
0
  6
Continuous
 62
     7
370
    25
100
AcDbCircle
 10
6251.0568776038
 20
4669.7911258036
 30
0.0
 40
39.84748642317857
100
AcDbArc
 50
202.291147239
 51
253.6067248523
  0
LINE
  5
1EB
330
1F
100
AcDbEntity
  8
0
  6
Continuous
 62
     7
370
    25
100
AcDbLine
 10
6308.3513292232
 20
4631.5635549991
 30
0.0
 11
6308.3513292232
 21
4684.2206807667
 31
0.0
  0
LINE
  5
1EC
330
1F
100
AcDbEntity
  8
0
  6
Continuous
 62
     7
370
    25
100
AcDbLine
 10
6239.8107669592
 20
4684.2206807667
 30
0.0
 11
6239.8107669592
 21
4631.563554999
 31
0.0
  0
SPLINE
  5
1ED
330
1F
100
AcDbEntity
  8
0
  6
Continuous
 62
     7
370
    25
100
AcDbSpline
210
0.0
220
0.0
230
1.0
 70
     8
 71
     3
 72
    29
 73
    25
 74
     0
 42
0.00000001
 43
0.00000001
 40
0.0
 40
0.0
 40
0.0
 40
0.0
 40
0.0426702586107916
 40
0.0853524338008003
 40
0.1292257906060858
 40
0.173145971169003
 40
0.2217727802388377
 40
0.2704375629140304
 40
0.3288270404616033
 40
0.3872036201563435
 40
0.4324674238217879
 40
0.4777124314300931
 40
0.523534684763698
 40
0.5693660245080864
 40
0.6117121461712671
 40
0.6540719661126626
 40
0.7026446705508516
 40
0.7512117648139032
 40
0.8066331168772392
 40
0.8619696233161175
 40
0.901293356205464
 40
0.9405885771223785
 40
0.9636221178421175
 40
1.0
 40
1.0
 40
1.0
 40
1.0
 10
6300.502919762863
 20
4660.129975334956
 30
0.0
 10
6300.412032347657
 20
4659.028309022815
 30
0.0
 10
6300.230232134999
 20
4656.824668734732
 30
0.0
 10
6299.294793368251
 20
4653.549976227115
 30
0.0
 10
6297.873197602235
 20
4650.450247840224
 30
0.0
 10
6295.935177438038
 20
4647.496425081467
 30
0.0
 10
6293.518188925585
 20
4644.808710578908
 30
0.0
 10
6290.478038348042
 20
4642.284644331879
 30
0.0
 10
6286.87547963629
 20
4640.128562065916
 30
0.0
 10
6283.027408380715
 20
4638.584499988217
 30
0.0
 10
6279.287737972646
 20
4637.664930389887
 30
0.0
 10
6275.753957506793
 20
4637.23317742532
 30
0.0
 10
6272.164833928548
 20
4637.243511979648
 30
0.0
 10
6268.692492069532
 20
4637.676117590268
 30
0.0
 10
6265.417659003836
 20
4638.490348860117
 30
0.0
 10
6262.220356975401
 20
4639.679683753509
 30
0.0
 10
6259.076868702344
 20
4641.316233706611
 30
0.0
 10
6255.917934981083
 20
4643.544087657247
 30
0.0
 10
6252.994593949389
 20
4646.364338829655
 30
0.0
 10
6250.70350213479
 20
4649.494472165699
 30
0.0
 10
6249.128481410638
 20
4652.61332294116
 30
0.0
 10
6248.271315870725
 20
4655.137826767233
 30
0.0
 10
6247.714644279397
 20
4657.658978274651
 30
0.0
 10
6247.602969735927
 20
4659.191565354437
 30
0.0
 10
6247.534590909337
 20
4660.129975334956
 30
0.0
  0
ELLIPSE
  5
1EE
330
1F
100
AcDbEntity
  8
0
  6
Continuous
 62
     7
370
    25
100
AcDbEllipse
 10
6306.1097580765
 20
4654.6764481763
 30
0.0
 11
9.094947017729282E-13
 21
30.0
 31
0.0
210
0.0
220
0.0
230
1.0
 40
0.1900613284
 41
1.218205145370356
 42
1.387995708238217
  0
SPLINE
  5
1EF
330
1F
100
AcDbEntity
  8
0
  6
Continuous
 62
     7
370
    25
100
AcDbSpline
210
0.0
220
0.0
230
1.0
 70
     8
 71
     3
 72
    15
 73
    11
 74
     0
 42
0.00000001
 43
0.00000001
 40
0.0
 40
0.0
 40
0.0
 40
0.0
 40
0.1483961577321287
 40
0.2902822893498492
 40
0.3925057046455181
 40
0.4948339975203976
 40
0.6258537392819701
 40
0.7568451703357785
 40
0.878484280233132
 40
1.0
 40
1.0
 40
1.0
 40
1.0
 10
6290.253691394374
 20
4676.035972122804
 30
0.0
 10
6291.18084103685
 20
4675.973470973327
 30
0.0
 10
6292.994466975022
 20
4675.851210552069
 30
0.0
 10
6295.17913939358
 20
4674.980991160593
 30
0.0
 10
6296.822507086763
 20
4673.929488252358
 30
0.0
 10
6298.185204481721
 20
4672.686933123597
 30
0.0
 10
6299.377361588101
 20
4671.101025915546
 30
0.0
 10
6300.263890205907
 20
4669.195442620276
 30
0.0
 10
6300.77628609565
 20
4667.152266792374
 30
0.0
 10
6300.764552998184
 20
4665.741430510582
 30
0.0
 10
6300.75868942646
 20
4665.03637033764
 30
0.0
  0
LINE
  5
1F0
330
1F
100
AcDbEntity
  8
0
  6
Continuous
 62
     7
370
    25
100
AcDbLine
 10
6257.7838192778
 20
4676.0359721228
 30
0.0
 11
6290.2536913944
 21
4676.0359721228
 31
0.0
  0
SPLINE
  5
1F1
330
1F
100
AcDbEntity
  8
0
  6
Continuous
 62
     7
370
    25
100
AcDbSpline
210
0.0
220
0.0
230
1.0
 70
     8
 71
     3
 72
    15
 73
    11
 74
     0
 42
0.00000001
 43
0.00000001
 40
0.0
 40
0.0
 40
0.0
 40
0.0
 40
0.0621552614474199
 40
0.1690172677395356
 40
0.2759485247166684
 40
0.4029869329911694
 40
0.5300275940607722
 40
0.7166825629185871
 40
0.8592824240229389
 40
1.0
 40
1.0
 40
1.0
 40
1.0
 10
6247.27882124574
 20
4665.036370337638
 30
0.0
 10
6247.265014615432
 20
4665.397468825044
 30
0.0
 10
6247.227470586546
 20
4666.379395025741
 30
0.0
 10
6247.43812310653
 20
4667.938454373093
 30
0.0
 10
6247.991315702766
 20
4669.750291324043
 30
0.0
 10
6248.915224476053
 20
4671.493188921055
 30
0.0
 10
6250.433295989464
 20
4673.350375204606
 30
0.0
 10
6252.500718439038
 20
4674.859334092106
 30
0.0
 10
6255.135953504813
 20
4675.86627581214
 30
0.0
 10
6256.905115299107
 20
4675.979657779049
 30
0.0
 10
6257.783819277827
 20
4676.035972122803
 30
0.0
  0
ELLIPSE
  5
1F2
330
1F
100
AcDbEntity
  8
0
  6
Continuous
 62
     7
370
    25
100
AcDbEllipse
 10
6241.9277525957
 20
4654.6764481763
 30
0.0
 11
9.094947017729282E-13
 21
30.0
 31
0.0
210
0.0
220
0.0
230
1.0
 40
0.1900613284
 41
4.895189598941486
 42
5.06498016180927
  0
SPLINE
  5
1F3
330
1F
100
AcDbEntity
  8
0
  6
Continuous
 62
     7
370
    25
100
AcDbSpline
210
0.0
220
0.0
230
1.0
 70
     8
 71
     3
 72
    14
 73
    10
 74
     0
 42
0.00000001
 43
0.00000001
 40
0.0
 40
0.0
 40
0.0
 40
0.0
 40
0.05320165526332
 40
0.1068074096926486
 40
0.1620435619466337
 40
0.2239178597096113
 40
0.4281988828906605
 40
0.7232893505154936
 40
1.0
 40
1.0
 40
1.0
 40
1.0
 10
6290.253691394374
 20
4674.381746868527
 30
0.0
 10
6290.490158390136
 20
4674.376538403415
 30
0.0
 10
6290.964888493369
 20
4674.366081911705
 30
0.0
 10
6291.642393794856
 20
4674.197348828578
 30
0.0
 10
6292.237724720316
 20
4673.936568421273
 30
0.0
 10
6293.150720701135
 20
4673.332668335167
 30
0.0
 10
6294.159798609551
 20
4672.026541417907
 30
0.0
 10
6294.93700305089
 20
4669.915537190794
 30
0.0
 10
6294.866619812391
 20
4668.023813224916
 30
0.0
 10
6294.83255938289
 20
4667.108354769903
 30
0.0
  0
LINE
  5
1F4
330
1F
100
AcDbEntity
  8
0
  6
Continuous
 62
     7
370
    25
100
AcDbLine
 10
6290.2536913944
 20
4674.3817468685
 30
0.0
 11
6290.2536913944
 21
4676.0359721228
 31
0.0
  0
LWPOLYLINE
  5
1F5
330
1F
100
AcDbEntity
  8
0
  6
Continuous
 62
     7
370
    25
100
AcDbPolyline
 90
        9
 70
   128
 43
0.0
 10
6294.8325593829
 20
4667.1083547699
 10
6295.0817970722
 20
4666.7376082872
 10
6295.5102895791
 20
4666.3785685779
 10
6296.1045067288
 20
4666.0425727601
 10
6296.8456853881
 20
4665.7402303124
 10
6297.7104219348
 20
4665.4810880674
 10
6298.6714112548
 20
4665.2733287583
 10
6299.6983089353
 20
4665.1235126393
 10
6300.7586894265
 20
4665.0363703376
  0
LINE
  5
1F6
330
1F
100
AcDbEntity
  8
0
  6
Continuous
 62
     7
370
    25
100
AcDbLine
 10
6257.7838192778
 20
4676.0359721228
 30
0.0
 11
6257.7838192778
 21
4674.3817468685
 31
0.0
  0
SPLINE
  5
1F7
330
1F
100
AcDbEntity
  8
0
  6
Continuous
 62
     7
370
    25
100
AcDbSpline
210
0.0
220
0.0
230
1.0
 70
     8
 71
     3
 72
    14
 73
    10
 74
     0
 42
0.00000001
 43
0.00000001
 40
0.0
 40
0.0
 40
0.0
 40
0.0
 40
0.3139952288653177
 40
0.5979314458280844
 40
0.7824192123282462
 40
0.8535933173362211
 40
0.8989446048731687
 40
0.9531023587401013
 40
1.0
 40
1.0
 40
1.0
 40
1.0
 10
6253.204951289311
 20
4667.108354769901
 30
0.0
 10
6253.177393121421
 20
4668.143233159697
 30
0.0
 10
6253.124914950876
 20
4670.113920211541
 30
0.0
 10
6253.980242640873
 20
4672.19927865594
 30
0.0
 10
6255.001625508527
 20
4673.432361090874
 30
0.0
 10
6255.889050650334
 20
4673.98539632883
 30
0.0
 10
6256.506340148896
 20
4674.230187652861
 30
0.0
 10
6257.128384936534
 20
4674.370978106058
 30
0.0
 10
6257.57606196944
 20
4674.37833342348
 30
0.0
 10
6257.783819277828
 20
4674.381746868527
 30
0.0
  0
LWPOLYLINE
  5
1F8
330
1F
100
AcDbEntity
  8
0
  6
Continuous
 62
     7
370
    25
100
AcDbPolyline
 90
        9
 70
   128
 43
0.0
 10
6247.2788212457
 20
4665.0363703376
 10
6248.3392017369
 20
4665.1235126393
 10
6249.3660994174
 20
4665.2733287583
 10
6250.3270887374
 20
4665.4810880674
 10
6251.1918252841
 20
4665.7402303124
 10
6251.9330039434
 20
4666.0425727601
 10
6252.5272210931
 20
4666.3785685779
 10
6252.9557136
 20
4666.7376082872
 10
6253.2049512893
 20
4667.1083547699
  0
LINE
  5
1F9
330
1F
100
AcDbEntity
  8
0
  6
Continuous
 62
     7
370
    25
100
AcDbLine
 10
6290.2536913944
 20
4674.3817468685
 30
0.0
 11
6257.7838192778
 21
4674.3817468685
 31
0.0
  0
SPLINE
  5
1FA
330
1F
100
AcDbEntity
  8
0
  6
Continuous
 62
     7
370
    25
100
AcDbSpline
210
0.0
220
0.0
230
1.0
 70
     8
 71
     3
 72
    29
 73
    25
 74
     0
 42
0.00000001
 43
0.00000001
 40
0.0
 40
0.0
 40
0.0
 40
0.0
 40
0.0394098297289848
 40
0.0818529746732518
 40
0.1243153557092389
 40
0.1470053052678277
 40
0.2038157634022241
 40
0.2607015950479964
 40
0.308719709012059
 40
0.3567204417771442
 40
0.3967234282364547
 40
0.4366810386128648
 40
0.4784755943356632
 40
0.5202395714838892
 40
0.5620211201906355
 40
0.6038644804020092
 40
0.6606618251752455
 40
0.7175406891865341
 40
0.7670555903394297
 40
0.8165412088798657
 40
0.8624554762818245
 40
0.908325355621753
 40
0.9541625276293172
 40
1.0
 40
1.0
 40
1.0
 40
1.0
 10
6253.460720952909
 20
4661.220680766683
 30
0.0
 10
6253.520167031703
 20
4660.349588773643
 30
0.0
 10
6253.64363466441
 20
4658.540358149334
 30
0.0
 10
6254.237794750633
 20
4655.781318445431
 30
0.0
 10
6255.010302811907
 20
4653.478497505442
 30
0.0
 10
6256.11985899182
 20
4650.996924031399
 30
0.0
 10
6257.653314169423
 20
4648.415929781985
 30
0.0
 10
6259.884485097676
 20
4645.759455939273
 30
0.0
 10
6262.321481986832
 20
4643.63063056793
 30
0.0
 10
6264.746907973386
 20
4642.063232923353
 30
0.0
 10
6267.247718618753
 20
4640.907390620067
 30
0.0
 10
6269.804459281477
 20
4640.113030725443
 30
0.0
 10
6272.549812952631
 20
4639.689441314655
 30
0.0
 10
6275.396103984031
 20
4639.674218000773
 30
0.0
 10
6278.183643472275
 20
4640.104138781442
 30
0.0
 10
6281.138584835649
 20
4641.008191946139
 30
0.0
 10
6284.127104565075
 20
4642.506518946034
 30
0.0
 10
6286.898143909887
 20
4644.569107910376
 30
0.0
 10
6289.213058002198
 20
4646.942923318478
 30
0.0
 10
6291.061549822542
 20
4649.475840599524
 30
0.0
 10
6292.536505360662
 20
4652.232365225589
 30
0.0
 10
6293.627826017663
 20
4655.131426738925
 30
0.0
 10
6294.348781600412
 20
4658.176424737837
 30
0.0
 10
6294.500786846988
 20
4660.205926540579
 30
0.0
 10
6294.576789719294
 20
4661.220680766683
 30
0.0
  0
ARC
  5
1FB
330
1F
100
AcDbEntity
  8
0
  6
Continuous
 62
     7
370
    25
100
AcDbCircle
 10
6299.7014733454
 20
4672.4200508526
 30
0.0
 40
12.31617930158203
100
AcDbArc
 50
245.4117941797
 51
273.7310244767
  0
ARC
  5
1FC
330
1F
100
AcDbEntity
  8
0
  6
Continuous
 62
     7
370
    25
100
AcDbCircle
 10
6248.3360373268
 20
4672.4200508526
 30
0.0
 40
12.31617930159512
100
AcDbArc
 50
266.2689755234
 51
294.5882058203
  0
LINE
  5
1FD
330
1F
100
AcDbEntity
  8
0
  6
Continuous
 62
     7
370
    25
100
AcDbLine
 10
6258.146426248
 20
4662.1668798113
 30
0.0
 11
6253.2049512893
 21
4667.1083547699
 31
0.0
  0
LINE
  5
1FE
330
1F
100
AcDbEntity
  8
0
  6
Continuous
 62
     7
370
    25
100
AcDbLine
 10
6257.7838192778
 20
4674.3817468685
 30
0.0
 11
6263.076764433
 21
4669.0888017133
 31
0.0
  0
SPLINE
  5
1FF
330
1F
100
AcDbEntity
  8
0
  6
Continuous
 62
     7
370
    25
100
AcDbSpline
210
0.0
220
0.0
230
1.0
 70
     8
 71
     3
 72
    12
 73
     8
 74
     0
 42
0.00000001
 43
0.00000001
 40
0.0
 40
0.0
 40
0.0
 40
0.0
 40
0.2697671254383431
 40
0.5745575167709775
 40
0.7883516199126022
 40
0.9212346214778647
 40
1.0
 40
1.0
 40
1.0
 40
1.0
 10
6263.076764433025
 20
4669.088801713329
 30
0.0
 10
6262.325945412268
 20
4668.867733426736
 30
0.0
 10
6260.72683020722
 20
4668.396896049589
 30
0.0
 10
6259.276924932523
 20
4666.622964910151
 30
0.0
 10
6258.485387176344
 20
4664.757377064918
 30
0.0
 10
6258.183248753503
 20
4663.266750719459
 30
0.0
 10
6258.156413166625
 20
4662.465184371015
 30
0.0
 10
6258.146426247956
 20
4662.166879811257
 30
0.0
  0
LINE
  5
200
330
1F
100
AcDbEntity
  8
0
  6
Continuous
 62
     7
370
    25
100
AcDbLine
 10
6284.9607462392
 20
4669.0888017133
 30
0.0
 11
6290.2536913944
 21
4674.3817468685
 31
0.0
  0
LINE
  5
201
330
1F
100
AcDbEntity
  8
0
  6
Continuous
 62
     7
370
    25
100
AcDbLine
 10
6294.8325593829
 20
4667.1083547699
 30
0.0
 11
6289.8910844242
 21
4662.1668798113
 31
0.0
  0
SPLINE
  5
202
330
1F
100
AcDbEntity
  8
0
  6
Continuous
 62
     7
370
    25
100
AcDbSpline
210
0.0
220
0.0
230
1.0
 70
     8
 71
     3
 72
    12
 73
     8
 74
     0
 42
0.00000001
 43
0.00000001
 40
0.0
 40
0.0
 40
0.0
 40
0.0
 40
0.120475977746042
 40
0.2908871005698555
 40
0.5709339610844923
 40
0.8621096481617
 40
1.0
 40
1.0
 40
1.0
 40
1.0
 10
6289.891084424245
 20
4662.166879811256
 30
0.0
 10
6289.867664325081
 20
4662.623373286457
 30
0.0
 10
6289.811116913157
 20
4663.725568644522
 30
0.0
 10
6289.275620519486
 20
4665.594337063953
 30
0.0
 10
6288.167123511234
 20
4667.476186636206
 30
0.0
 10
6286.580523217067
 20
4668.742150409132
 30
0.0
 10
6285.35469473508
 20
4669.004492106663
 30
0.0
 10
6284.960746239175
 20
4669.088801713329
 30
0.0
  0
ELLIPSE
  5
203
330
1F
100
AcDbEntity
  8
0
  6
Continuous
 62
     7
370
    25
100
AcDbEllipse
 10
6274.0187553361
 20
4666.9256921456
 30
0.0
 11
17.5
 21
0.0
 31
0.0
210
0.0
220
0.0
230
1.0
 40
0.1583844403
 41
0.8953360099980957
 42
2.246256643591698
  0
SPLINE
  5
204
330
1F
100
AcDbEntity
  8
0
  6
Continuous
 62
     7
370
    25
100
AcDbSpline
210
0.0
220
0.0
230
1.0
 70
     8
 71
     3
 72
    10
 73
     6
 74
     0
 42
0.00000001
 43
0.00000001
 40
0.0
 40
0.0
 40
0.0
 40
0.0
 40
0.292715213364451
 40
0.590664689444858
 40
0.9999999999999999
 40
0.9999999999999999
 40
0.9999999999999999
 40
0.9999999999999999
 10
6288.846079846352
 20
4654.75128964959
 30
0.0
 10
6289.024897795995
 20
4655.329472505661
 30
0.0
 10
6289.385731274648
 20
4656.496177143928
 30
0.0
 10
6289.789343928422
 20
4658.64280797693
 30
0.0
 10
6289.85378796365
 20
4660.275673273428
 30
0.0
 10
6289.891084424245
 20
4661.220680766683
 30
0.0
  0
LINE
  5
205
330
1F
100
AcDbEntity
  8
0
  6
Continuous
 62
     7
370
    25
100
AcDbLine
 10
6289.8910844242
 20
4661.2206807667
 30
0.0
 11
6294.5767897193
 21
4661.2206807667
 31
0.0
  0
LINE
  5
206
330
1F
100
AcDbEntity
  8
0
  6
Continuous
 62
     7
370
    25
100
AcDbLine
 10
6258.146426248
 20
4661.2206807667
 30
0.0
 11
6253.4607209529
 21
4661.2206807667
 31
0.0
  0
SPLINE
  5
207
330
1F
100
AcDbEntity
  8
0
  6
Continuous
 62
     7
370
    25
100
AcDbSpline
210
0.0
220
0.0
230
1.0
 70
     8
 71
     3
 72
    10
 73
     6
 74
     0
 42
0.00000001
 43
0.00000001
 40
0.0
 40
0.0
 40
0.0
 40
0.0
 40
0.2870270635642528
 40
0.5865446138018543
 40
1.0
 40
1.0
 40
1.0
 40
1.0
 10
6258.146426247956
 20
4661.220680766683
 30
0.0
 10
6258.165218306689
 20
4660.558357812565
 30
0.0
 10
6258.203620193589
 20
4659.204889757981
 30
0.0
 10
6258.522802234009
 20
4656.994863037574
 30
0.0
 10
6258.946010778157
 20
4655.574793003469
 30
0.0
 10
6259.191430825848
 20
4654.75128964959
 30
0.0
  0
LINE
  5
208
330
1F
100
AcDbEntity
  8
0
  6
Continuous
 62
     7
370
    25
100
AcDbLine
 10
6262.5921517604
 20
4654.7512896496
 30
0.0
 11
6259.1914308258
 21
4654.7512896496
 31
0.0
  0
ARC
  5
209
330
1F
100
AcDbEntity
  8
0
  6
Continuous
 62
     7
370
    25
100
AcDbCircle
 10
6274.0187553361
 20
4661.2206807667
 30
0.0
 40
13.13089070482761
100
AcDbArc
 50
209.5172032564
 51
330.4827967436
  0
LINE
  5
20A
330
1F
100
AcDbEntity
  8
0
  6
Continuous
 62
     7
370
    25
100
AcDbLine
 10
6288.8460798464
 20
4654.7512896496
 30
0.0
 11
6285.4453589118
 21
4654.7512896496
 31
0.0
  0
ELLIPSE
  5
20B
330
1F
100
AcDbEntity
  8
0
  6
Continuous
 62
     7
370
    25
100
AcDbEllipse
 10
6300.1836280329
 20
4654.6764481763
 30
0.0
 11
0.0
 21
36.00000000000091
 31
0.0
210
0.0
220
0.0
230
1.0
 40
0.1583844403
 41
1.218205145370369
 42
1.387995708238172
  0
ELLIPSE
  5
20C
330
1F
100
AcDbEntity
  8
0
  6
Continuous
 62
     7
370
    25
100
AcDbEllipse
 10
6247.8538826393
 20
4654.6764481763
 30
0.0
 11
0.0
 21
36.00000000000091
 31
0.0
210
0.0
220
0.0
230
1.0
 40
0.1583844403
 41
4.895189598941466
 42
5.064980161809257
  0
LINE
  5
20D
330
1F
100
AcDbEntity
  8
0
  6
Continuous
 62
     7
370
    25
100
AcDbLine
 10
6289.8910844242
 20
4661.2206807667
 30
0.0
 11
6289.8910844242
 21
4662.1668798113
 31
0.0
  0
LINE
  5
20E
330
1F
100
AcDbEntity
  8
0
  6
Continuous
 62
     7
370
    25
100
AcDbLine
 10
6258.146426248
 20
4662.1668798113
 30
0.0
 11
6258.146426248
 21
4661.2206807667
 31
0.0
  0
ARC
  5
20F
330
1F
100
AcDbEntity
  8
0
  6
Continuous
 62
     7
370
    25
100
AcDbCircle
 10
6274.0187553361
 20
4661.2206807667
 30
0.0
 40
7.204760661256447
100
AcDbArc
 50
243.887663198
 51
296.112336802
  0
SPLINE
  5
210
330
1F
100
AcDbEntity
  8
0
  6
Continuous
 62
     7
370
    25
100
AcDbSpline
210
0.0
220
0.0
230
1.0
 70
    24
 71
     3
 72
    12
 73
     8
 74
     0
 42
0.00000001
 43
0.00000001
 40
0.0
 40
0.0
 40
0.0
 40
0.0
 40
0.2142239585786295
 40
0.4269875082543892
 40
0.6286882673390547
 40
0.831431402365436
 40
1.0
 40
1.0
 40
1.0
 40
1.0
 10
6277.189804809076
 20
4654.75128964959
 30
0.0
 10
6277.943703697597
 20
4654.75128964959
 30
0.0
 10
6279.446361990445
 20
4654.75128964959
 30
0.0
 10
6281.625455680944
 20
4654.75128964959
 30
0.0
 10
6283.530379289146
 20
4654.75128964959
 30
0.0
 10
6284.915844905636
 20
4654.75128964959
 30
0.0
 10
6285.280027025383
 20
4654.75128964959
 30
0.0
 10
6285.4453589118
 20
4654.75128964959
 30
0.0
  0
SPLINE
  5
211
330
1F
100
AcDbEntity
  8
0
  6
Continuous
 62
     7
370
    25
100
AcDbSpline
210
0.0
220
0.0
230
1.0
 70
    24
 71
     3
 72
    12
 73
     8
 74
     0
 42
0.00000001
 43
0.00000001
 40
0.0
 40
0.0
 40
0.0
 40
0.0
 40
0.1752824054960289
 40
0.3502118580826996
 40
0.5342825663975382
 40
0.8079776563703283
 40
1.0
 40
1.0
 40
1.0
 40
1.0
 10
6262.592151760401
 20
4654.751289649589
 30
0.0
 10
6262.766082670913
 20
4654.751289649589
 30
0.0
 10
6263.113594260431
 20
4654.751289649591
 30
0.0
 10
6264.373334021774
 20
4654.75128964959
 30
0.0
 10
6266.26617992417
 20
4654.75128964959
 30
0.0
 10
6268.53563078673
 20
4654.75128964959
 30
0.0
 10
6270.172712362373
 20
4654.75128964959
 30
0.0
 10
6270.847705863124
 20
4654.75128964959
 30
0.0
  0
LINE
  5
212
330
1F
100
AcDbEntity
  8
0
  6
Continuous
 62
     7
370
    25
100
AcDbLine
 10
6270.8477058631
 20
4654.7512896496
 30
0.0
 11
6277.1898048091
 21
4654.7512896496
 31
0.0
  0
LINE
  5
213
330
1F
100
AcDbEntity
  8
0
  6
Continuous
 62
     8
370
    25
100
AcDbLine
 10
6211.6529683562
 20
4493.7056861171
 30
0.0
 11
6211.6529683562
 21
4495.13339384
 31
0.0
  0
LINE
  5
214
330
1F
100
AcDbEntity
  8
0
  6
Continuous
 62
     8
370
    25
100
AcDbLine
 10
6336.384542316
 20
4493.7056861171
 30
0.0
 11
6336.384542316
 21
4495.13339384
 31
0.0
  0
LINE
  5
215
330
1F
100
AcDbEntity
  8
0
  6
Continuous
 62
     8
370
    25
100
AcDbLine
 10
6211.6529683559
 20
4593.3833784959
 30
0.0
 11
6211.6529683538
 21
4547.7233130809
 31
0.0
  0
LINE
  5
216
330
1F
100
AcDbEntity
  8
0
  6
Continuous
 62
     8
370
    25
100
AcDbLine
 10
6336.384542316
 20
4596.4596179828
 30
0.0
 11
6336.384542316
 21
4547.7233130809
 31
0.0
  0
ENDSEC
  0
SECTION
  2
OBJECTS
  0
DICTIONARY
  5
C
330
0
100
AcDbDictionary
281
     1
  3
ACAD_GROUP
350
D
  3
ACAD_LAYOUT
350
1A
  3
ACAD_MLINESTYLE
350
17
  3
ACAD_PLOTSETTINGS
350
19
  3
ACAD_PLOTSTYLENAME
350
E
  3
ACAD_SCALELIST
350
47
  3
DWGPROPS
350
217
  0
DICTIONARY
  5
D
102
{ACAD_REACTORS
330
C
102
}
330
C
100
AcDbDictionary
281
     1
  0
DICTIONARY
  5
1A
102
{ACAD_REACTORS
330
C
102
}
330
C
100
AcDbDictionary
281
     1
  3
Layout1
350
1E
  3
Layout2
350
26
  3
Model
350
22
  0
DICTIONARY
  5
17
102
{ACAD_REACTORS
330
C
102
}
330
C
100
AcDbDictionary
281
     1
  3
Standard
350
18
  0
DICTIONARY
  5
19
102
{ACAD_REACTORS
330
C
102
}
330
C
100
AcDbDictionary
281
     1
  0
ACDBDICTIONARYWDFLT
  5
E
102
{ACAD_REACTORS
330
C
102
}
330
C
100
AcDbDictionary
281
     1
  3
Normal
350
F
100
AcDbDictionaryWithDefault
340
F
  0
DICTIONARY
  5
47
102
{ACAD_REACTORS
330
C
102
}
330
C
100
AcDbDictionary
281
     1
  3
A0
350
48
  3
A1
350
49
  3
A2
350
4A
  3
A3
350
4B
  3
A4
350
4C
  3
A5
350
4D
  3
A6
350
4E
  3
A7
350
4F
  3
A8
350
50
  3
A9
350
51
  3
B0
350
52
  3
B1
350
53
  3
B2
350
54
  3
B3
350
55
  3
B4
350
56
  3
B5
350
57
  3
B6
350
58
  3
B7
350
59
  3
B8
350
5A
  3
B9
350
5B
  3
C0
350
5C
  3
C1
350
5D
  3
C2
350
5E
  3
C3
350
5F
  3
C4
350
60
  3
C5
350
61
  3
C6
350
62
  3
C7
350
63
  3
C8
350
64
  3
C9
350
65
  3
D0
350
66
  3
D1
350
67
  3
D2
350
68
  0
XRECORD
  5
217
102
{ACAD_REACTORS
330
C
102
}
330
C
100
AcDbXrecord
280
     1
  1
DWGPROPS COOKIE
  2

  3

  4

  6

  7

  8
radek.stransky
  9

300
=
301
=
302
=
303
=
304
=
305
=
306
=
307
=
308
=
309
=
 40
0.0
 41
2460369.384613449
 42
2460369.384614306
  1

 90
        0
  0
LAYOUT
  5
1E
102
{ACAD_REACTORS
330
1A
102
}
330
1A
100
AcDbPlotSettings
  1

  2
none_device
  4

  6

 40
0.0
 41
0.0
 42
0.0
 43
0.0
 44
0.0
 45
0.0
 46
0.0
 47
0.0
 48
0.0
 49
0.0
140
0.0
141
0.0
142
1.0
143
1.0
 70
   688
 72
     1
 73
     0
 74
     5
  7

 75
    16
147
1.0
148
0.0
149
0.0
100
AcDbLayout
  1
Layout1
 70
     1
 71
     1
 10
0.0
 20
0.0
 11
420.0
 21
297.0
 12
0.0
 22
0.0
 32
0.0
 14
1.0000000000E+20
 24
1.0000000000E+20
 34
1.0000000000E+20
 15
-1.0000000000E+20
 25
-1.0000000000E+20
 35
-1.0000000000E+20
146
0.0
 13
0.0
 23
0.0
 33
0.0
 16
1.0
 26
0.0
 36
0.0
 17
0.0
 27
1.0
 37
0.0
 76
     0
330
1B
  0
LAYOUT
  5
26
102
{ACAD_REACTORS
330
1A
102
}
330
1A
100
AcDbPlotSettings
  1

  2
none_device
  4

  6

 40
0.0
 41
0.0
 42
0.0
 43
0.0
 44
0.0
 45
0.0
 46
0.0
 47
0.0
 48
0.0
 49
0.0
140
0.0
141
0.0
142
1.0
143
1.0
 70
   688
 72
     1
 73
     0
 74
     5
  7

 75
    16
147
1.0
148
0.0
149
0.0
100
AcDbLayout
  1
Layout2
 70
     1
 71
     2
 10
0.0
 20
0.0
 11
0.0
 21
0.0
 12
0.0
 22
0.0
 32
0.0
 14
0.0
 24
0.0
 34
0.0
 15
0.0
 25
0.0
 35
0.0
146
0.0
 13
0.0
 23
0.0
 33
0.0
 16
1.0
 26
0.0
 36
0.0
 17
0.0
 27
1.0
 37
0.0
 76
     0
330
23
  0
LAYOUT
  5
22
102
{ACAD_REACTORS
330
1A
102
}
330
1A
100
AcDbPlotSettings
  1

  2
none_device
  4
Letter_(8.50_x_11.00_Inches)
  6

 40
6.35
 41
6.35
 42
6.35000508
 43
6.35000508
 44
215.9
 45
279.4
 46
0.0
 47
0.0
 48
0.0
 49
0.0
140
0.0
141
0.0
142
1.0
143
1.0
 70
  1712
 72
     1
 73
     0
 74
     0
  7

 75
     0
147
1.0
148
0.0
149
0.0
100
AcDbLayout
  1
Model
 70
     1
 71
     0
 10
0.0
 20
0.0
 11
20000.0
 21
10000.0
 12
0.0
 22
0.0
 32
0.0
 14
0.0
 24
0.0
 34
0.0
 15
20000.0
 25
10000.0
 35
0.0
146
0.0
 13
0.0
 23
0.0
 33
0.0
 16
1.0
 26
0.0
 36
0.0
 17
0.0
 27
1.0
 37
0.0
 76
     0
330
1F
331
29
  0
MLINESTYLE
  5
18
102
{ACAD_REACTORS
330
17
102
}
330
17
100
AcDbMlineStyle
  2
Standard
 70
     0
  3

 62
   256
 51
90.0
 52
90.0
 71
     2
 49
0.5
 62
   256
  6
BYLAYER
 49
-0.5
 62
   256
  6
BYLAYER
  0
ACDBPLACEHOLDER
  5
F
102
{ACAD_REACTORS
330
E
102
}
330
E
  0
SCALE
  5
48
102
{ACAD_REACTORS
330
47
102
}
330
47
100
AcDbScale
 70
     0
300
1:1
140
1.0
141
1.0
290
     1
  0
SCALE
  5
49
102
{ACAD_REACTORS
330
47
102
}
330
47
100
AcDbScale
 70
     0
300
1:2
140
1.0
141
2.0
290
     0
  0
SCALE
  5
4A
102
{ACAD_REACTORS
330
47
102
}
330
47
100
AcDbScale
 70
     0
300
1:4
140
1.0
141
4.0
290
     0
  0
SCALE
  5
4B
102
{ACAD_REACTORS
330
47
102
}
330
47
100
AcDbScale
 70
     0
300
1:5
140
1.0
141
5.0
290
     0
  0
SCALE
  5
4C
102
{ACAD_REACTORS
330
47
102
}
330
47
100
AcDbScale
 70
     0
300
1:8
140
1.0
141
8.0
290
     0
  0
SCALE
  5
4D
102
{ACAD_REACTORS
330
47
102
}
330
47
100
AcDbScale
 70
     0
300
1:10
140
1.0
141
10.0
290
     0
  0
SCALE
  5
4E
102
{ACAD_REACTORS
330
47
102
}
330
47
100
AcDbScale
 70
     0
300
1:16
140
1.0
141
16.0
290
     0
  0
SCALE
  5
4F
102
{ACAD_REACTORS
330
47
102
}
330
47
100
AcDbScale
 70
     0
300
1:20
140
1.0
141
20.0
290
     0
  0
SCALE
  5
50
102
{ACAD_REACTORS
330
47
102
}
330
47
100
AcDbScale
 70
     0
300
1:30
140
1.0
141
30.0
290
     0
  0
SCALE
  5
51
102
{ACAD_REACTORS
330
47
102
}
330
47
100
AcDbScale
 70
     0
300
1:40
140
1.0
141
40.0
290
     0
  0
SCALE
  5
52
102
{ACAD_REACTORS
330
47
102
}
330
47
100
AcDbScale
 70
     0
300
1:50
140
1.0
141
50.0
290
     0
  0
SCALE
  5
53
102
{ACAD_REACTORS
330
47
102
}
330
47
100
AcDbScale
 70
     0
300
1:100
140
1.0
141
100.0
290
     0
  0
SCALE
  5
54
102
{ACAD_REACTORS
330
47
102
}
330
47
100
AcDbScale
 70
     0
300
2:1
140
2.0
141
1.0
290
     0
  0
SCALE
  5
55
102
{ACAD_REACTORS
330
47
102
}
330
47
100
AcDbScale
 70
     0
300
4:1
140
4.0
141
1.0
290
     0
  0
SCALE
  5
56
102
{ACAD_REACTORS
330
47
102
}
330
47
100
AcDbScale
 70
     0
300
8:1
140
8.0
141
1.0
290
     0
  0
SCALE
  5
57
102
{ACAD_REACTORS
330
47
102
}
330
47
100
AcDbScale
 70
     0
300
10:1
140
10.0
141
1.0
290
     0
  0
SCALE
  5
58
102
{ACAD_REACTORS
330
47
102
}
330
47
100
AcDbScale
 70
     0
300
100:1
140
100.0
141
1.0
290
     0
  0
SCALE
  5
59
102
{ACAD_REACTORS
330
47
102
}
330
47
100
AcDbScale
 70
     0
300
1/128" = 1'-0"
140
0.0078125
141
12.0
290
     0
  0
SCALE
  5
5A
102
{ACAD_REACTORS
330
47
102
}
330
47
100
AcDbScale
 70
     0
300
1/64" = 1'-0"
140
0.015625
141
12.0
290
     0
  0
SCALE
  5
5B
102
{ACAD_REACTORS
330
47
102
}
330
47
100
AcDbScale
 70
     0
300
1/32" = 1'-0"
140
0.03125
141
12.0
290
     0
  0
SCALE
  5
5C
102
{ACAD_REACTORS
330
47
102
}
330
47
100
AcDbScale
 70
     0
300
1/16" = 1'-0"
140
0.0625
141
12.0
290
     0
  0
SCALE
  5
5D
102
{ACAD_REACTORS
330
47
102
}
330
47
100
AcDbScale
 70
     0
300
3/32" = 1'-0"
140
0.09375
141
12.0
290
     0
  0
SCALE
  5
5E
102
{ACAD_REACTORS
330
47
102
}
330
47
100
AcDbScale
 70
     0
300
1/8" = 1'-0"
140
0.125
141
12.0
290
     0
  0
SCALE
  5
5F
102
{ACAD_REACTORS
330
47
102
}
330
47
100
AcDbScale
 70
     0
300
3/16" = 1'-0"
140
0.1875
141
12.0
290
     0
  0
SCALE
  5
60
102
{ACAD_REACTORS
330
47
102
}
330
47
100
AcDbScale
 70
     0
300
1/4" = 1'-0"
140
0.25
141
12.0
290
     0
  0
SCALE
  5
61
102
{ACAD_REACTORS
330
47
102
}
330
47
100
AcDbScale
 70
     0
300
3/8" = 1'-0"
140
0.375
141
12.0
290
     0
  0
SCALE
  5
62
102
{ACAD_REACTORS
330
47
102
}
330
47
100
AcDbScale
 70
     0
300
1/2" = 1'-0"
140
0.5
141
12.0
290
     0
  0
SCALE
  5
63
102
{ACAD_REACTORS
330
47
102
}
330
47
100
AcDbScale
 70
     0
300
3/4" = 1'-0"
140
0.75
141
12.0
290
     0
  0
SCALE
  5
64
102
{ACAD_REACTORS
330
47
102
}
330
47
100
AcDbScale
 70
     0
300
1" = 1'-0"
140
1.0
141
12.0
290
     0
  0
SCALE
  5
65
102
{ACAD_REACTORS
330
47
102
}
330
47
100
AcDbScale
 70
     0
300
1-1/2" = 1'-0"
140
1.5
141
12.0
290
     0
  0
SCALE
  5
66
102
{ACAD_REACTORS
330
47
102
}
330
47
100
AcDbScale
 70
     0
300
3" = 1'-0"
140
3.0
141
12.0
290
     0
  0
SCALE
  5
67
102
{ACAD_REACTORS
330
47
102
}
330
47
100
AcDbScale
 70
     0
300
6" = 1'-0"
140
6.0
141
12.0
290
     0
  0
SCALE
  5
68
102
{ACAD_REACTORS
330
47
102
}
330
47
100
AcDbScale
 70
     0
300
1'-0" = 1'-0"
140
12.0
141
12.0
290
     0
  0
ENDSEC
  0
EOF
