  0
SECTION
  2
HEADER
  9
$ACADVER
  1
AC1015
  9
$ACADMAINTVER
 70
     6
  9
$DWGCODEPAGE
  3
ANSI_1250
  9
$INSBASE
 10
0.0
 20
0.0
 30
0.0
  9
$EXTMIN
 10
809.5398001937
 20
2554.0739112301
 30
0.0
  9
$EXTMAX
 10
3959.3804304263
 20
4421.5115718037
 30
0.0
  9
$LIMMIN
 10
0.0
 20
0.0
  9
$LIMMAX
 10
420.0
 20
297.0
  9
$ORTHOMODE
 70
     0
  9
$REGENMODE
 70
     1
  9
$FILLMODE
 70
     1
  9
$QTEXTMODE
 70
     0
  9
$MIRRTEXT
 70
     1
  9
$LTSCALE
 40
1.0
  9
$ATTMODE
 70
     1
  9
$TEXTSIZE
 40
3.5
  9
$TRACEWID
 40
1.0
  9
$TEXTSTYLE
  7
Standard
  9
$CLAYER
  8
0
  9
$CELTYPE
  6
ByLayer
  9
$CECOLOR
 62
   256
  9
$CELTSCALE
 40
1.0
  9
$DISPSILH
 70
     0
  9
$DIMSCALE
 40
1.0
  9
$DIMASZ
 40
3.302
  9
$DIMEXO
 40
0.0
  9
$DIMDLI
 40
3.75
  9
$DIMRND
 40
0.0
  9
$DIMDLE
 40
0.0
  9
$DIMEXE
 40
1.0
  9
$DIMTP
 40
0.0
  9
$DIMTM
 40
0.0
  9
$DIMTXT
 40
3.5
  9
$DIMCEN
 40
2.5
  9
$DIMTSZ
 40
0.0
  9
$DIMTOL
 70
     0
  9
$DIMLIM
 70
     0
  9
$DIMTIH
 70
     1
  9
$DIMTOH
 70
     1
  9
$DIMSE1
 70
     0
  9
$DIMSE2
 70
     0
  9
$DIMTAD
 70
     1
  9
$DIMZIN
 70
     0
  9
$DIMBLK
  1

  9
$DIMASO
 70
     1
  9
$DIMSHO
 70
     1
  9
$DIMPOST
  1

  9
$DIMAPOST
  1

  9
$DIMALT
 70
     0
  9
$DIMALTD
 70
     3
  9
$DIMALTF
 40
0.0393700787
  9
$DIMLFAC
 40
1.0
  9
$DIMTOFL
 70
     1
  9
$DIMTVP
 40
0.0
  9
$DIMTIX
 70
     0
  9
$DIMSOXD
 70
     0
  9
$DIMSAH
 70
     0
  9
$DIMBLK1
  1

  9
$DIMBLK2
  1

  9
$DIMSTYLE
  2
ISO-25
  9
$DIMCLRD
 70
     0
  9
$DIMCLRE
 70
     0
  9
$DIMCLRT
 70
     0
  9
$DIMTFAC
 40
1.0
  9
$DIMGAP
 40
1.524
  9
$DIMJUST
 70
     0
  9
$DIMSD1
 70
     0
  9
$DIMSD2
 70
     0
  9
$DIMTOLJ
 70
     0
  9
$DIMTZIN
 70
     0
  9
$DIMALTZ
 70
     0
  9
$DIMALTTZ
 70
     0
  9
$DIMUPT
 70
     0
  9
$DIMDEC
 70
     2
  9
$DIMTDEC
 70
     2
  9
$DIMALTU
 70
     2
  9
$DIMALTTD
 70
     3
  9
$DIMTXSTY
  7
Standard
  9
$DIMAUNIT
 70
     0
  9
$DIMADEC
 70
     2
  9
$DIMALTRND
 40
0.0
  9
$DIMAZIN
 70
     0
  9
$DIMDSEP
 70
    44
  9
$DIMATFIT
 70
     3
  9
$DIMFRAC
 70
     0
  9
$DIMLDRBLK
  1

  9
$DIMLUNIT
 70
     2
  9
$DIMLWD
 70
    -2
  9
$DIMLWE
 70
    -2
  9
$DIMTMOVE
 70
     0
  9
$LUNITS
 70
     2
  9
$LUPREC
 70
     2
  9
$SKETCHINC
 40
1.0
  9
$FILLETRAD
 40
10.0
  9
$AUNITS
 70
     0
  9
$AUPREC
 70
     2
  9
$MENU
  1
.
  9
$ELEVATION
 40
0.0
  9
$PELEVATION
 40
0.0
  9
$THICKNESS
 40
0.0
  9
$LIMCHECK
 70
     0
  9
$CHAMFERA
 40
0.0
  9
$CHAMFERB
 40
0.0
  9
$CHAMFERC
 40
0.0
  9
$CHAMFERD
 40
0.0
  9
$SKPOLY
 70
     0
  9
$TDCREATE
 40
2459094.37127022
  9
$TDUCREATE
 40
2459094.287936887
  9
$TDUPDATE
 40
2459094.371311134
  9
$TDUUPDATE
 40
2459094.287977801
  9
$TDINDWG
 40
0.0000000116
  9
$TDUSRTIMER
 40
0.0000000116
  9
$USRTIMER
 70
     1
  9
$ANGBASE
 50
0.0
  9
$ANGDIR
 70
     0
  9
$PDMODE
 70
     0
  9
$PDSIZE
 40
-1.0
  9
$PLINEWID
 40
0.0
  9
$SPLFRAME
 70
     0
  9
$SPLINETYPE
 70
     6
  9
$SPLINESEGS
 70
     8
  9
$HANDSEED
  5
1CF
  9
$SURFTAB1
 70
     6
  9
$SURFTAB2
 70
     6
  9
$SURFTYPE
 70
     6
  9
$SURFU
 70
     6
  9
$SURFV
 70
     6
  9
$UCSBASE
  2

  9
$UCSNAME
  2

  9
$UCSORG
 10
0.0
 20
0.0
 30
0.0
  9
$UCSXDIR
 10
1.0
 20
0.0
 30
0.0
  9
$UCSYDIR
 10
0.0
 20
1.0
 30
0.0
  9
$UCSORTHOREF
  2

  9
$UCSORTHOVIEW
 70
     0
  9
$UCSORGTOP
 10
0.0
 20
0.0
 30
0.0
  9
$UCSORGBOTTOM
 10
0.0
 20
0.0
 30
0.0
  9
$UCSORGLEFT
 10
0.0
 20
0.0
 30
0.0
  9
$UCSORGRIGHT
 10
0.0
 20
0.0
 30
0.0
  9
$UCSORGFRONT
 10
0.0
 20
0.0
 30
0.0
  9
$UCSORGBACK
 10
0.0
 20
0.0
 30
0.0
  9
$PUCSBASE
  2

  9
$PUCSNAME
  2

  9
$PUCSORG
 10
0.0
 20
0.0
 30
0.0
  9
$PUCSXDIR
 10
1.0
 20
0.0
 30
0.0
  9
$PUCSYDIR
 10
0.0
 20
1.0
 30
0.0
  9
$PUCSORTHOREF
  2

  9
$PUCSORTHOVIEW
 70
     0
  9
$PUCSORGTOP
 10
0.0
 20
0.0
 30
0.0
  9
$PUCSORGBOTTOM
 10
0.0
 20
0.0
 30
0.0
  9
$PUCSORGLEFT
 10
0.0
 20
0.0
 30
0.0
  9
$PUCSORGRIGHT
 10
0.0
 20
0.0
 30
0.0
  9
$PUCSORGFRONT
 10
0.0
 20
0.0
 30
0.0
  9
$PUCSORGBACK
 10
0.0
 20
0.0
 30
0.0
  9
$USERI1
 70
     0
  9
$USERI2
 70
     0
  9
$USERI3
 70
     0
  9
$USERI4
 70
     0
  9
$USERI5
 70
     0
  9
$USERR1
 40
0.0
  9
$USERR2
 40
0.0
  9
$USERR3
 40
0.0
  9
$USERR4
 40
0.0
  9
$USERR5
 40
0.0
  9
$WORLDVIEW
 70
     1
  9
$SHADEDGE
 70
     3
  9
$SHADEDIF
 70
    70
  9
$TILEMODE
 70
     1
  9
$MAXACTVP
 70
    64
  9
$PINSBASE
 10
0.0
 20
0.0
 30
0.0
  9
$PLIMCHECK
 70
     0
  9
$PEXTMIN
 10
1.0000000000E+20
 20
1.0000000000E+20
 30
1.0000000000E+20
  9
$PEXTMAX
 10
-1.0000000000E+20
 20
-1.0000000000E+20
 30
-1.0000000000E+20
  9
$PLIMMIN
 10
0.0
 20
0.0
  9
$PLIMMAX
 10
420.0
 20
297.0
  9
$UNITMODE
 70
     0
  9
$VISRETAIN
 70
     1
  9
$PLINEGEN
 70
     0
  9
$PSLTSCALE
 70
     1
  9
$TREEDEPTH
 70
  3020
  9
$CMLSTYLE
  2
Standard
  9
$CMLJUST
 70
     0
  9
$CMLSCALE
 40
20.0
  9
$PROXYGRAPHICS
 70
     1
  9
$MEASUREMENT
 70
     1
  9
$CELWEIGHT
370
    -1
  9
$ENDCAPS
280
     0
  9
$JOINSTYLE
280
     0
  9
$LWDISPLAY
290
     1
  9
$INSUNITS
 70
     4
  9
$HYPERLINKBASE
  1

  9
$STYLESHEET
  1

  9
$XEDIT
290
     1
  9
$CEPSNTYPE
380
     0
  9
$PSTYLEMODE
290
     1
  9
$FINGERPRINTGUID
  2
{086d4c72-bdcc-4791-ac6c-a3fe833528d2}
  9
$VERSIONGUID
  2
{FAEB1C32-E019-11D5-929B-00C0DF256EC4}
  9
$EXTNAMES
290
     1
  9
$PSVPSCALE
 40
0.0
  9
$OLESTARTUP
290
     0
  0
ENDSEC
  0
SECTION
  2
CLASSES
  0
CLASS
  1
ACDBDICTIONARYWDFLT
  2
AcDbDictionaryWithDefault
  3
ObjectDBX Classes
 90
        0
280
     0
281
     0
  0
CLASS
  1
VISUALSTYLE
  2
AcDbVisualStyle
  3
ObjectDBX Classes
 90
     4095
280
     0
281
     0
  0
CLASS
  1
MATERIAL
  2
AcDbMaterial
  3
ObjectDBX Classes
 90
     1153
280
     0
281
     0
  0
CLASS
  1
SCALE
  2
AcDbScale
  3
ObjectDBX Classes
 90
     1153
280
     0
281
     0
  0
CLASS
  1
TABLESTYLE
  2
AcDbTableStyle
  3
ObjectDBX Classes
 90
     4095
280
     0
281
     0
  0
CLASS
  1
MLEADERSTYLE
  2
AcDbMLeaderStyle
  3
ACDB_MLEADERSTYLE_CLASS
 90
     4095
280
     0
281
     0
  0
CLASS
  1
SUN
  2
AcDbSun
  3
SCENEOE
 90
     1153
280
     0
281
     0
  0
CLASS
  1
ACDBPLACEHOLDER
  2
AcDbPlaceHolder
  3
ObjectDBX Classes
 90
        0
280
     0
281
     0
  0
CLASS
  1
LAYOUT
  2
AcDbLayout
  3
ObjectDBX Classes
 90
        0
280
     0
281
     0
  0
ENDSEC
  0
SECTION
  2
TABLES
  0
TABLE
  2
VPORT
  5
8
330
0
100
AcDbSymbolTable
 70
     1
  0
VPORT
  5
29
330
8
100
AcDbSymbolTableRecord
100
AcDbViewportTableRecord
  2
*Active
 70
     0
 10
0.0
 20
0.0
 11
1.0
 21
1.0
 12
2384.46011531
 22
3487.7927415169
 13
0.0
 23
0.0
 14
10.0
 24
10.0
 15
10.0
 25
10.0
 16
0.0
 26
0.0
 36
1.0
 17
0.0
 27
0.0
 37
0.0
 40
1904.7864137851
 41
1.6867179541
 42
50.0
 43
0.0
 44
0.0
 50
0.0
 51
0.0
 71
     0
 72
   100
 73
     1
 74
     3
 75
     0
 76
     0
 77
     0
 78
     0
281
     0
 65
     1
110
0.0
120
0.0
130
0.0
111
1.0
121
0.0
131
0.0
112
0.0
122
1.0
132
0.0
 79
     0
146
0.0
  0
ENDTAB
  0
TABLE
  2
LTYPE
  5
5
330
0
100
AcDbSymbolTable
 70
     6
  0
LTYPE
  5
14
330
5
100
AcDbSymbolTableRecord
100
AcDbLinetypeTableRecord
  2
ByBlock
 70
     0
  3

 72
    65
 73
     0
 40
0.0
  0
LTYPE
  5
15
330
5
100
AcDbSymbolTableRecord
100
AcDbLinetypeTableRecord
  2
ByLayer
 70
     0
  3

 72
    65
 73
     0
 40
0.0
  0
LTYPE
  5
16
330
5
100
AcDbSymbolTableRecord
100
AcDbLinetypeTableRecord
  2
Continuous
 70
     0
  3
Solid line
 72
    65
 73
     0
 40
0.0
  0
LTYPE
  5
6E
330
5
100
AcDbSymbolTableRecord
100
AcDbLinetypeTableRecord
  2
HIDDEN
 70
     0
  3
Hidden __ __ __ __ __ __ __ __ __ __ __ __ __ __
 72
    65
 73
     2
 40
1.905
 49
1.27
 74
     0
 49
-0.635
 74
     0
  0
LTYPE
  5
6F
330
5
100
AcDbSymbolTableRecord
100
AcDbLinetypeTableRecord
  2
PHANTOM
 70
     0
  3
Phantom ______  __  __  ______  __  __  ______
 72
    65
 73
     6
 40
12.7
 49
6.35
 74
     0
 49
-1.27
 74
     0
 49
1.27
 74
     0
 49
-1.27
 74
     0
 49
1.27
 74
     0
 49
-1.27
 74
     0
  0
LTYPE
  5
70
330
5
100
AcDbSymbolTableRecord
100
AcDbLinetypeTableRecord
  2
CENTER
 70
     0
  3
Center ____ _ ____ _ ____ _ ____ _ ____ _ ____
 72
    65
 73
     4
 40
10.16
 49
6.35
 74
     0
 49
-1.27
 74
     0
 49
1.27
 74
     0
 49
-1.27
 74
     0
  0
LTYPE
  5
71
330
5
100
AcDbSymbolTableRecord
100
AcDbLinetypeTableRecord
  2
CENTERX2
 70
     0
  3
Center (2x) ________  __  ________  __  _____
 72
    65
 73
     4
 40
20.32
 49
12.7
 74
     0
 49
-2.54
 74
     0
 49
2.54
 74
     0
 49
-2.54
 74
     0
  0
LTYPE
  5
72
330
5
100
AcDbSymbolTableRecord
100
AcDbLinetypeTableRecord
  2
DOT2
 70
     0
  3
Dot (.5x) ........................................
 72
    65
 73
     2
 40
0.635
 49
0.0
 74
     0
 49
-0.635
 74
     0
  0
ENDTAB
  0
TABLE
  2
LAYER
  5
2
330
0
100
AcDbSymbolTable
 70
     1
  0
LAYER
  5
10
330
2
100
AcDbSymbolTableRecord
100
AcDbLayerTableRecord
  2
0
 70
     0
 62
     7
  6
Continuous
370
    -3
390
F
  0
ENDTAB
  0
TABLE
  2
STYLE
  5
3
330
0
100
AcDbSymbolTable
 70
     1
  0
STYLE
  5
11
330
3
100
AcDbSymbolTableRecord
100
AcDbTextStyleTableRecord
  2
Standard
 70
     0
 40
0.0
 41
1.0
 50
0.0
 71
     0
 42
3.5
  3
txt
  4

  0
ENDTAB
  0
TABLE
  2
VIEW
  5
6
330
0
100
AcDbSymbolTable
 70
     0
  0
ENDTAB
  0
TABLE
  2
UCS
  5
7
330
0
100
AcDbSymbolTable
 70
     0
  0
ENDTAB
  0
TABLE
  2
APPID
  5
9
330
0
100
AcDbSymbolTable
 70
     1
  0
APPID
  5
12
330
9
100
AcDbSymbolTableRecord
100
AcDbRegAppTableRecord
  2
ACAD
 70
     0
  0
ENDTAB
  0
TABLE
  2
DIMSTYLE
  5
A
330
0
100
AcDbSymbolTable
 70
     1
100
AcDbDimStyleTable
  0
DIMSTYLE
105
27
330
A
100
AcDbSymbolTableRecord
100
AcDbDimStyleTableRecord
  2
ISO-25
 70
     0
 41
2.5
 42
0.625
 43
3.75
 44
1.25
 73
     0
 74
     0
 77
     1
 78
     8
140
2.5
141
2.5
143
0.0393700787
147
0.625
171
     3
172
     1
178
     0
271
     2
272
     2
274
     3
278
    44
283
     0
284
     8
340
11
  0
ENDTAB
  0
TABLE
  2
BLOCK_RECORD
  5
1
330
0
100
AcDbSymbolTable
 70
     1
  0
BLOCK_RECORD
  5
1F
330
1
100
AcDbSymbolTableRecord
100
AcDbBlockTableRecord
  2
*Model_Space
340
22
  0
BLOCK_RECORD
  5
1B
330
1
100
AcDbSymbolTableRecord
100
AcDbBlockTableRecord
  2
*Paper_Space
340
1E
  0
BLOCK_RECORD
  5
23
330
1
100
AcDbSymbolTableRecord
100
AcDbBlockTableRecord
  2
*Paper_Space0
340
26
  0
ENDTAB
  0
ENDSEC
  0
SECTION
  2
BLOCKS
  0
BLOCK
  5
20
330
1F
100
AcDbEntity
  8
0
100
AcDbBlockBegin
  2
*Model_Space
 70
     0
 10
0.0
 20
0.0
 30
0.0
  3
*Model_Space
  1

  0
ENDBLK
  5
21
330
1F
100
AcDbEntity
  8
0
100
AcDbBlockEnd
  0
BLOCK
  5
1C
330
1B
100
AcDbEntity
 67
     1
  8
0
100
AcDbBlockBegin
  2
*Paper_Space
 70
     0
 10
0.0
 20
0.0
 30
0.0
  3
*Paper_Space
  1

  0
ENDBLK
  5
1D
330
1B
100
AcDbEntity
 67
     1
  8
0
100
AcDbBlockEnd
  0
BLOCK
  5
24
330
23
100
AcDbEntity
  8
0
100
AcDbBlockBegin
  2
*Paper_Space0
 70
     0
 10
0.0
 20
0.0
 30
0.0
  3
*Paper_Space0
  1

  0
ENDBLK
  5
25
330
23
100
AcDbEntity
  8
0
100
AcDbBlockEnd
  0
ENDSEC
  0
SECTION
  2
ENTITIES
  0
ARC
  5
73
330
1F
100
AcDbEntity
  8
0
  6
Continuous
 62
     7
100
AcDbCircle
 10
1979.4897167212
 20
3326.3805138702
 30
0.0
 40
7.560779376240021
100
AcDbArc
 50
28.0388921552
 51
51.7443585051
  0
ARC
  5
74
330
1F
100
AcDbEntity
  8
0
  6
Continuous
 62
     7
100
AcDbCircle
 10
2043.5965614625
 20
3326.3805138702
 30
0.0
 40
7.560779376240223
100
AcDbArc
 50
128.2628356171
 51
151.9611078448
  0
ARC
  5
75
330
1F
100
AcDbEntity
  8
0
  6
Continuous
 62
     7
100
AcDbCircle
 10
3768.2618995415
 20
3326.3805138702
 30
0.0
 40
7.560779376240424
100
AcDbArc
 50
28.0388921552
 51
50.7850988755
  0
ARC
  5
76
330
1F
100
AcDbEntity
  8
0
  6
Continuous
 62
     7
100
AcDbCircle
 10
3832.3687442828
 20
3326.3805138702
 30
0.0
 40
7.560779376240719
100
AcDbArc
 50
129.2149011245
 51
151.9611078448
  0
ARC
  5
77
330
1F
100
AcDbEntity
  8
0
  6
Continuous
 62
     7
100
AcDbCircle
 10
3716.1190005954
 20
3273.9412932465
 30
0.0
 40
28.14691151919964
100
AcDbArc
 50
235.2919507275
 51
270.0
  0
ARC
  5
78
330
1F
100
AcDbEntity
  8
0
  6
Continuous
 62
     7
100
AcDbCircle
 10
3716.1190005954
 20
3271.7376204585
 30
0.0
 40
28.14691151919915
100
AcDbArc
 50
90.0
 51
124.7080492725
  0
ARC
  5
79
330
1F
100
AcDbEntity
  8
0
  6
Continuous
 62
     7
100
AcDbCircle
 10
3716.1190005954
 20
3246.7960511764
 30
0.0
 40
1.001669449083238
100
AcDbArc
 50
270.0000000001
 51
360.0
  0
ARC
  5
7A
330
1F
100
AcDbEntity
  8
0
  6
Continuous
 62
     7
100
AcDbCircle
 10
3716.1190005954
 20
3298.8828625286
 30
0.0
 40
1.001669449082328
100
AcDbArc
 50
360.0
 51
90.0
  0
ARC
  5
7B
330
1F
100
AcDbEntity
  8
0
  6
Continuous
 62
     7
100
AcDbCircle
 10
3861.2168244163
 20
4266.7497676104
 30
0.0
 40
50.08347245409057
100
AcDbArc
 50
360.0
 51
64.5366549381
  0
ARC
  5
7C
330
1F
100
AcDbEntity
  8
0
  6
Continuous
 62
     7
100
AcDbCircle
 10
3652.3687442828
 20
4420.0090676301
 30
0.0
 40
1.502504173622128
100
AcDbArc
 50
64.5366549376
 51
180.0000000008
  0
ARC
  5
7D
330
1F
100
AcDbEntity
  8
0
  6
Continuous
 62
     7
100
AcDbCircle
 10
2011.5431390918
 20
2713.1390197448
 30
0.0
 40
18.72351354822161
100
AcDbArc
 50
192.5898336887
 51
210.9554624831
  0
ARC
  5
7E
330
1F
100
AcDbEntity
  8
0
  6
Continuous
 62
     7
100
AcDbCircle
 10
2011.5431390918
 20
2713.1390197448
 30
0.0
 40
18.72351354822188
100
AcDbArc
 50
216.4950456217
 51
330.9174379657
  0
ARC
  5
7F
330
1F
100
AcDbEntity
  8
0
  6
Continuous
 62
     7
100
AcDbCircle
 10
2011.5431390918
 20
2713.1390197448
 30
0.0
 40
18.7235135482212
100
AcDbArc
 50
336.504348451
 51
17.7544502163
  0
ARC
  5
80
330
1F
100
AcDbEntity
  8
0
  6
Continuous
 62
     7
100
AcDbCircle
 10
2011.5431390918
 20
2713.1390197448
 30
0.0
 40
18.72351354822128
100
AcDbArc
 50
162.2455497837
 51
192.5898336887
  0
ARC
  5
81
330
1F
100
AcDbEntity
  8
0
  6
Continuous
 62
     7
100
AcDbCircle
 10
2011.5431390918
 20
2713.1390197448
 30
0.0
 40
15.66713753692704
100
AcDbArc
 50
337.0053872218
 51
12.5898336888
  0
ARC
  5
82
330
1F
100
AcDbEntity
  8
0
  6
Continuous
 62
     7
100
AcDbCircle
 10
2011.5431390918
 20
2713.1390197448
 30
0.0
 40
15.66713753692086
100
AcDbArc
 50
217.0055594627
 51
330.3706826936
  0
ARC
  5
83
330
1F
100
AcDbEntity
  8
0
  6
Continuous
 62
     7
100
AcDbCircle
 10
2011.5431390918
 20
2713.1390197448
 30
0.0
 40
15.66713753692059
100
AcDbArc
 50
158.6277238438
 51
210.369997543
  0
ARC
  5
84
330
1F
100
AcDbEntity
  8
0
  6
Continuous
 62
     7
100
AcDbCircle
 10
2011.5431390918
 20
2713.1390197448
 30
0.0
 40
16.16797226146176
100
AcDbArc
 50
243.3800480263
 51
299.4069950842
  0
ARC
  5
85
330
1F
100
AcDbEntity
  8
0
  6
Continuous
 62
     7
100
AcDbCircle
 10
2011.5431390918
 20
2713.1390197448
 30
0.0
 40
16.16797226146182
100
AcDbArc
 50
183.3800480263
 51
210.4693713588
  0
ARC
  5
86
330
1F
100
AcDbEntity
  8
0
  6
Continuous
 62
     7
100
AcDbCircle
 10
2011.5431390918
 20
2713.1390197448
 30
0.0
 40
16.16797226146201
100
AcDbArc
 50
216.9064909387
 51
239.4069233123
  0
ARC
  5
87
330
1F
100
AcDbEntity
  8
0
  6
Continuous
 62
     7
100
AcDbCircle
 10
2011.5431390918
 20
2713.1390197448
 30
0.0
 40
16.16797226146164
100
AcDbArc
 50
159.3206663135
 51
179.4069233123
  0
ARC
  5
88
330
1F
100
AcDbEntity
  8
0
  6
Continuous
 62
     7
100
AcDbCircle
 10
2011.5431390918
 20
2713.1390197448
 30
0.0
 40
16.167972261462
100
AcDbArc
 50
303.3800480263
 51
330.5986720456
  0
ARC
  5
89
330
1F
100
AcDbEntity
  8
0
  6
Continuous
 62
     7
100
AcDbCircle
 10
2011.5431390918
 20
2713.1390197448
 30
0.0
 40
16.1679722614621
100
AcDbArc
 50
336.9064909388
 51
359.4069233123
  0
ARC
  5
8A
330
1F
100
AcDbEntity
  8
0
  6
Continuous
 62
     7
100
AcDbCircle
 10
2011.5431390918
 20
2713.1390197448
 30
0.0
 40
16.16797226146173
100
AcDbArc
 50
3.3800480263
 51
20.6793336865
  0
ARC
  5
8B
330
1F
100
AcDbEntity
  8
0
  6
Continuous
 62
     7
100
AcDbCircle
 10
2011.5431390918
 20
2713.1390197448
 30
0.0
 40
15.0121998202134
100
AcDbArc
 50
246.6378997228
 51
306.1886005338
  0
ARC
  5
8C
330
1F
100
AcDbEntity
  8
0
  6
Continuous
 62
     7
100
AcDbCircle
 10
2011.5431390918
 20
2713.1390197448
 30
0.0
 40
15.01219982021317
100
AcDbArc
 50
186.6378997228
 51
209.5962223049
  0
ARC
  5
8D
330
1F
100
AcDbEntity
  8
0
  6
Continuous
 62
     7
100
AcDbCircle
 10
2011.5431390918
 20
2713.1390197448
 30
0.0
 40
15.01219982021337
100
AcDbArc
 50
217.159964107
 51
246.1886005338
  0
ARC
  5
8E
330
1F
100
AcDbEntity
  8
0
  6
Continuous
 62
     7
100
AcDbCircle
 10
2011.5431390918
 20
2713.1390197448
 30
0.0
 40
15.01219982021318
100
AcDbArc
 50
157.6461806728
 51
186.1886005338
  0
ARC
  5
8F
330
1F
100
AcDbEntity
  8
0
  6
Continuous
 62
     7
100
AcDbCircle
 10
2011.5431390918
 20
2713.1390197448
 30
0.0
 40
15.01219982021349
100
AcDbArc
 50
306.6378997228
 51
330.2510383839
  0
ARC
  5
90
330
1F
100
AcDbEntity
  8
0
  6
Continuous
 62
     7
100
AcDbCircle
 10
2011.5431390918
 20
2713.1390197448
 30
0.0
 40
15.01219982021375
100
AcDbArc
 50
337.159964107
 51
6.1886005338
  0
ARC
  5
91
330
1F
100
AcDbEntity
  8
0
  6
Continuous
 62
     7
100
AcDbCircle
 10
2011.5431390918
 20
2713.1390197448
 30
0.0
 40
15.01219982021352
100
AcDbArc
 50
6.6378997228
 51
22.3538193272
  0
ARC
  5
92
330
1F
100
AcDbEntity
  8
0
  6
Continuous
 62
     7
100
AcDbCircle
 10
2011.5431390918
 20
2713.1390197448
 30
0.0
 40
12.48837185348112
100
AcDbArc
 50
337.8511822637
 51
27.2057103101
  0
ARC
  5
93
330
1F
100
AcDbEntity
  8
0
  6
Continuous
 62
     7
100
AcDbCircle
 10
2011.5431390918
 20
2713.1390197448
 30
0.0
 40
12.48837185350767
100
AcDbArc
 50
329.5719197672
 51
337.8511822637
  0
ARC
  5
94
330
1F
100
AcDbEntity
  8
0
  6
Continuous
 62
     7
100
AcDbCircle
 10
2011.5431390918
 20
2713.1390197448
 30
0.0
 40
12.48837185350767
100
AcDbArc
 50
217.8511822633
 51
329.5719197672
  0
ARC
  5
95
330
1F
100
AcDbEntity
  8
0
  6
Continuous
 62
     7
100
AcDbCircle
 10
2011.5431390918
 20
2713.1390197448
 30
0.0
 40
12.48837185347159
100
AcDbArc
 50
209.5719197668
 51
217.8511822633
  0
ARC
  5
96
330
1F
100
AcDbEntity
  8
0
  6
Continuous
 62
     7
100
AcDbCircle
 10
2011.5431390918
 20
2713.1390197448
 30
0.0
 40
12.48837185348153
100
AcDbArc
 50
152.7942896899
 51
209.5719197668
  0
ARC
  5
97
330
1F
100
AcDbEntity
  8
0
  6
Continuous
 62
     7
100
AcDbCircle
 10
2011.5431390918
 20
2713.1390197448
 30
0.0
 40
12.520868113503
100
AcDbArc
 50
209.5826822938
 51
217.8404197365
  0
ARC
  5
98
330
1F
100
AcDbEntity
  8
0
  6
Continuous
 62
     7
100
AcDbCircle
 10
2011.5431390918
 20
2713.1390197448
 30
0.0
 40
20.03338898162367
100
AcDbArc
 50
211.1323699635
 51
216.2907320668
  0
ARC
  5
99
330
1F
100
AcDbEntity
  8
0
  6
Continuous
 62
     7
100
AcDbCircle
 10
2011.5431390918
 20
2713.1390197448
 30
0.0
 40
12.52086811355242
100
AcDbArc
 50
329.5826822942
 51
337.8404197367
  0
ARC
  5
9A
330
1F
100
AcDbEntity
  8
0
  6
Continuous
 62
     7
100
AcDbCircle
 10
2011.5431390918
 20
2713.1390197448
 30
0.0
 40
20.03338898164306
100
AcDbArc
 50
331.1323699637
 51
336.290732067
  0
ARC
  5
9B
330
1F
100
AcDbEntity
  8
0
  6
Continuous
 62
     7
100
AcDbCircle
 10
2011.5431390918
 20
2713.1390197448
 30
0.0
 40
20.03338898164306
100
AcDbArc
 50
216.2907320668
 51
331.1323699637
  0
ARC
  5
9C
330
1F
100
AcDbEntity
  8
0
  6
Continuous
 62
     7
100
AcDbCircle
 10
2011.5431390918
 20
2713.1390197448
 30
0.0
 40
20.03338898163311
100
AcDbArc
 50
336.290732067
 51
16.5588485848
  0
ARC
  5
9D
330
1F
100
AcDbEntity
  8
0
  6
Continuous
 62
     7
100
AcDbCircle
 10
2011.5431390918
 20
2713.1390197448
 30
0.0
 40
20.03338898161305
100
AcDbArc
 50
163.4411514152
 51
211.1323699635
  0
ARC
  5
9E
330
1F
100
AcDbEntity
  8
0
  6
Continuous
 62
     7
100
AcDbCircle
 10
2011.5431390918
 20
2713.1390197448
 30
0.0
 40
22.03672787981263
100
AcDbArc
 50
164.983873249
 51
15.016126751
  0
ARC
  5
9F
330
1F
100
AcDbEntity
  8
0
  6
Continuous
 62
     7
100
AcDbCircle
 10
2011.5431390918
 20
2713.1390197448
 30
0.0
 40
35.05843071787135
100
AcDbArc
 50
170.4579330733
 51
9.3727740975
  0
ARC
  5
A0
330
1F
100
AcDbEntity
  8
0
  6
Continuous
 62
     7
100
AcDbCircle
 10
2005.03252926
 20
2713.1951073381
 30
0.0
 40
26.04340567612698
100
AcDbArc
 50
341.9924546756
 51
0.0
  0
ARC
  5
A1
330
1F
100
AcDbEntity
  8
0
  6
Continuous
 62
     7
100
AcDbCircle
 10
2011.5431390918
 20
2713.1390197448
 30
0.0
 40
11.60965106151379
100
AcDbArc
 50
150.5416673378
 51
29.4583326622
  0
ARC
  5
A2
330
1F
100
AcDbEntity
  8
0
  6
Continuous
 62
     7
100
AcDbCircle
 10
2011.5431390918
 20
2713.1390197448
 30
0.0
 40
23.8422859076323
100
AcDbArc
 50
166.1447295036
 51
13.8552704964
  0
LINE
  5
A3
330
1F
100
AcDbEntity
  8
0
  6
Continuous
 62
     7
100
AcDbLine
 10
811.5431390918
 20
4421.5115718037
 30
0.0
 11
809.5398001937
 21
4421.5115718037
 31
0.0
  0
LINE
  5
A4
330
1F
100
AcDbEntity
  8
0
  6
Continuous
 62
     7
100
AcDbLine
 10
3209.5398001937
 20
4421.5115718037
 30
0.0
 11
3211.5431390918
 21
4421.5115718037
 31
0.0
  0
LINE
  5
A5
330
1F
100
AcDbEntity
  8
0
  6
Continuous
 62
     7
100
AcDbLine
 10
3211.5431390918
 20
4421.5115718037
 30
0.0
 11
811.5431390918
 21
4421.5115718037
 31
0.0
  0
LINE
  5
A6
330
1F
100
AcDbEntity
  8
0
  6
Continuous
 62
     7
100
AcDbLine
 10
2062.1276878577
 20
3320.9195904084
 30
0.0
 11
2062.1276878577
 21
3323.9245987557
 31
0.0
  0
LINE
  5
A7
330
1F
100
AcDbEntity
  8
0
  6
Continuous
 62
     7
100
AcDbLine
 10
1947.9373706623
 20
3323.9245987557
 30
0.0
 11
1947.9373706623
 21
3320.9195904084
 31
0.0
  0
LINE
  5
A8
330
1F
100
AcDbEntity
  8
0
  6
Continuous
 62
     7
100
AcDbLine
 10
2046.1009766724
 20
3323.9245987557
 30
0.0
 11
2046.1009766724
 21
3329.9346154501
 31
0.0
  0
LINE
  5
A9
330
1F
100
AcDbEntity
  8
0
  6
Continuous
 62
     7
100
AcDbLine
 10
1963.9640818476
 20
3329.9346154501
 30
0.0
 11
1963.9640818476
 21
3323.9245987557
 31
0.0
  0
LINE
  5
AA
330
1F
100
AcDbEntity
  8
0
  6
Continuous
 62
     7
100
AcDbLine
 10
1953.9473873568
 20
3282.0814404203
 30
0.0
 11
1953.9473873568
 21
3277.835590433
 31
0.0
  0
LINE
  5
AB
330
1F
100
AcDbEntity
  8
0
  6
Continuous
 62
     7
100
AcDbLine
 10
2056.1176711632
 20
3277.835590433
 30
0.0
 11
2056.1176711632
 21
3282.0821048153
 31
0.0
  0
LINE
  5
AC
330
1F
100
AcDbEntity
  8
0
  6
Continuous
 62
     7
100
AcDbLine
 10
809.5398001937
 20
3439.4170862348
 30
0.0
 11
3209.5398001937
 21
3439.4170862348
 31
0.0
  0
LINE
  5
AD
330
1F
100
AcDbEntity
  8
0
  6
Continuous
 62
     7
100
AcDbLine
 10
3209.5398001937
 20
3437.4137473366
 30
0.0
 11
3209.5398001937
 21
3439.4170862348
 31
0.0
  0
LINE
  5
AE
330
1F
100
AcDbEntity
  8
0
  6
Continuous
 62
     7
100
AcDbLine
 10
809.5398001937
 20
3437.4137473366
 30
0.0
 11
3209.5398001937
 21
3437.4137473366
 31
0.0
  0
LINE
  5
AF
330
1F
100
AcDbEntity
  8
0
  6
Continuous
 62
     7
100
AcDbLine
 10
809.5398001937
 20
3437.4137473366
 30
0.0
 11
809.5398001937
 21
3439.4170862348
 31
0.0
  0
LINE
  5
B0
330
1F
100
AcDbEntity
  8
0
  6
Continuous
 62
     7
100
AcDbLine
 10
811.5431390918
 20
3332.238455183
 30
0.0
 11
811.5431390918
 21
3337.2468024284
 31
0.0
  0
LINE
  5
B1
330
1F
100
AcDbEntity
  8
0
  6
Continuous
 62
     7
100
AcDbLine
 10
809.5398001937
 20
3332.238455183
 30
0.0
 11
811.5431390918
 21
3332.238455183
 31
0.0
  0
LINE
  5
B2
330
1F
100
AcDbEntity
  8
0
  6
Continuous
 62
     7
100
AcDbLine
 10
809.5398001937
 20
3351.1826382521
 30
0.0
 11
3209.5398001937
 21
3351.1826382521
 31
0.0
  0
LINE
  5
B3
330
1F
100
AcDbEntity
  8
0
  6
Continuous
 62
     7
100
AcDbLine
 10
3211.5431390918
 20
3332.238455183
 30
0.0
 11
3209.5398001937
 21
3332.238455183
 31
0.0
  0
LINE
  5
B4
330
1F
100
AcDbEntity
  8
0
  6
Continuous
 62
     7
100
AcDbLine
 10
3211.5431390918
 20
3337.2468024284
 30
0.0
 11
3211.5431390918
 21
3332.238455183
 31
0.0
  0
LINE
  5
B5
330
1F
100
AcDbEntity
  8
0
  6
Continuous
 62
     7
100
AcDbLine
 10
3211.5431390918
 20
3337.2468024284
 30
0.0
 11
811.5431390918
 21
3337.2468024284
 31
0.0
  0
LINE
  5
B6
330
1F
100
AcDbEntity
  8
0
  6
Continuous
 62
     7
100
AcDbLine
 10
3209.5398001937
 20
3332.238455183
 30
0.0
 11
3209.5398001937
 21
3351.1826382521
 31
0.0
  0
LINE
  5
B7
330
1F
100
AcDbEntity
  8
0
  6
Continuous
 62
     7
100
AcDbLine
 10
809.5398001937
 20
3332.238455183
 30
0.0
 11
809.5398001937
 21
3351.1826382521
 31
0.0
  0
LINE
  5
B8
330
1F
100
AcDbEntity
  8
0
  6
Continuous
 62
     7
100
AcDbLine
 10
3209.5398001937
 20
3351.1826382521
 30
0.0
 11
3209.5398001937
 21
3437.4137473366
 31
0.0
  0
LINE
  5
B9
330
1F
100
AcDbEntity
  8
0
  6
Continuous
 62
     7
100
AcDbLine
 10
809.5398001937
 20
3351.1826382521
 30
0.0
 11
809.5398001937
 21
3437.4137473366
 31
0.0
  0
LINE
  5
BA
330
1F
100
AcDbEntity
  8
0
  6
Continuous
 62
     7
100
AcDbLine
 10
811.5431390918
 20
4266.7497676103
 30
0.0
 11
809.5398001937
 21
4266.7497676103
 31
0.0
  0
LINE
  5
BB
330
1F
100
AcDbEntity
  8
0
  6
Continuous
 62
     7
100
AcDbLine
 10
3211.5431390918
 20
3472.4721780545
 30
0.0
 11
3211.5431390918
 21
4266.7497676103
 31
0.0
  0
LINE
  5
BC
330
1F
100
AcDbEntity
  8
0
  6
Continuous
 62
     7
100
AcDbLine
 10
3211.5431390918
 20
4266.7497676103
 30
0.0
 11
3209.5398001937
 21
4266.7497676103
 31
0.0
  0
LINE
  5
BD
330
1F
100
AcDbEntity
  8
0
  6
Continuous
 62
     7
100
AcDbLine
 10
811.5431390918
 20
3472.4721780545
 30
0.0
 11
3211.5431390918
 21
3472.4721780545
 31
0.0
  0
LINE
  5
BE
330
1F
100
AcDbEntity
  8
0
  6
Continuous
 62
     7
100
AcDbLine
 10
811.5431390918
 20
3472.4721780545
 30
0.0
 11
811.5431390918
 21
4266.7497676103
 31
0.0
  0
LINE
  5
BF
330
1F
100
AcDbEntity
  8
0
  6
Continuous
 62
     7
100
AcDbLine
 10
3209.5398001937
 20
3439.4170862348
 30
0.0
 11
3209.5398001937
 21
4266.7497676103
 31
0.0
  0
LINE
  5
C0
330
1F
100
AcDbEntity
  8
0
  6
Continuous
 62
     7
100
AcDbLine
 10
809.5398001937
 20
3439.4170862348
 30
0.0
 11
809.5398001937
 21
4266.7497676103
 31
0.0
  0
LINE
  5
C1
330
1F
100
AcDbEntity
  8
0
  6
Continuous
 62
     7
100
AcDbLine
 10
811.5431390918
 20
4311.9681575347
 30
0.0
 11
809.5398001937
 21
4311.9681575347
 31
0.0
  0
LINE
  5
C2
330
1F
100
AcDbEntity
  8
0
  6
Continuous
 62
     7
100
AcDbLine
 10
811.5431390918
 20
4266.7497676103
 30
0.0
 11
811.5431390918
 21
4311.9681575347
 31
0.0
  0
LINE
  5
C3
330
1F
100
AcDbEntity
  8
0
  6
Continuous
 62
     7
100
AcDbLine
 10
809.5398001937
 20
4266.7497676103
 30
0.0
 11
809.5398001937
 21
4311.9681575347
 31
0.0
  0
LINE
  5
C4
330
1F
100
AcDbEntity
  8
0
  6
Continuous
 62
     7
100
AcDbLine
 10
3211.5431390918
 20
4311.9681575347
 30
0.0
 11
3209.5398001937
 21
4311.9681575347
 31
0.0
  0
LINE
  5
C5
330
1F
100
AcDbEntity
  8
0
  6
Continuous
 62
     7
100
AcDbLine
 10
3211.5431390918
 20
4266.7497676103
 30
0.0
 11
3211.5431390918
 21
4311.9681575347
 31
0.0
  0
LINE
  5
C6
330
1F
100
AcDbEntity
  8
0
  6
Continuous
 62
     7
100
AcDbLine
 10
3209.5398001937
 20
4266.7497676103
 30
0.0
 11
3209.5398001937
 21
4311.9681575347
 31
0.0
  0
LINE
  5
C7
330
1F
100
AcDbEntity
  8
0
  6
Continuous
 62
     7
100
AcDbLine
 10
2038.8624459035
 20
3332.352271383
 30
0.0
 11
3211.5431390918
 21
3337.2468024284
 31
0.0
  0
LINE
  5
C8
330
1F
100
AcDbEntity
  8
0
  6
Continuous
 62
     7
100
AcDbLine
 10
811.5431390918
 20
3337.2468024284
 30
0.0
 11
1984.2238322802
 21
3332.352271383
 31
0.0
  0
LINE
  5
C9
330
1F
100
AcDbEntity
  8
0
  6
Continuous
 62
     7
100
AcDbLine
 10
811.5431390918
 20
4353.9412932465
 30
0.0
 11
3211.5431390918
 21
4353.9412932465
 31
0.0
  0
LINE
  5
CA
330
1F
100
AcDbEntity
  8
0
  6
Continuous
 62
     7
100
AcDbLine
 10
809.5398001937
 20
4421.3656193278
 30
0.0
 11
811.5431390918
 21
4421.3656193278
 31
0.0
  0
LINE
  5
CB
330
1F
100
AcDbEntity
  8
0
  6
Continuous
 62
     7
100
AcDbLine
 10
811.5431390918
 20
4404.0247657006
 30
0.0
 11
3211.5431390918
 21
4404.0247657006
 31
0.0
  0
LINE
  5
CC
330
1F
100
AcDbEntity
  8
0
  6
Continuous
 62
     7
100
AcDbLine
 10
3211.5431390918
 20
4421.3656193278
 30
0.0
 11
3209.5398001937
 21
4421.3656193278
 31
0.0
  0
LINE
  5
CD
330
1F
100
AcDbEntity
  8
0
  6
Continuous
 62
     7
100
AcDbLine
 10
3211.5431390918
 20
4404.0247657006
 30
0.0
 11
3211.5431390918
 21
4421.3656193278
 31
0.0
  0
LINE
  5
CE
330
1F
100
AcDbEntity
  8
0
  6
Continuous
 62
     7
100
AcDbLine
 10
811.5431390918
 20
4404.0247657006
 30
0.0
 11
811.5431390918
 21
4421.3656193278
 31
0.0
  0
LINE
  5
CF
330
1F
100
AcDbEntity
  8
0
  6
Continuous
 62
     7
100
AcDbLine
 10
3211.5431390918
 20
4311.9681575347
 30
0.0
 11
3211.5431390918
 21
4353.9412932465
 31
0.0
  0
LINE
  5
D0
330
1F
100
AcDbEntity
  8
0
  6
Continuous
 62
     7
100
AcDbLine
 10
811.5431390918
 20
4311.9681575347
 30
0.0
 11
811.5431390918
 21
4353.9412932465
 31
0.0
  0
LINE
  5
D1
330
1F
100
AcDbEntity
  8
0
  6
Continuous
 62
     7
100
AcDbLine
 10
3209.5398001937
 20
4311.9681575347
 30
0.0
 11
3209.5398001937
 21
4421.3656193278
 31
0.0
  0
LINE
  5
D2
330
1F
100
AcDbEntity
  8
0
  6
Continuous
 62
     7
100
AcDbLine
 10
809.5398001937
 20
4311.9681575347
 30
0.0
 11
809.5398001937
 21
4421.3656193278
 31
0.0
  0
LINE
  5
D3
330
1F
100
AcDbEntity
  8
0
  6
Continuous
 62
     7
100
AcDbLine
 10
811.5431390918
 20
4298.849473547
 30
0.0
 11
3211.5431390918
 21
4298.849473547
 31
0.0
  0
LINE
  5
D4
330
1F
100
AcDbEntity
  8
0
  6
Continuous
 62
     7
100
AcDbLine
 10
811.5431390918
 20
4421.5115718037
 30
0.0
 11
811.5431390918
 21
4421.3656193278
 31
0.0
  0
LINE
  5
D5
330
1F
100
AcDbEntity
  8
0
  6
Continuous
 62
     7
100
AcDbLine
 10
809.5398001937
 20
4421.3656193278
 30
0.0
 11
809.5398001937
 21
4421.5115718037
 31
0.0
  0
LINE
  5
D6
330
1F
100
AcDbEntity
  8
0
  6
Continuous
 62
     7
100
AcDbLine
 10
3211.5431390918
 20
4421.3656193278
 30
0.0
 11
3211.5431390918
 21
4421.5115718037
 31
0.0
  0
LINE
  5
D7
330
1F
100
AcDbEntity
  8
0
  6
Continuous
 62
     7
100
AcDbLine
 10
3209.5398001937
 20
4421.3656193278
 30
0.0
 11
3209.5398001937
 21
4421.5115718037
 31
0.0
  0
LINE
  5
D8
330
1F
100
AcDbEntity
  8
0
  6
Continuous
 62
     7
100
AcDbLine
 10
811.5431390918
 20
4421.3656193278
 30
0.0
 11
3211.5431390918
 21
4421.3656193278
 31
0.0
  0
LINE
  5
D9
330
1F
100
AcDbEntity
  8
0
  6
Continuous
 62
     7
100
AcDbLine
 10
1947.9373706623
 20
3320.9195904084
 30
0.0
 11
2062.1276878577
 21
3320.9195904084
 31
0.0
  0
LINE
  5
DA
330
1F
100
AcDbEntity
  8
0
  6
Continuous
 62
     7
100
AcDbLine
 10
1947.9373706623
 20
3323.9245987557
 30
0.0
 11
2062.1276878577
 21
3323.9245987557
 31
0.0
  0
LINE
  5
DB
330
1F
100
AcDbEntity
  8
0
  6
Continuous
 62
     7
100
AcDbLine
 10
1956.5118605211
 20
3274.8566568606
 30
0.0
 11
1957.1643679524
 21
3273.0509731223
 31
0.0
  0
LINE
  5
DC
330
1F
100
AcDbEntity
  8
0
  6
Continuous
 62
     7
100
AcDbLine
 10
1957.1643679524
 20
3273.0509731223
 30
0.0
 11
1958.8874708069
 21
3269.7227929479
 31
0.0
  0
LINE
  5
DD
330
1F
100
AcDbEntity
  8
0
  6
Continuous
 62
     7
100
AcDbLine
 10
1958.8874708069
 20
3269.7227929479
 30
0.0
 11
1961.7716017419
 21
3265.6473257189
 31
0.0
  0
LINE
  5
DE
330
1F
100
AcDbEntity
  8
0
  6
Continuous
 62
     7
100
AcDbLine
 10
1961.7716017419
 20
3265.6473257189
 30
0.0
 11
1965.3508246005
 21
3261.8947557451
 31
0.0
  0
LINE
  5
DF
330
1F
100
AcDbEntity
  8
0
  6
Continuous
 62
     7
100
AcDbLine
 10
1965.3508246005
 20
3261.8947557451
 30
0.0
 11
1969.6251393826
 21
3258.4650830266
 31
0.0
  0
LINE
  5
E0
330
1F
100
AcDbEntity
  8
0
  6
Continuous
 62
     7
100
AcDbLine
 10
1969.6251393826
 20
3258.4650830266
 30
0.0
 11
1974.4749915385
 21
3255.4428954123
 31
0.0
  0
LINE
  5
E1
330
1F
100
AcDbEntity
  8
0
  6
Continuous
 62
     7
100
AcDbLine
 10
1974.4749915385
 20
3255.4428954123
 30
0.0
 11
1979.7819268852
 21
3252.9120026563
 31
0.0
  0
LINE
  5
E2
330
1F
100
AcDbEntity
  8
0
  6
Continuous
 62
     7
100
AcDbLine
 10
1979.7819268852
 20
3252.9120026563
 30
0.0
 11
1985.5459454229
 21
3250.8724047588
 31
0.0
  0
LINE
  5
E3
330
1F
100
AcDbEntity
  8
0
  6
Continuous
 62
     7
100
AcDbLine
 10
1985.5459454229
 20
3250.8724047588
 30
0.0
 11
1990.2522523815
 21
3249.6540534715
 31
0.0
  0
LINE
  5
E4
330
1F
100
AcDbEntity
  8
0
  6
Continuous
 62
     7
100
AcDbLine
 10
1990.2522523815
 20
3249.6540534715
 30
0.0
 11
1995.0687853405
 21
3248.7837898811
 31
0.0
  0
LINE
  5
E5
330
1F
100
AcDbEntity
  8
0
  6
Continuous
 62
     7
100
AcDbLine
 10
1995.0687853405
 20
3248.7837898811
 30
0.0
 11
1999.9955443
 21
3248.2616139874
 31
0.0
  0
LINE
  5
E6
330
1F
100
AcDbEntity
  8
0
  6
Continuous
 62
     7
100
AcDbLine
 10
1999.9955443
 20
3248.2616139874
 30
0.0
 11
2005.03252926
 21
3248.0875257906
 31
0.0
  0
LINE
  5
E7
330
1F
100
AcDbEntity
  8
0
  6
Continuous
 62
     7
100
AcDbLine
 10
2005.03252926
 20
3248.0875257906
 30
0.0
 11
2010.0690632976
 21
3248.2615474688
 31
0.0
  0
LINE
  5
E8
330
1F
100
AcDbEntity
  8
0
  6
Continuous
 62
     7
100
AcDbLine
 10
2010.0690632976
 20
3248.2615474688
 30
0.0
 11
2014.9956719497
 21
3248.7837011895
 31
0.0
  0
LINE
  5
E9
330
1F
100
AcDbEntity
  8
0
  6
Continuous
 62
     7
100
AcDbLine
 10
2014.9956719497
 20
3248.7837011895
 30
0.0
 11
2019.8123552162
 21
3249.6539869529
 31
0.0
  0
LINE
  5
EA
330
1F
100
AcDbEntity
  8
0
  6
Continuous
 62
     7
100
AcDbLine
 10
2019.8123552162
 20
3249.6539869529
 30
0.0
 11
2024.5191130972
 21
3250.8724047588
 31
0.0
  0
LINE
  5
EB
330
1F
100
AcDbEntity
  8
0
  6
Continuous
 62
     7
100
AcDbLine
 10
2024.5191130972
 20
3250.8724047588
 30
0.0
 11
2030.2826940608
 21
3252.9117932663
 31
0.0
  0
LINE
  5
EC
330
1F
100
AcDbEntity
  8
0
  6
Continuous
 62
     7
100
AcDbLine
 10
2030.2826940608
 20
3252.9117932663
 30
0.0
 11
2035.5896294076
 21
3255.4426860222
 31
0.0
  0
LINE
  5
ED
330
1F
100
AcDbEntity
  8
0
  6
Continuous
 62
     7
100
AcDbLine
 10
2035.5896294076
 20
3255.4426860222
 30
0.0
 11
2040.4399191375
 21
3258.4650830266
 31
0.0
  0
LINE
  5
EE
330
1F
100
AcDbEntity
  8
0
  6
Continuous
 62
     7
100
AcDbLine
 10
2040.4399191375
 20
3258.4650830266
 30
0.0
 11
2044.7139377961
 21
3261.8944463328
 31
0.0
  0
LINE
  5
EF
330
1F
100
AcDbEntity
  8
0
  6
Continuous
 62
     7
100
AcDbLine
 10
2044.7139377961
 20
3261.8944463328
 30
0.0
 11
2048.2931606546
 21
3265.6470163066
 31
0.0
  0
LINE
  5
F0
330
1F
100
AcDbEntity
  8
0
  6
Continuous
 62
     7
100
AcDbLine
 10
2048.2931606546
 20
3265.6470163066
 30
0.0
 11
2051.1775877129
 21
3269.722792948
 31
0.0
  0
LINE
  5
F1
330
1F
100
AcDbEntity
  8
0
  6
Continuous
 62
     7
100
AcDbLine
 10
2051.1775877129
 20
3269.722792948
 30
0.0
 11
2052.90059649
 21
3273.0506542621
 31
0.0
  0
LINE
  5
F2
330
1F
100
AcDbEntity
  8
0
  6
Continuous
 62
     7
100
AcDbLine
 10
2052.90059649
 20
3273.0506542621
 30
0.0
 11
2053.5533643924
 21
3274.8570484565
 31
0.0
  0
LINE
  5
F3
330
1F
100
AcDbEntity
  8
0
  6
Continuous
 62
     7
100
AcDbLine
 10
1963.9640818476
 20
3329.9346154501
 30
0.0
 11
2046.1009766724
 21
3329.9346154501
 31
0.0
  0
LINE
  5
F4
330
1F
100
AcDbEntity
  8
0
  6
Continuous
 62
     7
100
AcDbLine
 10
2056.0403779764
 20
3281.5155485877
 30
0.0
 11
2055.8378214107
 21
3279.726043392
 31
0.0
  0
LINE
  5
F5
330
1F
100
AcDbEntity
  8
0
  6
Continuous
 62
     7
100
AcDbLine
 10
2055.8378214107
 20
3279.726043392
 30
0.0
 11
2055.2128128531
 21
3276.733178821
 31
0.0
  0
LINE
  5
F6
330
1F
100
AcDbEntity
  8
0
  6
Continuous
 62
     7
100
AcDbLine
 10
2055.2128128531
 20
3276.733178821
 30
0.0
 11
2054.2358256607
 21
3273.7877918852
 31
0.0
  0
LINE
  5
F7
330
1F
100
AcDbEntity
  8
0
  6
Continuous
 62
     7
100
AcDbLine
 10
2054.2358256607
 20
3273.7877918852
 30
0.0
 11
2052.9137126965
 21
3270.9105423576
 31
0.0
  0
LINE
  5
F8
330
1F
100
AcDbEntity
  8
0
  6
Continuous
 62
     7
100
AcDbLine
 10
2052.9137126965
 20
3270.9105423576
 30
0.0
 11
2051.2557476331
 21
3268.1216120765
 31
0.0
  0
LINE
  5
F9
330
1F
100
AcDbEntity
  8
0
  6
Continuous
 62
     7
100
AcDbLine
 10
2051.2557476331
 20
3268.1216120765
 30
0.0
 11
2049.2735599041
 21
3265.4405633838
 31
0.0
  0
LINE
  5
FA
330
1F
100
AcDbEntity
  8
0
  6
Continuous
 62
     7
100
AcDbLine
 10
2049.2735599041
 20
3265.4405633838
 30
0.0
 11
2046.9810531323
 21
3262.8862019098
 31
0.0
  0
LINE
  5
FB
330
1F
100
AcDbEntity
  8
0
  6
Continuous
 62
     7
100
AcDbLine
 10
2046.9810531323
 20
3262.8862019098
 30
0.0
 11
2044.3943076055
 21
3260.4764446651
 31
0.0
  0
LINE
  5
FC
330
1F
100
AcDbEntity
  8
0
  6
Continuous
 62
     7
100
AcDbLine
 10
2044.3943076055
 20
3260.4764446651
 30
0.0
 11
2041.531467485
 21
3258.2281943651
 31
0.0
  0
LINE
  5
FD
330
1F
100
AcDbEntity
  8
0
  6
Continuous
 62
     7
100
AcDbLine
 10
2041.531467485
 20
3258.2281943651
 30
0.0
 11
2038.4126135373
 21
3256.1572208706
 31
0.0
  0
LINE
  5
FE
330
1F
100
AcDbEntity
  8
0
  6
Continuous
 62
     7
100
AcDbLine
 10
2038.4126135373
 20
3256.1572208706
 30
0.0
 11
2035.059622282
 21
3254.2780505723
 31
0.0
  0
LINE
  5
FF
330
1F
100
AcDbEntity
  8
0
  6
Continuous
 62
     7
100
AcDbLine
 10
2035.059622282
 20
3254.2780505723
 30
0.0
 11
2031.4960125435
 21
3252.6038644999
 31
0.0
  0
LINE
  5
100
330
1F
100
AcDbEntity
  8
0
  6
Continuous
 62
     7
100
AcDbLine
 10
2031.4960125435
 20
3252.6038644999
 30
0.0
 11
2027.7467804838
 21
3251.1464058659
 31
0.0
  0
LINE
  5
101
330
1F
100
AcDbEntity
  8
0
  6
Continuous
 62
     7
100
AcDbLine
 10
2027.7467804838
 20
3251.1464058659
 30
0.0
 11
2023.838224272
 21
3249.9158976951
 31
0.0
  0
LINE
  5
102
330
1F
100
AcDbEntity
  8
0
  6
Continuous
 62
     7
100
AcDbLine
 10
2023.838224272
 20
3249.9158976951
 30
0.0
 11
2019.7977596215
 21
3248.9209711184
 31
0.0
  0
LINE
  5
103
330
1F
100
AcDbEntity
  8
0
  6
Continuous
 62
     7
100
AcDbLine
 10
2019.7977596215
 20
3248.9209711184
 30
0.0
 11
2015.6537274887
 21
3248.168604831
 31
0.0
  0
LINE
  5
104
330
1F
100
AcDbEntity
  8
0
  6
Continuous
 62
     7
100
AcDbLine
 10
2015.6537274887
 20
3248.168604831
 30
0.0
 11
2011.4351952818
 21
3247.6640761416
 31
0.0
  0
LINE
  5
105
330
1F
100
AcDbEntity
  8
0
  6
Continuous
 62
     7
100
AcDbLine
 10
2011.4351952818
 20
3247.6640761416
 30
0.0
 11
2007.1717529731
 21
3247.4109239565
 31
0.0
  0
LINE
  5
106
330
1F
100
AcDbEntity
  8
0
  6
Continuous
 62
     7
100
AcDbLine
 10
2007.1717529731
 20
3247.4109239565
 30
0.0
 11
2002.8933055469
 21
3247.4109239565
 31
0.0
  0
LINE
  5
107
330
1F
100
AcDbEntity
  8
0
  6
Continuous
 62
     7
100
AcDbLine
 10
2002.8933055469
 20
3247.4109239565
 30
0.0
 11
1998.6298632382
 21
3247.6640761416
 31
0.0
  0
LINE
  5
108
330
1F
100
AcDbEntity
  8
0
  6
Continuous
 62
     7
100
AcDbLine
 10
1998.6298632382
 20
3247.6640761416
 30
0.0
 11
1994.4113310313
 21
3248.168604831
 31
0.0
  0
LINE
  5
109
330
1F
100
AcDbEntity
  8
0
  6
Continuous
 62
     7
100
AcDbLine
 10
1994.4113310313
 20
3248.168604831
 30
0.0
 11
1990.2672988986
 21
3248.9209711184
 31
0.0
  0
LINE
  5
10A
330
1F
100
AcDbEntity
  8
0
  6
Continuous
 62
     7
100
AcDbLine
 10
1990.2672988986
 20
3248.9209711184
 30
0.0
 11
1986.2268342481
 21
3249.9158976951
 31
0.0
  0
LINE
  5
10B
330
1F
100
AcDbEntity
  8
0
  6
Continuous
 62
     7
100
AcDbLine
 10
1986.2268342481
 20
3249.9158976951
 30
0.0
 11
1982.3182780362
 21
3251.1464058659
 31
0.0
  0
LINE
  5
10C
330
1F
100
AcDbEntity
  8
0
  6
Continuous
 62
     7
100
AcDbLine
 10
1982.3182780362
 20
3251.1464058659
 30
0.0
 11
1978.5690459765
 21
3252.6038644999
 31
0.0
  0
LINE
  5
10D
330
1F
100
AcDbEntity
  8
0
  6
Continuous
 62
     7
100
AcDbLine
 10
1978.5690459765
 20
3252.6038644999
 30
0.0
 11
1975.0054362381
 21
3254.2780505723
 31
0.0
  0
LINE
  5
10E
330
1F
100
AcDbEntity
  8
0
  6
Continuous
 62
     7
100
AcDbLine
 10
1975.0054362381
 20
3254.2780505723
 30
0.0
 11
1971.6524449827
 21
3256.1572208706
 31
0.0
  0
LINE
  5
10F
330
1F
100
AcDbEntity
  8
0
  6
Continuous
 62
     7
100
AcDbLine
 10
1971.6524449827
 20
3256.1572208706
 30
0.0
 11
1968.533591035
 21
3258.2281943651
 31
0.0
  0
LINE
  5
110
330
1F
100
AcDbEntity
  8
0
  6
Continuous
 62
     7
100
AcDbLine
 10
1968.533591035
 20
3258.2281943651
 30
0.0
 11
1965.6707509145
 21
3260.4764446651
 31
0.0
  0
LINE
  5
111
330
1F
100
AcDbEntity
  8
0
  6
Continuous
 62
     7
100
AcDbLine
 10
1965.6707509145
 20
3260.4764446651
 30
0.0
 11
1963.0840053877
 21
3262.8862019098
 31
0.0
  0
LINE
  5
112
330
1F
100
AcDbEntity
  8
0
  6
Continuous
 62
     7
100
AcDbLine
 10
1963.0840053877
 20
3262.8862019098
 30
0.0
 11
1960.7914986159
 21
3265.4405633838
 31
0.0
  0
LINE
  5
113
330
1F
100
AcDbEntity
  8
0
  6
Continuous
 62
     7
100
AcDbLine
 10
1960.7914986159
 20
3265.4405633838
 30
0.0
 11
1958.809310887
 21
3268.1216120765
 31
0.0
  0
LINE
  5
114
330
1F
100
AcDbEntity
  8
0
  6
Continuous
 62
     7
100
AcDbLine
 10
1958.809310887
 20
3268.1216120765
 30
0.0
 11
1957.1513458235
 21
3270.9105423576
 31
0.0
  0
LINE
  5
115
330
1F
100
AcDbEntity
  8
0
  6
Continuous
 62
     7
100
AcDbLine
 10
1957.1513458235
 20
3270.9105423576
 30
0.0
 11
1955.8292328593
 21
3273.7877918852
 31
0.0
  0
LINE
  5
116
330
1F
100
AcDbEntity
  8
0
  6
Continuous
 62
     7
100
AcDbLine
 10
1955.8292328593
 20
3273.7877918852
 30
0.0
 11
1954.8522456669
 21
3276.733178821
 31
0.0
  0
LINE
  5
117
330
1F
100
AcDbEntity
  8
0
  6
Continuous
 62
     7
100
AcDbLine
 10
1954.8522456669
 20
3276.733178821
 30
0.0
 11
1954.2272371093
 21
3279.726043392
 31
0.0
  0
LINE
  5
118
330
1F
100
AcDbEntity
  8
0
  6
Continuous
 62
     7
100
AcDbLine
 10
1954.2272371093
 20
3279.726043392
 30
0.0
 11
1954.0151321866
 21
3281.6421951081
 31
0.0
  0
LINE
  5
119
330
1F
100
AcDbEntity
  8
0
  6
Continuous
 62
     7
100
AcDbLine
 10
2056.1176711632
 20
3277.835590433
 30
0.0
 11
2056.1064673474
 21
3277.079094724
 31
0.0
  0
LINE
  5
11A
330
1F
100
AcDbEntity
  8
0
  6
Continuous
 62
     7
100
AcDbLine
 10
2056.1064673474
 20
3277.079094724
 30
0.0
 11
2055.8378214107
 21
3274.0597453124
 31
0.0
  0
LINE
  5
11B
330
1F
100
AcDbEntity
  8
0
  6
Continuous
 62
     7
100
AcDbLine
 10
2055.8378214107
 20
3274.0597453124
 30
0.0
 11
2055.2128128531
 21
3271.0668807414
 31
0.0
  0
LINE
  5
11C
330
1F
100
AcDbEntity
  8
0
  6
Continuous
 62
     7
100
AcDbLine
 10
2055.2128128531
 20
3271.0668807414
 30
0.0
 11
2054.2358256607
 21
3268.1214938055
 31
0.0
  0
LINE
  5
11D
330
1F
100
AcDbEntity
  8
0
  6
Continuous
 62
     7
100
AcDbLine
 10
2054.2358256607
 20
3268.1214938055
 30
0.0
 11
2052.9137126965
 21
3265.244244278
 31
0.0
  0
LINE
  5
11E
330
1F
100
AcDbEntity
  8
0
  6
Continuous
 62
     7
100
AcDbLine
 10
2052.9137126965
 20
3265.244244278
 30
0.0
 11
2051.2557476331
 21
3262.4553139968
 31
0.0
  0
LINE
  5
11F
330
1F
100
AcDbEntity
  8
0
  6
Continuous
 62
     7
100
AcDbLine
 10
2051.2557476331
 20
3262.4553139968
 30
0.0
 11
2049.2735599041
 21
3259.7742653041
 31
0.0
  0
LINE
  5
120
330
1F
100
AcDbEntity
  8
0
  6
Continuous
 62
     7
100
AcDbLine
 10
2049.2735599041
 20
3259.7742653041
 30
0.0
 11
2046.9810531323
 21
3257.2199038302
 31
0.0
  0
LINE
  5
121
330
1F
100
AcDbEntity
  8
0
  6
Continuous
 62
     7
100
AcDbLine
 10
2046.9810531323
 20
3257.2199038302
 30
0.0
 11
2044.3943076055
 21
3254.8101465854
 31
0.0
  0
LINE
  5
122
330
1F
100
AcDbEntity
  8
0
  6
Continuous
 62
     7
100
AcDbLine
 10
2044.3943076055
 20
3254.8101465854
 30
0.0
 11
2041.531467485
 21
3252.5618962855
 31
0.0
  0
LINE
  5
123
330
1F
100
AcDbEntity
  8
0
  6
Continuous
 62
     7
100
AcDbLine
 10
2041.531467485
 20
3252.5618962855
 30
0.0
 11
2038.4126135373
 21
3250.4909227909
 31
0.0
  0
LINE
  5
124
330
1F
100
AcDbEntity
  8
0
  6
Continuous
 62
     7
100
AcDbLine
 10
2038.4126135373
 20
3250.4909227909
 30
0.0
 11
2035.059622282
 21
3248.6117524927
 31
0.0
  0
LINE
  5
125
330
1F
100
AcDbEntity
  8
0
  6
Continuous
 62
     7
100
AcDbLine
 10
2035.059622282
 20
3248.6117524927
 30
0.0
 11
2031.4960125435
 21
3246.9375664204
 31
0.0
  0
LINE
  5
126
330
1F
100
AcDbEntity
  8
0
  6
Continuous
 62
     7
100
AcDbLine
 10
2031.4960125435
 20
3246.9375664204
 30
0.0
 11
2027.7467804838
 21
3245.4801077862
 31
0.0
  0
LINE
  5
127
330
1F
100
AcDbEntity
  8
0
  6
Continuous
 62
     7
100
AcDbLine
 10
2027.7467804838
 20
3245.4801077862
 30
0.0
 11
2023.838224272
 21
3244.2495996155
 31
0.0
  0
LINE
  5
128
330
1F
100
AcDbEntity
  8
0
  6
Continuous
 62
     7
100
AcDbLine
 10
2023.838224272
 20
3244.2495996155
 30
0.0
 11
2019.7977596215
 21
3243.2546730388
 31
0.0
  0
LINE
  5
129
330
1F
100
AcDbEntity
  8
0
  6
Continuous
 62
     7
100
AcDbLine
 10
2019.7977596215
 20
3243.2546730388
 30
0.0
 11
2015.6537274887
 21
3242.5023067514
 31
0.0
  0
LINE
  5
12A
330
1F
100
AcDbEntity
  8
0
  6
Continuous
 62
     7
100
AcDbLine
 10
2015.6537274887
 20
3242.5023067514
 30
0.0
 11
2011.4351952818
 21
3241.997778062
 31
0.0
  0
LINE
  5
12B
330
1F
100
AcDbEntity
  8
0
  6
Continuous
 62
     7
100
AcDbLine
 10
2011.4351952818
 20
3241.997778062
 30
0.0
 11
2007.1717529731
 21
3241.7446258769
 31
0.0
  0
LINE
  5
12C
330
1F
100
AcDbEntity
  8
0
  6
Continuous
 62
     7
100
AcDbLine
 10
2007.1717529731
 20
3241.7446258769
 30
0.0
 11
2002.8933055469
 21
3241.7446258769
 31
0.0
  0
LINE
  5
12D
330
1F
100
AcDbEntity
  8
0
  6
Continuous
 62
     7
100
AcDbLine
 10
2002.8933055469
 20
3241.7446258769
 30
0.0
 11
1998.6298632382
 21
3241.997778062
 31
0.0
  0
LINE
  5
12E
330
1F
100
AcDbEntity
  8
0
  6
Continuous
 62
     7
100
AcDbLine
 10
1998.6298632382
 20
3241.997778062
 30
0.0
 11
1994.4113310313
 21
3242.5023067514
 31
0.0
  0
LINE
  5
12F
330
1F
100
AcDbEntity
  8
0
  6
Continuous
 62
     7
100
AcDbLine
 10
1994.4113310313
 20
3242.5023067514
 30
0.0
 11
1990.2672988986
 21
3243.2546730388
 31
0.0
  0
LINE
  5
130
330
1F
100
AcDbEntity
  8
0
  6
Continuous
 62
     7
100
AcDbLine
 10
1990.2672988986
 20
3243.2546730388
 30
0.0
 11
1986.2268342481
 21
3244.2495996155
 31
0.0
  0
LINE
  5
131
330
1F
100
AcDbEntity
  8
0
  6
Continuous
 62
     7
100
AcDbLine
 10
1986.2268342481
 20
3244.2495996155
 30
0.0
 11
1982.3182780362
 21
3245.4801077862
 31
0.0
  0
LINE
  5
132
330
1F
100
AcDbEntity
  8
0
  6
Continuous
 62
     7
100
AcDbLine
 10
1982.3182780362
 20
3245.4801077862
 30
0.0
 11
1978.5690459765
 21
3246.9375664204
 31
0.0
  0
LINE
  5
133
330
1F
100
AcDbEntity
  8
0
  6
Continuous
 62
     7
100
AcDbLine
 10
1978.5690459765
 20
3246.9375664204
 30
0.0
 11
1975.0054362381
 21
3248.6117524927
 31
0.0
  0
LINE
  5
134
330
1F
100
AcDbEntity
  8
0
  6
Continuous
 62
     7
100
AcDbLine
 10
1975.0054362381
 20
3248.6117524927
 30
0.0
 11
1971.6524449827
 21
3250.4909227909
 31
0.0
  0
LINE
  5
135
330
1F
100
AcDbEntity
  8
0
  6
Continuous
 62
     7
100
AcDbLine
 10
1971.6524449827
 20
3250.4909227909
 30
0.0
 11
1968.533591035
 21
3252.5618962855
 31
0.0
  0
LINE
  5
136
330
1F
100
AcDbEntity
  8
0
  6
Continuous
 62
     7
100
AcDbLine
 10
1968.533591035
 20
3252.5618962855
 30
0.0
 11
1965.6707509145
 21
3254.8101465854
 31
0.0
  0
LINE
  5
137
330
1F
100
AcDbEntity
  8
0
  6
Continuous
 62
     7
100
AcDbLine
 10
1965.6707509145
 20
3254.8101465854
 30
0.0
 11
1963.0840053877
 21
3257.2199038302
 31
0.0
  0
LINE
  5
138
330
1F
100
AcDbEntity
  8
0
  6
Continuous
 62
     7
100
AcDbLine
 10
1963.0840053877
 20
3257.2199038302
 30
0.0
 11
1960.7914986159
 21
3259.7742653041
 31
0.0
  0
LINE
  5
139
330
1F
100
AcDbEntity
  8
0
  6
Continuous
 62
     7
100
AcDbLine
 10
1960.7914986159
 20
3259.7742653041
 30
0.0
 11
1958.809310887
 21
3262.4553139968
 31
0.0
  0
LINE
  5
13A
330
1F
100
AcDbEntity
  8
0
  6
Continuous
 62
     7
100
AcDbLine
 10
1958.809310887
 20
3262.4553139968
 30
0.0
 11
1957.1513458235
 21
3265.244244278
 31
0.0
  0
LINE
  5
13B
330
1F
100
AcDbEntity
  8
0
  6
Continuous
 62
     7
100
AcDbLine
 10
1957.1513458235
 20
3265.244244278
 30
0.0
 11
1955.8292328593
 21
3268.1214938055
 31
0.0
  0
LINE
  5
13C
330
1F
100
AcDbEntity
  8
0
  6
Continuous
 62
     7
100
AcDbLine
 10
1955.8292328593
 20
3268.1214938055
 30
0.0
 11
1954.8522456669
 21
3271.0668807414
 31
0.0
  0
LINE
  5
13D
330
1F
100
AcDbEntity
  8
0
  6
Continuous
 62
     7
100
AcDbLine
 10
1954.8522456669
 20
3271.0668807414
 30
0.0
 11
1954.2272371093
 21
3274.0597453124
 31
0.0
  0
LINE
  5
13E
330
1F
100
AcDbEntity
  8
0
  6
Continuous
 62
     7
100
AcDbLine
 10
1954.2272371093
 20
3274.0597453124
 30
0.0
 11
1953.9585911727
 21
3277.079094724
 31
0.0
  0
LINE
  5
13F
330
1F
100
AcDbEntity
  8
0
  6
Continuous
 62
     7
100
AcDbLine
 10
1953.9585911727
 20
3277.079094724
 30
0.0
 11
1953.9473873568
 21
3277.835590433
 31
0.0
  0
LINE
  5
140
330
1F
100
AcDbEntity
  8
0
  6
Continuous
 62
     7
100
AcDbLine
 10
3700.0922894101
 20
3287.8644985887
 30
0.0
 11
3650.8662401091
 21
3287.8644985887
 31
0.0
  0
LINE
  5
141
330
1F
100
AcDbEntity
  8
0
  6
Continuous
 62
     7
100
AcDbLine
 10
3650.8662401091
 20
3257.8144151163
 30
0.0
 11
3700.0922894101
 21
3257.8144151163
 31
0.0
  0
LINE
  5
142
330
1F
100
AcDbEntity
  8
0
  6
Continuous
 62
     7
100
AcDbLine
 10
3857.3543929159
 20
3320.9195904084
 30
0.0
 11
3857.3543929159
 21
3323.9245987557
 31
0.0
  0
LINE
  5
143
330
1F
100
AcDbEntity
  8
0
  6
Continuous
 62
     7
100
AcDbLine
 10
3743.1640757206
 20
3323.9245987557
 30
0.0
 11
3743.1640757206
 21
3320.9195904084
 31
0.0
  0
LINE
  5
144
330
1F
100
AcDbEntity
  8
0
  6
Continuous
 62
     7
100
AcDbLine
 10
3741.4541190116
 20
3319.6245387702
 30
0.0
 11
3735.7878209319
 21
3313.9582406906
 31
0.0
  0
LINE
  5
145
330
1F
100
AcDbEntity
  8
0
  6
Continuous
 62
     7
100
AcDbLine
 10
3808.0331214472
 20
3241.7129401753
 30
0.0
 11
3813.6994195268
 21
3247.379238255
 31
0.0
  0
LINE
  5
146
330
1F
100
AcDbEntity
  8
0
  6
Continuous
 62
     7
100
AcDbLine
 10
3841.3276817306
 20
3323.9245987557
 30
0.0
 11
3841.3276817306
 21
3329.9346154501
 31
0.0
  0
LINE
  5
147
330
1F
100
AcDbEntity
  8
0
  6
Continuous
 62
     7
100
AcDbLine
 10
3759.1907869059
 20
3329.9346154501
 30
0.0
 11
3759.1907869059
 21
3323.9245987557
 31
0.0
  0
LINE
  5
148
330
1F
100
AcDbEntity
  8
0
  6
Continuous
 62
     7
100
AcDbLine
 10
3717.1206700445
 20
3250.9028959176
 30
0.0
 11
3730.1423728826
 21
3250.9028959176
 31
0.0
  0
LINE
  5
149
330
1F
100
AcDbEntity
  8
0
  6
Continuous
 62
     7
100
AcDbLine
 10
3730.1423728826
 20
3294.7760177874
 30
0.0
 11
3717.1206700445
 21
3294.7760177874
 31
0.0
  0
LINE
  5
14A
330
1F
100
AcDbEntity
  8
0
  6
Continuous
 62
     7
100
AcDbLine
 10
3650.8662401091
 20
3257.8144151163
 30
0.0
 11
3650.8662401091
 21
3287.8644985887
 31
0.0
  0
LINE
  5
14B
330
1F
100
AcDbEntity
  8
0
  6
Continuous
 62
     7
100
AcDbLine
 10
3882.749391047
 20
4311.9681575347
 30
0.0
 11
3653.0147212817
 21
4421.3656193278
 31
0.0
  0
LINE
  5
14C
330
1F
100
AcDbEntity
  8
0
  6
Continuous
 62
     7
100
AcDbLine
 10
3911.3002968704
 20
3439.4170862348
 30
0.0
 11
3911.3002968704
 21
4266.7497676103
 31
0.0
  0
LINE
  5
14D
330
1F
100
AcDbEntity
  8
0
  6
Continuous
 62
     7
100
AcDbLine
 10
3959.3804304263
 20
3439.4170862348
 30
0.0
 11
3911.3002968704
 21
3439.4170862348
 31
0.0
  0
LINE
  5
14E
330
1F
100
AcDbEntity
  8
0
  6
Continuous
 62
     7
100
AcDbLine
 10
3959.3804304263
 20
3437.4137473366
 30
0.0
 11
3959.3804304263
 21
3439.4170862348
 31
0.0
  0
LINE
  5
14F
330
1F
100
AcDbEntity
  8
0
  6
Continuous
 62
     7
100
AcDbLine
 10
3911.3002968704
 20
3437.4137473366
 30
0.0
 11
3959.3804304263
 21
3437.4137473366
 31
0.0
  0
LINE
  5
150
330
1F
100
AcDbEntity
  8
0
  6
Continuous
 62
     7
100
AcDbLine
 10
3911.3002968704
 20
3351.1826382521
 30
0.0
 11
3911.3002968704
 21
3437.4137473366
 31
0.0
  0
LINE
  5
151
330
1F
100
AcDbEntity
  8
0
  6
Continuous
 62
     7
100
AcDbLine
 10
3892.3561138013
 20
3332.238455183
 30
0.0
 11
3911.3002968704
 21
3351.1826382521
 31
0.0
  0
LINE
  5
152
330
1F
100
AcDbEntity
  8
0
  6
Continuous
 62
     7
100
AcDbLine
 10
3650.8662401091
 20
3332.238455183
 30
0.0
 11
3892.3561138013
 21
3332.238455183
 31
0.0
  0
LINE
  5
153
330
1F
100
AcDbEntity
  8
0
  6
Continuous
 62
     7
100
AcDbLine
 10
3650.8662401091
 20
4420.00906763
 30
0.0
 11
3650.8662401091
 21
3332.238455183
 31
0.0
  0
LINE
  5
154
330
1F
100
AcDbEntity
  8
0
  6
Continuous
 62
     7
100
AcDbLine
 10
3743.1640757206
 20
3320.9195904084
 30
0.0
 11
3857.3543929159
 21
3320.9195904084
 31
0.0
  0
LINE
  5
155
330
1F
100
AcDbEntity
  8
0
  6
Continuous
 62
     7
100
AcDbLine
 10
3743.1640757206
 20
3323.9245987557
 30
0.0
 11
3857.3543929159
 21
3323.9245987557
 31
0.0
  0
LINE
  5
156
330
1F
100
AcDbEntity
  8
0
  6
Continuous
 62
     7
100
AcDbLine
 10
3813.6994195268
 20
3247.379238255
 30
0.0
 11
3741.4541190116
 21
3319.6245387702
 31
0.0
  0
LINE
  5
157
330
1F
100
AcDbEntity
  8
0
  6
Continuous
 62
     7
100
AcDbLine
 10
3808.0331214472
 20
3241.7129401753
 30
0.0
 11
3735.7878209319
 21
3313.9582406906
 31
0.0
  0
LINE
  5
158
330
1F
100
AcDbEntity
  8
0
  6
Continuous
 62
     7
100
AcDbLine
 10
3730.1423728826
 20
3294.7185273908
 30
0.0
 11
3730.1423728826
 21
3250.9028959176
 31
0.0
  0
LINE
  5
159
330
1F
100
AcDbEntity
  8
0
  6
Continuous
 62
     7
100
AcDbLine
 10
3759.1907869059
 20
3329.9346154501
 30
0.0
 11
3841.3276817306
 21
3329.9346154501
 31
0.0
  0
LINE
  5
15A
330
1F
100
AcDbEntity
  8
0
  6
Continuous
 62
     7
100
AcDbLine
 10
3700.0922894101
 20
3294.8761847323
 30
0.0
 11
3700.0922894101
 21
3250.8027289727
 31
0.0
  0
LINE
  5
15B
330
1F
100
AcDbEntity
  8
0
  6
Continuous
 62
     7
100
AcDbLine
 10
3717.1206700445
 20
3272.8394568525
 30
0.0
 11
3717.1206700445
 21
3246.7960511764
 31
0.0
  0
LINE
  5
15C
330
1F
100
AcDbEntity
  8
0
  6
Continuous
 62
     7
100
AcDbLine
 10
3717.1206700445
 20
3298.8828625286
 30
0.0
 11
3717.1206700445
 21
3272.8394568525
 31
0.0
  0
LINE
  5
15D
330
1F
100
AcDbEntity
  8
0
  6
Continuous
 62
     7
100
AcDbLine
 10
3716.1190005954
 20
3299.8845319777
 30
0.0
 11
3716.1190005954
 21
3245.7943817273
 31
0.0
  0
LINE
  5
15E
330
1F
100
AcDbEntity
  8
0
  6
Continuous
 62
     7
100
AcDbLine
 10
2016.2256310526
 20
2695.0979822889
 30
0.0
 11
2017.4253671636
 21
2696.4003903945
 31
0.0
  0
LINE
  5
15F
330
1F
100
AcDbEntity
  8
0
  6
Continuous
 62
     7
100
AcDbLine
 10
2019.4824066703
 20
2699.1031392366
 30
0.0
 11
2019.927149645
 21
2699.7985012947
 31
0.0
  0
LINE
  5
160
330
1F
100
AcDbEntity
  8
0
  6
Continuous
 62
     7
100
AcDbLine
 10
2020.4385955825
 20
2699.6381241867
 30
0.0
 11
2019.927149645
 21
2699.7985012947
 31
0.0
  0
LINE
  5
161
330
1F
100
AcDbEntity
  8
0
  6
Continuous
 62
     7
100
AcDbLine
 10
2003.3573437964
 20
2699.2454720803
 30
0.0
 11
2004.181916491
 21
2699.2079943951
 31
0.0
  0
LINE
  5
162
330
1F
100
AcDbEntity
  8
0
  6
Continuous
 62
     7
100
AcDbLine
 10
2004.2987488101
 20
2698.6848806666
 30
0.0
 11
2004.181916491
 21
2699.2079943951
 31
0.0
  0
LINE
  5
163
330
1F
100
AcDbEntity
  8
0
  6
Continuous
 62
     7
100
AcDbLine
 10
1998.1260765929
 20
2700.093489999
 30
0.0
 11
1999.9881748858
 21
2699.6755461287
 31
0.0
  0
LINE
  5
164
330
1F
100
AcDbEntity
  8
0
  6
Continuous
 62
     7
100
AcDbLine
 10
2027.2883722459
 20
2713.7295266444
 30
0.0
 11
2027.6682019657
 21
2712.996686901
 31
0.0
  0
LINE
  5
165
330
1F
100
AcDbEntity
  8
0
  6
Continuous
 62
     7
100
AcDbLine
 10
2027.6829858643
 20
2714.092263265
 30
0.0
 11
2027.2883722459
 21
2713.7295266444
 31
0.0
  0
LINE
  5
166
330
1F
100
AcDbEntity
  8
0
  6
Continuous
 62
     7
100
AcDbLine
 10
1995.418076218
 20
2713.2813525886
 30
0.0
 11
1995.7979059378
 21
2712.5485128452
 31
0.0
  0
LINE
  5
167
330
1F
100
AcDbEntity
  8
0
  6
Continuous
 62
     7
100
AcDbLine
 10
1995.4032923194
 20
2712.1857762246
 30
0.0
 11
1995.7979059378
 21
2712.5485128452
 31
0.0
  0
LINE
  5
168
330
1F
100
AcDbEntity
  8
0
  6
Continuous
 62
     7
100
AcDbLine
 10
1993.5823827968
 20
2718.0900211199
 30
0.0
 11
1994.1059468141
 21
2716.414175479
 31
0.0
  0
LINE
  5
169
330
1F
100
AcDbEntity
  8
0
  6
Continuous
 62
     7
100
AcDbLine
 10
2026.1328829982
 20
2718.848535604
 30
0.0
 11
2026.1330777716
 21
2718.8480378672
 31
0.0
  0
LINE
  5
16A
330
1F
100
AcDbEntity
  8
0
  6
Continuous
 62
     7
100
AcDbLine
 10
2026.1330777716
 20
2718.8480378672
 30
0.0
 11
2026.8335674032
 21
2716.5539868979
 31
0.0
  0
LINE
  5
16B
330
1F
100
AcDbEntity
  8
0
  6
Continuous
 62
     7
100
AcDbLine
 10
2000.6544389557
 20
2706.9577296156
 30
0.0
 11
2000.6815412414
 21
2706.9758124884
 31
0.0
  0
LINE
  5
16C
330
1F
100
AcDbEntity
  8
0
  6
Continuous
 62
     7
100
AcDbLine
 10
2001.6551286253
 20
2705.4579138784
 30
0.0
 11
2001.682230911
 21
2705.4759967513
 31
0.0
  0
LINE
  5
16D
330
1F
100
AcDbEntity
  8
0
  6
Continuous
 62
     7
100
AcDbLine
 10
2023.1391771346
 20
2708.4163044211
 30
0.0
 11
2023.1099657645
 21
2708.4307342526
 31
0.0
  0
LINE
  5
16E
330
1F
100
AcDbEntity
  8
0
  6
Continuous
 62
     7
100
AcDbLine
 10
2022.34064344
 20
2706.7997738774
 30
0.0
 11
2022.31143207
 21
2706.8142037088
 31
0.0
  0
LINE
  5
16F
330
1F
100
AcDbEntity
  8
0
  6
Continuous
 62
     7
100
AcDbLine
 10
3211.5431390918
 20
2862.5881015472
 30
0.0
 11
3209.5398001937
 21
2862.5881015472
 31
0.0
  0
LINE
  5
170
330
1F
100
AcDbEntity
  8
0
  6
Continuous
 62
     7
100
AcDbLine
 10
3209.5398001937
 20
2860.4396203747
 30
0.0
 11
3209.5398001937
 21
2862.5881015472
 31
0.0
  0
LINE
  5
171
330
1F
100
AcDbEntity
  8
0
  6
Continuous
 62
     7
100
AcDbLine
 10
3211.5431390918
 20
2860.4396203747
 30
0.0
 11
3209.5398001937
 21
2860.4396203747
 31
0.0
  0
LINE
  5
172
330
1F
100
AcDbEntity
  8
0
  6
Continuous
 62
     7
100
AcDbLine
 10
3211.5431390918
 20
2860.4396203747
 30
0.0
 11
3211.5431390918
 21
2862.5881015472
 31
0.0
  0
LINE
  5
173
330
1F
100
AcDbEntity
  8
0
  6
Continuous
 62
     7
100
AcDbLine
 10
811.5431390918
 20
2862.5881015472
 30
0.0
 11
811.5431390918
 21
2860.4396203747
 31
0.0
  0
LINE
  5
174
330
1F
100
AcDbEntity
  8
0
  6
Continuous
 62
     7
100
AcDbLine
 10
809.5398001937
 20
2860.4396203747
 30
0.0
 11
811.5431390918
 21
2860.4396203747
 31
0.0
  0
LINE
  5
175
330
1F
100
AcDbEntity
  8
0
  6
Continuous
 62
     7
100
AcDbLine
 10
809.5398001937
 20
2862.5881015472
 30
0.0
 11
811.5431390918
 21
2862.5881015472
 31
0.0
  0
LINE
  5
176
330
1F
100
AcDbEntity
  8
0
  6
Continuous
 62
     7
100
AcDbLine
 10
809.5398001937
 20
2860.4396203747
 30
0.0
 11
809.5398001937
 21
2862.5881015472
 31
0.0
  0
LINE
  5
177
330
1F
100
AcDbEntity
  8
0
  6
Continuous
 62
     7
100
AcDbLine
 10
3211.5431390918
 20
2630.7049506094
 30
0.0
 11
3209.5398001937
 21
2630.7049506094
 31
0.0
  0
LINE
  5
178
330
1F
100
AcDbEntity
  8
0
  6
Continuous
 62
     7
100
AcDbLine
 10
3211.5431390918
 20
2630.7049506094
 30
0.0
 11
3211.5431390918
 21
2718.848535604
 31
0.0
  0
LINE
  5
179
330
1F
100
AcDbEntity
  8
0
  6
Continuous
 62
     7
100
AcDbLine
 10
811.5431390918
 20
2718.848535604
 30
0.0
 11
3211.5431390918
 21
2718.848535604
 31
0.0
  0
LINE
  5
17A
330
1F
100
AcDbEntity
  8
0
  6
Continuous
 62
     7
100
AcDbLine
 10
811.5431390918
 20
2630.7049506094
 30
0.0
 11
811.5431390918
 21
2718.848535604
 31
0.0
  0
LINE
  5
17B
330
1F
100
AcDbEntity
  8
0
  6
Continuous
 62
     7
100
AcDbLine
 10
811.5431390918
 20
2630.7049506094
 30
0.0
 11
809.5398001937
 21
2630.7049506094
 31
0.0
  0
LINE
  5
17C
330
1F
100
AcDbEntity
  8
0
  6
Continuous
 62
     7
100
AcDbLine
 10
811.5431390918
 20
2824.0238277576
 30
0.0
 11
3211.5431390918
 21
2824.0238277576
 31
0.0
  0
LINE
  5
17D
330
1F
100
AcDbEntity
  8
0
  6
Continuous
 62
     7
100
AcDbLine
 10
811.5431390918
 20
2824.0238277576
 30
0.0
 11
811.5431390918
 21
2860.4396203747
 31
0.0
  0
LINE
  5
17E
330
1F
100
AcDbEntity
  8
0
  6
Continuous
 62
     7
100
AcDbLine
 10
3209.5398001937
 20
2630.7049506094
 30
0.0
 11
3209.5398001937
 21
2860.4396203747
 31
0.0
  0
LINE
  5
17F
330
1F
100
AcDbEntity
  8
0
  6
Continuous
 62
     7
100
AcDbLine
 10
809.5398001937
 20
2630.7049506094
 30
0.0
 11
809.5398001937
 21
2860.4396203747
 31
0.0
  0
LINE
  5
180
330
1F
100
AcDbEntity
  8
0
  6
Continuous
 62
     7
100
AcDbLine
 10
3211.5431390918
 20
2824.0238277576
 30
0.0
 11
3211.5431390918
 21
2860.4396203747
 31
0.0
  0
LINE
  5
181
330
1F
100
AcDbEntity
  8
0
  6
Continuous
 62
     7
100
AcDbLine
 10
3211.5431390918
 20
2602.154044786
 30
0.0
 11
3209.5398001937
 21
2602.154044786
 31
0.0
  0
LINE
  5
182
330
1F
100
AcDbEntity
  8
0
  6
Continuous
 62
     7
100
AcDbLine
 10
3211.5431390918
 20
2602.154044786
 30
0.0
 11
3211.5431390918
 21
2630.7049506094
 31
0.0
  0
LINE
  5
183
330
1F
100
AcDbEntity
  8
0
  6
Continuous
 62
     7
100
AcDbLine
 10
3209.5398001937
 20
2602.154044786
 30
0.0
 11
3209.5398001937
 21
2630.7049506094
 31
0.0
  0
LINE
  5
184
330
1F
100
AcDbEntity
  8
0
  6
Continuous
 62
     7
100
AcDbLine
 10
811.5431390918
 20
2602.154044786
 30
0.0
 11
809.5398001937
 21
2602.154044786
 31
0.0
  0
LINE
  5
185
330
1F
100
AcDbEntity
  8
0
  6
Continuous
 62
     7
100
AcDbLine
 10
811.5431390918
 20
2602.154044786
 30
0.0
 11
811.5431390918
 21
2630.7049506094
 31
0.0
  0
LINE
  5
186
330
1F
100
AcDbEntity
  8
0
  6
Continuous
 62
     7
100
AcDbLine
 10
809.5398001937
 20
2602.154044786
 30
0.0
 11
809.5398001937
 21
2630.7049506094
 31
0.0
  0
LINE
  5
187
330
1F
100
AcDbEntity
  8
0
  6
Continuous
 62
     7
100
AcDbLine
 10
811.5431390918
 20
2630.4855351841
 30
0.0
 11
3211.5431390918
 21
2630.4855351841
 31
0.0
  0
LINE
  5
188
330
1F
100
AcDbEntity
  8
0
  6
Continuous
 62
     7
100
AcDbLine
 10
811.5431390918
 20
2602.154044786
 30
0.0
 11
3211.5431390918
 21
2602.154044786
 31
0.0
  0
LINE
  5
189
330
1F
100
AcDbEntity
  8
0
  6
Continuous
 62
     7
100
AcDbLine
 10
809.5398001937
 20
2554.0739112301
 30
0.0
 11
3209.5398001937
 21
2554.0739112301
 31
0.0
  0
LINE
  5
18A
330
1F
100
AcDbEntity
  8
0
  6
Continuous
 62
     7
100
AcDbLine
 10
3209.5398001937
 20
2554.0739112301
 30
0.0
 11
3209.5398001937
 21
2602.154044786
 31
0.0
  0
LINE
  5
18B
330
1F
100
AcDbEntity
  8
0
  6
Continuous
 62
     7
100
AcDbLine
 10
809.5398001937
 20
2554.0739112301
 30
0.0
 11
809.5398001937
 21
2602.154044786
 31
0.0
  0
LINE
  5
18C
330
1F
100
AcDbEntity
  8
0
  6
Continuous
 62
     7
100
AcDbLine
 10
2046.4840814034
 20
2710.2712480003
 30
0.0
 11
3034.0021259124
 21
2630.4855351841
 31
0.0
  0
LINE
  5
18D
330
1F
100
AcDbEntity
  8
0
  6
Continuous
 62
     7
100
AcDbLine
 10
2082.8964935418
 20
2718.848535604
 30
0.0
 11
2046.4921067251
 21
2715.9072729426
 31
0.0
  0
LINE
  5
18E
330
1F
100
AcDbEntity
  8
0
  6
Continuous
 62
     7
100
AcDbLine
 10
1976.5941714585
 20
2715.9072729426
 30
0.0
 11
1940.1897846419
 21
2718.848535604
 31
0.0
  0
LINE
  5
18F
330
1F
100
AcDbEntity
  8
0
  6
Continuous
 62
     7
100
AcDbLine
 10
989.0841522713
 20
2630.4855351841
 30
0.0
 11
1976.6021967803
 21
2710.2712480003
 31
0.0
  0
LINE
  5
190
330
1F
100
AcDbEntity
  8
0
  6
Continuous
 62
     7
100
AcDbLine
 10
3211.5431390918
 20
2862.5881015472
 30
0.0
 11
811.5431390918
 21
2862.5881015472
 31
0.0
  0
LINE
  5
191
330
1F
100
AcDbEntity
  8
0
  6
Continuous
 62
     7
100
AcDbLine
 10
811.5431390918
 20
2860.4396203747
 30
0.0
 11
3211.5431390918
 21
2860.4396203747
 31
0.0
  0
LINE
  5
192
330
1F
100
AcDbEntity
  8
0
  6
Continuous
 62
     7
100
AcDbLine
 10
2005.03252926
 20
2701.9817129695
 30
0.0
 11
2006.1668630978
 21
2702.0481485217
 31
0.0
  0
LINE
  5
193
330
1F
100
AcDbEntity
  8
0
  6
Continuous
 62
     7
100
AcDbLine
 10
2019.3416266948
 20
2703.5255850962
 30
0.0
 11
2021.1338893071
 21
2703.9117533104
 31
0.0
  0
LINE
  5
194
330
1F
100
AcDbEntity
  8
0
  6
Continuous
 62
     7
100
AcDbLine
 10
2021.9350840705
 20
2704.1554474446
 30
0.0
 11
2023.9408366917
 21
2704.794543924
 31
0.0
  0
LINE
  5
195
330
1F
100
AcDbEntity
  8
0
  6
Continuous
 62
     7
100
AcDbLine
 10
1997.171849061
 20
2702.4666320597
 30
0.0
 11
1999.8726187018
 21
2702.1836861068
 31
0.0
  0
LINE
  5
196
330
1F
100
AcDbEntity
  8
0
  6
Continuous
 62
     7
100
AcDbLine
 10
2001.6097680114
 20
2702.0998976352
 30
0.0
 11
2005.03252926
 21
2701.9817129695
 31
0.0
  0
LINE
  5
197
330
1F
100
AcDbEntity
  8
0
  6
Continuous
 62
     7
100
AcDbLine
 10
2031.0759349361
 20
2713.1951073381
 30
0.0
 11
2030.8998387438
 21
2716.2185621968
 31
0.0
  0
LINE
  5
198
330
1F
100
AcDbEntity
  8
0
  6
Continuous
 62
     7
100
AcDbLine
 10
2030.8998387438
 20
2716.2185621968
 30
0.0
 11
2030.4549156164
 21
2718.848535604
 31
0.0
  0
LINE
  5
199
330
1F
100
AcDbEntity
  8
0
  6
Continuous
 62
     7
100
AcDbLine
 10
2030.074265487
 20
2713.1951073381
 30
0.0
 11
2029.8984999448
 21
2716.1568728871
 31
0.0
  0
LINE
  5
19A
330
1F
100
AcDbEntity
  8
0
  6
Continuous
 62
     7
100
AcDbLine
 10
2029.8984999448
 20
2716.1568728871
 30
0.0
 11
2029.5672641143
 21
2718.2086229603
 31
0.0
  0
LINE
  5
19B
330
1F
100
AcDbEntity
  8
0
  6
Continuous
 62
     7
100
AcDbLine
 10
2029.47724826
 20
2707.7596435791
 30
0.0
 11
2029.5980146032
 21
2708.3345021167
 31
0.0
  0
LINE
  5
19C
330
1F
100
AcDbEntity
  8
0
  6
Continuous
 62
     7
100
AcDbLine
 10
2029.8138295937
 20
2709.5929264661
 30
0.0
 11
2029.8984999448
 21
2710.2333417892
 31
0.0
  0
LINE
  5
19D
330
1F
100
AcDbEntity
  8
0
  6
Continuous
 62
     7
100
AcDbLine
 10
2029.8984999448
 20
2710.2333417892
 30
0.0
 11
2030.074265487
 21
2713.1951073381
 31
0.0
  0
LINE
  5
19E
330
1F
100
AcDbEntity
  8
0
  6
Continuous
 62
     7
100
AcDbLine
 10
2029.8806587536
 20
2710.0872119189
 30
0.0
 11
2029.7030044985
 21
2710.0157692509
 31
0.0
  0
LINE
  5
19F
330
1F
100
AcDbEntity
  8
0
  6
Continuous
 62
     7
100
AcDbLine
 10
2029.0517685426
 20
2709.7596249969
 30
0.0
 11
2027.3014030088
 21
2709.1145217885
 31
0.0
  0
LINE
  5
1A0
330
1F
100
AcDbEntity
  8
0
  6
Continuous
 62
     7
100
AcDbLine
 10
2027.3014030088
 20
2709.1145217885
 30
0.0
 11
2027.1923611795
 21
2709.076363582
 31
0.0
  0
LINE
  5
1A1
330
1F
100
AcDbEntity
  8
0
  6
Continuous
 62
     7
100
AcDbLine
 10
2025.8619585235
 20
2708.6293020678
 30
0.0
 11
2023.8072359544
 21
2708.0037038699
 31
0.0
  0
LINE
  5
1A2
330
1F
100
AcDbEntity
  8
0
  6
Continuous
 62
     7
100
AcDbLine
 10
1997.102389416
 20
2705.8679760889
 30
0.0
 11
1994.61958982
 21
2706.1951090092
 31
0.0
  0
LINE
  5
1A3
330
1F
100
AcDbEntity
  8
0
  6
Continuous
 62
     7
100
AcDbLine
 10
1994.61958982
 20
2706.1951090092
 30
0.0
 11
1994.1246097574
 21
2706.2713567207
 31
0.0
  0
LINE
  5
1A4
330
1F
100
AcDbEntity
  8
0
  6
Continuous
 62
     7
100
AcDbLine
 10
2029.8997122827
 20
2710.4470606453
 30
0.0
 11
2029.5714884442
 21
2710.3044147963
 31
0.0
  0
LINE
  5
1A5
330
1F
100
AcDbEntity
  8
0
  6
Continuous
 62
     7
100
AcDbLine
 10
2025.889581226
 20
2708.982618498
 30
0.0
 11
2023.5552804789
 21
2708.2107577074
 31
0.0
  0
LINE
  5
1A6
330
1F
100
AcDbEntity
  8
0
  6
Continuous
 62
     7
100
AcDbLine
 10
1999.1730271785
 20
2705.9693192228
 30
0.0
 11
1998.4698315391
 21
2706.0309649887
 31
0.0
  0
LWPOLYLINE
  5
1A7
330
1F
100
AcDbEntity
  8
0
  6
Continuous
 62
     7
100
AcDbPolyline
 90
        5
 70
   128
 43
0.0
 10
1949.9406814575
 20
3320.9195904084
 10
1949.5750782414
 20
3304.2267167245
 10
1950.8193317564
 20
3293.4965966834
 10
1953.4610797812
 20
3283.5632198169
 10
1956.4674604895
 20
3274.8214090328
  0
LWPOLYLINE
  5
1A8
330
1F
100
AcDbEntity
  8
0
  6
Continuous
 62
     7
100
AcDbPolyline
 90
        5
 70
   128
 43
0.0
 10
2053.596496582
 20
3274.8218435179
 10
2058.1480650826
 20
3288.8148015975
 10
2060.1467247777
 20
3299.3239120625
 10
2060.5404259425
 20
3310.134156168
 10
2060.1243300771
 20
3320.9195904084
  0
LWPOLYLINE
  5
1A9
330
1F
100
AcDbEntity
  8
0
  6
Continuous
 62
     7
100
AcDbPolyline
 90
        3
 70
   128
 43
0.0
 10
1984.2233657837
 20
3332.352271383
 10
2016.7119263234
 20
3333.7881268764
 10
2038.8624459035
 20
3332.352271383
  0
LWPOLYLINE
  5
1AA
330
1F
100
AcDbEntity
  8
0
  6
Continuous
 62
     7
100
AcDbPolyline
 90
        3
 70
   128
 43
0.0
 10
3745.1667785645
 20
3320.9195904084
 10
3743.8756611956
 20
3319.1664802959
 10
3742.1624062715
 20
3318.9162515102
  0
LWPOLYLINE
  5
1AB
330
1F
100
AcDbEntity
  8
0
  6
Continuous
 62
     7
100
AcDbPolyline
 90
        5
 70
   128
 43
0.0
 10
3812.9901885986
 20
3248.0875257906
 10
3835.6000019034
 20
3267.556748115
 10
3846.4720607621
 20
3283.4458441196
 10
3852.3060268975
 20
3301.8346288451
 10
3855.3510350452
 20
3320.9195904084
  0
LWPOLYLINE
  5
1AC
330
1F
100
AcDbEntity
  8
0
  6
Continuous
 62
     7
100
AcDbPolyline
 90
        3
 70
   128
 43
0.0
 10
3736.4959716797
 20
3313.2499370867
 10
3732.9859693024
 20
3302.8617686447
 10
3730.1423728825
 20
3294.766403831
  0
LWPOLYLINE
  5
1AD
330
1F
100
AcDbEntity
  8
0
  6
Continuous
 62
     7
100
AcDbPolyline
 90
        5
 70
   128
 43
0.0
 10
3730.1406860352
 20
3250.9028959176
 10
3756.397536709
 20
3248.1244269389
 10
3773.361324275
 20
3246.2652536368
 10
3790.3393071037
 20
3244.370673185
 10
3807.3132595032
 20
3242.4328021193
  0
LWPOLYLINE
  5
1AE
330
1F
100
AcDbEntity
  8
0
  6
Continuous
 62
     7
100
AcDbPolyline
 90
        3
 70
   128
 43
0.0
 10
2019.4816589355
 20
2699.1031392366
 10
2018.470426864
 20
2697.5697354728
 10
2017.4253671636
 20
2696.4003903945
  0
LWPOLYLINE
  5
1AF
330
1F
100
AcDbEntity
  8
0
  6
Continuous
 62
     7
100
AcDbPolyline
 90
        3
 70
   128
 43
0.0
 10
2017.3206329346
 20
2695.3847608062
 10
2019.4573028764
 20
2697.7067692023
 10
2020.4385955825
 20
2699.6381241867
  0
LWPOLYLINE
  5
1B0
330
1F
100
AcDbEntity
  8
0
  6
Continuous
 62
     7
100
AcDbPolyline
 90
        3
 70
   128
 43
0.0
 10
2003.3569335938
 20
2699.2454720803
 10
2001.5233872796
 20
2699.3551704188
 10
1999.9881748858
 20
2699.6755461287
  0
LWPOLYLINE
  5
1B1
330
1F
100
AcDbEntity
  8
0
  6
Continuous
 62
     7
100
AcDbPolyline
 90
        3
 70
   128
 43
0.0
 10
1999.3524551392
 20
2699.128878821
 10
2002.2552596061
 20
2698.5545995162
 10
2004.2987488101
 20
2698.6848806666
  0
LWPOLYLINE
  5
1B2
330
1F
100
AcDbEntity
  8
0
  6
Continuous
 62
     7
100
AcDbPolyline
 90
        3
 70
   128
 43
0.0
 10
2028.980255127
 20
2709.8638640106
 10
2029.2560616029
 20
2709.043711749
 10
2029.4576455285
 20
2708.3671630496
  0
LWPOLYLINE
  5
1B3
330
1F
100
AcDbEntity
  8
0
  6
Continuous
 62
     7
100
AcDbPolyline
 90
        3
 70
   128
 43
0.0
 10
2027.6679992676
 20
2712.996686901
 10
2028.4901786762
 20
2711.3535847988
 10
2028.9803313696
 20
2709.8638640106
  0
LWPOLYLINE
  5
1B4
330
1F
100
AcDbEntity
  8
0
  6
Continuous
 62
     7
100
AcDbPolyline
 90
        3
 70
   128
 43
0.0
 10
2029.8042297363
 20
2709.2843377871
 10
2028.8617820103
 20
2712.282954288
 10
2027.6829858643
 20
2714.092263265
  0
LWPOLYLINE
  5
1B5
330
1F
100
AcDbEntity
  8
0
  6
Continuous
 62
     7
100
AcDbPolyline
 90
        3
 70
   128
 43
0.0
 10
1995.4175949097
 20
2713.2813525886
 10
1994.5960995075
 20
2714.9244546908
 10
1994.1059468141
 20
2716.414175479
  0
LWPOLYLINE
  5
1B6
330
1F
100
AcDbEntity
  8
0
  6
Continuous
 62
     7
100
AcDbPolyline
 90
        3
 70
   128
 43
0.0
 10
1993.3271408081
 20
2716.6463228005
 10
1994.2772106931
 20
2713.87397713
 10
1995.4032923194
 20
2712.1857762246
  0
LWPOLYLINE
  5
1B7
330
1F
100
AcDbEntity
  8
0
  6
Continuous
 62
     7
100
AcDbPolyline
 90
        3
 70
   128
 43
0.0
 10
1999.9876022339
 20
2699.6755461287
 10
2001.8935716831
 20
2699.3243613789
 10
2003.3573437964
 20
2699.2454720803
  0
LWPOLYLINE
  5
1B8
330
1F
100
AcDbEntity
  8
0
  6
Continuous
 62
     7
100
AcDbPolyline
 90
        3
 70
   128
 43
0.0
 10
1994.1053390503
 20
2716.414175479
 10
1994.754510298
 20
2714.5884610734
 10
1995.418076218
 20
2713.2813525886
  0
LWPOLYLINE
  5
1B9
330
1F
100
AcDbEntity
  8
0
  6
Continuous
 62
     7
100
AcDbPolyline
 90
        3
 70
   128
 43
0.0
 10
2028.980255127
 20
2709.8638640106
 10
2028.3317678857
 20
2711.6895784163
 10
2027.6682019657
 20
2712.996686901
  0
LWPOLYLINE
  5
1BA
330
1F
100
AcDbEntity
  8
0
  6
Continuous
 62
     7
100
AcDbPolyline
 90
        3
 70
   128
 43
0.0
 10
2017.4236297607
 20
2696.4003903945
 10
2018.6822302519
 20
2697.8749089349
 10
2019.4824066703
 20
2699.1031392366
  0
LWPOLYLINE
  5
1BB
330
1F
100
AcDbEntity
  8
0
  6
Continuous
 62
     7
100
AcDbPolyline
 90
        3
 70
   128
 43
0.0
 10
2020.4067230225
 20
2701.0230065104
 10
2021.0938556266
 20
2703.4650952583
 10
2021.2327436409
 20
2705.3523620565
  0
LWPOLYLINE
  5
1BC
330
1F
100
AcDbEntity
  8
0
  6
Continuous
 62
     7
100
AcDbPolyline
 90
        3
 70
   128
 43
0.0
 10
2010.2443695068
 20
2700.8873576371
 10
2007.8147977085
 20
2699.7692293964
 10
2005.5901903847
 20
2699.3575631769
  0
LWPOLYLINE
  5
1BD
330
1F
100
AcDbEntity
  8
0
  6
Continuous
 62
     7
100
AcDbPolyline
 90
        3
 70
   128
 43
0.0
 10
2005.4817199707
 20
2699.4046679648
 10
2008.0152214956
 20
2700.0578073688
 10
2009.7608137364
 20
2700.921996396
  0
LWPOLYLINE
  5
1BE
330
1F
100
AcDbEntity
  8
0
  6
Continuous
 62
     7
100
AcDbPolyline
 90
        3
 70
   128
 43
0.0
 10
2000.1926422119
 20
2708.1961007161
 10
1998.0644266847
 20
2709.7169317995
 10
1996.6315732493
 20
2711.4036962687
  0
LWPOLYLINE
  5
1BF
330
1F
100
AcDbEntity
  8
0
  6
Continuous
 62
     7
100
AcDbPolyline
 90
        3
 70
   128
 43
0.0
 10
1996.618270874
 20
2711.5206811992
 10
1998.3899164649
 20
2709.7048188447
 10
1999.9548934487
 20
2708.6409048968
  0
LWPOLYLINE
  5
1C0
330
1F
100
AcDbEntity
  8
0
  6
Continuous
 62
     7
100
AcDbPolyline
 90
        3
 70
   128
 43
0.0
 10
2026.4663696289
 20
2714.7573582904
 10
2024.6357601199
 20
2716.624359672
 10
2023.0145543483
 20
2717.7039923836
  0
LWPOLYLINE
  5
1C1
330
1F
100
AcDbEntity
  8
0
  6
Continuous
 62
     7
100
AcDbPolyline
 90
        3
 70
   128
 43
0.0
 10
2021.4977264404
 20
2705.7820691699
 10
2021.24611039
 20
2703.1771563625
 10
2020.5017562272
 20
2701.0928866531
  0
LWPOLYLINE
  5
1C2
330
1F
100
AcDbEntity
  8
0
  6
Continuous
 62
     7
100
AcDbPolyline
 90
        3
 70
   128
 43
0.0
 10
2022.8023529053
 20
2718.1405162603
 10
2024.9858878686
 20
2716.595076567
 10
2026.4547049343
 20
2714.8743432209
  0
LWPOLYLINE
  5
1C3
330
1F
100
AcDbEntity
  8
0
  6
Continuous
 62
     7
100
AcDbPolyline
 90
        3
 70
   128
 43
0.0
 10
2007.0152282715
 20
2698.9864256884
 10
2009.3504714329
 20
2699.7995149507
 10
2010.981771643
 20
2700.6950168355
  0
LWPOLYLINE
  5
1C4
330
1F
100
AcDbEntity
  8
0
  6
Continuous
 62
     7
100
AcDbPolyline
 90
        3
 70
   128
 43
0.0
 10
2021.5339660645
 20
2702.1414466756
 10
2021.999155288
 20
2704.570361453
 10
2022.0392780116
 20
2706.4308598186
  0
LWPOLYLINE
  5
1C5
330
1F
100
AcDbEntity
  8
0
  6
Continuous
 62
     7
100
AcDbPolyline
 90
        3
 70
   128
 43
0.0
 10
1997.0226287842
 20
2709.9839987576
 10
1998.8944552367
 20
2708.3681732425
 10
2000.4856327232
 20
2707.4031767617
  0
LWPOLYLINE
  5
1C6
330
1F
100
AcDbEntity
  8
0
  6
Continuous
 62
     7
100
AcDbPolyline
 90
        3
 70
   128
 43
0.0
 10
2026.0620117188
 20
2716.294040732
 10
2024.191822947
 20
2717.9098662472
 10
2022.6006454605
 20
2718.8748627279
  0
LWPOLYLINE
  5
1C7
330
1F
100
AcDbEntity
  8
0
  6
Continuous
 62
     7
100
AcDbPolyline
 90
        3
 70
   128
 43
0.0
 10
2001.5087127686
 20
2705.3606190456
 10
1999.056406751
 20
2703.724024795
 10
1995.395746103
 20
2701.2816012334
  0
LWPOLYLINE
  5
1C8
330
1F
100
AcDbEntity
  8
0
  6
Continuous
 62
     7
100
AcDbPolyline
 90
        3
 70
   128
 43
0.0
 10
2000.5073547363
 20
2706.8604347827
 10
1998.0557170814
 20
2705.2238405321
 10
1994.3950564334
 20
2702.7814169705
  0
LWPOLYLINE
  5
1C9
330
1F
100
AcDbEntity
  8
0
  6
Continuous
 62
     7
100
AcDbPolyline
 90
        3
 70
   128
 43
0.0
 10
2023.2944488525
 20
2708.3386647645
 10
2025.9401300653
 20
2707.0326898023
 10
2029.8856612404
 20
2705.0836764674
  0
LWPOLYLINE
  5
1CA
330
1F
100
AcDbEntity
  8
0
  6
Continuous
 62
     7
100
AcDbPolyline
 90
        3
 70
   128
 43
0.0
 10
2022.497177124
 20
2706.7221342208
 10
2025.1301575862
 20
2705.421809789
 10
2029.0871275459
 20
2703.4671459236
  0
LWPOLYLINE
  5
1CB
330
1F
100
AcDbEntity
  8
0
  6
Continuous
 62
     7
100
AcDbPolyline
 90
        3
 70
   128
 43
0.0
 10
2027.9102325439
 20
2706.0593897453
 10
2028.5227975927
 20
2706.2465722956
 10
2028.9737640665
 20
2706.4339349635
  0
LWPOLYLINE
  5
1CC
330
1F
100
AcDbEntity
  8
0
  6
Continuous
 62
     7
100
AcDbPolyline
 90
        3
 70
   128
 43
0.0
 10
2028.8467407227
 20
2709.9898554453
 10
2027.8846829072
 20
2709.6194083751
 10
2027.0892060616
 20
2709.3792869116
  0
LWPOLYLINE
  5
1CD
330
1F
100
AcDbEntity
  8
0
  6
Continuous
 62
     7
100
AcDbPolyline
 90
        3
 70
   128
 43
0.0
 10
1997.1370697021
 20
2706.1477281803
 10
1995.4777548319
 20
2706.3270275626
 10
1994.1984997915
 20
2706.5655313344
  0
ENDSEC
  0
SECTION
  2
OBJECTS
  0
DICTIONARY
  5
C
330
0
100
AcDbDictionary
281
     1
  3
ACAD_GROUP
350
D
  3
ACAD_LAYOUT
350
1A
  3
ACAD_MLINESTYLE
350
17
  3
ACAD_PLOTSETTINGS
350
19
  3
ACAD_PLOTSTYLENAME
350
E
  3
ACAD_SCALELIST
350
47
  3
DWGPROPS
350
1CE
  0
DICTIONARY
  5
D
102
{ACAD_REACTORS
330
C
102
}
330
C
100
AcDbDictionary
281
     1
  0
DICTIONARY
  5
1A
102
{ACAD_REACTORS
330
C
102
}
330
C
100
AcDbDictionary
281
     1
  3
Layout1
350
1E
  3
Layout2
350
26
  3
Model
350
22
  0
DICTIONARY
  5
17
102
{ACAD_REACTORS
330
C
102
}
330
C
100
AcDbDictionary
281
     1
  3
Standard
350
18
  0
DICTIONARY
  5
19
102
{ACAD_REACTORS
330
C
102
}
330
C
100
AcDbDictionary
281
     1
  0
ACDBDICTIONARYWDFLT
  5
E
102
{ACAD_REACTORS
330
C
102
}
330
C
100
AcDbDictionary
281
     1
  3
Normal
350
F
100
AcDbDictionaryWithDefault
340
F
  0
DICTIONARY
  5
47
102
{ACAD_REACTORS
330
C
102
}
330
C
100
AcDbDictionary
281
     1
  3
A0
350
48
  3
A1
350
49
  3
A2
350
4A
  3
A3
350
4B
  3
A4
350
4C
  3
A5
350
4D
  3
A6
350
4E
  3
A7
350
4F
  3
A8
350
50
  3
A9
350
51
  3
B0
350
52
  3
B1
350
53
  3
B2
350
54
  3
B3
350
55
  3
B4
350
56
  3
B5
350
57
  3
B6
350
58
  3
B7
350
59
  3
B8
350
5A
  3
B9
350
5B
  3
C0
350
5C
  3
C1
350
5D
  3
C2
350
5E
  3
C3
350
5F
  3
C4
350
60
  3
C5
350
61
  3
C6
350
62
  3
C7
350
63
  3
C8
350
64
  3
C9
350
65
  3
D0
350
66
  3
D1
350
67
  3
D2
350
68
  0
XRECORD
  5
1CE
102
{ACAD_REACTORS
330
C
102
}
330
C
100
AcDbXrecord
280
     1
  1
DWGPROPS COOKIE
  2

  3

  4

  6

  7

  8
radek.stransky
  9

300
=
301
=
302
=
303
=
304
=
305
=
306
=
307
=
308
=
309
=
 40
0.0
 41
2459094.287936887
 42
2459094.287977801
  1

 90
        0
  0
LAYOUT
  5
1E
102
{ACAD_REACTORS
330
1A
102
}
330
1A
100
AcDbPlotSettings
  1

  2
none_device
  4

  6

 40
0.0
 41
0.0
 42
0.0
 43
0.0
 44
0.0
 45
0.0
 46
0.0
 47
0.0
 48
0.0
 49
0.0
140
0.0
141
0.0
142
1.0
143
1.0
 70
   688
 72
     1
 73
     0
 74
     5
  7

 75
    16
147
1.0
148
0.0
149
0.0
100
AcDbLayout
  1
Layout1
 70
     1
 71
     1
 10
0.0
 20
0.0
 11
420.0
 21
297.0
 12
0.0
 22
0.0
 32
0.0
 14
1.0000000000E+20
 24
1.0000000000E+20
 34
1.0000000000E+20
 15
-1.0000000000E+20
 25
-1.0000000000E+20
 35
-1.0000000000E+20
146
0.0
 13
0.0
 23
0.0
 33
0.0
 16
1.0
 26
0.0
 36
0.0
 17
0.0
 27
1.0
 37
0.0
 76
     0
330
1B
  0
LAYOUT
  5
26
102
{ACAD_REACTORS
330
1A
102
}
330
1A
100
AcDbPlotSettings
  1

  2
none_device
  4

  6

 40
0.0
 41
0.0
 42
0.0
 43
0.0
 44
0.0
 45
0.0
 46
0.0
 47
0.0
 48
0.0
 49
0.0
140
0.0
141
0.0
142
1.0
143
1.0
 70
   688
 72
     1
 73
     0
 74
     5
  7

 75
    16
147
1.0
148
0.0
149
0.0
100
AcDbLayout
  1
Layout2
 70
     1
 71
     2
 10
0.0
 20
0.0
 11
0.0
 21
0.0
 12
0.0
 22
0.0
 32
0.0
 14
0.0
 24
0.0
 34
0.0
 15
0.0
 25
0.0
 35
0.0
146
0.0
 13
0.0
 23
0.0
 33
0.0
 16
1.0
 26
0.0
 36
0.0
 17
0.0
 27
1.0
 37
0.0
 76
     0
330
23
  0
LAYOUT
  5
22
102
{ACAD_REACTORS
330
1A
102
}
330
1A
100
AcDbPlotSettings
  1

  2
none_device
  4
ANSI_A_(11.00_x_8.50_Inches)
  6

 40
6.35
 41
19.05
 42
6.35000508
 43
19.05000254
 44
279.4
 45
215.9
 46
-76.0434456002
 47
-217.3835604445
 48
0.0
 49
0.0
140
0.0
141
0.0
142
0.0034573178
143
1.0
 70
  1696
 72
     0
 73
     0
 74
     0
  7

 75
     0
147
0.0179189148
148
-1300.4909072572
149
0.0
100
AcDbLayout
  1
Model
 70
     1
 71
     0
 10
0.0
 20
0.0
 11
420.0
 21
297.0
 12
0.0
 22
0.0
 32
0.0
 14
809.5398001937
 24
2554.0739112301
 34
0.0
 15
3959.3804304263
 25
4421.5115718037
 35
0.0
146
0.0
 13
0.0
 23
0.0
 33
0.0
 16
1.0
 26
0.0
 36
0.0
 17
0.0
 27
1.0
 37
0.0
 76
     0
330
1F
331
29
  0
MLINESTYLE
  5
18
102
{ACAD_REACTORS
330
17
102
}
330
17
100
AcDbMlineStyle
  2
Standard
 70
     0
  3

 62
   256
 51
90.0
 52
90.0
 71
     2
 49
0.5
 62
   256
  6
BYLAYER
 49
-0.5
 62
   256
  6
BYLAYER
  0
ACDBPLACEHOLDER
  5
F
102
{ACAD_REACTORS
330
E
102
}
330
E
  0
SCALE
  5
48
102
{ACAD_REACTORS
330
47
102
}
330
47
100
AcDbScale
 70
     0
300
1:1
140
1.0
141
1.0
290
     1
  0
SCALE
  5
49
102
{ACAD_REACTORS
330
47
102
}
330
47
100
AcDbScale
 70
     0
300
1:2
140
1.0
141
2.0
290
     0
  0
SCALE
  5
4A
102
{ACAD_REACTORS
330
47
102
}
330
47
100
AcDbScale
 70
     0
300
1:4
140
1.0
141
4.0
290
     0
  0
SCALE
  5
4B
102
{ACAD_REACTORS
330
47
102
}
330
47
100
AcDbScale
 70
     0
300
1:5
140
1.0
141
5.0
290
     0
  0
SCALE
  5
4C
102
{ACAD_REACTORS
330
47
102
}
330
47
100
AcDbScale
 70
     0
300
1:8
140
1.0
141
8.0
290
     0
  0
SCALE
  5
4D
102
{ACAD_REACTORS
330
47
102
}
330
47
100
AcDbScale
 70
     0
300
1:10
140
1.0
141
10.0
290
     0
  0
SCALE
  5
4E
102
{ACAD_REACTORS
330
47
102
}
330
47
100
AcDbScale
 70
     0
300
1:16
140
1.0
141
16.0
290
     0
  0
SCALE
  5
4F
102
{ACAD_REACTORS
330
47
102
}
330
47
100
AcDbScale
 70
     0
300
1:20
140
1.0
141
20.0
290
     0
  0
SCALE
  5
50
102
{ACAD_REACTORS
330
47
102
}
330
47
100
AcDbScale
 70
     0
300
1:30
140
1.0
141
30.0
290
     0
  0
SCALE
  5
51
102
{ACAD_REACTORS
330
47
102
}
330
47
100
AcDbScale
 70
     0
300
1:40
140
1.0
141
40.0
290
     0
  0
SCALE
  5
52
102
{ACAD_REACTORS
330
47
102
}
330
47
100
AcDbScale
 70
     0
300
1:50
140
1.0
141
50.0
290
     0
  0
SCALE
  5
53
102
{ACAD_REACTORS
330
47
102
}
330
47
100
AcDbScale
 70
     0
300
1:100
140
1.0
141
100.0
290
     0
  0
SCALE
  5
54
102
{ACAD_REACTORS
330
47
102
}
330
47
100
AcDbScale
 70
     0
300
2:1
140
2.0
141
1.0
290
     0
  0
SCALE
  5
55
102
{ACAD_REACTORS
330
47
102
}
330
47
100
AcDbScale
 70
     0
300
4:1
140
4.0
141
1.0
290
     0
  0
SCALE
  5
56
102
{ACAD_REACTORS
330
47
102
}
330
47
100
AcDbScale
 70
     0
300
8:1
140
8.0
141
1.0
290
     0
  0
SCALE
  5
57
102
{ACAD_REACTORS
330
47
102
}
330
47
100
AcDbScale
 70
     0
300
10:1
140
10.0
141
1.0
290
     0
  0
SCALE
  5
58
102
{ACAD_REACTORS
330
47
102
}
330
47
100
AcDbScale
 70
     0
300
100:1
140
100.0
141
1.0
290
     0
  0
SCALE
  5
59
102
{ACAD_REACTORS
330
47
102
}
330
47
100
AcDbScale
 70
     0
300
1/128" = 1'-0"
140
0.0078125
141
12.0
290
     0
  0
SCALE
  5
5A
102
{ACAD_REACTORS
330
47
102
}
330
47
100
AcDbScale
 70
     0
300
1/64" = 1'-0"
140
0.015625
141
12.0
290
     0
  0
SCALE
  5
5B
102
{ACAD_REACTORS
330
47
102
}
330
47
100
AcDbScale
 70
     0
300
1/32" = 1'-0"
140
0.03125
141
12.0
290
     0
  0
SCALE
  5
5C
102
{ACAD_REACTORS
330
47
102
}
330
47
100
AcDbScale
 70
     0
300
1/16" = 1'-0"
140
0.0625
141
12.0
290
     0
  0
SCALE
  5
5D
102
{ACAD_REACTORS
330
47
102
}
330
47
100
AcDbScale
 70
     0
300
3/32" = 1'-0"
140
0.09375
141
12.0
290
     0
  0
SCALE
  5
5E
102
{ACAD_REACTORS
330
47
102
}
330
47
100
AcDbScale
 70
     0
300
1/8" = 1'-0"
140
0.125
141
12.0
290
     0
  0
SCALE
  5
5F
102
{ACAD_REACTORS
330
47
102
}
330
47
100
AcDbScale
 70
     0
300
3/16" = 1'-0"
140
0.1875
141
12.0
290
     0
  0
SCALE
  5
60
102
{ACAD_REACTORS
330
47
102
}
330
47
100
AcDbScale
 70
     0
300
1/4" = 1'-0"
140
0.25
141
12.0
290
     0
  0
SCALE
  5
61
102
{ACAD_REACTORS
330
47
102
}
330
47
100
AcDbScale
 70
     0
300
3/8" = 1'-0"
140
0.375
141
12.0
290
     0
  0
SCALE
  5
62
102
{ACAD_REACTORS
330
47
102
}
330
47
100
AcDbScale
 70
     0
300
1/2" = 1'-0"
140
0.5
141
12.0
290
     0
  0
SCALE
  5
63
102
{ACAD_REACTORS
330
47
102
}
330
47
100
AcDbScale
 70
     0
300
3/4" = 1'-0"
140
0.75
141
12.0
290
     0
  0
SCALE
  5
64
102
{ACAD_REACTORS
330
47
102
}
330
47
100
AcDbScale
 70
     0
300
1" = 1'-0"
140
1.0
141
12.0
290
     0
  0
SCALE
  5
65
102
{ACAD_REACTORS
330
47
102
}
330
47
100
AcDbScale
 70
     0
300
1-1/2" = 1'-0"
140
1.5
141
12.0
290
     0
  0
SCALE
  5
66
102
{ACAD_REACTORS
330
47
102
}
330
47
100
AcDbScale
 70
     0
300
3" = 1'-0"
140
3.0
141
12.0
290
     0
  0
SCALE
  5
67
102
{ACAD_REACTORS
330
47
102
}
330
47
100
AcDbScale
 70
     0
300
6" = 1'-0"
140
6.0
141
12.0
290
     0
  0
SCALE
  5
68
102
{ACAD_REACTORS
330
47
102
}
330
47
100
AcDbScale
 70
     0
300
1'-0" = 1'-0"
140
12.0
141
12.0
290
     0
  0
ENDSEC
  0
EOF
