  0
SECTION
  2
HEADER
  9
$ACADVER
  1
AC1015
  9
$ACADMAINTVER
 70
     6
  9
$DWGCODEPAGE
  3
ANSI_1250
  9
$INSBASE
 10
0.0
 20
0.0
 30
0.0
  9
$EXTMIN
 10
0.0
 20
0.0
 30
0.0
  9
$EXTMAX
 10
20000.0
 20
10000.0
 30
0.0
  9
$LIMMIN
 10
0.0
 20
0.0
  9
$LIMMAX
 10
20000.0
 20
10000.0
  9
$ORTHOMODE
 70
     0
  9
$REGENMODE
 70
     1
  9
$FILLMODE
 70
     1
  9
$QTEXTMODE
 70
     0
  9
$MIRRTEXT
 70
     1
  9
$LTSCALE
 40
1.0
  9
$ATTMODE
 70
     1
  9
$TEXTSIZE
 40
2.0
  9
$TRACEWID
 40
1.0
  9
$TEXTSTYLE
  7
Standard
  9
$CLAYER
  8
0
  9
$CELTYPE
  6
ByLayer
  9
$CECOLOR
 62
   256
  9
$CELTSCALE
 40
1.0
  9
$DISPSILH
 70
     0
  9
$DIMSCALE
 40
1.0
  9
$DIMASZ
 40
2.0
  9
$DIMEXO
 40
1.0
  9
$DIMDLI
 40
3.75
  9
$DIMRND
 40
0.0
  9
$DIMDLE
 40
0.0
  9
$DIMEXE
 40
1.0
  9
$DIMTP
 40
0.0
  9
$DIMTM
 40
0.0
  9
$DIMTXT
 40
2.0
  9
$DIMCEN
 40
2.5
  9
$DIMTSZ
 40
0.0
  9
$DIMTOL
 70
     0
  9
$DIMLIM
 70
     0
  9
$DIMTIH
 70
     1
  9
$DIMTOH
 70
     1
  9
$DIMSE1
 70
     0
  9
$DIMSE2
 70
     0
  9
$DIMTAD
 70
     1
  9
$DIMZIN
 70
     0
  9
$DIMBLK
  1

  9
$DIMASO
 70
     1
  9
$DIMSHO
 70
     1
  9
$DIMPOST
  1

  9
$DIMAPOST
  1

  9
$DIMALT
 70
     0
  9
$DIMALTD
 70
     3
  9
$DIMALTF
 40
0.0393700787
  9
$DIMLFAC
 40
1.0
  9
$DIMTOFL
 70
     1
  9
$DIMTVP
 40
0.0
  9
$DIMTIX
 70
     0
  9
$DIMSOXD
 70
     0
  9
$DIMSAH
 70
     0
  9
$DIMBLK1
  1

  9
$DIMBLK2
  1

  9
$DIMSTYLE
  2
ISO-25
  9
$DIMCLRD
 70
     0
  9
$DIMCLRE
 70
     0
  9
$DIMCLRT
 70
     0
  9
$DIMTFAC
 40
1.0
  9
$DIMGAP
 40
1.524
  9
$DIMJUST
 70
     0
  9
$DIMSD1
 70
     0
  9
$DIMSD2
 70
     0
  9
$DIMTOLJ
 70
     0
  9
$DIMTZIN
 70
     0
  9
$DIMALTZ
 70
     0
  9
$DIMALTTZ
 70
     0
  9
$DIMUPT
 70
     0
  9
$DIMDEC
 70
     2
  9
$DIMTDEC
 70
     0
  9
$DIMALTU
 70
     2
  9
$DIMALTTD
 70
     3
  9
$DIMTXSTY
  7
Standard
  9
$DIMAUNIT
 70
     0
  9
$DIMADEC
 70
     2
  9
$DIMALTRND
 40
0.0
  9
$DIMAZIN
 70
     0
  9
$DIMDSEP
 70
    44
  9
$DIMATFIT
 70
     3
  9
$DIMFRAC
 70
     0
  9
$DIMLDRBLK
  1

  9
$DIMLUNIT
 70
     2
  9
$DIMLWD
 70
    -2
  9
$DIMLWE
 70
    -2
  9
$DIMTMOVE
 70
     0
  9
$LUNITS
 70
     2
  9
$LUPREC
 70
     3
  9
$SKETCHINC
 40
1.0
  9
$FILLETRAD
 40
10.0
  9
$AUNITS
 70
     0
  9
$AUPREC
 70
     2
  9
$MENU
  1
.
  9
$ELEVATION
 40
0.0
  9
$PELEVATION
 40
0.0
  9
$THICKNESS
 40
0.0
  9
$LIMCHECK
 70
     0
  9
$CHAMFERA
 40
0.0
  9
$CHAMFERB
 40
0.0
  9
$CHAMFERC
 40
0.0
  9
$CHAMFERD
 40
0.0
  9
$SKPOLY
 70
     0
  9
$TDCREATE
 40
2458673.305093032
  9
$TDUCREATE
 40
2458673.221759699
  9
$TDUPDATE
 40
2458673.305093391
  9
$TDUUPDATE
 40
2458673.221760058
  9
$TDINDWG
 40
0.0000000116
  9
$TDUSRTIMER
 40
0.0000000116
  9
$USRTIMER
 70
     1
  9
$ANGBASE
 50
0.0
  9
$ANGDIR
 70
     0
  9
$PDMODE
 70
     0
  9
$PDSIZE
 40
-1.0
  9
$PLINEWID
 40
0.0
  9
$SPLFRAME
 70
     0
  9
$SPLINETYPE
 70
     6
  9
$SPLINESEGS
 70
     8
  9
$HANDSEED
  5
15A
  9
$SURFTAB1
 70
     6
  9
$SURFTAB2
 70
     6
  9
$SURFTYPE
 70
     6
  9
$SURFU
 70
     6
  9
$SURFV
 70
     6
  9
$UCSBASE
  2

  9
$UCSNAME
  2

  9
$UCSORG
 10
0.0
 20
0.0
 30
0.0
  9
$UCSXDIR
 10
1.0
 20
0.0
 30
0.0
  9
$UCSYDIR
 10
0.0
 20
1.0
 30
0.0
  9
$UCSORTHOREF
  2

  9
$UCSORTHOVIEW
 70
     0
  9
$UCSORGTOP
 10
0.0
 20
0.0
 30
0.0
  9
$UCSORGBOTTOM
 10
0.0
 20
0.0
 30
0.0
  9
$UCSORGLEFT
 10
0.0
 20
0.0
 30
0.0
  9
$UCSORGRIGHT
 10
0.0
 20
0.0
 30
0.0
  9
$UCSORGFRONT
 10
0.0
 20
0.0
 30
0.0
  9
$UCSORGBACK
 10
0.0
 20
0.0
 30
0.0
  9
$PUCSBASE
  2

  9
$PUCSNAME
  2

  9
$PUCSORG
 10
0.0
 20
0.0
 30
0.0
  9
$PUCSXDIR
 10
1.0
 20
0.0
 30
0.0
  9
$PUCSYDIR
 10
0.0
 20
1.0
 30
0.0
  9
$PUCSORTHOREF
  2

  9
$PUCSORTHOVIEW
 70
     0
  9
$PUCSORGTOP
 10
0.0
 20
0.0
 30
0.0
  9
$PUCSORGBOTTOM
 10
0.0
 20
0.0
 30
0.0
  9
$PUCSORGLEFT
 10
0.0
 20
0.0
 30
0.0
  9
$PUCSORGRIGHT
 10
0.0
 20
0.0
 30
0.0
  9
$PUCSORGFRONT
 10
0.0
 20
0.0
 30
0.0
  9
$PUCSORGBACK
 10
0.0
 20
0.0
 30
0.0
  9
$USERI1
 70
     0
  9
$USERI2
 70
     0
  9
$USERI3
 70
     0
  9
$USERI4
 70
     0
  9
$USERI5
 70
     0
  9
$USERR1
 40
0.0
  9
$USERR2
 40
0.0
  9
$USERR3
 40
0.0
  9
$USERR4
 40
0.0
  9
$USERR5
 40
0.0
  9
$WORLDVIEW
 70
     1
  9
$SHADEDGE
 70
     3
  9
$SHADEDIF
 70
    70
  9
$TILEMODE
 70
     1
  9
$MAXACTVP
 70
    64
  9
$PINSBASE
 10
0.0
 20
0.0
 30
0.0
  9
$PLIMCHECK
 70
     0
  9
$PEXTMIN
 10
1.0000000000E+20
 20
1.0000000000E+20
 30
1.0000000000E+20
  9
$PEXTMAX
 10
-1.0000000000E+20
 20
-1.0000000000E+20
 30
-1.0000000000E+20
  9
$PLIMMIN
 10
0.0
 20
0.0
  9
$PLIMMAX
 10
420.0
 20
297.0
  9
$UNITMODE
 70
     0
  9
$VISRETAIN
 70
     1
  9
$PLINEGEN
 70
     0
  9
$PSLTSCALE
 70
     1
  9
$TREEDEPTH
 70
  3020
  9
$CMLSTYLE
  2
Standard
  9
$CMLJUST
 70
     0
  9
$CMLSCALE
 40
20.0
  9
$PROXYGRAPHICS
 70
     1
  9
$MEASUREMENT
 70
     1
  9
$CELWEIGHT
370
    -1
  9
$ENDCAPS
280
     0
  9
$JOINSTYLE
280
     0
  9
$LWDISPLAY
290
     1
  9
$INSUNITS
 70
     4
  9
$HYPERLINKBASE
  1

  9
$STYLESHEET
  1

  9
$XEDIT
290
     1
  9
$CEPSNTYPE
380
     0
  9
$PSTYLEMODE
290
     1
  9
$FINGERPRINTGUID
  2
{5127ECF1-3DC4-4484-9AB1-DB52F8FBD710}
  9
$VERSIONGUID
  2
{FAEB1C32-E019-11D5-929B-00C0DF256EC4}
  9
$EXTNAMES
290
     1
  9
$PSVPSCALE
 40
0.0
  9
$OLESTARTUP
290
     0
  0
ENDSEC
  0
SECTION
  2
CLASSES
  0
CLASS
  1
ACDBDICTIONARYWDFLT
  2
AcDbDictionaryWithDefault
  3
ObjectDBX Classes
 90
        0
280
     0
281
     0
  0
CLASS
  1
VISUALSTYLE
  2
AcDbVisualStyle
  3
ObjectDBX Classes
 90
     4095
280
     0
281
     0
  0
CLASS
  1
MATERIAL
  2
AcDbMaterial
  3
ObjectDBX Classes
 90
     1153
280
     0
281
     0
  0
CLASS
  1
SCALE
  2
AcDbScale
  3
ObjectDBX Classes
 90
     1153
280
     0
281
     0
  0
CLASS
  1
TABLESTYLE
  2
AcDbTableStyle
  3
ObjectDBX Classes
 90
     4095
280
     0
281
     0
  0
CLASS
  1
MLEADERSTYLE
  2
AcDbMLeaderStyle
  3
ACDB_MLEADERSTYLE_CLASS
 90
     4095
280
     0
281
     0
  0
CLASS
  1
SUN
  2
AcDbSun
  3
SCENEOE
 90
     1153
280
     0
281
     0
  0
CLASS
  1
ACDBPLACEHOLDER
  2
AcDbPlaceHolder
  3
ObjectDBX Classes
 90
        0
280
     0
281
     0
  0
CLASS
  1
LAYOUT
  2
AcDbLayout
  3
ObjectDBX Classes
 90
        0
280
     0
281
     0
  0
ENDSEC
  0
SECTION
  2
TABLES
  0
TABLE
  2
VPORT
  5
8
330
0
100
AcDbSymbolTable
 70
     1
  0
VPORT
  5
29
330
8
100
AcDbSymbolTableRecord
100
AcDbViewportTableRecord
  2
*Active
 70
     0
 10
0.0
 20
0.0
 11
1.0
 21
1.0
 12
10000.0
 22
5000.0
 13
0.0
 23
0.0
 14
10.0
 24
10.0
 15
10.0
 25
10.0
 16
0.0
 26
0.0
 36
1.0
 17
0.0
 27
0.0
 37
0.0
 40
10000.0
 41
2.0
 42
50.0
 43
0.0
 44
0.0
 50
0.0
 51
0.0
 71
     0
 72
  2000
 73
     1
 74
     3
 75
     0
 76
     0
 77
     0
 78
     0
281
     0
 65
     1
110
0.0
120
0.0
130
0.0
111
1.0
121
0.0
131
0.0
112
0.0
122
1.0
132
0.0
 79
     0
146
0.0
  0
ENDTAB
  0
TABLE
  2
LTYPE
  5
5
330
0
100
AcDbSymbolTable
 70
     6
  0
LTYPE
  5
14
330
5
100
AcDbSymbolTableRecord
100
AcDbLinetypeTableRecord
  2
ByBlock
 70
     0
  3

 72
    65
 73
     0
 40
0.0
  0
LTYPE
  5
15
330
5
100
AcDbSymbolTableRecord
100
AcDbLinetypeTableRecord
  2
ByLayer
 70
     0
  3

 72
    65
 73
     0
 40
0.0
  0
LTYPE
  5
16
330
5
100
AcDbSymbolTableRecord
100
AcDbLinetypeTableRecord
  2
Continuous
 70
     0
  3
Solid line
 72
    65
 73
     0
 40
0.0
  0
LTYPE
  5
6E
330
5
100
AcDbSymbolTableRecord
100
AcDbLinetypeTableRecord
  2
HIDDEN
 70
     0
  3
Hidden __ __ __ __ __ __ __ __ __ __ __ __ __ __
 72
    65
 73
     2
 40
1.905
 49
1.27
 74
     0
 49
-0.635
 74
     0
  0
LTYPE
  5
6F
330
5
100
AcDbSymbolTableRecord
100
AcDbLinetypeTableRecord
  2
PHANTOM
 70
     0
  3
Phantom ______  __  __  ______  __  __  ______
 72
    65
 73
     6
 40
12.7
 49
6.35
 74
     0
 49
-1.27
 74
     0
 49
1.27
 74
     0
 49
-1.27
 74
     0
 49
1.27
 74
     0
 49
-1.27
 74
     0
  0
LTYPE
  5
70
330
5
100
AcDbSymbolTableRecord
100
AcDbLinetypeTableRecord
  2
CENTER
 70
     0
  3
Center ____ _ ____ _ ____ _ ____ _ ____ _ ____
 72
    65
 73
     4
 40
10.16
 49
6.35
 74
     0
 49
-1.27
 74
     0
 49
1.27
 74
     0
 49
-1.27
 74
     0
  0
LTYPE
  5
71
330
5
100
AcDbSymbolTableRecord
100
AcDbLinetypeTableRecord
  2
CENTERX2
 70
     0
  3
Center (2x) ________  __  ________  __  _____
 72
    65
 73
     4
 40
20.32
 49
12.7
 74
     0
 49
-2.54
 74
     0
 49
2.54
 74
     0
 49
-2.54
 74
     0
  0
LTYPE
  5
72
330
5
100
AcDbSymbolTableRecord
100
AcDbLinetypeTableRecord
  2
DOT2
 70
     0
  3
Dot (.5x) ........................................
 72
    65
 73
     2
 40
0.635
 49
0.0
 74
     0
 49
-0.635
 74
     0
  0
ENDTAB
  0
TABLE
  2
LAYER
  5
2
330
0
100
AcDbSymbolTable
 70
    13
  0
LAYER
  5
10
330
2
100
AcDbSymbolTableRecord
100
AcDbLayerTableRecord
  2
0
 70
     0
 62
     7
  6
Continuous
370
    -3
390
F
  0
LAYER
  5
73
330
2
100
AcDbSymbolTableRecord
100
AcDbLayerTableRecord
  2
FORMAT
 70
     0
 62
     7
  6
Continuous
370
    -3
390
F
  0
LAYER
  5
74
330
2
100
AcDbSymbolTableRecord
100
AcDbLayerTableRecord
  2
OSA
 70
     0
 62
     7
  6
CENTER
370
    -3
390
F
  0
LAYER
  5
75
330
2
100
AcDbSymbolTableRecord
100
AcDbLayerTableRecord
  2
0_35
 70
     0
 62
     7
  6
Continuous
370
    35
390
F
  0
LAYER
  5
76
330
2
100
AcDbSymbolTableRecord
100
AcDbLayerTableRecord
  2
0_5
 70
     0
 62
     7
  6
Continuous
370
    50
390
F
  0
LAYER
  5
77
330
2
100
AcDbSymbolTableRecord
100
AcDbLayerTableRecord
  2
0_25
 70
     0
 62
     7
  6
Continuous
370
    25
390
F
  0
LAYER
  5
78
330
2
100
AcDbSymbolTableRecord
100
AcDbLayerTableRecord
  2
0_18
 70
     0
 62
     7
  6
Continuous
370
    -3
390
F
  0
LAYER
  5
79
330
2
100
AcDbSymbolTableRecord
100
AcDbLayerTableRecord
  2
SLD-0
 70
     0
 62
   179
  6
Continuous
370
    -3
390
F
  0
LAYER
  5
7A
330
2
100
AcDbSymbolTableRecord
100
AcDbLayerTableRecord
  2
KOTY
 70
     0
 62
     7
  6
Continuous
370
    -3
390
F
  0
LAYER
  5
7B
330
2
100
AcDbSymbolTableRecord
100
AcDbLayerTableRecord
  2
SILNA
 70
     0
 62
   179
  6
Continuous
370
    -3
390
F
  0
LAYER
  5
7C
330
2
100
AcDbSymbolTableRecord
100
AcDbLayerTableRecord
  2
0_18_1
 70
     0
 62
   179
  6
Continuous
370
    -3
390
F
  0
LAYER
  5
7D
330
2
100
AcDbSymbolTableRecord
100
AcDbLayerTableRecord
  2
0_35_1
 70
     0
 62
   179
  6
Continuous
370
    35
390
F
  0
LAYER
  5
7E
330
2
100
AcDbSymbolTableRecord
100
AcDbLayerTableRecord
  2
0_5_1
 70
     0
 62
   179
  6
Continuous
370
    50
390
F
  0
ENDTAB
  0
TABLE
  2
STYLE
  5
3
330
0
100
AcDbSymbolTable
 70
     1
  0
STYLE
  5
11
330
3
100
AcDbSymbolTableRecord
100
AcDbTextStyleTableRecord
  2
Standard
 70
     0
 40
0.0
 41
1.0
 50
0.0
 71
     0
 42
2.0
  3
txt
  4

  0
ENDTAB
  0
TABLE
  2
VIEW
  5
6
330
0
100
AcDbSymbolTable
 70
     0
  0
ENDTAB
  0
TABLE
  2
UCS
  5
7
330
0
100
AcDbSymbolTable
 70
     0
  0
ENDTAB
  0
TABLE
  2
APPID
  5
9
330
0
100
AcDbSymbolTable
 70
     1
  0
APPID
  5
12
330
9
100
AcDbSymbolTableRecord
100
AcDbRegAppTableRecord
  2
ACAD
 70
     0
  0
ENDTAB
  0
TABLE
  2
DIMSTYLE
  5
A
330
0
100
AcDbSymbolTable
 70
     1
100
AcDbDimStyleTable
  0
DIMSTYLE
105
27
330
A
100
AcDbSymbolTableRecord
100
AcDbDimStyleTableRecord
  2
ISO-25
 70
     0
 41
2.5
 42
0.625
 43
3.75
 44
1.25
 73
     0
 74
     0
 77
     1
 78
     8
140
2.5
141
2.5
143
0.0393700787
147
0.625
171
     3
172
     1
178
     0
271
     2
272
     2
274
     3
278
    44
283
     0
284
     8
340
11
  0
ENDTAB
  0
TABLE
  2
BLOCK_RECORD
  5
1
330
0
100
AcDbSymbolTable
 70
     1
  0
BLOCK_RECORD
  5
1F
330
1
100
AcDbSymbolTableRecord
100
AcDbBlockTableRecord
  2
*Model_Space
340
22
  0
BLOCK_RECORD
  5
1B
330
1
100
AcDbSymbolTableRecord
100
AcDbBlockTableRecord
  2
*Paper_Space
340
1E
  0
BLOCK_RECORD
  5
23
330
1
100
AcDbSymbolTableRecord
100
AcDbBlockTableRecord
  2
*Paper_Space0
340
26
  0
ENDTAB
  0
ENDSEC
  0
SECTION
  2
BLOCKS
  0
BLOCK
  5
20
330
1F
100
AcDbEntity
  8
0
100
AcDbBlockBegin
  2
*Model_Space
 70
     0
 10
0.0
 20
0.0
 30
0.0
  3
*Model_Space
  1

  0
ENDBLK
  5
21
330
1F
100
AcDbEntity
  8
0
100
AcDbBlockEnd
  0
BLOCK
  5
1C
330
1B
100
AcDbEntity
 67
     1
  8
0
100
AcDbBlockBegin
  2
*Paper_Space
 70
     0
 10
0.0
 20
0.0
 30
0.0
  3
*Paper_Space
  1

  0
ENDBLK
  5
1D
330
1B
100
AcDbEntity
 67
     1
  8
0
100
AcDbBlockEnd
  0
BLOCK
  5
24
330
23
100
AcDbEntity
  8
0
100
AcDbBlockBegin
  2
*Paper_Space0
 70
     0
 10
0.0
 20
0.0
 30
0.0
  3
*Paper_Space0
  1

  0
ENDBLK
  5
25
330
23
100
AcDbEntity
  8
0
100
AcDbBlockEnd
  0
ENDSEC
  0
SECTION
  2
ENTITIES
  0
ARC
  5
7F
330
1F
100
AcDbEntity
  8
0
  6
Continuous
 62
     7
370
    25
100
AcDbCircle
 10
6274.0187553361
 20
5280.1485446864
 30
0.0
 40
91.43267025189368
100
AcDbArc
 50
74.2946111089
 51
105.7053888911
  0
LINE
  5
80
330
1F
100
AcDbEntity
  8
0
  6
Continuous
 62
     7
370
    25
100
AcDbLine
 10
6298.7687564611
 20
5281.6676945488
 30
0.0
 11
6298.7687564611
 21
5368.1676947574
 31
0.0
  0
LINE
  5
81
330
1F
100
AcDbEntity
  8
0
  6
Continuous
 62
     7
370
    25
100
AcDbLine
 10
6249.268753004
 20
5368.1676947574
 30
0.0
 11
6249.268753004
 21
5281.6676945488
 31
0.0
  0
LINE
  5
82
330
1F
100
AcDbEntity
  8
0
  6
Continuous
 62
     7
370
    25
100
AcDbLine
 10
6298.7687564611
 20
5245.6676942359
 30
0.0
 11
6298.7687564611
 21
5281.6676945488
 31
0.0
  0
LINE
  5
83
330
1F
100
AcDbEntity
  8
0
  6
Continuous
 62
     7
370
    25
100
AcDbLine
 10
6249.268753004
 20
5281.6676945488
 30
0.0
 11
6249.268753004
 21
5245.6676942359
 31
0.0
  0
ARC
  5
84
330
1F
100
AcDbEntity
  8
0
  6
Continuous
 62
     7
370
    25
100
AcDbCircle
 10
6254.0187553361
 20
5179.4756451766
 30
0.0
 40
2.5
100
AcDbArc
 50
90.0
 51
180.0
  0
ARC
  5
85
330
1F
100
AcDbEntity
  8
0
  6
Continuous
 62
     7
370
    25
100
AcDbCircle
 10
6294.0187553361
 20
5179.4756451766
 30
0.0
 40
2.5
100
AcDbArc
 50
0.0
 51
90.0
  0
LINE
  5
86
330
1F
100
AcDbEntity
  8
0
  6
Continuous
 62
     7
370
    25
100
AcDbLine
 10
6251.5187538385
 20
5179.4756465654
 30
0.0
 11
6251.5187538385
 21
5178.9756455521
 31
0.0
  0
LINE
  5
87
330
1F
100
AcDbEntity
  8
0
  6
Continuous
 62
     7
370
    25
100
AcDbLine
 10
6296.5187556267
 20
5178.9756455521
 30
0.0
 11
6296.5187556267
 21
5179.4756465654
 31
0.0
  0
ARC
  5
88
330
1F
100
AcDbEntity
  8
0
  6
Continuous
 62
     7
370
    25
100
AcDbCircle
 10
6257.2402555702
 20
5174.4756451766
 30
0.0
 40
0.5000000000009095
100
AcDbArc
 50
90.0
 51
200.5560452195
  0
ARC
  5
89
330
1F
100
AcDbEntity
  8
0
  6
Continuous
 62
     7
370
    25
100
AcDbCircle
 10
6290.797255102
 20
5174.4756451766
 30
0.0
 40
0.5000000000009095
100
AcDbArc
 50
339.4439547805
 51
90.0
  0
ARC
  5
8A
330
1F
100
AcDbEntity
  8
0
  6
Continuous
 62
     7
370
    25
100
AcDbCircle
 10
6257.2402555702
 20
5166.4756451766
 30
0.0
 40
0.5000000000009095
100
AcDbArc
 50
90.0
 51
200.5560452195
  0
ARC
  5
8B
330
1F
100
AcDbEntity
  8
0
  6
Continuous
 62
     7
370
    25
100
AcDbCircle
 10
6290.797255102
 20
5166.4756451766
 30
0.0
 40
0.5000000000009095
100
AcDbArc
 50
339.4439547805
 51
90.0
  0
ARC
  5
8C
330
1F
100
AcDbEntity
  8
0
  6
Continuous
 62
     7
370
    25
100
AcDbCircle
 10
6257.2402555702
 20
5170.4756451766
 30
0.0
 40
0.5
100
AcDbArc
 50
90.0
 51
200.5560452195
  0
ARC
  5
8D
330
1F
100
AcDbEntity
  8
0
  6
Continuous
 62
     7
370
    25
100
AcDbCircle
 10
6290.797255102
 20
5170.4756451766
 30
0.0
 40
0.5
100
AcDbArc
 50
339.4439547805
 51
90.0
  0
ARC
  5
8E
330
1F
100
AcDbEntity
  8
0
  6
Continuous
 62
     7
370
    25
100
AcDbCircle
 10
6257.2402555702
 20
5162.4756451766
 30
0.0
 40
0.5
100
AcDbArc
 50
90.0
 51
200.5560452195
  0
ARC
  5
8F
330
1F
100
AcDbEntity
  8
0
  6
Continuous
 62
     7
370
    25
100
AcDbCircle
 10
6290.797255102
 20
5162.4756451766
 30
0.0
 40
0.5
100
AcDbArc
 50
339.4439547805
 51
90.0
  0
LINE
  5
90
330
1F
100
AcDbEntity
  8
0
  6
Continuous
 62
     7
370
    25
100
AcDbLine
 10
6256.7720911622
 20
5170.3000851969
 30
0.0
 11
6258.01875211
 21
5166.9756435852
 31
0.0
  0
LINE
  5
91
330
1F
100
AcDbEntity
  8
0
  6
Continuous
 62
     7
370
    25
100
AcDbLine
 10
6290.0187573552
 20
5166.9756435852
 30
0.0
 11
6291.265418303
 21
5170.3000851969
 31
0.0
  0
LINE
  5
92
330
1F
100
AcDbEntity
  8
0
  6
Continuous
 62
     7
370
    25
100
AcDbLine
 10
6256.7720911622
 20
5162.3000838856
 30
0.0
 11
6258.01875211
 21
5158.9756422739
 31
0.0
  0
LINE
  5
93
330
1F
100
AcDbEntity
  8
0
  6
Continuous
 62
     7
370
    25
100
AcDbLine
 10
6290.0187573552
 20
5158.9756422739
 30
0.0
 11
6291.265418303
 21
5162.3000838856
 31
0.0
  0
LINE
  5
94
330
1F
100
AcDbEntity
  8
0
  6
Continuous
 62
     7
370
    25
100
AcDbLine
 10
6256.7720911622
 20
5174.3000858526
 30
0.0
 11
6258.01875211
 21
5170.9756442408
 31
0.0
  0
LINE
  5
95
330
1F
100
AcDbEntity
  8
0
  6
Continuous
 62
     7
370
    25
100
AcDbLine
 10
6290.0187573552
 20
5170.9756442408
 30
0.0
 11
6291.265418303
 21
5174.3000858526
 31
0.0
  0
LINE
  5
96
330
1F
100
AcDbEntity
  8
0
  6
Continuous
 62
     7
370
    25
100
AcDbLine
 10
6256.7720911622
 20
5166.3000845413
 30
0.0
 11
6258.01875211
 21
5162.9756429295
 31
0.0
  0
LINE
  5
97
330
1F
100
AcDbEntity
  8
0
  6
Continuous
 62
     7
370
    25
100
AcDbLine
 10
6290.0187573552
 20
5162.9756429295
 30
0.0
 11
6291.265418303
 21
5166.3000845413
 31
0.0
  0
ARC
  5
98
330
1F
100
AcDbEntity
  8
0
  6
Continuous
 62
     7
370
    25
100
AcDbCircle
 10
6290.5187553361
 20
5178.4756451766
 30
0.0
 40
0.5
100
AcDbArc
 50
90.0
 51
180.0
  0
ARC
  5
99
330
1F
100
AcDbEntity
  8
0
  6
Continuous
 62
     7
370
    25
100
AcDbCircle
 10
6257.5187553361
 20
5178.4756451766
 30
0.0
 40
0.5
100
AcDbArc
 50
0.0
 51
90.0
  0
LINE
  5
9A
330
1F
100
AcDbEntity
  8
0
  6
Continuous
 62
     7
370
    25
100
AcDbLine
 10
6258.01875211
 20
5178.4756445389
 30
0.0
 11
6258.01875211
 21
5174.9756448965
 31
0.0
  0
LINE
  5
9B
330
1F
100
AcDbEntity
  8
0
  6
Continuous
 62
     7
370
    25
100
AcDbLine
 10
6290.0187573552
 20
5174.9756448965
 30
0.0
 11
6290.0187573552
 21
5178.4756445389
 31
0.0
  0
LINE
  5
9C
330
1F
100
AcDbEntity
  8
0
  6
Continuous
 62
     7
370
    25
100
AcDbLine
 10
6281.5187550306
 20
5055.8176972966
 30
0.0
 11
6281.5187550306
 21
5158.9756422739
 31
0.0
  0
LINE
  5
9D
330
1F
100
AcDbEntity
  8
0
  6
Continuous
 62
     7
370
    25
100
AcDbLine
 10
6281.5187550306
 20
5181.9756441812
 30
0.0
 11
6281.5187550306
 21
5245.6676942359
 31
0.0
  0
LINE
  5
9E
330
1F
100
AcDbEntity
  8
0
  6
Continuous
 62
     7
370
    25
100
AcDbLine
 10
6266.5187544346
 20
5245.6676942359
 30
0.0
 11
6266.5187544346
 21
5181.9756441812
 31
0.0
  0
LINE
  5
9F
330
1F
100
AcDbEntity
  8
0
  6
Continuous
 62
     7
370
    25
100
AcDbLine
 10
6266.5187544346
 20
5158.9756422739
 30
0.0
 11
6266.5187544346
 21
5055.8176972966
 31
0.0
  0
SPLINE
  5
A0
330
1F
100
AcDbEntity
  8
0
  6
Continuous
 62
     7
370
    25
100
AcDbSpline
210
0.0
220
0.0
230
1.0
 70
    11
 71
     3
 72
    46
 73
    42
 74
     0
 42
0.000000001
 43
0.00000001
 40
0.0
 40
0.0
 40
0.0
 40
0.0
 40
0.0248729838992743
 40
0.0497522403397111
 40
0.0745555664412655
 40
0.099368617221394
 40
0.1255913000089325
 40
0.1518152703411485
 40
0.1798665076343691
 40
0.2078984525156765
 40
0.2343141946251236
 40
0.2607214904962233
 40
0.2842943817255205
 40
0.3078772244567541
 40
0.33200832761812
 40
0.3561479679013436
 40
0.383065163672423
 40
0.4099781706452804
 40
0.4379490143193253
 40
0.4659034251767264
 40
0.4916737306780765
 40
0.5174414339173478
 40
0.5414120421778873
 40
0.5653907186460051
 40
0.5900905117758523
 40
0.6147982870829475
 40
0.6417778899973502
 40
0.6687532389581174
 40
0.6967469690950684
 40
0.7247188520245235
 40
0.7500928211111645
 40
0.7754668518624676
 40
0.7988007922328065
 40
0.8221454765414972
 40
0.8470539906502139
 40
0.8719684641908108
 40
0.8995750903984148
 40
0.9271718604115304
 40
0.9547035505742361
 40
0.9822210815602015
 40
1.0
 40
1.0
 40
1.0
 40
1.0
 10
6274.018754732581
 20
5337.967697630379
 30
0.0
 10
6274.600860944429
 20
5337.995139122532
 30
0.0
 10
6275.765220165355
 20
5338.050029027115
 30
0.0
 10
6277.457749069183
 20
5338.473821069232
 30
0.0
 10
6279.047103879374
 20
5339.135319330754
 30
0.0
 10
6280.52946708022
 20
5340.043667798747
 30
0.0
 10
6281.863580210662
 20
5341.189909490866
 30
0.0
 10
6283.044847669305
 20
5342.588516061419
 30
0.0
 10
6283.998198294747
 20
5344.21328236558
 30
0.0
 10
6284.66930569064
 20
5346.001286896069
 30
0.0
 10
6285.012459564264
 20
5347.862086742067
 30
0.0
 10
6285.04515882319
 20
5349.658936690953
 30
0.0
 10
6284.794999940884
 20
5351.363179279151
 30
0.0
 10
6284.318310419888
 20
5352.948290183105
 30
0.0
 10
6283.607952661862
 20
5354.438902177126
 30
0.0
 10
6282.650847588333
 20
5355.860586434442
 30
0.0
 10
6281.438934594399
 20
5357.154899315462
 30
0.0
 10
6279.95850288533
 20
5358.291027106205
 30
0.0
 10
6278.266569443654
 20
5359.173156648035
 30
0.0
 10
6276.453958637731
 20
5359.751123877459
 30
0.0
 10
6274.605845224653
 20
5359.999164500346
 30
0.0
 10
6272.831453881347
 20
5359.951098439201
 30
0.0
 10
6271.137998318174
 20
5359.625857297936
 30
0.0
 10
6269.547611414247
 20
5359.065850479476
 30
0.0
 10
6268.062409847537
 20
5358.265551696508
 30
0.0
 10
6266.670714256953
 20
5357.217394734671
 30
0.0
 10
6265.434261831779
 20
5355.924756654343
 30
0.0
 10
6264.38019178548
 20
5354.381283196199
 30
0.0
 10
6263.592415122446
 20
5352.640397588056
 30
0.0
 10
6263.11781117045
 20
5350.803633076641
 30
0.0
 10
6262.97317617558
 20
5348.9603541276
 30
0.0
 10
6263.111775917757
 20
5347.225737778814
 30
0.0
 10
6263.508475110011
 20
5345.594611116087
 30
0.0
 10
6264.125563678387
 20
5344.062702564568
 30
0.0
 10
6264.979802473234
 20
5342.624530966511
 30
0.0
 10
6266.097642639585
 20
5341.264438371961
 30
0.0
 10
6267.471482334679
 20
5340.063895538989
 30
0.0
 10
6269.088997264103
 20
5339.070819946341
 30
0.0
 10
6270.872902829988
 20
5338.374924027752
 30
0.0
 10
6272.543332986154
 20
5338.01713339305
 30
0.0
 10
6273.602880774462
 20
5337.981631982604
 30
0.0
 10
6274.018754732581
 20
5337.967697630379
 30
0.0
  0
LINE
  5
A1
330
1F
100
AcDbEntity
  8
0
  6
Continuous
 62
     7
370
    25
100
AcDbLine
 10
6299.6223545789
 20
5258.3393343787
 30
0.0
 11
6298.7687564611
 21
5256.2659402441
 31
0.0
  0
ARC
  5
A2
330
1F
100
AcDbEntity
  8
0
  6
Continuous
 62
     7
370
    25
100
AcDbCircle
 10
6274.0187553361
 20
5267.6676942471
 30
0.0
 40
27.24999999999963
100
AcDbArc
 50
285.9756828521
 51
306.1632030126
  0
ARC
  5
A3
330
1F
100
AcDbEntity
  8
0
  6
Continuous
 62
     7
370
    25
100
AcDbCircle
 10
6274.0187553361
 20
5267.6676942471
 30
0.0
 40
27.24999999999963
100
AcDbArc
 50
233.8367969874
 51
254.0243171479
  0
ARC
  5
A4
330
1F
100
AcDbEntity
  8
0
  6
Continuous
 62
     7
370
    25
100
AcDbCircle
 10
6274.0187553361
 20
5267.6676942471
 30
0.0
 40
27.25000000000021
100
AcDbArc
 50
155.2655659733
 51
204.7344340267
  0
ARC
  5
A5
330
1F
100
AcDbEntity
  8
0
  6
Continuous
 62
     7
370
    25
100
AcDbCircle
 10
6274.0187553361
 20
5267.6676942471
 30
0.0
 40
27.25000000000021
100
AcDbArc
 50
339.9814020414
 51
24.7344340267
  0
LINE
  5
A6
330
1F
100
AcDbEntity
  8
0
  6
Continuous
 62
     7
370
    25
100
AcDbLine
 10
6274.0187547326
 20
5368.1676947574
 30
0.0
 11
6298.7687564611
 21
5368.1676947574
 31
0.0
  0
LINE
  5
A7
330
1F
100
AcDbEntity
  8
0
  6
Continuous
 62
     7
370
    25
100
AcDbLine
 10
6249.268753004
 20
5368.1676947574
 30
0.0
 11
6274.0187547326
 21
5368.1676947574
 31
0.0
  0
LINE
  5
A8
330
1F
100
AcDbEntity
  8
0
  6
Continuous
 62
     7
370
    25
100
AcDbLine
 10
6274.0187547326
 20
5281.6676945488
 30
0.0
 11
6298.7687564611
 21
5281.6676945488
 31
0.0
  0
LINE
  5
A9
330
1F
100
AcDbEntity
  8
0
  6
Continuous
 62
     7
370
    25
100
AcDbLine
 10
6249.268753004
 20
5281.6676945488
 30
0.0
 11
6274.0187547326
 21
5281.6676945488
 31
0.0
  0
SPLINE
  5
AA
330
1F
100
AcDbEntity
  8
0
  6
Continuous
 62
     7
370
    25
100
AcDbSpline
210
0.0
220
0.0
230
1.0
 70
    11
 71
     3
 72
    46
 73
    42
 74
     0
 42
0.000000001
 43
0.00000001
 40
0.0
 40
0.0
 40
0.0
 40
0.0
 40
0.0249918870863698
 40
0.04999192454736
 40
0.0749032683329962
 40
0.0998240887237659
 40
0.1263510478909527
 40
0.1528766035228097
 40
0.1807486712542045
 40
0.2086068791550244
 40
0.234837874309544
 40
0.2610646080270138
 40
0.2854744122427427
 40
0.3098908277041526
 40
0.33467837780619
 40
0.3594734660442155
 40
0.3862257545906623
 40
0.4129759955812509
 40
0.4408447290898407
 40
0.468696075093505
 40
0.4945701844442973
 40
0.520441954461304
 40
0.5443112219881315
 40
0.5681900404906138
 40
0.5931388413600346
 40
0.6180937897208663
 40
0.6454277406084598
 40
0.67275459703649
 40
0.7003163390495106
 40
0.7278652472622253
 40
0.7532713808013924
 40
0.7786783712077063
 40
0.8029538515218836
 40
0.8272373079122437
 40
0.8526348581228027
 40
0.8780378856534349
 40
0.9054575191337706
 40
0.9328685199396044
 40
0.9603576536457656
 40
0.9878309139090085
 40
1.0
 40
1.0
 40
1.0
 40
1.0
 10
6263.018754792186
 20
5348.967697570774
 30
0.0
 10
6263.046336771141
 20
5348.384191107361
 30
0.0
 10
6263.101509724109
 20
5347.216987886932
 30
0.0
 10
6263.52713488279
 20
5345.521435344383
 30
0.0
 10
6264.191083623806
 20
5343.929539276309
 30
0.0
 10
6265.106182520513
 20
5342.440071441155
 30
0.0
 10
6266.267763077643
 20
5341.094688128153
 30
0.0
 10
6267.684260769462
 20
5339.90924416329
 30
0.0
 10
6269.32092063462
 20
5338.961988828277
 30
0.0
 10
6271.105117276547
 20
5338.303310888873
 30
0.0
 10
6272.952943620973
 20
5337.970687147364
 30
0.0
 10
6274.755602688731
 20
5337.943319974594
 30
0.0
 10
6276.490676901692
 20
5338.205858039775
 30
0.0
 10
6278.123973251772
 20
5338.71409448054
 30
0.0
 10
6279.652380964219
 20
5339.470314875658
 30
0.0
 10
6281.082138973858
 20
5340.472932055752
 30
0.0
 10
6282.35882336332
 20
5341.720474059053
 30
0.0
 10
6283.459350729064
 20
5343.217201290933
 30
0.0
 10
6284.303424763983
 20
5344.916720423681
 30
0.0
 10
6284.845579039924
 20
5346.734385028571
 30
0.0
 10
6285.059375967921
 20
5348.585740818273
 30
0.0
 10
6284.978127151364
 20
5350.357064729564
 30
0.0
 10
6284.623831974838
 20
5352.03616605968
 30
0.0
 10
6284.038503297041
 20
5353.611709797465
 30
0.0
 10
6283.210935824782
 20
5355.087244853477
 30
0.0
 10
6282.125973200008
 20
5356.474537820319
 30
0.0
 10
6280.788172265474
 20
5357.702832469711
 30
0.0
 10
6279.207270373421
 20
5358.729835747649
 30
0.0
 10
6277.450864964971
 20
5359.474236888527
 30
0.0
 10
6275.621168519481
 20
5359.904420468547
 30
0.0
 10
6273.787770677777
 20
5360.010974253366
 30
0.0
 10
6272.037850549409
 20
5359.835423433302
 30
0.0
 10
6270.37443862399
 20
5359.390303142889
 30
0.0
 10
6268.80871147568
 20
5358.706825439202
 30
0.0
 10
6267.359443748496
 20
5357.778567053729
 30
0.0
 10
6266.024164421127
 20
5356.595862741787
 30
0.0
 10
6264.873647674379
 20
5355.172477203735
 30
0.0
 10
6263.946346156008
 20
5353.526550864095
 30
0.0
 10
6263.317936074001
 20
5351.725173275812
 30
0.0
 10
6263.046994826835
 20
5350.176293711892
 30
0.0
 10
6263.025387602681
 20
5349.251563694454
 30
0.0
 10
6263.018754792186
 20
5348.967697570774
 30
0.0
  0
LINE
  5
AB
330
1F
100
AcDbEntity
  8
0
  6
Continuous
 62
     7
370
    25
100
AcDbLine
 10
6249.268753004
 20
5245.6676942359
 30
0.0
 11
6298.7687564611
 21
5245.6676942359
 31
0.0
  0
LINE
  5
AC
330
1F
100
AcDbEntity
  8
0
  6
Continuous
 62
     7
370
    25
100
AcDbLine
 10
6249.268753004
 20
5281.6676945488
 30
0.0
 11
6298.7687564611
 21
5281.6676945488
 31
0.0
  0
LINE
  5
AD
330
1F
100
AcDbEntity
  8
0
  6
Continuous
 62
     7
370
    25
100
AcDbLine
 10
6274.0187547326
 20
5181.9756441812
 30
0.0
 11
6294.0187580108
 21
5181.9756441812
 31
0.0
  0
LINE
  5
AE
330
1F
100
AcDbEntity
  8
0
  6
Continuous
 62
     7
370
    25
100
AcDbLine
 10
6254.0187589049
 20
5181.9756441812
 30
0.0
 11
6274.0187547326
 21
5181.9756441812
 31
0.0
  0
LINE
  5
AF
330
1F
100
AcDbEntity
  8
0
  6
Continuous
 62
     7
370
    25
100
AcDbLine
 10
6274.0187547326
 20
5178.9756455521
 30
0.0
 11
6296.5187556267
 21
5178.9756455521
 31
0.0
  0
LINE
  5
B0
330
1F
100
AcDbEntity
  8
0
  6
Continuous
 62
     7
370
    25
100
AcDbLine
 10
6251.5187538385
 20
5178.9756455521
 30
0.0
 11
6274.0187547326
 21
5178.9756455521
 31
0.0
  0
LINE
  5
B1
330
1F
100
AcDbEntity
  8
0
  6
Continuous
 62
     7
370
    25
100
AcDbLine
 10
6274.0187547326
 20
5174.9756448965
 30
0.0
 11
6290.7972536206
 21
5174.9756448965
 31
0.0
  0
LINE
  5
B2
330
1F
100
AcDbEntity
  8
0
  6
Continuous
 62
     7
370
    25
100
AcDbLine
 10
6257.2402558446
 20
5174.9756448965
 30
0.0
 11
6274.0187547326
 21
5174.9756448965
 31
0.0
  0
LINE
  5
B3
330
1F
100
AcDbEntity
  8
0
  6
Continuous
 62
     7
370
    25
100
AcDbLine
 10
6274.0187547326
 20
5166.9756435852
 30
0.0
 11
6290.7972536206
 21
5166.9756435852
 31
0.0
  0
LINE
  5
B4
330
1F
100
AcDbEntity
  8
0
  6
Continuous
 62
     7
370
    25
100
AcDbLine
 10
6257.2402558446
 20
5166.9756435852
 30
0.0
 11
6274.0187547326
 21
5166.9756435852
 31
0.0
  0
LINE
  5
B5
330
1F
100
AcDbEntity
  8
0
  6
Continuous
 62
     7
370
    25
100
AcDbLine
 10
6274.0187547326
 20
5170.9756442408
 30
0.0
 11
6290.7972536206
 21
5170.9756442408
 31
0.0
  0
LINE
  5
B6
330
1F
100
AcDbEntity
  8
0
  6
Continuous
 62
     7
370
    25
100
AcDbLine
 10
6257.2402558446
 20
5170.9756442408
 30
0.0
 11
6274.0187547326
 21
5170.9756442408
 31
0.0
  0
LINE
  5
B7
330
1F
100
AcDbEntity
  8
0
  6
Continuous
 62
     7
370
    25
100
AcDbLine
 10
6274.0187547326
 20
5162.9756429295
 30
0.0
 11
6290.7972536206
 21
5162.9756429295
 31
0.0
  0
LINE
  5
B8
330
1F
100
AcDbEntity
  8
0
  6
Continuous
 62
     7
370
    25
100
AcDbLine
 10
6257.2402558446
 20
5162.9756429295
 30
0.0
 11
6274.0187547326
 21
5162.9756429295
 31
0.0
  0
LINE
  5
B9
330
1F
100
AcDbEntity
  8
0
  6
Continuous
 62
     7
370
    25
100
AcDbLine
 10
6274.0187547326
 20
5158.9756422739
 30
0.0
 11
6290.0187573552
 21
5158.9756422739
 31
0.0
  0
LINE
  5
BA
330
1F
100
AcDbEntity
  8
0
  6
Continuous
 62
     7
370
    25
100
AcDbLine
 10
6258.01875211
 20
5158.9756422739
 30
0.0
 11
6274.0187547326
 21
5158.9756422739
 31
0.0
  0
LINE
  5
BB
330
1F
100
AcDbEntity
  8
0
  6
Continuous
 62
     7
370
    25
100
AcDbLine
 10
6279.7649554133
 20
5055.8176972966
 30
0.0
 11
6281.5187550306
 21
5055.8176972966
 31
0.0
  0
LINE
  5
BC
330
1F
100
AcDbEntity
  8
0
  6
Continuous
 62
     7
370
    25
100
AcDbLine
 10
6266.5187544346
 20
5055.8176972966
 30
0.0
 11
6279.7649554133
 21
5055.8176972966
 31
0.0
  0
ARC
  5
BD
330
1F
100
AcDbEntity
  8
0
  6
Continuous
 62
     8
370
    25
100
AcDbCircle
 10
6274.0187553361
 20
5267.6676942471
 30
0.0
 40
24.45452547174867
100
AcDbArc
 50
244.109342127
 51
252.1400303577
  0
ARC
  5
BE
330
1F
100
AcDbEntity
  8
0
  6
Continuous
 62
     8
370
    25
100
AcDbCircle
 10
6274.0187553361
 20
5267.6676942471
 30
0.0
 40
24.45452547174867
100
AcDbArc
 50
287.8599696423
 51
295.890657873
  0
LINE
  5
BF
330
1F
100
AcDbEntity
  8
0
  6
Continuous
 62
     8
370
    25
100
AcDbLine
 10
6274.0187547326
 20
5179.4756465654
 30
0.0
 11
6251.5187538385
 21
5179.4756465654
 31
0.0
  0
LINE
  5
C0
330
1F
100
AcDbEntity
  8
0
  6
Continuous
 62
     8
370
    25
100
AcDbLine
 10
6296.5187556267
 20
5179.4756465654
 30
0.0
 11
6274.0187547326
 21
5179.4756465654
 31
0.0
  0
LINE
  5
C1
330
1F
100
AcDbEntity
  8
0
  6
Continuous
 62
     8
370
    25
100
AcDbLine
 10
6291.265418303
 20
5174.3000858526
 30
0.0
 11
6256.7720911622
 21
5174.3000858526
 31
0.0
  0
LINE
  5
C2
330
1F
100
AcDbEntity
  8
0
  6
Continuous
 62
     8
370
    25
100
AcDbLine
 10
6291.265418303
 20
5166.3000845413
 30
0.0
 11
6256.7720911622
 21
5166.3000845413
 31
0.0
  0
LINE
  5
C3
330
1F
100
AcDbEntity
  8
0
  6
Continuous
 62
     8
370
    25
100
AcDbLine
 10
6291.265418303
 20
5170.3000851969
 30
0.0
 11
6256.7720911622
 21
5170.3000851969
 31
0.0
  0
LINE
  5
C4
330
1F
100
AcDbEntity
  8
0
  6
Continuous
 62
     8
370
    25
100
AcDbLine
 10
6291.265418303
 20
5162.3000838856
 30
0.0
 11
6256.7720911622
 21
5162.3000838856
 31
0.0
  0
LINE
  5
C5
330
1F
100
AcDbEntity
  8
0
  6
Continuous
 62
     8
370
    25
100
AcDbLine
 10
6290.0187573552
 20
5178.4756445389
 30
0.0
 11
6258.01875211
 21
5178.4756445389
 31
0.0
  0
ARC
  5
C6
330
1F
100
AcDbEntity
  8
0
  6
Continuous
 62
     7
370
    25
100
AcDbCircle
 10
6544.100159476
 20
5285.6676942471
 30
0.0
 40
3.128427475668146
100
AcDbArc
 50
208.651061369
 51
243.5107870043
  0
ARC
  5
C7
330
1F
100
AcDbEntity
  8
0
  6
Continuous
 62
     7
370
    25
100
AcDbCircle
 10
6544.100159476
 20
5285.6676942471
 30
0.0
 40
3.128427475666955
100
AcDbArc
 50
116.4892129957
 51
151.348938631
  0
LINE
  5
C8
330
1F
100
AcDbEntity
  8
0
  6
Continuous
 62
     7
370
    25
100
AcDbLine
 10
6543.0047870263
 20
5288.4676941733
 30
0.0
 11
6542.7047819479
 21
5288.4676941733
 31
0.0
  0
LINE
  5
C9
330
1F
100
AcDbEntity
  8
0
  6
Continuous
 62
     7
370
    25
100
AcDbLine
 10
6542.7047819479
 20
5282.867694373
 30
0.0
 11
6543.0047870263
 21
5282.867694373
 31
0.0
  0
LINE
  5
CA
330
1F
100
AcDbEntity
  8
0
  6
Continuous
 62
     7
370
    25
100
AcDbLine
 10
6592.5047755822
 20
5337.9676976304
 30
0.0
 11
6592.5047755822
 21
5359.9676975112
 31
0.0
  0
LINE
  5
CB
330
1F
100
AcDbEntity
  8
0
  6
Continuous
 62
     7
370
    25
100
AcDbLine
 10
6518.6739475115
 20
5240.4176947723
 30
0.0
 11
6520.2423990353
 21
5240.4176947723
 31
0.0
  0
LINE
  5
CC
330
1F
100
AcDbEntity
  8
0
  6
Continuous
 62
     7
370
    25
100
AcDbLine
 10
6520.2423990353
 20
5294.917693461
 30
0.0
 11
6518.6739475115
 21
5294.917693461
 31
0.0
  0
ARC
  5
CD
330
1F
100
AcDbEntity
  8
0
  6
Continuous
 62
     7
370
    25
100
AcDbCircle
 10
6520.2423960358
 20
5290.9176942471
 30
0.0
 40
4.000000000000812
100
AcDbArc
 50
17.5255683737
 51
90.0
  0
ARC
  5
CE
330
1F
100
AcDbEntity
  8
0
  6
Continuous
 62
     7
370
    25
100
AcDbCircle
 10
6520.2423960358
 20
5244.4176942471
 30
0.0
 40
4.000000000000538
100
AcDbArc
 50
270.0
 51
342.4744316263
  0
LINE
  5
CF
330
1F
100
AcDbEntity
  8
0
  6
Continuous
 62
     7
370
    25
100
AcDbLine
 10
6524.0567237719
 20
5243.2131693761
 30
0.0
 11
6527.4882823809
 21
5254.0797405939
 31
0.0
  0
LINE
  5
D0
330
1F
100
AcDbEntity
  8
0
  6
Continuous
 62
     7
370
    25
100
AcDbLine
 10
6527.4882823809
 20
5281.2556467082
 30
0.0
 11
6524.0567237719
 21
5292.1222188573
 31
0.0
  0
ARC
  5
D1
330
1F
100
AcDbEntity
  8
0
  6
Continuous
 62
     7
370
    25
100
AcDbCircle
 10
6523.6739452664
 20
5280.0511216837
 30
0.0
 40
4.000000000000909
100
AcDbArc
 50
0.0
 51
17.5255683737
  0
ARC
  5
D2
330
1F
100
AcDbEntity
  8
0
  6
Continuous
 62
     7
370
    25
100
AcDbCircle
 10
6523.6739452664
 20
5255.2842668106
 30
0.0
 40
4.000000000000909
100
AcDbArc
 50
342.4744316263
 51
0.0
  0
LINE
  5
D3
330
1F
100
AcDbEntity
  8
0
  6
Continuous
 62
     7
370
    25
100
AcDbLine
 10
6540.9239441737
 20
5254.6676938485
 30
0.0
 11
6543.0573732241
 21
5254.6676938485
 31
0.0
  0
LINE
  5
D4
330
1F
100
AcDbEntity
  8
0
  6
Continuous
 62
     7
370
    25
100
AcDbLine
 10
6527.6739508494
 20
5254.6676938485
 30
0.0
 11
6530.9239388092
 21
5254.6676938485
 31
0.0
  0
LINE
  5
D5
330
1F
100
AcDbEntity
  8
0
  6
Continuous
 62
     7
370
    25
100
AcDbLine
 10
6530.9239388092
 20
5280.6676943849
 30
0.0
 11
6527.6739508494
 21
5280.6676943849
 31
0.0
  0
LINE
  5
D6
330
1F
100
AcDbEntity
  8
0
  6
Continuous
 62
     7
370
    25
100
AcDbLine
 10
6543.0573583229
 20
5280.6676943849
 30
0.0
 11
6540.9239441737
 21
5280.6676943849
 31
0.0
  0
LINE
  5
D7
330
1F
100
AcDbEntity
  8
0
  6
Continuous
 62
     7
370
    25
100
AcDbLine
 10
6518.6739475115
 20
5278.1176940601
 30
0.0
 11
6506.673938094
 21
5278.1176940601
 31
0.0
  0
LINE
  5
D8
330
1F
100
AcDbEntity
  8
0
  6
Continuous
 62
     7
370
    25
100
AcDbLine
 10
6506.673938094
 20
5257.2176941733
 30
0.0
 11
6518.6739475115
 21
5257.2176941733
 31
0.0
  0
LINE
  5
D9
330
1F
100
AcDbEntity
  8
0
  6
Continuous
 62
     7
370
    25
100
AcDbLine
 10
6506.673938094
 20
5278.1176940601
 30
0.0
 11
6505.6739509686
 21
5277.1176943618
 31
0.0
  0
LINE
  5
DA
330
1F
100
AcDbEntity
  8
0
  6
Continuous
 62
     7
370
    25
100
AcDbLine
 10
6505.6739509686
 20
5258.2176943372
 30
0.0
 11
6506.673938094
 21
5257.2176941733
 31
0.0
  0
ARC
  5
DB
330
1F
100
AcDbEntity
  8
0
  6
Continuous
 62
     7
370
    25
100
AcDbCircle
 10
6567.7547891057
 20
5280.1485446864
 30
0.0
 40
91.43267025189394
100
AcDbArc
 50
74.2946111089
 51
105.7053888911
  0
LINE
  5
DC
330
1F
100
AcDbEntity
  8
0
  6
Continuous
 62
     7
370
    25
100
AcDbLine
 10
6592.5047755822
 20
5359.9534743528
 30
0.0
 11
6592.5047755822
 21
5368.1676947574
 31
0.0
  0
LINE
  5
DD
330
1F
100
AcDbEntity
  8
0
  6
Continuous
 62
     7
370
    25
100
AcDbLine
 10
6592.5047755822
 20
5281.6676945488
 30
0.0
 11
6592.5047755822
 21
5338.0061724286
 31
0.0
  0
LINE
  5
DE
330
1F
100
AcDbEntity
  8
0
  6
Continuous
 62
     7
370
    25
100
AcDbLine
 10
6543.0047870263
 20
5282.867694373
 30
0.0
 11
6543.0047870263
 21
5281.6676945488
 31
0.0
  0
LINE
  5
DF
330
1F
100
AcDbEntity
  8
0
  6
Continuous
 62
     7
370
    25
100
AcDbLine
 10
6543.0047870263
 20
5368.1676947574
 30
0.0
 11
6543.0047870263
 21
5288.4676941733
 31
0.0
  0
LINE
  5
E0
330
1F
100
AcDbEntity
  8
0
  6
Continuous
 62
     7
370
    25
100
AcDbLine
 10
6592.5047755822
 20
5245.6676942359
 30
0.0
 11
6592.5047755822
 21
5281.6676945488
 31
0.0
  0
LINE
  5
E1
330
1F
100
AcDbEntity
  8
0
  6
Continuous
 62
     7
370
    25
100
AcDbLine
 10
6543.0047870263
 20
5254.6082829188
 30
0.0
 11
6543.0047870263
 21
5245.6676942359
 31
0.0
  0
LINE
  5
E2
330
1F
100
AcDbEntity
  8
0
  6
Continuous
 62
     7
370
    25
100
AcDbLine
 10
6543.0047870263
 20
5281.6676945488
 30
0.0
 11
6543.0047870263
 21
5280.7324417929
 31
0.0
  0
ARC
  5
E3
330
1F
100
AcDbEntity
  8
0
  6
Continuous
 62
     7
370
    25
100
AcDbCircle
 10
6547.7547891057
 20
5179.4756451766
 30
0.0
 40
2.5
100
AcDbArc
 50
90.0
 51
180.0
  0
ARC
  5
E4
330
1F
100
AcDbEntity
  8
0
  6
Continuous
 62
     7
370
    25
100
AcDbCircle
 10
6587.7547891057
 20
5179.4756451766
 30
0.0
 40
2.5
100
AcDbArc
 50
0.0
 51
90.0
  0
LINE
  5
E5
330
1F
100
AcDbEntity
  8
0
  6
Continuous
 62
     7
370
    25
100
AcDbLine
 10
6545.2547878607
 20
5179.4756465654
 30
0.0
 11
6545.2547878607
 21
5178.9756455521
 31
0.0
  0
LINE
  5
E6
330
1F
100
AcDbEntity
  8
0
  6
Continuous
 62
     7
370
    25
100
AcDbLine
 10
6590.2547896489
 20
5178.9756455521
 30
0.0
 11
6590.2547896489
 21
5179.4756465654
 31
0.0
  0
ARC
  5
E7
330
1F
100
AcDbEntity
  8
0
  6
Continuous
 62
     7
370
    25
100
AcDbCircle
 10
6550.9762893397
 20
5162.4756451766
 30
0.0
 40
0.5
100
AcDbArc
 50
90.0
 51
200.5560452195
  0
ARC
  5
E8
330
1F
100
AcDbEntity
  8
0
  6
Continuous
 62
     7
370
    25
100
AcDbCircle
 10
6584.5332888716
 20
5162.4756451766
 30
0.0
 40
0.5
100
AcDbArc
 50
339.4439547805
 51
90.0
  0
ARC
  5
E9
330
1F
100
AcDbEntity
  8
0
  6
Continuous
 62
     7
370
    25
100
AcDbCircle
 10
6550.9762893397
 20
5174.4756451766
 30
0.0
 40
0.5000000000009095
100
AcDbArc
 50
90.0
 51
200.5560452195
  0
ARC
  5
EA
330
1F
100
AcDbEntity
  8
0
  6
Continuous
 62
     7
370
    25
100
AcDbCircle
 10
6584.5332888716
 20
5174.4756451766
 30
0.0
 40
0.5000000000009095
100
AcDbArc
 50
339.4439547805
 51
90.0
  0
ARC
  5
EB
330
1F
100
AcDbEntity
  8
0
  6
Continuous
 62
     7
370
    25
100
AcDbCircle
 10
6550.9762893397
 20
5170.4756451766
 30
0.0
 40
0.5
100
AcDbArc
 50
90.0
 51
200.5560452195
  0
ARC
  5
EC
330
1F
100
AcDbEntity
  8
0
  6
Continuous
 62
     7
370
    25
100
AcDbCircle
 10
6584.5332888716
 20
5170.4756451766
 30
0.0
 40
0.5
100
AcDbArc
 50
339.4439547805
 51
90.0
  0
ARC
  5
ED
330
1F
100
AcDbEntity
  8
0
  6
Continuous
 62
     7
370
    25
100
AcDbCircle
 10
6550.9762893397
 20
5166.4756451766
 30
0.0
 40
0.5000000000009095
100
AcDbArc
 50
90.0
 51
200.5560452195
  0
ARC
  5
EE
330
1F
100
AcDbEntity
  8
0
  6
Continuous
 62
     7
370
    25
100
AcDbCircle
 10
6584.5332888716
 20
5166.4756451766
 30
0.0
 40
0.5000000000009095
100
AcDbArc
 50
339.4439547805
 51
90.0
  0
LINE
  5
EF
330
1F
100
AcDbEntity
  8
0
  6
Continuous
 62
     7
370
    25
100
AcDbLine
 10
6550.5081177338
 20
5162.3000838856
 30
0.0
 11
6551.7547935828
 21
5158.9756422739
 31
0.0
  0
LINE
  5
F0
330
1F
100
AcDbEntity
  8
0
  6
Continuous
 62
     7
370
    25
100
AcDbLine
 10
6583.7547839268
 20
5158.9756422739
 30
0.0
 11
6585.0014448746
 21
5162.3000838856
 31
0.0
  0
LINE
  5
F1
330
1F
100
AcDbEntity
  8
0
  6
Continuous
 62
     7
370
    25
100
AcDbLine
 10
6550.5081177338
 20
5170.3000851969
 30
0.0
 11
6551.7547935828
 21
5166.9756435852
 31
0.0
  0
LINE
  5
F2
330
1F
100
AcDbEntity
  8
0
  6
Continuous
 62
     7
370
    25
100
AcDbLine
 10
6583.7547839268
 20
5166.9756435852
 30
0.0
 11
6585.0014448746
 21
5170.3000851969
 31
0.0
  0
LINE
  5
F3
330
1F
100
AcDbEntity
  8
0
  6
Continuous
 62
     7
370
    25
100
AcDbLine
 10
6550.5081177338
 20
5166.3000845413
 30
0.0
 11
6551.7547935828
 21
5162.9756429295
 31
0.0
  0
LINE
  5
F4
330
1F
100
AcDbEntity
  8
0
  6
Continuous
 62
     7
370
    25
100
AcDbLine
 10
6583.7547839268
 20
5162.9756429295
 30
0.0
 11
6585.0014448746
 21
5166.3000845413
 31
0.0
  0
LINE
  5
F5
330
1F
100
AcDbEntity
  8
0
  6
Continuous
 62
     7
370
    25
100
AcDbLine
 10
6550.5081177338
 20
5174.3000858526
 30
0.0
 11
6551.7547935828
 21
5170.9756442408
 31
0.0
  0
LINE
  5
F6
330
1F
100
AcDbEntity
  8
0
  6
Continuous
 62
     7
370
    25
100
AcDbLine
 10
6583.7547839268
 20
5170.9756442408
 30
0.0
 11
6585.0014448746
 21
5174.3000858526
 31
0.0
  0
ARC
  5
F7
330
1F
100
AcDbEntity
  8
0
  6
Continuous
 62
     7
370
    25
100
AcDbCircle
 10
6584.2547891057
 20
5178.4756451766
 30
0.0
 40
0.4999999999990905
100
AcDbArc
 50
90.0
 51
180.0
  0
ARC
  5
F8
330
1F
100
AcDbEntity
  8
0
  6
Continuous
 62
     7
370
    25
100
AcDbCircle
 10
6551.2547891057
 20
5178.4756451766
 30
0.0
 40
0.5
100
AcDbArc
 50
0.0
 51
90.0
  0
LINE
  5
F9
330
1F
100
AcDbEntity
  8
0
  6
Continuous
 62
     7
370
    25
100
AcDbLine
 10
6551.7547935828
 20
5178.4756445389
 30
0.0
 11
6551.7547935828
 21
5174.9756448965
 31
0.0
  0
LINE
  5
FA
330
1F
100
AcDbEntity
  8
0
  6
Continuous
 62
     7
370
    25
100
AcDbLine
 10
6583.7547839268
 20
5174.9756448965
 30
0.0
 11
6583.7547839268
 21
5178.4756445389
 31
0.0
  0
LINE
  5
FB
330
1F
100
AcDbEntity
  8
0
  6
Continuous
 62
     7
370
    25
100
AcDbLine
 10
6575.254803954
 20
5055.8176972966
 30
0.0
 11
6575.254803954
 21
5158.9756422739
 31
0.0
  0
LINE
  5
FC
330
1F
100
AcDbEntity
  8
0
  6
Continuous
 62
     7
370
    25
100
AcDbLine
 10
6575.254803954
 20
5181.9756441812
 30
0.0
 11
6575.254803954
 21
5245.6676942359
 31
0.0
  0
LINE
  5
FD
330
1F
100
AcDbEntity
  8
0
  6
Continuous
 62
     7
370
    25
100
AcDbLine
 10
6560.2547884568
 20
5245.6676942359
 30
0.0
 11
6560.2547884568
 21
5181.9756441812
 31
0.0
  0
LINE
  5
FE
330
1F
100
AcDbEntity
  8
0
  6
Continuous
 62
     7
370
    25
100
AcDbLine
 10
6560.2547884568
 20
5158.9756422739
 30
0.0
 11
6560.2547884568
 21
5055.8176972966
 31
0.0
  0
LINE
  5
FF
330
1F
100
AcDbEntity
  8
0
  6
Continuous
 62
     7
370
    25
100
AcDbLine
 10
6542.7047819479
 20
5287.5482422362
 30
0.0
 11
6542.7047819479
 21
5282.867694373
 31
0.0
  0
LINE
  5
100
330
1F
100
AcDbEntity
  8
0
  6
Continuous
 62
     7
370
    25
100
AcDbLine
 10
6542.7047819479
 20
5288.4676941733
 30
0.0
 11
6542.7047819479
 21
5287.5482422362
 31
0.0
  0
LINE
  5
101
330
1F
100
AcDbEntity
  8
0
  6
Continuous
 62
     7
370
    25
100
AcDbLine
 10
6541.3547963484
 20
5286.6751310478
 30
0.0
 11
6541.3547963484
 21
5284.1676940273
 31
0.0
  0
LINE
  5
102
330
1F
100
AcDbEntity
  8
0
  6
Continuous
 62
     7
370
    25
100
AcDbLine
 10
6541.3547963484
 20
5287.167694519
 30
0.0
 11
6541.3547963484
 21
5286.6751310478
 31
0.0
  0
LINE
  5
103
330
1F
100
AcDbEntity
  8
0
  6
Continuous
 62
     7
370
    25
100
AcDbLine
 10
6543.0047870263
 20
5287.5482422362
 30
0.0
 11
6543.0047870263
 21
5282.867694373
 31
0.0
  0
LINE
  5
104
330
1F
100
AcDbEntity
  8
0
  6
Continuous
 62
     7
370
    25
100
AcDbLine
 10
6543.0047870263
 20
5288.4676941733
 30
0.0
 11
6543.0047870263
 21
5287.5482422362
 31
0.0
  0
LINE
  5
105
330
1F
100
AcDbEntity
  8
0
  6
Continuous
 62
     7
370
    25
100
AcDbLine
 10
6518.6739475115
 20
5276.9960543203
 30
0.0
 11
6518.6739475115
 21
5294.917693461
 31
0.0
  0
LINE
  5
106
330
1F
100
AcDbEntity
  8
0
  6
Continuous
 62
     7
370
    25
100
AcDbLine
 10
6518.6739475115
 20
5240.4176947723
 30
0.0
 11
6518.6739475115
 21
5276.9960543203
 31
0.0
  0
LINE
  5
107
330
1F
100
AcDbEntity
  8
0
  6
Continuous
 62
     7
370
    25
100
AcDbLine
 10
6527.6739508494
 20
5280.6676943849
 30
0.0
 11
6527.6739508494
 21
5254.6676938485
 31
0.0
  0
LINE
  5
108
330
1F
100
AcDbEntity
  8
0
  6
Continuous
 62
     7
370
    25
100
AcDbLine
 10
6540.9239441737
 20
5280.6676943849
 30
0.0
 11
6540.9239441737
 21
5278.6676940571
 31
0.0
  0
LINE
  5
109
330
1F
100
AcDbEntity
  8
0
  6
Continuous
 62
     7
370
    25
100
AcDbLine
 10
6530.9239388092
 20
5278.6676940571
 30
0.0
 11
6530.9239388092
 21
5280.6676943849
 31
0.0
  0
LINE
  5
10A
330
1F
100
AcDbEntity
  8
0
  6
Continuous
 62
     7
370
    25
100
AcDbLine
 10
6540.9239441737
 20
5278.6676940571
 30
0.0
 11
6530.9239388092
 21
5278.6676940571
 31
0.0
  0
LINE
  5
10B
330
1F
100
AcDbEntity
  8
0
  6
Continuous
 62
     7
370
    25
100
AcDbLine
 10
6530.9239388092
 20
5254.6676938485
 30
0.0
 11
6530.9239388092
 21
5256.6676941763
 31
0.0
  0
LINE
  5
10C
330
1F
100
AcDbEntity
  8
0
  6
Continuous
 62
     7
370
    25
100
AcDbLine
 10
6540.9239441737
 20
5256.6676941763
 30
0.0
 11
6540.9239441737
 21
5254.6676938485
 31
0.0
  0
LINE
  5
10D
330
1F
100
AcDbEntity
  8
0
  6
Continuous
 62
     7
370
    25
100
AcDbLine
 10
6530.9239388092
 20
5256.6676941763
 30
0.0
 11
6540.9239441737
 21
5256.6676941763
 31
0.0
  0
LINE
  5
10E
330
1F
100
AcDbEntity
  8
0
  6
Continuous
 62
     7
370
    25
100
AcDbLine
 10
6506.673938094
 20
5278.1176940601
 30
0.0
 11
6506.673938094
 21
5257.2176941733
 31
0.0
  0
LINE
  5
10F
330
1F
100
AcDbEntity
  8
0
  6
Continuous
 62
     7
370
    25
100
AcDbLine
 10
6505.6739509686
 20
5258.2176943372
 30
0.0
 11
6505.6739509686
 21
5277.1176943618
 31
0.0
  0
LINE
  5
110
330
1F
100
AcDbEntity
  8
0
  6
Continuous
 62
     7
370
    25
100
AcDbLine
 10
6543.0047870263
 20
5368.1676947574
 30
0.0
 11
6592.5047755822
 21
5368.1676947574
 31
0.0
  0
SPLINE
  5
111
330
1F
100
AcDbEntity
  8
0
  6
Continuous
 62
     7
370
    25
100
AcDbSpline
210
0.0
220
0.0
230
1.0
 70
     8
 71
     3
 72
    17
 73
    13
 74
     0
 42
0.000000001
 43
0.00000001
 40
0.0
 40
0.0
 40
0.0
 40
0.0
 40
0.0984524244393181
 40
0.1999793032032041
 40
0.298376800247134
 40
0.3993116470392062
 40
0.5040466400134423
 40
0.611524501360582
 40
0.7212089620505596
 40
0.8344557868089579
 40
0.9376511882314826
 40
1.0
 40
1.0
 40
1.0
 40
1.0
 10
6589.926010428277
 20
5348.967697570774
 30
0.0
 10
6589.939077715021
 20
5348.392944967605
 30
0.0
 10
6589.965620351355
 20
5347.225491491972
 30
0.0
 10
6590.171734283008
 20
5345.536900363365
 30
0.0
 10
6590.473184156604
 20
5343.935291819233
 30
0.0
 10
6590.85008683254
 20
5342.452616659778
 30
0.0
 10
6591.270687309525
 20
5341.099103250221
 30
0.0
 10
6591.693713289802
 20
5339.921230176812
 30
0.0
 10
6592.075543643626
 20
5338.96182343333
 30
0.0
 10
6592.349185461159
 20
5338.319328646463
 30
0.0
 10
6592.495154262115
 20
5337.989315780485
 30
0.0
 10
6592.489738562816
 20
5338.001560650843
 30
0.0
 10
6592.487698851433
 20
5338.006172428582
 30
0.0
  0
SPLINE
  5
112
330
1F
100
AcDbEntity
  8
0
  6
Continuous
 62
     7
370
    25
100
AcDbSpline
210
0.0
220
0.0
230
1.0
 70
     8
 71
     3
 72
    18
 73
    14
 74
     0
 42
0.000000001
 43
0.00000001
 40
0.0
 40
0.0
 40
0.0
 40
0.0
 40
0.0115574680428471
 40
0.1147722385320402
 40
0.2106059081833164
 40
0.3089948264015461
 40
0.4093342712604437
 40
0.5121801044498958
 40
0.6202838997816398
 40
0.7314857040396362
 40
0.8395119838815095
 40
0.9513292206409878
 40
1.0
 40
1.0
 40
1.0
 40
1.0
 10
6592.498487292138
 20
5359.95347435281
 30
0.0
 10
6592.500534100687
 20
5359.958089296032
 30
0.0
 10
6592.520860075056
 20
5360.003918309983
 30
0.0
 10
6592.439303968968
 20
5359.82076080484
 30
0.0
 10
6592.255682617708
 20
5359.398828663213
 30
0.0
 10
6591.968990090184
 20
5358.711682461148
 30
0.0
 10
6591.608179061239
 20
5357.78431565452
 30
0.0
 10
6591.194399561298
 20
5356.606621931302
 30
0.0
 10
6590.764153032136
 20
5355.181135047182
 30
0.0
 10
6590.371979583074
 20
5353.544105283421
 30
0.0
 10
6590.074078485344
 20
5351.737317647923
 30
0.0
 10
6589.940266831681
 20
5350.18749868111
 30
0.0
 10
6589.929327861153
 20
5349.251542534442
 30
0.0
 10
6589.926010428277
 20
5348.967697570774
 30
0.0
  0
LINE
  5
113
330
1F
100
AcDbEntity
  8
0
  6
Continuous
 62
     7
370
    25
100
AcDbLine
 10
6543.0047870263
 20
5281.6676945488
 30
0.0
 11
6592.5047755822
 21
5281.6676945488
 31
0.0
  0
LINE
  5
114
330
1F
100
AcDbEntity
  8
0
  6
Continuous
 62
     7
370
    25
100
AcDbLine
 10
6543.0047870263
 20
5245.6676942359
 30
0.0
 11
6592.5047755822
 21
5245.6676942359
 31
0.0
  0
SPLINE
  5
115
330
1F
100
AcDbEntity
  8
0
  6
Continuous
 62
     7
370
    25
100
AcDbSpline
210
0.0
220
0.0
230
1.0
 70
     8
 71
     3
 72
    17
 73
    13
 74
     0
 42
0.000000001
 43
0.00000001
 40
0.0
 40
0.0
 40
0.0
 40
0.0
 40
0.0952216073730452
 40
0.19354307741759
 40
0.2886851208393656
 40
0.3861608340938653
 40
0.4901772502852967
 40
0.596780184526891
 40
0.7083873925234082
 40
0.8237679933356367
 40
0.9264907437186011
 40
1.0
 40
1.0
 40
1.0
 40
1.0
 10
6546.755915938225
 20
5267.667694349516
 30
0.0
 10
6546.737322965859
 20
5267.001362575933
 30
0.0
 10
6546.6995317419
 20
5265.647007134998
 30
0.0
 10
6546.408028413761
 20
5263.69187946641
 30
0.0
 10
6545.985216850565
 20
5261.840582087217
 30
0.0
 10
6545.455100258813
 20
5260.10829024944
 30
0.0
 10
6544.858045880136
 20
5258.504580304726
 30
0.0
 10
6544.243376529972
 20
5257.070688592646
 30
0.0
 10
6543.677283813488
 20
5255.876099871817
 30
0.0
 10
6543.261542347421
 20
5255.055682152092
 30
0.0
 10
6543.028927047364
 20
5254.613134627934
 30
0.0
 10
6543.02702371028
 20
5254.609710978878
 30
0.0
 10
6543.026229797211
 20
5254.608282918784
 30
0.0
  0
SPLINE
  5
116
330
1F
100
AcDbEntity
  8
0
  6
Continuous
 62
     7
370
    25
100
AcDbSpline
210
0.0
220
0.0
230
1.0
 70
     8
 71
     3
 72
    17
 73
    13
 74
     0
 42
0.000000001
 43
0.00000001
 40
0.0
 40
0.0
 40
0.0
 40
0.0
 40
0.0755934459583525
 40
0.1679279568540101
 40
0.2627635906474851
 40
0.3588366519199393
 40
0.4571875157640352
 40
0.563693686931976
 40
0.6729895670232638
 40
0.784245313672082
 40
0.8995489326661391
 40
1.0
 40
1.0
 40
1.0
 40
1.0
 10
6543.023413477746
 20
5280.732441792939
 30
0.0
 10
6543.02570215174
 20
5280.728185918178
 30
0.0
 10
6543.030786353726
 20
5280.718731654727
 30
0.0
 10
6543.233226571542
 20
5280.333425399939
 30
0.0
 10
6543.56550781742
 20
5279.681168518346
 30
0.0
 10
6544.021326012907
 20
5278.741041840462
 30
0.0
 10
6544.571770938262
 20
5277.516862504152
 30
0.0
 10
6545.183438537487
 20
5275.993550804436
 30
0.0
 10
6545.799064188295
 20
5274.17087402463
 30
0.0
 10
6546.329867827666
 20
5272.08353432849
 30
0.0
 10
6546.69024635922
 20
5269.880579123624
 30
0.0
 10
6546.7350542707
 20
5268.370675351195
 30
0.0
 10
6546.755915938225
 20
5267.667694349516
 30
0.0
  0
SPLINE
  5
117
330
1F
100
AcDbEntity
  8
0
  6
Continuous
 62
     7
370
    25
100
AcDbSpline
210
0.0
220
0.0
230
1.0
 70
    11
 71
     3
 72
    26
 73
    22
 74
     0
 42
0.000000001
 43
0.00000001
 40
0.0
 40
0.0
 40
0.0
 40
0.0
 40
0.0484846257644412
 40
0.0968880089210309
 40
0.1474583989744609
 40
0.2025474645823822
 40
0.2611247498377762
 40
0.3202569951026351
 40
0.3772190918435429
 40
0.4312148833844998
 40
0.4829446506618955
 40
0.5334632550295657
 40
0.5836802629495593
 40
0.6344005062606817
 40
0.6864698465038918
 40
0.7407569133040433
 40
0.7977746598931948
 40
0.8568740927903465
 40
0.9154837089547497
 40
0.9700933426546047
 40
0.9999999999999999
 40
0.9999999999999999
 40
0.9999999999999999
 40
0.9999999999999999
 10
6545.389583764878
 20
5250.667695055458
 30
0.0
 10
6545.37987223021
 20
5250.447310993727
 30
0.0
 10
6545.360465433878
 20
5250.006912153839
 30
0.0
 10
6545.214391759131
 20
5249.415295578066
 30
0.0
 10
6545.004641896654
 20
5248.935769316187
 30
0.0
 10
6544.741723907293
 20
5248.617281082542
 30
0.0
 10
6544.461666002852
 20
5248.525498474937
 30
0.0
 10
6544.207872192981
 20
5248.703586419822
 30
0.0
 10
6544.014417677315
 20
5249.131444792011
 30
0.0
 10
6543.892822135809
 20
5249.734599953656
 30
0.0
 10
6543.839838761397
 20
5250.425967869673
 30
0.0
 10
6543.849787883008
 20
5251.12806890655
 30
0.0
 10
6543.919768191869
 20
5251.772841080257
 30
0.0
 10
6544.048986131193
 20
5252.300072000788
 30
0.0
 10
6544.236113268284
 20
5252.658689694073
 30
0.0
 10
6544.475665508304
 20
5252.806725417689
 30
0.0
 10
6544.751775376199
 20
5252.712091551684
 30
0.0
 10
6545.031351189667
 20
5252.363407009526
 30
0.0
 10
6545.258872123313
 20
5251.795739605765
 30
0.0
 10
6545.375268167882
 20
5251.186052378077
 30
0.0
 10
6545.385842105883
 20
5250.803177797759
 30
0.0
 10
6545.389583764878
 20
5250.667695055458
 30
0.0
  0
LINE
  5
118
330
1F
100
AcDbEntity
  8
0
  6
Continuous
 62
     7
370
    25
100
AcDbLine
 10
6547.7547854765
 20
5181.9756441812
 30
0.0
 11
6587.754792033
 21
5181.9756441812
 31
0.0
  0
LINE
  5
119
330
1F
100
AcDbEntity
  8
0
  6
Continuous
 62
     7
370
    25
100
AcDbLine
 10
6545.2547878607
 20
5178.9756455521
 30
0.0
 11
6590.2547896489
 21
5178.9756455521
 31
0.0
  0
LINE
  5
11A
330
1F
100
AcDbEntity
  8
0
  6
Continuous
 62
     7
370
    25
100
AcDbLine
 10
6550.9762824162
 20
5162.9756429295
 30
0.0
 11
6584.5332801922
 21
5162.9756429295
 31
0.0
  0
LINE
  5
11B
330
1F
100
AcDbEntity
  8
0
  6
Continuous
 62
     7
370
    25
100
AcDbLine
 10
6550.9762824162
 20
5174.9756448965
 30
0.0
 11
6584.5332801922
 21
5174.9756448965
 31
0.0
  0
LINE
  5
11C
330
1F
100
AcDbEntity
  8
0
  6
Continuous
 62
     7
370
    25
100
AcDbLine
 10
6550.9762824162
 20
5170.9756442408
 30
0.0
 11
6584.5332801922
 21
5170.9756442408
 31
0.0
  0
LINE
  5
11D
330
1F
100
AcDbEntity
  8
0
  6
Continuous
 62
     7
370
    25
100
AcDbLine
 10
6550.9762824162
 20
5166.9756435852
 30
0.0
 11
6584.5332801922
 21
5166.9756435852
 31
0.0
  0
LINE
  5
11E
330
1F
100
AcDbEntity
  8
0
  6
Continuous
 62
     7
370
    25
100
AcDbLine
 10
6551.7547935828
 20
5158.9756422739
 30
0.0
 11
6583.7547839268
 21
5158.9756422739
 31
0.0
  0
LINE
  5
11F
330
1F
100
AcDbEntity
  8
0
  6
Continuous
 62
     7
370
    25
100
AcDbLine
 10
6560.2547884568
 20
5055.8176972966
 30
0.0
 11
6575.254803954
 21
5055.8176972966
 31
0.0
  0
LINE
  5
120
330
1F
100
AcDbEntity
  8
0
  6
Continuous
 62
     8
370
    25
100
AcDbLine
 10
6520.2423990353
 20
5240.4176947723
 30
0.0
 11
6520.2423990353
 21
5294.917693461
 31
0.0
  0
LINE
  5
121
330
1F
100
AcDbEntity
  8
0
  6
Continuous
 62
     8
370
    25
100
AcDbLine
 10
6524.0567237719
 20
5292.1222188573
 30
0.0
 11
6524.0567237719
 21
5243.2131693761
 31
0.0
  0
LINE
  5
122
330
1F
100
AcDbEntity
  8
0
  6
Continuous
 62
     8
370
    25
100
AcDbLine
 10
6527.4882823809
 20
5254.0797405939
 30
0.0
 11
6527.4882823809
 21
5281.2556467082
 31
0.0
  0
LINE
  5
123
330
1F
100
AcDbEntity
  8
0
  6
Continuous
 62
     8
370
    25
100
AcDbLine
 10
6590.2547896489
 20
5179.4756465654
 30
0.0
 11
6545.2547878607
 21
5179.4756465654
 31
0.0
  0
LINE
  5
124
330
1F
100
AcDbEntity
  8
0
  6
Continuous
 62
     8
370
    25
100
AcDbLine
 10
6585.0014448746
 20
5162.3000838856
 30
0.0
 11
6550.5081177338
 21
5162.3000838856
 31
0.0
  0
LINE
  5
125
330
1F
100
AcDbEntity
  8
0
  6
Continuous
 62
     8
370
    25
100
AcDbLine
 10
6585.0014448746
 20
5174.3000858526
 30
0.0
 11
6550.5081177338
 21
5174.3000858526
 31
0.0
  0
LINE
  5
126
330
1F
100
AcDbEntity
  8
0
  6
Continuous
 62
     8
370
    25
100
AcDbLine
 10
6585.0014448746
 20
5170.3000851969
 30
0.0
 11
6550.5081177338
 21
5170.3000851969
 31
0.0
  0
LINE
  5
127
330
1F
100
AcDbEntity
  8
0
  6
Continuous
 62
     8
370
    25
100
AcDbLine
 10
6585.0014448746
 20
5166.3000845413
 30
0.0
 11
6550.5081177338
 21
5166.3000845413
 31
0.0
  0
LINE
  5
128
330
1F
100
AcDbEntity
  8
0
  6
Continuous
 62
     8
370
    25
100
AcDbLine
 10
6583.7547839268
 20
5178.4756445389
 30
0.0
 11
6551.7547935828
 21
5178.4756445389
 31
0.0
  0
ARC
  5
129
330
1F
100
AcDbEntity
  8
0
  6
Continuous
 62
     7
370
    25
100
AcDbCircle
 10
6274.0187553361
 20
4820.1517649763
 30
0.0
 40
3.128427475666955
100
AcDbArc
 50
118.651061369
 51
153.5107870043
  0
ARC
  5
12A
330
1F
100
AcDbEntity
  8
0
  6
Continuous
 62
     7
370
    25
100
AcDbCircle
 10
6274.0187553361
 20
4820.1517649763
 30
0.0
 40
3.128427475666955
100
AcDbArc
 50
26.4892129957
 51
61.348938631
  0
LINE
  5
12B
330
1F
100
AcDbEntity
  8
0
  6
Continuous
 62
     7
370
    25
100
AcDbLine
 10
6276.8187574267
 20
4821.2471374261
 30
0.0
 11
6276.8187574267
 21
4821.5471425044
 31
0.0
  0
LINE
  5
12C
330
1F
100
AcDbEntity
  8
0
  6
Continuous
 62
     7
370
    25
100
AcDbLine
 10
6271.2187520385
 20
4821.5471425044
 30
0.0
 11
6271.2187520385
 21
4821.2471374261
 31
0.0
  0
LINE
  5
12D
330
1F
100
AcDbEntity
  8
0
  6
Continuous
 62
     7
370
    25
100
AcDbLine
 10
6275.5187577724
 20
4821.201644181
 30
0.0
 11
6275.5187577724
 21
4821.2471374261
 31
0.0
  0
LINE
  5
12E
330
1F
100
AcDbEntity
  8
0
  6
Continuous
 62
     7
370
    25
100
AcDbLine
 10
6272.5187516927
 20
4821.2471374261
 30
0.0
 11
6272.5187516927
 21
4821.201644181
 31
0.0
  0
LINE
  5
12F
330
1F
100
AcDbEntity
  8
0
  6
Continuous
 62
     7
370
    25
100
AcDbLine
 10
6246.7687553882
 20
4845.5779769408
 30
0.0
 11
6246.7687553882
 21
4844.009525417
 31
0.0
  0
LINE
  5
130
330
1F
100
AcDbEntity
  8
0
  6
Continuous
 62
     7
370
    25
100
AcDbLine
 10
6301.2687540769
 20
4844.009525417
 30
0.0
 11
6301.2687540769
 21
4845.5779769408
 31
0.0
  0
ARC
  5
131
330
1F
100
AcDbEntity
  8
0
  6
Continuous
 62
     7
370
    25
100
AcDbCircle
 10
6297.2687553361
 20
4844.0095284165
 30
0.0
 40
4.000000000000909
100
AcDbArc
 50
287.5255683737
 51
0.0
  0
ARC
  5
132
330
1F
100
AcDbEntity
  8
0
  6
Continuous
 62
     7
370
    25
100
AcDbCircle
 10
6250.7687553361
 20
4844.0095284165
 30
0.0
 40
3.999999999999671
100
AcDbArc
 50
180.0
 51
252.4744316263
  0
LINE
  5
133
330
1F
100
AcDbEntity
  8
0
  6
Continuous
 62
     7
370
    25
100
AcDbLine
 10
6249.5642281294
 20
4840.1952006804
 30
0.0
 11
6260.4308030724
 21
4836.7636420714
 31
0.0
  0
LINE
  5
134
330
1F
100
AcDbEntity
  8
0
  6
Continuous
 62
     7
370
    25
100
AcDbLine
 10
6287.6067063927
 20
4836.7636420714
 30
0.0
 11
6298.4732813358
 21
4840.1952006804
 31
0.0
  0
ARC
  5
135
330
1F
100
AcDbEntity
  8
0
  6
Continuous
 62
     7
370
    25
100
AcDbCircle
 10
6286.4021827727
 20
4840.577979186
 30
0.0
 40
3.999999999999671
100
AcDbArc
 50
270.0
 51
287.5255683737
  0
ARC
  5
136
330
1F
100
AcDbEntity
  8
0
  6
Continuous
 62
     7
370
    25
100
AcDbCircle
 10
6261.6353278995
 20
4840.577979186
 30
0.0
 40
3.999999999999671
100
AcDbArc
 50
252.4744316263
 51
270.0
  0
LINE
  5
137
330
1F
100
AcDbEntity
  8
0
  6
Continuous
 62
     7
370
    25
100
AcDbLine
 10
6261.0187581897
 20
4836.577973603
 30
0.0
 11
6261.0187581897
 21
4817.5580569493
 31
0.0
  0
LINE
  5
138
330
1F
100
AcDbEntity
  8
0
  6
Continuous
 62
     7
370
    25
100
AcDbLine
 10
6287.0187587261
 20
4830.5023231494
 30
0.0
 11
6287.0187587261
 21
4836.577973603
 31
0.0
  0
LINE
  5
139
330
1F
100
AcDbEntity
  8
0
  6
Continuous
 62
     7
370
    25
100
AcDbLine
 10
6287.0187587261
 20
4817.5580569493
 30
0.0
 11
6287.0187587261
 21
4823.2701637732
 31
0.0
  0
LINE
  5
13A
330
1F
100
AcDbEntity
  8
0
  6
Continuous
 62
     7
370
    25
100
AcDbLine
 10
6284.4687528133
 20
4857.5779863584
 30
0.0
 11
6283.4687582373
 21
4858.5779734838
 31
0.0
  0
LINE
  5
13B
330
1F
100
AcDbEntity
  8
0
  6
Continuous
 62
     7
370
    25
100
AcDbLine
 10
6264.5687586784
 20
4858.5779734838
 30
0.0
 11
6263.5687566519
 21
4857.5779863584
 31
0.0
  0
LINE
  5
13C
330
1F
100
AcDbEntity
  8
0
  6
Continuous
 62
     7
370
    25
100
AcDbLine
 10
6284.4687528133
 20
4845.5779769408
 30
0.0
 11
6284.4687528133
 21
4857.5779863584
 31
0.0
  0
LINE
  5
13D
330
1F
100
AcDbEntity
  8
0
  6
Continuous
 62
     7
370
    25
100
AcDbLine
 10
6263.5687566519
 20
4857.5779863584
 30
0.0
 11
6263.5687566519
 21
4845.5779769408
 31
0.0
  0
LINE
  5
13E
330
1F
100
AcDbEntity
  8
0
  6
Continuous
 62
     7
370
    25
100
AcDbLine
 10
6275.6187520146
 20
4821.1953707921
 30
0.0
 11
6275.6187520146
 21
4821.2471374261
 31
0.0
  0
LINE
  5
13F
330
1F
100
AcDbEntity
  8
0
  6
Continuous
 62
     7
370
    25
100
AcDbLine
 10
6272.4187574506
 20
4821.2471374261
 30
0.0
 11
6272.4187574506
 21
4821.1953707921
 31
0.0
  0
LINE
  5
140
330
1F
100
AcDbEntity
  8
0
  6
Continuous
 62
     7
370
    25
100
AcDbLine
 10
6271.9442597747
 20
4821.5471425044
 30
0.0
 11
6271.2187520385
 21
4821.5471425044
 31
0.0
  0
LINE
  5
141
330
1F
100
AcDbEntity
  8
0
  6
Continuous
 62
     7
370
    25
100
AcDbLine
 10
6276.8187574267
 20
4821.5471425044
 30
0.0
 11
6271.9442597747
 21
4821.5471425044
 31
0.0
  0
LINE
  5
142
330
1F
100
AcDbEntity
  8
0
  6
Continuous
 62
     7
370
    25
100
AcDbLine
 10
6272.9074186802
 20
4822.8971281039
 30
0.0
 11
6272.5187516927
 21
4822.8971281039
 31
0.0
  0
LINE
  5
143
330
1F
100
AcDbEntity
  8
0
  6
Continuous
 62
     7
370
    25
100
AcDbLine
 10
6275.5187577724
 20
4822.8971281039
 30
0.0
 11
6272.9074186802
 21
4822.8971281039
 31
0.0
  0
LINE
  5
144
330
1F
100
AcDbEntity
  8
0
  6
Continuous
 62
     7
370
    25
100
AcDbLine
 10
6271.9442597747
 20
4821.2471374261
 30
0.0
 11
6271.2187520385
 21
4821.2471374261
 31
0.0
  0
LINE
  5
145
330
1F
100
AcDbEntity
  8
0
  6
Continuous
 62
     7
370
    25
100
AcDbLine
 10
6276.8187574267
 20
4821.2471374261
 30
0.0
 11
6271.9442597747
 21
4821.2471374261
 31
0.0
  0
LINE
  5
146
330
1F
100
AcDbEntity
  8
0
  6
Continuous
 62
     7
370
    25
100
AcDbLine
 10
6248.4151548862
 20
4845.5779769408
 30
0.0
 11
6301.2687540769
 21
4845.5779769408
 31
0.0
  0
LINE
  5
147
330
1F
100
AcDbEntity
  8
0
  6
Continuous
 62
     7
370
    25
100
AcDbLine
 10
6246.7687553882
 20
4845.5779769408
 30
0.0
 11
6248.4151548862
 21
4845.5779769408
 31
0.0
  0
LINE
  5
148
330
1F
100
AcDbEntity
  8
0
  6
Continuous
 62
     7
370
    25
100
AcDbLine
 10
6287.5187522888
 20
4830.4783322799
 30
0.0
 11
6287.0049006462
 21
4830.4783322799
 31
0.0
  0
LINE
  5
149
330
1F
100
AcDbEntity
  8
0
  6
Continuous
 62
     7
370
    25
100
AcDbLine
 10
6287.5187522888
 20
4830.4783322799
 30
0.0
 11
6287.5187522888
 21
4823.277629255
 31
0.0
  0
LINE
  5
14A
330
1F
100
AcDbEntity
  8
0
  6
Continuous
 62
     7
370
    25
100
AcDbLine
 10
6287.0049006462
 20
4823.277629255
 30
0.0
 11
6287.5187522888
 21
4823.277629255
 31
0.0
  0
SPLINE
  5
14B
330
1F
100
AcDbEntity
  8
0
  6
Continuous
 62
     7
370
    25
100
AcDbSpline
210
0.0
220
0.0
230
1.0
 70
     8
 71
     3
 72
    12
 73
     8
 74
     0
 42
0.000000001
 43
0.00000001
 40
0.0
 40
0.0
 40
0.0
 40
0.0
 40
0.2090196702681069
 40
0.4178373379168882
 40
0.6319034970408265
 40
0.849723160787993
 40
1.0
 40
1.0
 40
1.0
 40
1.0
 10
6286.495832276317
 20
4826.877973316858
 30
0.0
 10
6286.507440757019
 20
4826.476854718378
 30
0.0
 10
6286.530646499653
 20
4825.675005173966
 30
0.0
 10
6286.69225846217
 20
4824.598229944337
 30
0.0
 10
6286.870393208426
 20
4823.771803428913
 30
0.0
 10
6287.003486893896
 20
4823.281750320721
 30
0.0
 10
6287.006003924592
 20
4823.273522722465
 30
0.0
 10
6287.007031512233
 20
4823.270163773248
 30
0.0
  0
SPLINE
  5
14C
330
1F
100
AcDbEntity
  8
0
  6
Continuous
 62
     7
370
    25
100
AcDbSpline
210
0.0
220
0.0
230
1.0
 70
     8
 71
     3
 72
    12
 73
     8
 74
     0
 42
0.000000001
 43
0.00000001
 40
0.0
 40
0.0
 40
0.0
 40
0.0
 40
0.175927597637661
 40
0.3824669911974604
 40
0.5950217274710594
 40
0.8128079967655697
 40
1.0
 40
1.0
 40
1.0
 40
1.0
 10
6287.011658322784
 20
4830.502323149392
 30
0.0
 10
6287.006690998077
 20
4830.485178325917
 30
0.0
 10
6286.995892023044
 20
4830.447905441291
 30
0.0
 10
6286.856656639819
 20
4829.926418843746
 30
0.0
 10
6286.678166040242
 20
4829.083642681235
 30
0.0
 10
6286.525247947842
 20
4828.013550654751
 30
0.0
 10
6286.505130916767
 20
4827.236942696794
 30
0.0
 10
6286.495832276317
 20
4826.877973316858
 30
0.0
  0
LINE
  5
14D
330
1F
100
AcDbEntity
  8
0
  6
Continuous
 62
     7
370
    25
100
AcDbLine
 10
6280.9469602227
 20
4823.3279802787
 30
0.0
 11
6267.0905492425
 21
4823.3279802787
 31
0.0
  0
LINE
  5
14E
330
1F
100
AcDbEntity
  8
0
  6
Continuous
 62
     7
370
    25
100
AcDbLine
 10
6280.9469602227
 20
4833.3279856431
 30
0.0
 11
6280.9469602227
 21
4823.3279802787
 31
0.0
  0
LINE
  5
14F
330
1F
100
AcDbEntity
  8
0
  6
Continuous
 62
     7
370
    25
100
AcDbLine
 10
6267.0905492425
 20
4833.3279856431
 30
0.0
 11
6280.9469602227
 21
4833.3279856431
 31
0.0
  0
LINE
  5
150
330
1F
100
AcDbEntity
  8
0
  6
Continuous
 62
     7
370
    25
100
AcDbLine
 10
6267.0905492425
 20
4823.3279802787
 30
0.0
 11
6267.0905492425
 21
4833.3279856431
 31
0.0
  0
LINE
  5
151
330
1F
100
AcDbEntity
  8
0
  6
Continuous
 62
     7
370
    25
100
AcDbLine
 10
6287.0187587261
 20
4836.577973603
 30
0.0
 11
6261.0187581897
 21
4836.577973603
 31
0.0
  0
LINE
  5
152
330
1F
100
AcDbEntity
  8
0
  6
Continuous
 62
     7
370
    25
100
AcDbLine
 10
6274.0187547326
 20
4858.5779734838
 30
0.0
 11
6283.4687582373
 21
4858.5779734838
 31
0.0
  0
LINE
  5
153
330
1F
100
AcDbEntity
  8
0
  6
Continuous
 62
     7
370
    25
100
AcDbLine
 10
6264.5687586784
 20
4858.5779734838
 30
0.0
 11
6274.0187547326
 21
4858.5779734838
 31
0.0
  0
LINE
  5
154
330
1F
100
AcDbEntity
  8
0
  6
Continuous
 62
     7
370
    25
100
AcDbLine
 10
6274.0187547326
 20
4857.5779863584
 30
0.0
 11
6263.5687566519
 21
4857.5779863584
 31
0.0
  0
LINE
  5
155
330
1F
100
AcDbEntity
  8
0
  6
Continuous
 62
     7
370
    25
100
AcDbLine
 10
6284.4687528133
 20
4857.5779863584
 30
0.0
 11
6274.0187547326
 21
4857.5779863584
 31
0.0
  0
CIRCLE
  5
156
330
1F
100
AcDbEntity
  8
0
  6
Continuous
 62
     7
370
    25
100
AcDbCircle
 10
6274.0187553361
 20
4796.4971353467
 30
0.0
 40
24.75
  0
LINE
  5
157
330
1F
100
AcDbEntity
  8
0
  6
Continuous
 62
     8
370
    25
100
AcDbLine
 10
6246.7687553882
 20
4844.009525417
 30
0.0
 11
6301.2687540769
 21
4844.009525417
 31
0.0
  0
LINE
  5
158
330
1F
100
AcDbEntity
  8
0
  6
Continuous
 62
     8
370
    25
100
AcDbLine
 10
6298.4732813358
 20
4840.1952006804
 30
0.0
 11
6249.5642281294
 21
4840.1952006804
 31
0.0
  0
LINE
  5
159
330
1F
100
AcDbEntity
  8
0
  6
Continuous
 62
     8
370
    25
100
AcDbLine
 10
6260.4308030724
 20
4836.7636420714
 30
0.0
 11
6287.6067063927
 21
4836.7636420714
 31
0.0
  0
ENDSEC
  0
SECTION
  2
OBJECTS
  0
DICTIONARY
  5
C
330
0
100
AcDbDictionary
281
     1
  3
ACAD_GROUP
350
D
  3
ACAD_LAYOUT
350
1A
  3
ACAD_MLINESTYLE
350
17
  3
ACAD_PLOTSETTINGS
350
19
  3
ACAD_PLOTSTYLENAME
350
E
  3
ACAD_SCALELIST
350
47
  0
DICTIONARY
  5
D
102
{ACAD_REACTORS
330
C
102
}
330
C
100
AcDbDictionary
281
     1
  0
DICTIONARY
  5
1A
102
{ACAD_REACTORS
330
C
102
}
330
C
100
AcDbDictionary
281
     1
  3
Layout1
350
1E
  3
Layout2
350
26
  3
Model
350
22
  0
DICTIONARY
  5
17
102
{ACAD_REACTORS
330
C
102
}
330
C
100
AcDbDictionary
281
     1
  3
Standard
350
18
  0
DICTIONARY
  5
19
102
{ACAD_REACTORS
330
C
102
}
330
C
100
AcDbDictionary
281
     1
  0
ACDBDICTIONARYWDFLT
  5
E
102
{ACAD_REACTORS
330
C
102
}
330
C
100
AcDbDictionary
281
     1
  3
Normal
350
F
100
AcDbDictionaryWithDefault
340
F
  0
DICTIONARY
  5
47
102
{ACAD_REACTORS
330
C
102
}
330
C
100
AcDbDictionary
281
     1
  3
A0
350
48
  3
A1
350
49
  3
A2
350
4A
  3
A3
350
4B
  3
A4
350
4C
  3
A5
350
4D
  3
A6
350
4E
  3
A7
350
4F
  3
A8
350
50
  3
A9
350
51
  3
B0
350
52
  3
B1
350
53
  3
B2
350
54
  3
B3
350
55
  3
B4
350
56
  3
B5
350
57
  3
B6
350
58
  3
B7
350
59
  3
B8
350
5A
  3
B9
350
5B
  3
C0
350
5C
  3
C1
350
5D
  3
C2
350
5E
  3
C3
350
5F
  3
C4
350
60
  3
C5
350
61
  3
C6
350
62
  3
C7
350
63
  3
C8
350
64
  3
C9
350
65
  3
D0
350
66
  3
D1
350
67
  3
D2
350
68
  0
LAYOUT
  5
1E
102
{ACAD_REACTORS
330
1A
102
}
330
1A
100
AcDbPlotSettings
  1

  2
none_device
  4

  6

 40
0.0
 41
0.0
 42
0.0
 43
0.0
 44
0.0
 45
0.0
 46
0.0
 47
0.0
 48
0.0
 49
0.0
140
0.0
141
0.0
142
1.0
143
1.0
 70
   688
 72
     1
 73
     0
 74
     5
  7

 75
    16
147
1.0
148
0.0
149
0.0
100
AcDbLayout
  1
Layout1
 70
     1
 71
     1
 10
0.0
 20
0.0
 11
420.0
 21
297.0
 12
0.0
 22
0.0
 32
0.0
 14
1.0000000000E+20
 24
1.0000000000E+20
 34
1.0000000000E+20
 15
-1.0000000000E+20
 25
-1.0000000000E+20
 35
-1.0000000000E+20
146
0.0
 13
0.0
 23
0.0
 33
0.0
 16
1.0
 26
0.0
 36
0.0
 17
0.0
 27
1.0
 37
0.0
 76
     0
330
1B
  0
LAYOUT
  5
26
102
{ACAD_REACTORS
330
1A
102
}
330
1A
100
AcDbPlotSettings
  1

  2
none_device
  4

  6

 40
0.0
 41
0.0
 42
0.0
 43
0.0
 44
0.0
 45
0.0
 46
0.0
 47
0.0
 48
0.0
 49
0.0
140
0.0
141
0.0
142
1.0
143
1.0
 70
   688
 72
     1
 73
     0
 74
     5
  7

 75
    16
147
1.0
148
0.0
149
0.0
100
AcDbLayout
  1
Layout2
 70
     1
 71
     2
 10
0.0
 20
0.0
 11
0.0
 21
0.0
 12
0.0
 22
0.0
 32
0.0
 14
0.0
 24
0.0
 34
0.0
 15
0.0
 25
0.0
 35
0.0
146
0.0
 13
0.0
 23
0.0
 33
0.0
 16
1.0
 26
0.0
 36
0.0
 17
0.0
 27
1.0
 37
0.0
 76
     0
330
23
  0
LAYOUT
  5
22
102
{ACAD_REACTORS
330
1A
102
}
330
1A
100
AcDbPlotSettings
  1

  2
none_device
  4
Letter_(8.50_x_11.00_Inches)
  6

 40
6.35
 41
6.35
 42
6.35000508
 43
6.35000508
 44
215.9
 45
279.4
 46
0.0
 47
0.0
 48
0.0
 49
0.0
140
0.0
141
0.0
142
1.0
143
1.0
 70
  1712
 72
     1
 73
     0
 74
     0
  7

 75
     0
147
1.0
148
0.0
149
0.0
100
AcDbLayout
  1
Model
 70
     1
 71
     0
 10
0.0
 20
0.0
 11
20000.0
 21
10000.0
 12
0.0
 22
0.0
 32
0.0
 14
0.0
 24
0.0
 34
0.0
 15
20000.0
 25
10000.0
 35
0.0
146
0.0
 13
0.0
 23
0.0
 33
0.0
 16
1.0
 26
0.0
 36
0.0
 17
0.0
 27
1.0
 37
0.0
 76
     0
330
1F
331
29
  0
MLINESTYLE
  5
18
102
{ACAD_REACTORS
330
17
102
}
330
17
100
AcDbMlineStyle
  2
Standard
 70
     0
  3

 62
   256
 51
90.0
 52
90.0
 71
     2
 49
0.5
 62
   256
  6
BYLAYER
 49
-0.5
 62
   256
  6
BYLAYER
  0
ACDBPLACEHOLDER
  5
F
102
{ACAD_REACTORS
330
E
102
}
330
E
  0
SCALE
  5
48
102
{ACAD_REACTORS
330
47
102
}
330
47
100
AcDbScale
 70
     0
300
1:1
140
1.0
141
1.0
290
     1
  0
SCALE
  5
49
102
{ACAD_REACTORS
330
47
102
}
330
47
100
AcDbScale
 70
     0
300
1:2
140
1.0
141
2.0
290
     0
  0
SCALE
  5
4A
102
{ACAD_REACTORS
330
47
102
}
330
47
100
AcDbScale
 70
     0
300
1:4
140
1.0
141
4.0
290
     0
  0
SCALE
  5
4B
102
{ACAD_REACTORS
330
47
102
}
330
47
100
AcDbScale
 70
     0
300
1:5
140
1.0
141
5.0
290
     0
  0
SCALE
  5
4C
102
{ACAD_REACTORS
330
47
102
}
330
47
100
AcDbScale
 70
     0
300
1:8
140
1.0
141
8.0
290
     0
  0
SCALE
  5
4D
102
{ACAD_REACTORS
330
47
102
}
330
47
100
AcDbScale
 70
     0
300
1:10
140
1.0
141
10.0
290
     0
  0
SCALE
  5
4E
102
{ACAD_REACTORS
330
47
102
}
330
47
100
AcDbScale
 70
     0
300
1:16
140
1.0
141
16.0
290
     0
  0
SCALE
  5
4F
102
{ACAD_REACTORS
330
47
102
}
330
47
100
AcDbScale
 70
     0
300
1:20
140
1.0
141
20.0
290
     0
  0
SCALE
  5
50
102
{ACAD_REACTORS
330
47
102
}
330
47
100
AcDbScale
 70
     0
300
1:30
140
1.0
141
30.0
290
     0
  0
SCALE
  5
51
102
{ACAD_REACTORS
330
47
102
}
330
47
100
AcDbScale
 70
     0
300
1:40
140
1.0
141
40.0
290
     0
  0
SCALE
  5
52
102
{ACAD_REACTORS
330
47
102
}
330
47
100
AcDbScale
 70
     0
300
1:50
140
1.0
141
50.0
290
     0
  0
SCALE
  5
53
102
{ACAD_REACTORS
330
47
102
}
330
47
100
AcDbScale
 70
     0
300
1:100
140
1.0
141
100.0
290
     0
  0
SCALE
  5
54
102
{ACAD_REACTORS
330
47
102
}
330
47
100
AcDbScale
 70
     0
300
2:1
140
2.0
141
1.0
290
     0
  0
SCALE
  5
55
102
{ACAD_REACTORS
330
47
102
}
330
47
100
AcDbScale
 70
     0
300
4:1
140
4.0
141
1.0
290
     0
  0
SCALE
  5
56
102
{ACAD_REACTORS
330
47
102
}
330
47
100
AcDbScale
 70
     0
300
8:1
140
8.0
141
1.0
290
     0
  0
SCALE
  5
57
102
{ACAD_REACTORS
330
47
102
}
330
47
100
AcDbScale
 70
     0
300
10:1
140
10.0
141
1.0
290
     0
  0
SCALE
  5
58
102
{ACAD_REACTORS
330
47
102
}
330
47
100
AcDbScale
 70
     0
300
100:1
140
100.0
141
1.0
290
     0
  0
SCALE
  5
59
102
{ACAD_REACTORS
330
47
102
}
330
47
100
AcDbScale
 70
     0
300
1/128" = 1'-0"
140
0.0078125
141
12.0
290
     0
  0
SCALE
  5
5A
102
{ACAD_REACTORS
330
47
102
}
330
47
100
AcDbScale
 70
     0
300
1/64" = 1'-0"
140
0.015625
141
12.0
290
     0
  0
SCALE
  5
5B
102
{ACAD_REACTORS
330
47
102
}
330
47
100
AcDbScale
 70
     0
300
1/32" = 1'-0"
140
0.03125
141
12.0
290
     0
  0
SCALE
  5
5C
102
{ACAD_REACTORS
330
47
102
}
330
47
100
AcDbScale
 70
     0
300
1/16" = 1'-0"
140
0.0625
141
12.0
290
     0
  0
SCALE
  5
5D
102
{ACAD_REACTORS
330
47
102
}
330
47
100
AcDbScale
 70
     0
300
3/32" = 1'-0"
140
0.09375
141
12.0
290
     0
  0
SCALE
  5
5E
102
{ACAD_REACTORS
330
47
102
}
330
47
100
AcDbScale
 70
     0
300
1/8" = 1'-0"
140
0.125
141
12.0
290
     0
  0
SCALE
  5
5F
102
{ACAD_REACTORS
330
47
102
}
330
47
100
AcDbScale
 70
     0
300
3/16" = 1'-0"
140
0.1875
141
12.0
290
     0
  0
SCALE
  5
60
102
{ACAD_REACTORS
330
47
102
}
330
47
100
AcDbScale
 70
     0
300
1/4" = 1'-0"
140
0.25
141
12.0
290
     0
  0
SCALE
  5
61
102
{ACAD_REACTORS
330
47
102
}
330
47
100
AcDbScale
 70
     0
300
3/8" = 1'-0"
140
0.375
141
12.0
290
     0
  0
SCALE
  5
62
102
{ACAD_REACTORS
330
47
102
}
330
47
100
AcDbScale
 70
     0
300
1/2" = 1'-0"
140
0.5
141
12.0
290
     0
  0
SCALE
  5
63
102
{ACAD_REACTORS
330
47
102
}
330
47
100
AcDbScale
 70
     0
300
3/4" = 1'-0"
140
0.75
141
12.0
290
     0
  0
SCALE
  5
64
102
{ACAD_REACTORS
330
47
102
}
330
47
100
AcDbScale
 70
     0
300
1" = 1'-0"
140
1.0
141
12.0
290
     0
  0
SCALE
  5
65
102
{ACAD_REACTORS
330
47
102
}
330
47
100
AcDbScale
 70
     0
300
1-1/2" = 1'-0"
140
1.5
141
12.0
290
     0
  0
SCALE
  5
66
102
{ACAD_REACTORS
330
47
102
}
330
47
100
AcDbScale
 70
     0
300
3" = 1'-0"
140
3.0
141
12.0
290
     0
  0
SCALE
  5
67
102
{ACAD_REACTORS
330
47
102
}
330
47
100
AcDbScale
 70
     0
300
6" = 1'-0"
140
6.0
141
12.0
290
     0
  0
SCALE
  5
68
102
{ACAD_REACTORS
330
47
102
}
330
47
100
AcDbScale
 70
     0
300
1'-0" = 1'-0"
140
12.0
141
12.0
290
     0
  0
ENDSEC
  0
EOF
