  0
SECTION
  2
HEADER
  9
$ACADVER
  1
AC1015
  9
$ACADMAINTVER
 70
     6
  9
$DWGCODEPAGE
  3
ANSI_1250
  9
$INSBASE
 10
0.0
 20
0.0
 30
0.0
  9
$EXTMIN
 10
0.0
 20
0.0
 30
0.0
  9
$EXTMAX
 10
20000.0
 20
10000.0
 30
0.0
  9
$LIMMIN
 10
0.0
 20
0.0
  9
$LIMMAX
 10
20000.0
 20
10000.0
  9
$ORTHOMODE
 70
     0
  9
$REGENMODE
 70
     1
  9
$FILLMODE
 70
     1
  9
$QTEXTMODE
 70
     0
  9
$MIRRTEXT
 70
     1
  9
$LTSCALE
 40
1.0
  9
$ATTMODE
 70
     1
  9
$TEXTSIZE
 40
2.0
  9
$TRACEWID
 40
1.0
  9
$TEXTSTYLE
  7
Standard
  9
$CLAYER
  8
0
  9
$CELTYPE
  6
ByLayer
  9
$CECOLOR
 62
   256
  9
$CELTSCALE
 40
1.0
  9
$DISPSILH
 70
     0
  9
$DIMSCALE
 40
1.0
  9
$DIMASZ
 40
2.0
  9
$DIMEXO
 40
1.0
  9
$DIMDLI
 40
3.75
  9
$DIMRND
 40
0.0
  9
$DIMDLE
 40
0.0
  9
$DIMEXE
 40
1.0
  9
$DIMTP
 40
0.0
  9
$DIMTM
 40
0.0
  9
$DIMTXT
 40
2.0
  9
$DIMCEN
 40
2.5
  9
$DIMTSZ
 40
0.0
  9
$DIMTOL
 70
     0
  9
$DIMLIM
 70
     0
  9
$DIMTIH
 70
     1
  9
$DIMTOH
 70
     1
  9
$DIMSE1
 70
     0
  9
$DIMSE2
 70
     0
  9
$DIMTAD
 70
     1
  9
$DIMZIN
 70
     0
  9
$DIMBLK
  1

  9
$DIMASO
 70
     1
  9
$DIMSHO
 70
     1
  9
$DIMPOST
  1

  9
$DIMAPOST
  1

  9
$DIMALT
 70
     0
  9
$DIMALTD
 70
     3
  9
$DIMALTF
 40
0.0393700787
  9
$DIMLFAC
 40
1.0
  9
$DIMTOFL
 70
     1
  9
$DIMTVP
 40
0.0
  9
$DIMTIX
 70
     0
  9
$DIMSOXD
 70
     0
  9
$DIMSAH
 70
     0
  9
$DIMBLK1
  1

  9
$DIMBLK2
  1

  9
$DIMSTYLE
  2
ISO-25
  9
$DIMCLRD
 70
     0
  9
$DIMCLRE
 70
     0
  9
$DIMCLRT
 70
     0
  9
$DIMTFAC
 40
1.0
  9
$DIMGAP
 40
1.524
  9
$DIMJUST
 70
     0
  9
$DIMSD1
 70
     0
  9
$DIMSD2
 70
     0
  9
$DIMTOLJ
 70
     0
  9
$DIMTZIN
 70
     0
  9
$DIMALTZ
 70
     0
  9
$DIMALTTZ
 70
     0
  9
$DIMUPT
 70
     0
  9
$DIMDEC
 70
     2
  9
$DIMTDEC
 70
     0
  9
$DIMALTU
 70
     2
  9
$DIMALTTD
 70
     3
  9
$DIMTXSTY
  7
Standard
  9
$DIMAUNIT
 70
     0
  9
$DIMADEC
 70
     2
  9
$DIMALTRND
 40
0.0
  9
$DIMAZIN
 70
     0
  9
$DIMDSEP
 70
    44
  9
$DIMATFIT
 70
     3
  9
$DIMFRAC
 70
     0
  9
$DIMLDRBLK
  1

  9
$DIMLUNIT
 70
     2
  9
$DIMLWD
 70
    -2
  9
$DIMLWE
 70
    -2
  9
$DIMTMOVE
 70
     0
  9
$LUNITS
 70
     2
  9
$LUPREC
 70
     3
  9
$SKETCHINC
 40
1.0
  9
$FILLETRAD
 40
10.0
  9
$AUNITS
 70
     0
  9
$AUPREC
 70
     2
  9
$MENU
  1
.
  9
$ELEVATION
 40
0.0
  9
$PELEVATION
 40
0.0
  9
$THICKNESS
 40
0.0
  9
$LIMCHECK
 70
     0
  9
$CHAMFERA
 40
0.0
  9
$CHAMFERB
 40
0.0
  9
$CHAMFERC
 40
0.0
  9
$CHAMFERD
 40
0.0
  9
$SKPOLY
 70
     0
  9
$TDCREATE
 40
2458697.611865371
  9
$TDUCREATE
 40
2458697.528532037
  9
$TDUPDATE
 40
2458697.611865949
  9
$TDUUPDATE
 40
2458697.528532616
  9
$TDINDWG
 40
0.0000000116
  9
$TDUSRTIMER
 40
0.0000000116
  9
$USRTIMER
 70
     1
  9
$ANGBASE
 50
0.0
  9
$ANGDIR
 70
     0
  9
$PDMODE
 70
     0
  9
$PDSIZE
 40
-1.0
  9
$PLINEWID
 40
0.0
  9
$SPLFRAME
 70
     0
  9
$SPLINETYPE
 70
     6
  9
$SPLINESEGS
 70
     8
  9
$HANDSEED
  5
2DE
  9
$SURFTAB1
 70
     6
  9
$SURFTAB2
 70
     6
  9
$SURFTYPE
 70
     6
  9
$SURFU
 70
     6
  9
$SURFV
 70
     6
  9
$UCSBASE
  2

  9
$UCSNAME
  2

  9
$UCSORG
 10
0.0
 20
0.0
 30
0.0
  9
$UCSXDIR
 10
1.0
 20
0.0
 30
0.0
  9
$UCSYDIR
 10
0.0
 20
1.0
 30
0.0
  9
$UCSORTHOREF
  2

  9
$UCSORTHOVIEW
 70
     0
  9
$UCSORGTOP
 10
0.0
 20
0.0
 30
0.0
  9
$UCSORGBOTTOM
 10
0.0
 20
0.0
 30
0.0
  9
$UCSORGLEFT
 10
0.0
 20
0.0
 30
0.0
  9
$UCSORGRIGHT
 10
0.0
 20
0.0
 30
0.0
  9
$UCSORGFRONT
 10
0.0
 20
0.0
 30
0.0
  9
$UCSORGBACK
 10
0.0
 20
0.0
 30
0.0
  9
$PUCSBASE
  2

  9
$PUCSNAME
  2

  9
$PUCSORG
 10
0.0
 20
0.0
 30
0.0
  9
$PUCSXDIR
 10
1.0
 20
0.0
 30
0.0
  9
$PUCSYDIR
 10
0.0
 20
1.0
 30
0.0
  9
$PUCSORTHOREF
  2

  9
$PUCSORTHOVIEW
 70
     0
  9
$PUCSORGTOP
 10
0.0
 20
0.0
 30
0.0
  9
$PUCSORGBOTTOM
 10
0.0
 20
0.0
 30
0.0
  9
$PUCSORGLEFT
 10
0.0
 20
0.0
 30
0.0
  9
$PUCSORGRIGHT
 10
0.0
 20
0.0
 30
0.0
  9
$PUCSORGFRONT
 10
0.0
 20
0.0
 30
0.0
  9
$PUCSORGBACK
 10
0.0
 20
0.0
 30
0.0
  9
$USERI1
 70
     0
  9
$USERI2
 70
     0
  9
$USERI3
 70
     0
  9
$USERI4
 70
     0
  9
$USERI5
 70
     0
  9
$USERR1
 40
0.0
  9
$USERR2
 40
0.0
  9
$USERR3
 40
0.0
  9
$USERR4
 40
0.0
  9
$USERR5
 40
0.0
  9
$WORLDVIEW
 70
     1
  9
$SHADEDGE
 70
     3
  9
$SHADEDIF
 70
    70
  9
$TILEMODE
 70
     1
  9
$MAXACTVP
 70
    64
  9
$PINSBASE
 10
0.0
 20
0.0
 30
0.0
  9
$PLIMCHECK
 70
     0
  9
$PEXTMIN
 10
1.0000000000E+20
 20
1.0000000000E+20
 30
1.0000000000E+20
  9
$PEXTMAX
 10
-1.0000000000E+20
 20
-1.0000000000E+20
 30
-1.0000000000E+20
  9
$PLIMMIN
 10
0.0
 20
0.0
  9
$PLIMMAX
 10
420.0
 20
297.0
  9
$UNITMODE
 70
     0
  9
$VISRETAIN
 70
     1
  9
$PLINEGEN
 70
     0
  9
$PSLTSCALE
 70
     1
  9
$TREEDEPTH
 70
  3020
  9
$CMLSTYLE
  2
Standard
  9
$CMLJUST
 70
     0
  9
$CMLSCALE
 40
20.0
  9
$PROXYGRAPHICS
 70
     1
  9
$MEASUREMENT
 70
     1
  9
$CELWEIGHT
370
    -1
  9
$ENDCAPS
280
     0
  9
$JOINSTYLE
280
     0
  9
$LWDISPLAY
290
     1
  9
$INSUNITS
 70
     4
  9
$HYPERLINKBASE
  1

  9
$STYLESHEET
  1

  9
$XEDIT
290
     1
  9
$CEPSNTYPE
380
     0
  9
$PSTYLEMODE
290
     1
  9
$FINGERPRINTGUID
  2
{E61E00BC-B745-4D4E-9C76-E7BF7BB6FAA9}
  9
$VERSIONGUID
  2
{FAEB1C32-E019-11D5-929B-00C0DF256EC4}
  9
$EXTNAMES
290
     1
  9
$PSVPSCALE
 40
0.0
  9
$OLESTARTUP
290
     0
  0
ENDSEC
  0
SECTION
  2
CLASSES
  0
CLASS
  1
ACDBDICTIONARYWDFLT
  2
AcDbDictionaryWithDefault
  3
ObjectDBX Classes
 90
        0
280
     0
281
     0
  0
CLASS
  1
VISUALSTYLE
  2
AcDbVisualStyle
  3
ObjectDBX Classes
 90
     4095
280
     0
281
     0
  0
CLASS
  1
MATERIAL
  2
AcDbMaterial
  3
ObjectDBX Classes
 90
     1153
280
     0
281
     0
  0
CLASS
  1
SCALE
  2
AcDbScale
  3
ObjectDBX Classes
 90
     1153
280
     0
281
     0
  0
CLASS
  1
TABLESTYLE
  2
AcDbTableStyle
  3
ObjectDBX Classes
 90
     4095
280
     0
281
     0
  0
CLASS
  1
MLEADERSTYLE
  2
AcDbMLeaderStyle
  3
ACDB_MLEADERSTYLE_CLASS
 90
     4095
280
     0
281
     0
  0
CLASS
  1
SUN
  2
AcDbSun
  3
SCENEOE
 90
     1153
280
     0
281
     0
  0
CLASS
  1
ACDBPLACEHOLDER
  2
AcDbPlaceHolder
  3
ObjectDBX Classes
 90
        0
280
     0
281
     0
  0
CLASS
  1
LAYOUT
  2
AcDbLayout
  3
ObjectDBX Classes
 90
        0
280
     0
281
     0
  0
ENDSEC
  0
SECTION
  2
TABLES
  0
TABLE
  2
VPORT
  5
8
330
0
100
AcDbSymbolTable
 70
     1
  0
VPORT
  5
29
330
8
100
AcDbSymbolTableRecord
100
AcDbViewportTableRecord
  2
*Active
 70
     0
 10
0.0
 20
0.0
 11
1.0
 21
1.0
 12
10000.0
 22
5000.0
 13
0.0
 23
0.0
 14
10.0
 24
10.0
 15
10.0
 25
10.0
 16
0.0
 26
0.0
 36
1.0
 17
0.0
 27
0.0
 37
0.0
 40
10000.0
 41
2.0
 42
50.0
 43
0.0
 44
0.0
 50
0.0
 51
0.0
 71
     0
 72
  2000
 73
     1
 74
     3
 75
     0
 76
     0
 77
     0
 78
     0
281
     0
 65
     1
110
0.0
120
0.0
130
0.0
111
1.0
121
0.0
131
0.0
112
0.0
122
1.0
132
0.0
 79
     0
146
0.0
  0
ENDTAB
  0
TABLE
  2
LTYPE
  5
5
330
0
100
AcDbSymbolTable
 70
     6
  0
LTYPE
  5
14
330
5
100
AcDbSymbolTableRecord
100
AcDbLinetypeTableRecord
  2
ByBlock
 70
     0
  3

 72
    65
 73
     0
 40
0.0
  0
LTYPE
  5
15
330
5
100
AcDbSymbolTableRecord
100
AcDbLinetypeTableRecord
  2
ByLayer
 70
     0
  3

 72
    65
 73
     0
 40
0.0
  0
LTYPE
  5
16
330
5
100
AcDbSymbolTableRecord
100
AcDbLinetypeTableRecord
  2
Continuous
 70
     0
  3
Solid line
 72
    65
 73
     0
 40
0.0
  0
LTYPE
  5
6E
330
5
100
AcDbSymbolTableRecord
100
AcDbLinetypeTableRecord
  2
HIDDEN
 70
     0
  3
Hidden __ __ __ __ __ __ __ __ __ __ __ __ __ __
 72
    65
 73
     2
 40
1.905
 49
1.27
 74
     0
 49
-0.635
 74
     0
  0
LTYPE
  5
6F
330
5
100
AcDbSymbolTableRecord
100
AcDbLinetypeTableRecord
  2
PHANTOM
 70
     0
  3
Phantom ______  __  __  ______  __  __  ______
 72
    65
 73
     6
 40
12.7
 49
6.35
 74
     0
 49
-1.27
 74
     0
 49
1.27
 74
     0
 49
-1.27
 74
     0
 49
1.27
 74
     0
 49
-1.27
 74
     0
  0
LTYPE
  5
70
330
5
100
AcDbSymbolTableRecord
100
AcDbLinetypeTableRecord
  2
CENTER
 70
     0
  3
Center ____ _ ____ _ ____ _ ____ _ ____ _ ____
 72
    65
 73
     4
 40
10.16
 49
6.35
 74
     0
 49
-1.27
 74
     0
 49
1.27
 74
     0
 49
-1.27
 74
     0
  0
LTYPE
  5
71
330
5
100
AcDbSymbolTableRecord
100
AcDbLinetypeTableRecord
  2
CENTERX2
 70
     0
  3
Center (2x) ________  __  ________  __  _____
 72
    65
 73
     4
 40
20.32
 49
12.7
 74
     0
 49
-2.54
 74
     0
 49
2.54
 74
     0
 49
-2.54
 74
     0
  0
LTYPE
  5
72
330
5
100
AcDbSymbolTableRecord
100
AcDbLinetypeTableRecord
  2
DOT2
 70
     0
  3
Dot (.5x) ........................................
 72
    65
 73
     2
 40
0.635
 49
0.0
 74
     0
 49
-0.635
 74
     0
  0
ENDTAB
  0
TABLE
  2
LAYER
  5
2
330
0
100
AcDbSymbolTable
 70
    13
  0
LAYER
  5
10
330
2
100
AcDbSymbolTableRecord
100
AcDbLayerTableRecord
  2
0
 70
     0
 62
     7
  6
Continuous
370
    -3
390
F
  0
LAYER
  5
73
330
2
100
AcDbSymbolTableRecord
100
AcDbLayerTableRecord
  2
FORMAT
 70
     0
 62
     7
  6
Continuous
370
    -3
390
F
  0
LAYER
  5
74
330
2
100
AcDbSymbolTableRecord
100
AcDbLayerTableRecord
  2
OSA
 70
     0
 62
     7
  6
CENTER
370
    -3
390
F
  0
LAYER
  5
75
330
2
100
AcDbSymbolTableRecord
100
AcDbLayerTableRecord
  2
0_35
 70
     0
 62
     7
  6
Continuous
370
    35
390
F
  0
LAYER
  5
76
330
2
100
AcDbSymbolTableRecord
100
AcDbLayerTableRecord
  2
0_5
 70
     0
 62
     7
  6
Continuous
370
    50
390
F
  0
LAYER
  5
77
330
2
100
AcDbSymbolTableRecord
100
AcDbLayerTableRecord
  2
0_25
 70
     0
 62
     7
  6
Continuous
370
    25
390
F
  0
LAYER
  5
78
330
2
100
AcDbSymbolTableRecord
100
AcDbLayerTableRecord
  2
0_18
 70
     0
 62
     7
  6
Continuous
370
    -3
390
F
  0
LAYER
  5
79
330
2
100
AcDbSymbolTableRecord
100
AcDbLayerTableRecord
  2
SLD-0
 70
     0
 62
   179
  6
Continuous
370
    -3
390
F
  0
LAYER
  5
7A
330
2
100
AcDbSymbolTableRecord
100
AcDbLayerTableRecord
  2
KOTY
 70
     0
 62
     7
  6
Continuous
370
    -3
390
F
  0
LAYER
  5
7B
330
2
100
AcDbSymbolTableRecord
100
AcDbLayerTableRecord
  2
SILNA
 70
     0
 62
   179
  6
Continuous
370
    -3
390
F
  0
LAYER
  5
7C
330
2
100
AcDbSymbolTableRecord
100
AcDbLayerTableRecord
  2
0_18_1
 70
     0
 62
   179
  6
Continuous
370
    -3
390
F
  0
LAYER
  5
7D
330
2
100
AcDbSymbolTableRecord
100
AcDbLayerTableRecord
  2
0_35_1
 70
     0
 62
   179
  6
Continuous
370
    35
390
F
  0
LAYER
  5
7E
330
2
100
AcDbSymbolTableRecord
100
AcDbLayerTableRecord
  2
0_5_1
 70
     0
 62
   179
  6
Continuous
370
    50
390
F
  0
ENDTAB
  0
TABLE
  2
STYLE
  5
3
330
0
100
AcDbSymbolTable
 70
     1
  0
STYLE
  5
11
330
3
100
AcDbSymbolTableRecord
100
AcDbTextStyleTableRecord
  2
Standard
 70
     0
 40
0.0
 41
1.0
 50
0.0
 71
     0
 42
2.0
  3
txt
  4

  0
ENDTAB
  0
TABLE
  2
VIEW
  5
6
330
0
100
AcDbSymbolTable
 70
     0
  0
ENDTAB
  0
TABLE
  2
UCS
  5
7
330
0
100
AcDbSymbolTable
 70
     0
  0
ENDTAB
  0
TABLE
  2
APPID
  5
9
330
0
100
AcDbSymbolTable
 70
     1
  0
APPID
  5
12
330
9
100
AcDbSymbolTableRecord
100
AcDbRegAppTableRecord
  2
ACAD
 70
     0
  0
ENDTAB
  0
TABLE
  2
DIMSTYLE
  5
A
330
0
100
AcDbSymbolTable
 70
     1
100
AcDbDimStyleTable
  0
DIMSTYLE
105
27
330
A
100
AcDbSymbolTableRecord
100
AcDbDimStyleTableRecord
  2
ISO-25
 70
     0
 41
2.5
 42
0.625
 43
3.75
 44
1.25
 73
     0
 74
     0
 77
     1
 78
     8
140
2.5
141
2.5
143
0.0393700787
147
0.625
171
     3
172
     1
178
     0
271
     2
272
     2
274
     3
278
    44
283
     0
284
     8
340
11
  0
ENDTAB
  0
TABLE
  2
BLOCK_RECORD
  5
1
330
0
100
AcDbSymbolTable
 70
     1
  0
BLOCK_RECORD
  5
1F
330
1
100
AcDbSymbolTableRecord
100
AcDbBlockTableRecord
  2
*Model_Space
340
22
  0
BLOCK_RECORD
  5
1B
330
1
100
AcDbSymbolTableRecord
100
AcDbBlockTableRecord
  2
*Paper_Space
340
1E
  0
BLOCK_RECORD
  5
23
330
1
100
AcDbSymbolTableRecord
100
AcDbBlockTableRecord
  2
*Paper_Space0
340
26
  0
ENDTAB
  0
ENDSEC
  0
SECTION
  2
BLOCKS
  0
BLOCK
  5
20
330
1F
100
AcDbEntity
  8
0
100
AcDbBlockBegin
  2
*Model_Space
 70
     0
 10
0.0
 20
0.0
 30
0.0
  3
*Model_Space
  1

  0
ENDBLK
  5
21
330
1F
100
AcDbEntity
  8
0
100
AcDbBlockEnd
  0
BLOCK
  5
1C
330
1B
100
AcDbEntity
 67
     1
  8
0
100
AcDbBlockBegin
  2
*Paper_Space
 70
     0
 10
0.0
 20
0.0
 30
0.0
  3
*Paper_Space
  1

  0
ENDBLK
  5
1D
330
1B
100
AcDbEntity
 67
     1
  8
0
100
AcDbBlockEnd
  0
BLOCK
  5
24
330
23
100
AcDbEntity
  8
0
100
AcDbBlockBegin
  2
*Paper_Space0
 70
     0
 10
0.0
 20
0.0
 30
0.0
  3
*Paper_Space0
  1

  0
ENDBLK
  5
25
330
23
100
AcDbEntity
  8
0
100
AcDbBlockEnd
  0
ENDSEC
  0
SECTION
  2
ENTITIES
  0
LINE
  5
7F
330
1F
100
AcDbEntity
  8
0
  6
Continuous
 62
     7
370
    25
100
AcDbLine
 10
6286.239248156
 20
5298.3941202874
 30
0.0
 11
6285.7392545933
 21
5298.8941138501
 31
0.0
  0
LINE
  5
80
330
1F
100
AcDbEntity
  8
0
  6
Continuous
 62
     7
370
    25
100
AcDbLine
 10
6262.2982677216
 20
5298.8941138501
 30
0.0
 11
6261.7982443566
 21
5298.3941202874
 31
0.0
  0
SPLINE
  5
81
330
1F
100
AcDbEntity
  8
0
  6
Continuous
 62
     7
370
    25
100
AcDbSpline
210
0.0
220
0.0
230
1.0
 70
     8
 71
     3
 72
    11
 73
     7
 74
     0
 42
0.000000001
 43
0.00000001
 40
0.0
 40
0.0
 40
0.0
 40
0.0
 40
0.2794360911987087
 40
0.5563987947416659
 40
0.7765182024946434
 40
1.0
 40
1.0
 40
1.0
 40
1.0
 10
6283.122908710875
 20
5261.491644185258
 30
0.0
 10
6283.121641866848
 20
5261.500325039002
 30
0.0
 10
6283.119119392079
 20
5261.517609909181
 30
0.0
 10
6283.102658344177
 20
5261.536399477538
 30
0.0
 10
6283.083197915164
 20
5261.54798827213
 30
0.0
 10
6283.069453501975
 20
5261.549445523318
 30
0.0
 10
6283.062529205718
 20
5261.550179671718
 30
0.0
  0
SPLINE
  5
82
330
1F
100
AcDbEntity
  8
0
  6
Continuous
 62
     7
370
    25
100
AcDbSpline
210
0.0
220
0.0
230
1.0
 70
     8
 71
     3
 72
    11
 73
     7
 74
     0
 42
0.000000001
 43
0.00000001
 40
0.0
 40
0.0
 40
0.0
 40
0.0
 40
0.2800557966441738
 40
0.5592673777665327
 40
0.7792186018323805
 40
1.0
 40
1.0
 40
1.0
 40
1.0
 10
6283.062529205718
 20
5261.431354087068
 30
0.0
 10
6283.071332493349
 20
5261.432629036724
 30
0.0
 10
6283.088912531501
 20
5261.435175092757
 30
0.0
 10
6283.108245359219
 20
5261.451499459419
 30
0.0
 10
6283.120569209244
 20
5261.470875340629
 30
0.0
 10
6283.122127898337
 20
5261.484712549021
 30
0.0
 10
6283.122908710875
 20
5261.491644185258
 30
0.0
  0
SPLINE
  5
83
330
1F
100
AcDbEntity
  8
0
  6
Continuous
 62
     7
370
    25
100
AcDbSpline
210
0.0
220
0.0
230
1.0
 70
     8
 71
     3
 72
    11
 73
     7
 74
     0
 42
0.000000001
 43
0.00000001
 40
0.0
 40
0.0
 40
0.0
 40
0.0
 40
0.2798442032314273
 40
0.5590258714887207
 40
0.7788207836658563
 40
1.0
 40
1.0
 40
1.0
 40
1.0
 10
6283.002209305205
 20
5261.491644185258
 30
0.0
 10
6283.003493556209
 20
5261.482856043045
 30
0.0
 10
6283.006059017736
 20
5261.465300564665
 30
0.0
 10
6283.022345123625
 20
5261.445961324151
 30
0.0
 10
6283.041757878968
 20
5261.433707881914
 30
0.0
 10
6283.055590955222
 20
5261.432140325639
 30
0.0
 10
6283.062529205718
 20
5261.431354087068
 30
0.0
  0
SPLINE
  5
84
330
1F
100
AcDbEntity
  8
0
  6
Continuous
 62
     7
370
    25
100
AcDbSpline
210
0.0
220
0.0
230
1.0
 70
     8
 71
     3
 72
    11
 73
     7
 74
     0
 42
0.000000001
 43
0.00000001
 40
0.0
 40
0.0
 40
0.0
 40
0.0
 40
0.2826046114090487
 40
0.5609781430128472
 40
0.7789458092541177
 40
1.0
 40
1.0
 40
1.0
 40
1.0
 10
6283.062529205718
 20
5261.550179671718
 30
0.0
 10
6283.053760019411
 20
5261.548995851644
 30
0.0
 10
6283.036352936681
 20
5261.546645935327
 30
0.0
 10
6283.016867876906
 20
5261.531078891369
 30
0.0
 10
6283.004515387351
 20
5261.512109568058
 30
0.0
 10
6283.002981593677
 20
5261.498497878327
 30
0.0
 10
6283.002209305205
 20
5261.491644185258
 30
0.0
  0
CIRCLE
  5
85
330
1F
100
AcDbEntity
  8
0
  6
Continuous
 62
     7
370
    25
100
AcDbCircle
 10
6286.706347406
 20
5263.0440807419
 30
0.0
 40
0.5814415000004374
  0
CIRCLE
  5
86
330
1F
100
AcDbEntity
  8
0
  6
Continuous
 62
     7
370
    25
100
AcDbCircle
 10
6286.706347406
 20
5263.0440807419
 30
0.0
 40
0.505037099999754
  0
SPLINE
  5
87
330
1F
100
AcDbEntity
  8
0
  6
Continuous
 62
     7
370
    25
100
AcDbSpline
210
0.0
220
0.0
230
1.0
 70
     8
 71
     3
 72
     9
 73
     5
 74
     0
 42
0.000000001
 43
0.00000001
 40
0.0
 40
0.0
 40
0.0
 40
0.0
 40
0.5532765649410368
 40
1.0
 40
1.0
 40
1.0
 40
1.0
 10
6284.140210985579
 20
5260.978477996065
 30
0.0
 10
6284.353840636052
 20
5261.067404566783
 30
0.0
 10
6284.739957930747
 20
5261.228131726315
 30
0.0
 10
6285.153270366599
 20
5261.178226177588
 30
0.0
 10
6285.337906717696
 20
5261.155932199432
 30
0.0
  0
SPLINE
  5
88
330
1F
100
AcDbEntity
  8
0
  6
Continuous
 62
     7
370
    25
100
AcDbSpline
210
0.0
220
0.0
230
1.0
 70
     8
 71
     3
 72
    14
 73
    10
 74
     0
 42
0.000000001
 43
0.00000001
 40
0.0
 40
0.0
 40
0.0
 40
0.0
 40
0.1729344767039271
 40
0.310803663312281
 40
0.4227853835677075
 40
0.5213495453527858
 40
0.6548340899115174
 40
0.8116166610392294
 40
0.9999999999999999
 40
0.9999999999999999
 40
0.9999999999999999
 40
0.9999999999999999
 10
6282.956045507826
 20
5260.925265949441
 30
0.0
 10
6283.004604506488
 20
5260.998486924655
 30
0.0
 10
6283.091876373606
 20
5261.130082126267
 30
0.0
 10
6283.245802343086
 20
5261.282012389584
 30
0.0
 10
6283.401467617321
 20
5261.37139614229
 30
0.0
 10
6283.578407729624
 20
5261.398711385238
 30
0.0
 10
6283.77275127632
 20
5261.337125836341
 30
0.0
 10
6283.967517289577
 20
5261.187406266835
 30
0.0
 10
6284.079237017143
 20
5261.052245516722
 30
0.0
 10
6284.140210985579
 20
5260.978477996065
 30
0.0
  0
SPLINE
  5
89
330
1F
100
AcDbEntity
  8
0
  6
Continuous
 62
     7
370
    25
100
AcDbSpline
210
0.0
220
0.0
230
1.0
 70
     8
 71
     3
 72
    10
 73
     6
 74
     0
 42
0.000000001
 43
0.00000001
 40
0.0
 40
0.0
 40
0.0
 40
0.0
 40
0.2049657539944865
 40
0.4719505673592492
 40
1.0
 40
1.0
 40
1.0
 40
1.0
 10
6281.62566983644
 20
5261.218006711675
 30
0.0
 10
6281.719830967852
 20
5261.231557638852
 30
0.0
 10
6281.93664474541
 20
5261.262759767232
 30
0.0
 10
6282.393509706932
 20
5261.157889094755
 30
0.0
 10
6282.731534605533
 20
5261.018107031139
 30
0.0
 10
6282.956045507826
 20
5260.925265949441
 30
0.0
  0
SPLINE
  5
8A
330
1F
100
AcDbEntity
  8
0
  6
Continuous
 62
     7
370
    25
100
AcDbSpline
210
0.0
220
0.0
230
1.0
 70
     8
 71
     3
 72
     9
 73
     5
 74
     0
 42
0.000000001
 43
0.00000001
 40
0.0
 40
0.0
 40
0.0
 40
0.0
 40
0.5722574441388253
 40
1.0
 40
1.0
 40
1.0
 40
1.0
 10
6282.53034913484
 20
5260.934098612739
 30
0.0
 10
6282.365943742048
 20
5261.015815161308
 30
0.0
 10
6282.078651030568
 20
5261.158611990611
 30
0.0
 10
6281.761380110633
 20
5261.200212432385
 30
0.0
 10
6281.62566983644
 20
5261.218006711675
 30
0.0
  0
SPLINE
  5
8B
330
1F
100
AcDbEntity
  8
0
  6
Continuous
 62
     7
370
    25
100
AcDbSpline
210
0.0
220
0.0
230
1.0
 70
     8
 71
     3
 72
    10
 73
     6
 74
     0
 42
0.000000001
 43
0.00000001
 40
0.0
 40
0.0
 40
0.0
 40
0.0
 40
0.2445675955392344
 40
0.5285774615770208
 40
1.0
 40
1.0
 40
1.0
 40
1.0
 10
6283.426177143492
 20
5260.561591934635
 30
0.0
 10
6283.346757033441
 20
5260.572576491775
 30
0.0
 10
6283.175108454745
 20
5260.596317123959
 30
0.0
 10
6282.879260316473
 20
5260.740819046856
 30
0.0
 10
6282.664419259335
 20
5260.859830383963
 30
0.0
 10
6282.53034913484
 20
5260.934098612739
 30
0.0
  0
SPLINE
  5
8C
330
1F
100
AcDbEntity
  8
0
  6
Continuous
 62
     7
370
    25
100
AcDbSpline
210
0.0
220
0.0
230
1.0
 70
     8
 71
     3
 72
    17
 73
    13
 74
     0
 42
0.000000001
 43
0.00000001
 40
0.0
 40
0.0
 40
0.0
 40
0.0
 40
0.0544644002050026
 40
0.1072843436325441
 40
0.2217283827803567
 40
0.3548622650445682
 40
0.5000000000000001
 40
0.6451377349554318
 40
0.7782716172196433
 40
0.892715656367456
 40
0.9455355997949975
 40
1.0
 40
1.0
 40
1.0
 40
1.0
 10
6283.426177143492
 20
5260.721250426246
 30
0.0
 10
6283.429884041611
 20
5260.720911352131
 30
0.0
 10
6283.437185914579
 20
5260.72024344165
 30
0.0
 10
6283.450568506252
 20
5260.712651019417
 30
0.0
 10
6283.462990121241
 20
5260.695719542062
 30
0.0
 10
6283.470975619702
 20
5260.670117345806
 30
0.0
 10
6283.473642551117
 20
5260.64142118044
 30
0.0
 10
6283.470975619702
 20
5260.612725015075
 30
0.0
 10
6283.462990121241
 20
5260.587122818819
 30
0.0
 10
6283.450568506252
 20
5260.570191341464
 30
0.0
 10
6283.437185914579
 20
5260.562598919231
 30
0.0
 10
6283.429884041611
 20
5260.56193100875
 30
0.0
 10
6283.426177143492
 20
5260.561591934635
 30
0.0
  0
LINE
  5
8D
330
1F
100
AcDbEntity
  8
0
  6
Continuous
 62
     7
370
    25
100
AcDbLine
 10
6283.32860434
 20
5260.7212504262
 30
0.0
 11
6283.4261771435
 21
5260.7212504262
 31
0.0
  0
SPLINE
  5
8E
330
1F
100
AcDbEntity
  8
0
  6
Continuous
 62
     7
370
    25
100
AcDbSpline
210
0.0
220
0.0
230
1.0
 70
     8
 71
     3
 72
    11
 73
     7
 74
     0
 42
0.000000001
 43
0.00000001
 40
0.0
 40
0.0
 40
0.0
 40
0.0
 40
0.2691641746193402
 40
0.533227202492941
 40
0.7555120233506586
 40
0.9999999999999999
 40
0.9999999999999999
 40
0.9999999999999999
 40
0.9999999999999999
 10
6283.266526102461
 20
5260.774462472869
 30
0.0
 10
6283.26765365318
 20
5260.766207451374
 30
0.0
 10
6283.269887385496
 20
5260.749853855933
 30
0.0
 10
6283.286723516751
 20
5260.732562269694
 30
0.0
 10
6283.306966843203
 20
5260.72286486077
 30
0.0
 10
6283.321166691241
 20
5260.721805370149
 30
0.0
 10
6283.328604339995
 20
5260.721250426246
 30
0.0
  0
SPLINE
  5
8F
330
1F
100
AcDbEntity
  8
0
  6
Continuous
 62
     7
370
    25
100
AcDbSpline
210
0.0
220
0.0
230
1.0
 70
     8
 71
     3
 72
    12
 73
     8
 74
     0
 42
0.000000001
 43
0.00000001
 40
0.0
 40
0.0
 40
0.0
 40
0.0
 40
0.161525531567043
 40
0.3549509079620923
 40
0.5610176915271562
 40
0.793580324968753
 40
1.0
 40
1.0
 40
1.0
 40
1.0
 10
6283.328604339995
 20
5260.827674519493
 30
0.0
 10
6283.323911745627
 20
5260.827038894324
 30
0.0
 10
6283.31359981156
 20
5260.825642113714
 30
0.0
 10
6283.29875068716
 20
5260.81811385077
 30
0.0
 10
6283.283931152145
 20
5260.807366733197
 30
0.0
 10
6283.270422982535
 20
5260.793206426003
 30
0.0
 10
6283.267772446196
 20
5260.780457373433
 30
0.0
 10
6283.266526102461
 20
5260.774462472869
 30
0.0
  0
LINE
  5
90
330
1F
100
AcDbEntity
  8
0
  6
Continuous
 62
     7
370
    25
100
AcDbLine
 10
6283.7367173428
 20
5260.8276745195
 30
0.0
 11
6283.32860434
 21
5260.8276745195
 31
0.0
  0
SPLINE
  5
91
330
1F
100
AcDbEntity
  8
0
  6
Continuous
 62
     7
370
    25
100
AcDbSpline
210
0.0
220
0.0
230
1.0
 70
     8
 71
     3
 72
    11
 73
     7
 74
     0
 42
0.000000001
 43
0.00000001
 40
0.0
 40
0.0
 40
0.0
 40
0.0
 40
0.2788270497476695
 40
0.5648000714012671
 40
0.7906299891805105
 40
1.0
 40
1.0
 40
1.0
 40
1.0
 10
6283.79885518495
 20
5260.774462472869
 30
0.0
 10
6283.797220817199
 20
5260.782804516094
 30
0.0
 10
6283.793910194994
 20
5260.799702398181
 30
0.0
 10
6283.775157222899
 20
5260.815805629639
 30
0.0
 10
6283.755904750689
 20
5260.825588166344
 30
0.0
 10
6283.742949820518
 20
5260.826996827664
 30
0.0
 10
6283.736717342772
 20
5260.827674519493
 30
0.0
  0
SPLINE
  5
92
330
1F
100
AcDbEntity
  8
0
  6
Continuous
 62
     7
370
    25
100
AcDbSpline
210
0.0
220
0.0
230
1.0
 70
     8
 71
     3
 72
    11
 73
     7
 74
     0
 42
0.000000001
 43
0.00000001
 40
0.0
 40
0.0
 40
0.0
 40
0.0
 40
0.2691771298501079
 40
0.5575429114004383
 40
0.7797157594643656
 40
1.0
 40
1.0
 40
1.0
 40
1.0
 10
6283.736717342772
 20
5260.721250426246
 30
0.0
 10
6283.74472978834
 20
5260.722346105355
 30
0.0
 10
6283.761325857377
 20
5260.724615570522
 30
0.0
 10
6283.781216680738
 20
5260.737571168386
 30
0.0
 10
6283.795873945861
 20
5260.754606862645
 30
0.0
 10
6283.797864270456
 20
5260.767862796908
 30
0.0
 10
6283.79885518495
 20
5260.774462472869
 30
0.0
  0
LINE
  5
93
330
1F
100
AcDbEntity
  8
0
  6
Continuous
 62
     7
370
    25
100
AcDbLine
 10
6283.6347039932
 20
5260.7212504262
 30
0.0
 11
6283.7367173428
 21
5260.7212504262
 31
0.0
  0
SPLINE
  5
94
330
1F
100
AcDbEntity
  8
0
  6
Continuous
 62
     7
370
    25
100
AcDbSpline
210
0.0
220
0.0
230
1.0
 70
     8
 71
     3
 72
    18
 73
    14
 74
     0
 42
0.000000001
 43
0.00000001
 40
0.0
 40
0.0
 40
0.0
 40
0.0
 40
0.0426280616461534
 40
0.0873095092918736
 40
0.1377308995054461
 40
0.1948004374144124
 40
0.3263724078702861
 40
0.472007048975428
 40
0.618501516308703
 40
0.7544205644915646
 40
0.8760953559714493
 40
0.9358364266924659
 40
1.0
 40
1.0
 40
1.0
 40
1.0
 10
6283.616912006773
 20
5260.557173740341
 30
0.0
 10
6283.61394546966
 20
5260.557551189778
 30
0.0
 10
6283.60786949788
 20
5260.558324270324
 30
0.0
 10
6283.599984958832
 20
5260.564228717127
 30
0.0
 10
6283.593423660991
 20
5260.572487228843
 30
0.0
 10
6283.585983507834
 20
5260.587350406476
 30
0.0
 10
6283.580188320671
 20
5260.609929904567
 30
0.0
 10
6283.578314805499
 20
5260.639291939678
 30
0.0
 10
6283.581865388867
 20
5260.668835708183
 30
0.0
 10
6283.591243507667
 20
5260.695498248593
 30
0.0
 10
6283.606019207573
 20
5260.712785583692
 30
0.0
 10
6283.621645604925
 20
5260.720273671479
 30
0.0
 10
6283.630248839318
 20
5260.720917185059
 30
0.0
 10
6283.634703993239
 20
5260.721250426246
 30
0.0
  0
SPLINE
  5
95
330
1F
100
AcDbEntity
  8
0
  6
Continuous
 62
     7
370
    25
100
AcDbSpline
210
0.0
220
0.0
230
1.0
 70
     8
 71
     3
 72
    11
 73
     7
 74
     0
 42
0.000000001
 43
0.00000001
 40
0.0
 40
0.0
 40
0.0
 40
0.0
 40
0.3145995465115416
 40
0.5566608190691908
 40
0.7425160329465899
 40
1.0
 40
1.0
 40
1.0
 40
1.0
 10
6284.069460272231
 20
5260.694595974161
 30
0.0
 10
6284.027397230499
 20
5260.665535509434
 30
0.0
 10
6283.952969763827
 20
5260.614115148926
 30
0.0
 10
6283.840525479096
 20
5260.568996532617
 30
0.0
 10
6283.730671183342
 20
5260.547117123098
 30
0.0
 10
6283.658707378624
 20
5260.553478917032
 30
0.0
 10
6283.616912006773
 20
5260.557173740341
 30
0.0
  0
SPLINE
  5
96
330
1F
100
AcDbEntity
  8
0
  6
Continuous
 62
     7
370
    25
100
AcDbSpline
210
0.0
220
0.0
230
1.0
 70
     8
 71
     3
 72
     9
 73
     5
 74
     0
 42
0.000000001
 43
0.00000001
 40
0.0
 40
0.0
 40
0.0
 40
0.0
 40
0.554991761213357
 40
1.0
 40
1.0
 40
1.0
 40
1.0
 10
6284.131419300475
 20
5262.78813461609
 30
0.0
 10
6284.084972067562
 20
5262.803163484718
 30
0.0
 10
6284.001282117265
 20
5262.830242929276
 30
0.0
 10
6283.916385772516
 20
5262.853248426954
 30
0.0
 10
6283.87860619966
 20
5262.863486062957
 30
0.0
  0
SPLINE
  5
97
330
1F
100
AcDbEntity
  8
0
  6
Continuous
 62
     7
370
    25
100
AcDbSpline
210
0.0
220
0.0
230
1.0
 70
     8
 71
     3
 72
     9
 73
     5
 74
     0
 42
0.000000001
 43
0.00000001
 40
0.0
 40
0.0
 40
0.0
 40
0.0
 40
0.5806088881263914
 40
1.0
 40
1.0
 40
1.0
 40
1.0
 10
6284.92532336656
 20
5263.400173735095
 30
0.0
 10
6284.755079422385
 20
5263.302566972791
 30
0.0
 10
6284.461863201181
 20
5263.134455935739
 30
0.0
 10
6284.229056402588
 20
5262.890463059673
 30
0.0
 10
6284.131419300475
 20
5262.78813461609
 30
0.0
  0
SPLINE
  5
98
330
1F
100
AcDbEntity
  8
0
  6
Continuous
 62
     7
370
    25
100
AcDbSpline
210
0.0
220
0.0
230
1.0
 70
     8
 71
     3
 72
    11
 73
     7
 74
     0
 42
0.000000001
 43
0.00000001
 40
0.0
 40
0.0
 40
0.0
 40
0.0
 40
0.3095290802206999
 40
0.5761951260655694
 40
0.7826984091321676
 40
1.0
 40
1.0
 40
1.0
 40
1.0
 10
6281.634342312254
 20
5261.466394167615
 30
0.0
 10
6281.731107320888
 20
5261.704361297961
 30
0.0
 10
6281.91123749253
 20
5262.147342295322
 30
0.0
 10
6282.415496213275
 20
5262.579331142805
 30
0.0
 10
6282.949096570656
 20
5262.789020813251
 30
0.0
 10
6283.296722119775
 20
5262.817705591508
 30
0.0
 10
6283.474963545241
 20
5262.832413416578
 30
0.0
  0
SPLINE
  5
99
330
1F
100
AcDbEntity
  8
0
  6
Continuous
 62
     7
370
    25
100
AcDbSpline
210
0.0
220
0.0
230
1.0
 70
     8
 71
     3
 72
     9
 73
     5
 74
     0
 42
0.000000001
 43
0.00000001
 40
0.0
 40
0.0
 40
0.0
 40
0.0
 40
0.5027848941779368
 40
1.0
 40
1.0
 40
1.0
 40
1.0
 10
6282.83626997415
 20
5262.282445084526
 30
0.0
 10
6282.618295435199
 20
5262.170012936443
 30
0.0
 10
6282.184761052058
 20
5261.946394149592
 30
0.0
 10
6281.817132688128
 20
5261.625798945797
 30
0.0
 10
6281.634342312254
 20
5261.466394167615
 30
0.0
  0
SPLINE
  5
9A
330
1F
100
AcDbEntity
  8
0
  6
Continuous
 62
     7
370
    25
100
AcDbSpline
210
0.0
220
0.0
230
1.0
 70
     8
 71
     3
 72
    11
 73
     7
 74
     0
 42
0.000000001
 43
0.00000001
 40
0.0
 40
0.0
 40
0.0
 40
0.0
 40
0.2854167981537759
 40
0.5577767825812323
 40
0.7737354907608736
 40
0.9999999999999999
 40
0.9999999999999999
 40
0.9999999999999999
 40
0.9999999999999999
 10
6284.237813591399
 20
5262.238095503522
 30
0.0
 10
6284.118020229243
 20
5262.144196065346
 30
0.0
 10
6283.883913629527
 20
5261.960692757723
 30
0.0
 10
6283.460612817039
 20
5261.928480581104
 30
0.0
 10
6283.093491909684
 20
5262.039131046168
 30
0.0
 10
6282.923332447683
 20
5262.2000900475
 30
0.0
 10
6282.83626997415
 20
5262.282445084526
 30
0.0
  0
SPLINE
  5
9B
330
1F
100
AcDbEntity
  8
0
  6
Continuous
 62
     7
370
    25
100
AcDbSpline
210
0.0
220
0.0
230
1.0
 70
     8
 71
     3
 72
    10
 73
     6
 74
     0
 42
0.000000001
 43
0.00000001
 40
0.0
 40
0.0
 40
0.0
 40
0.0
 40
0.2216582052005952
 40
0.4978829625690948
 40
1.0
 40
1.0
 40
1.0
 40
1.0
 10
6285.28891169969
 20
5261.581680726482
 30
0.0
 10
6285.223192346023
 20
5261.646599906886
 30
0.0
 10
6285.075575223197
 20
5261.792419701095
 30
0.0
 10
6284.721562325592
 20
5262.015694354973
 30
0.0
 10
6284.4275100308
 20
5262.150883479972
 30
0.0
 10
6284.237813591399
 20
5262.238095503522
 30
0.0
  0
SPLINE
  5
9C
330
1F
100
AcDbEntity
  8
0
  6
Continuous
 62
     7
370
    25
100
AcDbSpline
210
0.0
220
0.0
230
1.0
 70
     8
 71
     3
 72
     9
 73
     5
 74
     0
 42
0.000000001
 43
0.00000001
 40
0.0
 40
0.0
 40
0.0
 40
0.0
 40
0.5483286131090278
 40
1.0
 40
1.0
 40
1.0
 40
1.0
 10
6282.756518959441
 20
5262.774731021596
 30
0.0
 10
6282.611518048122
 20
5262.93174619398
 30
0.0
 10
6282.347076419777
 20
5263.218098517443
 30
0.0
 10
6281.993650326132
 20
5263.380160806035
 30
0.0
 10
6281.834017872252
 20
5263.453359704687
 30
0.0
  0
SPLINE
  5
9D
330
1F
100
AcDbEntity
  8
0
  6
Continuous
 62
     7
370
    25
100
AcDbSpline
210
0.0
220
0.0
230
1.0
 70
     8
 71
     3
 72
     9
 73
     5
 74
     0
 42
0.000000001
 43
0.00000001
 40
0.0
 40
0.0
 40
0.0
 40
0.0
 40
0.5794138701644255
 40
1.0
 40
1.0
 40
1.0
 40
1.0
 10
6283.044916033186
 20
5262.854601245595
 30
0.0
 10
6282.987906813184
 20
5262.843737819218
 30
0.0
 10
6282.889515623504
 20
5262.824988826595
 30
0.0
 10
6282.795894644621
 20
5262.789610609151
 30
0.0
 10
6282.756518959441
 20
5262.774731021596
 30
0.0
  0
SPLINE
  5
9E
330
1F
100
AcDbEntity
  8
0
  6
Continuous
 62
     7
370
    25
100
AcDbSpline
210
0.0
220
0.0
230
1.0
 70
     8
 71
     3
 72
     9
 73
     5
 74
     0
 42
0.000000001
 43
0.00000001
 40
0.0
 40
0.0
 40
0.0
 40
0.0
 40
0.5573337565452998
 40
1.0
 40
1.0
 40
1.0
 40
1.0
 10
6284.401428341307
 20
5260.101682495548
 30
0.0
 10
6284.501087875808
 20
5260.094132494069
 30
0.0
 10
6284.679902694272
 20
5260.080585850985
 30
0.0
 10
6284.852187806831
 20
5260.12884013414
 30
0.0
 10
6284.928452610411
 20
5260.150200676395
 30
0.0
  0
SPLINE
  5
9F
330
1F
100
AcDbEntity
  8
0
  6
Continuous
 62
     7
370
    25
100
AcDbSpline
210
0.0
220
0.0
230
1.0
 70
     8
 71
     3
 72
     9
 73
     5
 74
     0
 42
0.000000001
 43
0.00000001
 40
0.0
 40
0.0
 40
0.0
 40
0.0
 40
0.5668407067612766
 40
1.0
 40
1.0
 40
1.0
 40
1.0
 10
6284.263473390974
 20
5259.640446853115
 30
0.0
 10
6284.286698004617
 20
5259.72845523432
 30
0.0
 10
6284.327670033206
 20
5259.883716457014
 30
0.0
 10
6284.379135567045
 20
5260.035804253229
 30
0.0
 10
6284.401428341307
 20
5260.101682495548
 30
0.0
  0
SPLINE
  5
A0
330
1F
100
AcDbEntity
  8
0
  6
Continuous
 62
     7
370
    25
100
AcDbSpline
210
0.0
220
0.0
230
1.0
 70
     8
 71
     3
 72
     9
 73
     5
 74
     0
 42
0.000000001
 43
0.00000001
 40
0.0
 40
0.0
 40
0.0
 40
0.0
 40
0.5771541039852034
 40
0.9999999999999999
 40
0.9999999999999999
 40
0.9999999999999999
 40
0.9999999999999999
 10
6285.221171020903
 20
5259.720313351823
 30
0.0
 10
6285.039562870166
 20
5259.657112608104
 30
0.0
 10
6284.724901414094
 20
5259.547608502904
 30
0.0
 10
6284.400602047303
 20
5259.612856855147
 30
0.0
 10
6284.263473390974
 20
5259.640446853115
 30
0.0
  0
SPLINE
  5
A1
330
1F
100
AcDbEntity
  8
0
  6
Continuous
 62
     7
370
    25
100
AcDbSpline
210
0.0
220
0.0
230
1.0
 70
     8
 71
     3
 72
     9
 73
     5
 74
     0
 42
0.000000001
 43
0.00000001
 40
0.0
 40
0.0
 40
0.0
 40
0.0
 40
0.5715598450366978
 40
0.9999999999999999
 40
0.9999999999999999
 40
0.9999999999999999
 40
0.9999999999999999
 10
6284.144621729292
 20
5259.047205548955
 30
0.0
 10
6284.40615212908
 20
5258.991155462928
 30
0.0
 10
6284.863725210986
 20
5258.893090340764
 30
0.0
 10
6285.305195506211
 20
5259.038848231006
 30
0.0
 10
6285.494339107909
 20
5259.101296764089
 30
0.0
  0
SPLINE
  5
A2
330
1F
100
AcDbEntity
  8
0
  6
Continuous
 62
     7
370
    25
100
AcDbSpline
210
0.0
220
0.0
230
1.0
 70
     8
 71
     3
 72
     9
 73
     5
 74
     0
 42
0.000000001
 43
0.00000001
 40
0.0
 40
0.0
 40
0.0
 40
0.0
 40
0.5669346866416021
 40
1.0
 40
1.0
 40
1.0
 40
1.0
 10
6284.080248712935
 20
5258.491921227647
 30
0.0
 10
6284.089708697014
 20
5258.597178079254
 30
0.0
 10
6284.106394894388
 20
5258.782837651842
 30
0.0
 10
6284.133069767158
 20
5258.967314866278
 30
0.0
 10
6284.144621729292
 20
5259.047205548955
 30
0.0
  0
SPLINE
  5
A3
330
1F
100
AcDbEntity
  8
0
  6
Continuous
 62
     7
370
    25
100
AcDbSpline
210
0.0
220
0.0
230
1.0
 70
     8
 71
     3
 72
     9
 73
     5
 74
     0
 42
0.000000001
 43
0.00000001
 40
0.0
 40
0.0
 40
0.0
 40
0.0
 40
0.5865832167774733
 40
1.0
 40
1.0
 40
1.0
 40
1.0
 10
6285.613786816039
 20
5258.530172508432
 30
0.0
 10
6285.313221164442
 20
5258.440357658393
 30
0.0
 10
6284.800820463231
 20
5258.287242384259
 30
0.0
 10
6284.291012062164
 20
5258.432053770269
 30
0.0
 10
6284.080248712935
 20
5258.491921227647
 30
0.0
  0
SPLINE
  5
A4
330
1F
100
AcDbEntity
  8
0
  6
Continuous
 62
     7
370
    25
100
AcDbSpline
210
0.0
220
0.0
230
1.0
 70
     8
 71
     3
 72
     9
 73
     5
 74
     0
 42
0.000000001
 43
0.00000001
 40
0.0
 40
0.0
 40
0.0
 40
0.0
 40
0.6065018577745107
 40
0.9999999999999999
 40
0.9999999999999999
 40
0.9999999999999999
 40
0.9999999999999999
 10
6284.34766495172
 20
5260.643492441846
 30
0.0
 10
6284.373117616288
 20
5260.620886859932
 30
0.0
 10
6284.415083958589
 20
5260.58361478628
 30
0.0
 10
6284.457767389629
 20
5260.547167272078
 30
0.0
 10
6284.474563240447
 20
5260.53282524295
 30
0.0
  0
SPLINE
  5
A5
330
1F
100
AcDbEntity
  8
0
  6
Continuous
 62
     7
370
    25
100
AcDbSpline
210
0.0
220
0.0
230
1.0
 70
     8
 71
     3
 72
     9
 73
     5
 74
     0
 42
0.000000001
 43
0.00000001
 40
0.0
 40
0.0
 40
0.0
 40
0.0
 40
0.5715367442733098
 40
1.0
 40
1.0
 40
1.0
 40
1.0
 10
6284.474563240447
 20
5260.53282524295
 30
0.0
 10
6284.490238424449
 20
5260.560005609424
 30
0.0
 10
6284.517664804571
 20
5260.607562248165
 30
0.0
 10
6284.548474574468
 20
5260.652991716156
 30
0.0
 10
6284.561675428786
 20
5260.672456573917
 30
0.0
  0
SPLINE
  5
A6
330
1F
100
AcDbEntity
  8
0
  6
Continuous
 62
     7
370
    25
100
AcDbSpline
210
0.0
220
0.0
230
1.0
 70
     8
 71
     3
 72
    11
 73
     7
 74
     0
 42
0.000000001
 43
0.00000001
 40
0.0
 40
0.0
 40
0.0
 40
0.0
 40
0.2505297166681497
 40
0.51903344873495
 40
0.7465804650536925
 40
1.0
 40
1.0
 40
1.0
 40
1.0
 10
6284.561675428786
 20
5260.672456573917
 30
0.0
 10
6284.744104773099
 20
5260.494223766966
 30
0.0
 10
6285.122051680912
 20
5260.124971010447
 30
0.0
 10
6285.508572877592
 20
5259.462280532885
 30
0.0
 10
6285.730441790798
 20
5258.724467017642
 30
0.0
 10
6285.718998417116
 20
5258.23371140974
 30
0.0
 10
6285.712968944945
 20
5257.975134056283
 30
0.0
  0
SPLINE
  5
A7
330
1F
100
AcDbEntity
  8
0
  6
Continuous
 62
     7
370
    25
100
AcDbSpline
210
0.0
220
0.0
230
1.0
 70
     8
 71
     3
 72
    11
 73
     7
 74
     0
 42
0.000000001
 43
0.00000001
 40
0.0
 40
0.0
 40
0.0
 40
0.0
 40
0.2849794452612661
 40
0.5578976477615036
 40
0.7729757764521155
 40
1.0
 40
1.0
 40
1.0
 40
1.0
 10
6285.712968944945
 20
5257.975134056283
 30
0.0
 10
6285.652576255643
 20
5257.660400319907
 30
0.0
 10
6285.534346889056
 20
5257.044253386804
 30
0.0
 10
6284.974807050547
 20
5256.353294415319
 30
0.0
 10
6284.279843427896
 20
5255.93104760598
 30
0.0
 10
6283.786187944277
 20
5255.87941885979
 30
0.0
 10
6283.532690643706
 20
5255.852906953765
 30
0.0
  0
SPLINE
  5
A8
330
1F
100
AcDbEntity
  8
0
  6
Continuous
 62
     7
370
    25
100
AcDbSpline
210
0.0
220
0.0
230
1.0
 70
     8
 71
     3
 72
    12
 73
     8
 74
     0
 42
0.000000001
 43
0.00000001
 40
0.0
 40
0.0
 40
0.0
 40
0.0
 40
0.1882524400750626
 40
0.3673976266748948
 40
0.544422469031787
 40
0.7599949258462866
 40
1.0
 40
1.0
 40
1.0
 40
1.0
 10
6283.532690643706
 20
5255.852906953765
 30
0.0
 10
6283.322382842328
 20
5255.866106136813
 30
0.0
 10
6282.911941484614
 20
5255.891865954451
 30
0.0
 10
6282.362990316015
 20
5256.183768245894
 30
0.0
 10
6281.924795679808
 20
5256.652874261606
 30
0.0
 10
6281.656467093771
 20
5257.333982382878
 30
0.0
 10
6281.726221479431
 20
5257.841534396082
 30
0.0
 10
6281.76296913568
 20
5258.108920406772
 30
0.0
  0
SPLINE
  5
A9
330
1F
100
AcDbEntity
  8
0
  6
Continuous
 62
     7
370
    25
100
AcDbSpline
210
0.0
220
0.0
230
1.0
 70
     8
 71
     3
 72
    10
 73
     6
 74
     0
 42
0.000000001
 43
0.00000001
 40
0.0
 40
0.0
 40
0.0
 40
0.0
 40
0.3502425105324213
 40
0.6174522013870553
 40
1.0
 40
1.0
 40
1.0
 40
1.0
 10
6281.76296913568
 20
5258.108920406772
 30
0.0
 10
6281.830620523708
 20
5258.357082548094
 30
0.0
 10
6281.949885025327
 20
5258.794574445428
 30
0.0
 10
6282.281346910648
 20
5259.449667318248
 30
0.0
 10
6282.479962092152
 20
5259.881579274949
 30
0.0
 10
6282.596897720732
 20
5260.135869484617
 30
0.0
  0
SPLINE
  5
AA
330
1F
100
AcDbEntity
  8
0
  6
Continuous
 62
     7
370
    25
100
AcDbSpline
210
0.0
220
0.0
230
1.0
 70
     8
 71
     3
 72
    13
 73
     9
 74
     0
 42
0.000000001
 43
0.00000001
 40
0.0
 40
0.0
 40
0.0
 40
0.0
 40
0.1448903493484385
 40
0.264814855272421
 40
0.3776543856008343
 40
0.4948098617107264
 40
0.7484836919490157
 40
1.0
 40
1.0
 40
1.0
 40
1.0
 10
6282.596897720732
 20
5260.135869484617
 30
0.0
 10
6282.621243678329
 20
5260.220837467321
 30
0.0
 10
6282.665740577303
 20
5260.376132724346
 30
0.0
 10
6282.629142728698
 20
5260.608953746316
 30
0.0
 10
6282.51608800476
 20
5260.7926913296
 30
0.0
 10
6282.289711428148
 20
5260.982349058458
 30
0.0
 10
6281.93502034381
 20
5261.127902372807
 30
0.0
 10
6281.633645863692
 20
5261.176226587707
 30
0.0
 10
6281.483602165617
 20
5261.200285505725
 30
0.0
  0
SPLINE
  5
AB
330
1F
100
AcDbEntity
  8
0
  6
Continuous
 62
     7
370
    25
100
AcDbSpline
210
0.0
220
0.0
230
1.0
 70
     8
 71
     3
 72
     9
 73
     5
 74
     0
 42
0.000000001
 43
0.00000001
 40
0.0
 40
0.0
 40
0.0
 40
0.0
 40
0.5505404688560561
 40
1.0
 40
1.0
 40
1.0
 40
1.0
 10
6281.483602165617
 20
5261.200285505725
 30
0.0
 10
6281.523181976426
 20
5261.345819387818
 30
0.0
 10
6281.595074622013
 20
5261.610166679843
 30
0.0
 10
6281.7201390012
 20
5261.853676545821
 30
0.0
 10
6281.776350378432
 20
5261.963124376012
 30
0.0
  0
SPLINE
  5
AC
330
1F
100
AcDbEntity
  8
0
  6
Continuous
 62
     7
370
    25
100
AcDbSpline
210
0.0
220
0.0
230
1.0
 70
     8
 71
     3
 72
     9
 73
     5
 74
     0
 42
0.000000001
 43
0.00000001
 40
0.0
 40
0.0
 40
0.0
 40
0.0
 40
0.5139389511630355
 40
1.0
 40
1.0
 40
1.0
 40
1.0
 10
6281.776350378432
 20
5261.963124376012
 30
0.0
 10
6281.636999867492
 20
5262.22902316093
 30
0.0
 10
6281.365857719918
 20
5262.746397421656
 30
0.0
 10
6281.343674311881
 20
5263.329566262943
 30
0.0
 10
6281.332891821303
 20
5263.613021921588
 30
0.0
  0
SPLINE
  5
AD
330
1F
100
AcDbEntity
  8
0
  6
Continuous
 62
     7
370
    25
100
AcDbSpline
210
0.0
220
0.0
230
1.0
 70
     8
 71
     3
 72
     9
 73
     5
 74
     0
 42
0.000000001
 43
0.00000001
 40
0.0
 40
0.0
 40
0.0
 40
0.0
 40
0.5494774591665079
 40
1.0
 40
1.0
 40
1.0
 40
1.0
 10
6281.332891821303
 20
5263.613021921588
 30
0.0
 10
6281.681887394161
 20
5263.53651019828
 30
0.0
 10
6282.317028230306
 20
5263.397265681453
 30
0.0
 10
6282.855431265811
 20
5263.03536628649
 30
0.0
 10
6283.097993969359
 20
5262.872322451545
 30
0.0
  0
SPLINE
  5
AE
330
1F
100
AcDbEntity
  8
0
  6
Continuous
 62
     7
370
    25
100
AcDbSpline
210
0.0
220
0.0
230
1.0
 70
     8
 71
     3
 72
    12
 73
     8
 74
     0
 42
0.000000001
 43
0.00000001
 40
0.0
 40
0.0
 40
0.0
 40
0.0
 40
0.1051367395647855
 40
0.260440435900565
 40
0.5553449395913282
 40
0.8115337200654078
 40
1.0
 40
1.0
 40
1.0
 40
1.0
 10
6283.097993969359
 20
5262.872322451545
 30
0.0
 10
6283.122177828336
 20
5262.878278606786
 30
0.0
 10
6283.182085095765
 20
5262.89303295121
 30
0.0
 10
6283.313560194175
 20
5262.903020841459
 30
0.0
 10
6283.480310584065
 20
5262.907789123528
 30
0.0
 10
6283.655996017448
 20
5262.905140494901
 30
0.0
 10
6283.759447850213
 20
5262.885194655461
 30
0.0
 10
6283.803295730986
 20
5262.876740645839
 30
0.0
  0
SPLINE
  5
AF
330
1F
100
AcDbEntity
  8
0
  6
Continuous
 62
     7
370
    25
100
AcDbSpline
210
0.0
220
0.0
230
1.0
 70
     8
 71
     3
 72
    10
 73
     6
 74
     0
 42
0.000000001
 43
0.00000001
 40
0.0
 40
0.0
 40
0.0
 40
0.0
 40
0.2545812909209643
 40
0.5359848461044319
 40
1.0
 40
1.0
 40
1.0
 40
1.0
 10
6283.803295730986
 20
5262.876740645839
 30
0.0
 10
6283.938708930781
 20
5262.986310599982
 30
0.0
 10
6284.223802241409
 20
5263.216994617635
 30
0.0
 10
6284.85820164
 20
5263.490595127876
 30
0.0
 10
6285.36151487815
 20
5263.571513542023
 30
0.0
 10
6285.674821972289
 20
5263.621884387208
 30
0.0
  0
SPLINE
  5
B0
330
1F
100
AcDbEntity
  8
0
  6
Continuous
 62
     7
370
    25
100
AcDbSpline
210
0.0
220
0.0
230
1.0
 70
     8
 71
     3
 72
     9
 73
     5
 74
     0
 42
0.000000001
 43
0.00000001
 40
0.0
 40
0.0
 40
0.0
 40
0.0
 40
0.5513195956412305
 40
1.0
 40
1.0
 40
1.0
 40
1.0
 10
6285.674821972289
 20
5263.621884387208
 30
0.0
 10
6285.646149147135
 20
5263.298068950057
 30
0.0
 10
6285.594141517838
 20
5262.710722808705
 30
0.0
 10
6285.307041863391
 20
5262.197717844903
 30
0.0
 10
6285.178225874342
 20
5261.967542570306
 30
0.0
  0
SPLINE
  5
B1
330
1F
100
AcDbEntity
  8
0
  6
Continuous
 62
     7
370
    25
100
AcDbSpline
210
0.0
220
0.0
230
1.0
 70
     8
 71
     3
 72
    10
 73
     6
 74
     0
 42
0.000000001
 43
0.00000001
 40
0.0
 40
0.0
 40
0.0
 40
0.0
 40
0.5754168466653276
 40
0.8047564992816717
 40
0.9999999999999999
 40
0.9999999999999999
 40
0.9999999999999999
 40
0.9999999999999999
 10
6285.178225874342
 20
5261.967542570306
 30
0.0
 10
6285.271216927833
 20
5261.811045997421
 30
0.0
 10
6285.401270740309
 20
5261.592175738628
 30
0.0
 10
6285.501902250963
 20
5261.283477485766
 30
0.0
 10
6285.48151253678
 20
5261.148792445493
 30
0.0
 10
6285.47213637773
 20
5261.086857866718
 30
0.0
  0
SPLINE
  5
B2
330
1F
100
AcDbEntity
  8
0
  6
Continuous
 62
     7
370
    25
100
AcDbSpline
210
0.0
220
0.0
230
1.0
 70
     8
 71
     3
 72
    10
 73
     6
 74
     0
 42
0.000000001
 43
0.00000001
 40
0.0
 40
0.0
 40
0.0
 40
0.0
 40
0.2737307000983573
 40
0.5596236754642888
 40
1.0
 40
1.0
 40
1.0
 40
1.0
 10
6284.024965404906
 20
5259.993853967859
 30
0.0
 10
6283.963745833922
 20
5259.631447827142
 30
0.0
 10
6283.838586612423
 20
5258.890533284468
 30
0.0
 10
6283.8316400415
 20
5257.546158813783
 30
0.0
 10
6283.877352641952
 20
5256.574049532354
 30
0.0
 10
6283.90507066194
 20
5255.984607141687
 30
0.0
  0
SPLINE
  5
B3
330
1F
100
AcDbEntity
  8
0
  6
Continuous
 62
     7
370
    25
100
AcDbSpline
210
0.0
220
0.0
230
1.0
 70
     8
 71
     3
 72
     9
 73
     5
 74
     0
 42
0.000000001
 43
0.00000001
 40
0.0
 40
0.0
 40
0.0
 40
0.0
 40
0.527560851286281
 40
1.0
 40
1.0
 40
1.0
 40
1.0
 10
6283.90507066194
 20
5255.984607141687
 30
0.0
 10
6283.909950352111
 20
5255.985069728409
 30
0.0
 10
6283.919199882587
 20
5255.985946568911
 30
0.0
 10
6283.928427387293
 20
5255.987030553626
 30
0.0
 10
6283.932786821761
 20
5255.987542670442
 30
0.0
  0
SPLINE
  5
B4
330
1F
100
AcDbEntity
  8
0
  6
Continuous
 62
     7
370
    25
100
AcDbSpline
210
0.0
220
0.0
230
1.0
 70
     8
 71
     3
 72
    11
 73
     7
 74
     0
 42
0.000000001
 43
0.00000001
 40
0.0
 40
0.0
 40
0.0
 40
0.0
 40
0.265838843388196
 40
0.5199394809430711
 40
0.7395750261397758
 40
1.0
 40
1.0
 40
1.0
 40
1.0
 10
6283.932786821761
 20
5255.987542670442
 30
0.0
 10
6284.156874623666
 20
5256.062387432016
 30
0.0
 10
6284.595155553285
 20
5256.208772158901
 30
0.0
 10
6285.095915580647
 20
5256.654317867738
 30
0.0
 10
6285.426190894853
 20
5257.219638781453
 30
0.0
 10
6285.536140404181
 20
5257.629890502182
 30
0.0
 10
6285.595786213316
 20
5257.852445345594
 30
0.0
  0
SPLINE
  5
B5
330
1F
100
AcDbEntity
  8
0
  6
Continuous
 62
     7
370
    25
100
AcDbSpline
210
0.0
220
0.0
230
1.0
 70
     8
 71
     3
 72
     9
 73
     5
 74
     0
 42
0.000000001
 43
0.00000001
 40
0.0
 40
0.0
 40
0.0
 40
0.0
 40
0.5734270145653427
 40
1.0
 40
1.0
 40
1.0
 40
1.0
 10
6285.595786213316
 20
5257.852445345594
 30
0.0
 10
6285.299511813027
 20
5257.782609864046
 30
0.0
 10
6284.782838561219
 20
5257.660823691135
 30
0.0
 10
6284.269968122705
 20
5257.786333427776
 30
0.0
 10
6284.051191448607
 20
5257.839872490837
 30
0.0
  0
SPLINE
  5
B6
330
1F
100
AcDbEntity
  8
0
  6
Continuous
 62
     7
370
    25
100
AcDbSpline
210
0.0
220
0.0
230
1.0
 70
     8
 71
     3
 72
     9
 73
     5
 74
     0
 42
0.000000001
 43
0.00000001
 40
0.0
 40
0.0
 40
0.0
 40
0.0
 40
0.644600107093727
 40
1.0
 40
1.0
 40
1.0
 40
1.0
 10
6284.051191448607
 20
5257.839872490837
 30
0.0
 10
6284.060576521812
 20
5257.56114939725
 30
0.0
 10
6284.075136049653
 20
5257.128752488657
 30
0.0
 10
6284.100258316888
 20
5256.696853011058
 30
0.0
 10
6284.109186767973
 20
5256.543355982973
 30
0.0
  0
SPLINE
  5
B7
330
1F
100
AcDbEntity
  8
0
  6
Continuous
 62
     7
370
    25
100
AcDbSpline
210
0.0
220
0.0
230
1.0
 70
     8
 71
     3
 72
    11
 73
     7
 74
     0
 42
0.000000001
 43
0.00000001
 40
0.0
 40
0.0
 40
0.0
 40
0.0
 40
0.3079504554275026
 40
0.6096111086304441
 40
0.8229975322749362
 40
1.0
 40
1.0
 40
1.0
 40
1.0
 10
6284.109186767973
 20
5256.543355982973
 30
0.0
 10
6284.045318993218
 20
5256.951482830123
 30
0.0
 10
6283.918887925205
 20
5257.759400647318
 30
0.0
 10
6283.992133787605
 20
5258.863321212302
 30
0.0
 10
6284.149917907691
 20
5259.780677461658
 30
0.0
 10
6284.353930474756
 20
5260.262922582765
 30
0.0
 10
6284.446429848113
 20
5260.481572699024
 30
0.0
  0
SPLINE
  5
B8
330
1F
100
AcDbEntity
  8
0
  6
Continuous
 62
     7
370
    25
100
AcDbSpline
210
0.0
220
0.0
230
1.0
 70
     8
 71
     3
 72
     9
 73
     5
 74
     0
 42
0.000000001
 43
0.00000001
 40
0.0
 40
0.0
 40
0.0
 40
0.0
 40
0.5183203097922157
 40
1.0
 40
1.0
 40
1.0
 40
1.0
 10
6284.446429848113
 20
5260.481572699024
 30
0.0
 10
6284.422677795033
 20
5260.501676197259
 30
0.0
 10
6284.376852747027
 20
5260.540462055841
 30
0.0
 10
6284.331910705678
 20
5260.580267439295
 30
0.0
 10
6284.310263037123
 20
5260.599440884067
 30
0.0
  0
SPLINE
  5
B9
330
1F
100
AcDbEntity
  8
0
  6
Continuous
 62
     7
370
    25
100
AcDbSpline
210
0.0
220
0.0
230
1.0
 70
     8
 71
     3
 72
     9
 73
     5
 74
     0
 42
0.000000001
 43
0.00000001
 40
0.0
 40
0.0
 40
0.0
 40
0.0
 40
0.5814302261770957
 40
0.9999999999999999
 40
0.9999999999999999
 40
0.9999999999999999
 40
0.9999999999999999
 10
6283.142429232039
 20
5255.975517433359
 30
0.0
 10
6283.20216890648
 20
5255.964441618255
 30
0.0
 10
6283.30491498288
 20
5255.945392359024
 30
0.0
 10
6283.409283799396
 20
5255.941664988443
 30
0.0
 10
6283.452969431319
 20
5255.940104823781
 30
0.0
  0
SPLINE
  5
BA
330
1F
100
AcDbEntity
  8
0
  6
Continuous
 62
     7
370
    25
100
AcDbSpline
210
0.0
220
0.0
230
1.0
 70
     8
 71
     3
 72
     9
 73
     5
 74
     0
 42
0.000000001
 43
0.00000001
 40
0.0
 40
0.0
 40
0.0
 40
0.0
 40
0.5818791867450438
 40
1.0
 40
1.0
 40
1.0
 40
1.0
 10
6283.452969431319
 20
5255.940104823781
 30
0.0
 10
6283.430089099284
 20
5256.288529963504
 30
0.0
 10
6283.390767651539
 20
5256.887322887636
 30
0.0
 10
6283.459553987104
 20
5257.482914239783
 30
0.0
 10
6283.488314985671
 20
5257.73194338031
 30
0.0
  0
SPLINE
  5
BB
330
1F
100
AcDbEntity
  8
0
  6
Continuous
 62
     7
370
    25
100
AcDbSpline
210
0.0
220
0.0
230
1.0
 70
     8
 71
     3
 72
     9
 73
     5
 74
     0
 42
0.000000001
 43
0.00000001
 40
0.0
 40
0.0
 40
0.0
 40
0.0
 40
0.55786904258021
 40
1.0
 40
1.0
 40
1.0
 40
1.0
 10
6283.488314985671
 20
5257.73194338031
 30
0.0
 10
6283.492718890281
 20
5257.397848647288
 30
0.0
 10
6283.500613045137
 20
5256.798972015818
 30
0.0
 10
6283.519777083181
 20
5256.200354128941
 30
0.0
 10
6283.52825009767
 20
5255.935686629487
 30
0.0
  0
SPLINE
  5
BC
330
1F
100
AcDbEntity
  8
0
  6
Continuous
 62
     7
370
    25
100
AcDbSpline
210
0.0
220
0.0
230
1.0
 70
     8
 71
     3
 72
     9
 73
     5
 74
     0
 42
0.000000001
 43
0.00000001
 40
0.0
 40
0.0
 40
0.0
 40
0.0
 40
0.6227345400521755
 40
1.0
 40
1.0
 40
1.0
 40
1.0
 10
6283.52825009767
 20
5255.935686629487
 30
0.0
 10
6283.595206670596
 20
5255.93763472718
 30
0.0
 10
6283.702726919787
 20
5255.940763022731
 30
0.0
 10
6283.807859489966
 20
5255.9628462364
 30
0.0
 10
6283.847522377409
 20
5255.971177470161
 30
0.0
  0
SPLINE
  5
BD
330
1F
100
AcDbEntity
  8
0
  6
Continuous
 62
     7
370
    25
100
AcDbSpline
210
0.0
220
0.0
230
1.0
 70
     8
 71
     3
 72
    12
 73
     8
 74
     0
 42
0.000000001
 43
0.00000001
 40
0.0
 40
0.0
 40
0.0
 40
0.0
 40
0.3969544705800782
 40
0.6998191374820216
 40
0.8215964759973783
 40
0.9200902616500993
 40
1.0
 40
1.0
 40
1.0
 40
1.0
 10
6283.847522377409
 20
5255.971177470161
 30
0.0
 10
6283.812540888615
 20
5256.622568804416
 30
0.0
 10
6283.750869545601
 20
5257.770952701027
 30
0.0
 10
6283.784423443369
 20
5259.129248023568
 30
0.0
 10
6283.93701025004
 20
5259.974354064862
 30
0.0
 10
6284.089066861729
 20
5260.453564667194
 30
0.0
 10
6284.277629231119
 20
5260.681346368387
 30
0.0
 10
6284.362089275755
 20
5260.783373367263
 30
0.0
  0
SPLINE
  5
BE
330
1F
100
AcDbEntity
  8
0
  6
Continuous
 62
     7
370
    25
100
AcDbSpline
210
0.0
220
0.0
230
1.0
 70
     8
 71
     3
 72
    10
 73
     6
 74
     0
 42
0.000000001
 43
0.00000001
 40
0.0
 40
0.0
 40
0.0
 40
0.0
 40
0.5558773933428375
 40
0.789166863830694
 40
0.9999999999999999
 40
0.9999999999999999
 40
0.9999999999999999
 40
0.9999999999999999
 10
6284.362089275755
 20
5260.783373367263
 30
0.0
 10
6284.214571428458
 20
5260.68638161705
 30
0.0
 10
6284.005143597239
 20
5260.548684570451
 30
0.0
 10
6283.723829560233
 20
5260.389576104819
 30
0.0
 10
6283.582194852095
 20
5260.370855528959
 30
0.0
 10
6283.514958261885
 20
5260.361968528701
 30
0.0
  0
SPLINE
  5
BF
330
1F
100
AcDbEntity
  8
0
  6
Continuous
 62
     7
370
    25
100
AcDbSpline
210
0.0
220
0.0
230
1.0
 70
     8
 71
     3
 72
    10
 73
     6
 74
     0
 42
0.000000001
 43
0.00000001
 40
0.0
 40
0.0
 40
0.0
 40
0.0
 40
0.2674301706062956
 40
0.5687161969040718
 40
1.0
 40
1.0
 40
1.0
 40
1.0
 10
6283.514958261885
 20
5260.361968528701
 30
0.0
 10
6283.426899784806
 20
5260.380614461362
 30
0.0
 10
6283.239634892157
 20
5260.420266845706
 30
0.0
 10
6282.960660453246
 20
5260.61112878712
 30
0.0
 10
6282.748409503009
 20
5260.730683425588
 30
0.0
 10
6282.62345158998
 20
5260.801068496181
 30
0.0
  0
SPLINE
  5
C0
330
1F
100
AcDbEntity
  8
0
  6
Continuous
 62
     7
370
    25
100
AcDbSpline
210
0.0
220
0.0
230
1.0
 70
     8
 71
     3
 72
     9
 73
     5
 74
     0
 42
0.000000001
 43
0.00000001
 40
0.0
 40
0.0
 40
0.0
 40
0.0
 40
0.4408128485753828
 40
1.0
 40
1.0
 40
1.0
 40
1.0
 10
6282.747667669692
 20
5260.459582310392
 30
0.0
 10
6282.738845973408
 20
5260.358155529121
 30
0.0
 10
6282.718833634133
 20
5260.128065182166
 30
0.0
 10
6282.617844935283
 20
5259.919688882684
 30
0.0
 10
6282.561373352446
 20
5259.803167533351
 30
0.0
  0
SPLINE
  5
C1
330
1F
100
AcDbEntity
  8
0
  6
Continuous
 62
     7
370
    25
100
AcDbSpline
210
0.0
220
0.0
230
1.0
 70
     8
 71
     3
 72
    15
 73
    11
 74
     0
 42
0.000000001
 43
0.00000001
 40
0.0
 40
0.0
 40
0.0
 40
0.0
 40
0.0707026689499044
 40
0.1876212566497973
 40
0.4147555933353692
 40
0.5473991458685792
 40
0.6781796576219852
 40
0.7702541790753734
 40
0.8744882414739334
 40
1.0
 40
1.0
 40
1.0
 40
1.0
 10
6282.561373352446
 20
5259.803167533351
 30
0.0
 10
6282.51155399555
 20
5259.708313824086
 30
0.0
 10
6282.379350070504
 20
5259.456603777003
 30
0.0
 10
6282.093122169891
 20
5258.897581051716
 30
0.0
 10
6281.845926229927
 20
5258.210139198601
 30
0.0
 10
6281.777157906559
 20
5257.463232262505
 30
0.0
 10
6281.901757287869
 20
5256.924184093925
 30
0.0
 10
6282.183402623685
 20
5256.508119104433
 30
0.0
 10
6282.566427740882
 20
5256.193584006533
 30
0.0
 10
6282.890129307989
 20
5256.061228029434
 30
0.0
 10
6283.066969751753
 20
5255.988921027852
 30
0.0
  0
SPLINE
  5
C2
330
1F
100
AcDbEntity
  8
0
  6
Continuous
 62
     7
370
    25
100
AcDbSpline
210
0.0
220
0.0
230
1.0
 70
     8
 71
     3
 72
    11
 73
     7
 74
     0
 42
0.000000001
 43
0.00000001
 40
0.0
 40
0.0
 40
0.0
 40
0.0
 40
0.2798417318080123
 40
0.556785205927292
 40
0.7767008081280179
 40
1.0
 40
1.0
 40
1.0
 40
1.0
 10
6283.213299154677
 20
5261.492977839185
 30
0.0
 10
6283.210148247274
 20
5261.514707462056
 30
0.0
 10
6283.203879065704
 20
5261.557941658997
 30
0.0
 10
6283.162741985468
 20
5261.604921499276
 30
0.0
 10
6283.114139266008
 20
5261.633872162921
 30
0.0
 10
6283.079819892782
 20
5261.637503692462
 30
0.0
 10
6283.062529205718
 20
5261.639333319141
 30
0.0
  0
SPLINE
  5
C3
330
1F
100
AcDbEntity
  8
0
  6
Continuous
 62
     7
370
    25
100
AcDbSpline
210
0.0
220
0.0
230
1.0
 70
     8
 71
     3
 72
    11
 73
     7
 74
     0
 42
0.000000001
 43
0.00000001
 40
0.0
 40
0.0
 40
0.0
 40
0.0
 40
0.2824259239681903
 40
0.5606814021631752
 40
0.7786365760353258
 40
1.0
 40
1.0
 40
1.0
 40
1.0
 10
6283.062529205718
 20
5261.639333319141
 30
0.0
 10
6283.04061924131
 20
5261.636380561804
 30
0.0
 10
6282.997122846247
 20
5261.630518649054
 30
0.0
 10
6282.948385419925
 20
5261.59164880651
 30
0.0
 10
6282.917542589414
 20
5261.544182029929
 30
0.0
 10
6282.913677162138
 20
5261.510133951521
 30
0.0
 10
6282.911729454436
 20
5261.492977839185
 30
0.0
  0
SPLINE
  5
C4
330
1F
100
AcDbEntity
  8
0
  6
Continuous
 62
     7
370
    25
100
AcDbSpline
210
0.0
220
0.0
230
1.0
 70
     8
 71
     3
 72
    11
 73
     7
 74
     0
 42
0.000000001
 43
0.00000001
 40
0.0
 40
0.0
 40
0.0
 40
0.0
 40
0.2798932187917081
 40
0.5593378148527406
 40
0.7792099515581811
 40
1.0
 40
1.0
 40
1.0
 40
1.0
 10
6282.911729454436
 20
5261.492977839185
 30
0.0
 10
6282.914935902192
 20
5261.470998055033
 30
0.0
 10
6282.921343658298
 20
5261.427073716703
 30
0.0
 10
6282.962142428597
 20
5261.378742318228
 30
0.0
 10
6283.010654345815
 20
5261.348086572089
 30
0.0
 10
6283.04521358979
 20
5261.344147833939
 30
0.0
 10
6283.062529205718
 20
5261.342174362613
 30
0.0
  0
SPLINE
  5
C5
330
1F
100
AcDbEntity
  8
0
  6
Continuous
 62
     7
370
    25
100
AcDbSpline
210
0.0
220
0.0
230
1.0
 70
     8
 71
     3
 72
    11
 73
     7
 74
     0
 42
0.000000001
 43
0.00000001
 40
0.0
 40
0.0
 40
0.0
 40
0.0
 40
0.2848156976388486
 40
0.5574635653963749
 40
0.7737810632453344
 40
1.0
 40
1.0
 40
1.0
 40
1.0
 10
6284.215670465865
 20
5261.492977839185
 30
0.0
 10
6284.212845097917
 20
5261.515586566084
 30
0.0
 10
6284.207315066733
 20
5261.559838135118
 30
0.0
 10
6284.167217195231
 20
5261.609118948661
 30
0.0
 10
6284.117786175724
 20
5261.638555097699
 30
0.0
 10
6284.082770353031
 20
5261.641993729209
 30
0.0
 10
6284.064870714583
 20
5261.643751513435
 30
0.0
  0
SPLINE
  5
C6
330
1F
100
AcDbEntity
  8
0
  6
Continuous
 62
     7
370
    25
100
AcDbSpline
210
0.0
220
0.0
230
1.0
 70
     8
 71
     3
 72
    11
 73
     7
 74
     0
 42
0.000000001
 43
0.00000001
 40
0.0
 40
0.0
 40
0.0
 40
0.0
 40
0.2779077709366444
 40
0.5508768879486893
 40
0.7700931479914019
 40
0.9999999999999999
 40
0.9999999999999999
 40
0.9999999999999999
 40
0.9999999999999999
 10
6284.064870714583
 20
5261.643751513435
 30
0.0
 10
6284.043191011098
 20
5261.640837786164
 30
0.0
 10
6284.000216870623
 20
5261.635062110997
 30
0.0
 10
6283.95264007674
 20
5261.594973473221
 30
0.0
 10
6283.923702978053
 20
5261.545814319828
 30
0.0
 10
6283.920269243595
 20
5261.510867283803
 30
0.0
 10
6283.918511509337
 20
5261.492977839185
 30
0.0
  0
SPLINE
  5
C7
330
1F
100
AcDbEntity
  8
0
  6
Continuous
 62
     7
370
    25
100
AcDbSpline
210
0.0
220
0.0
230
1.0
 70
     8
 71
     3
 72
    11
 73
     7
 74
     0
 42
0.000000001
 43
0.00000001
 40
0.0
 40
0.0
 40
0.0
 40
0.0
 40
0.2895528920603385
 40
0.5649624664890752
 40
0.7798816080725399
 40
0.9999999999999999
 40
0.9999999999999999
 40
0.9999999999999999
 40
0.9999999999999999
 10
6283.918511509337
 20
5261.492977839185
 30
0.0
 10
6283.921333907521
 20
5261.470378654268
 30
0.0
 10
6283.926840842812
 20
5261.426284149944
 30
0.0
 10
6283.966062063633
 20
5261.377167128739
 30
0.0
 10
6284.013889478209
 20
5261.347536344092
 30
0.0
 10
6284.047742108501
 20
5261.343975873819
 30
0.0
 10
6284.064870714583
 20
5261.342174362613
 30
0.0
  0
SPLINE
  5
C8
330
1F
100
AcDbEntity
  8
0
  6
Continuous
 62
     7
370
    25
100
AcDbSpline
210
0.0
220
0.0
230
1.0
 70
     8
 71
     3
 72
     9
 73
     5
 74
     0
 42
0.000000001
 43
0.00000001
 40
0.0
 40
0.0
 40
0.0
 40
0.0
 40
0.5803393568666553
 40
1.0
 40
1.0
 40
1.0
 40
1.0
 10
6285.337906717696
 20
5261.155932199432
 30
0.0
 10
6285.072054258059
 20
5261.11898673557
 30
0.0
 10
6284.613955980746
 20
5261.055324908355
 30
0.0
 10
6284.230416639039
 20
5260.801229723045
 30
0.0
 10
6284.069460272231
 20
5260.694595974161
 30
0.0
  0
SPLINE
  5
C9
330
1F
100
AcDbEntity
  8
0
  6
Continuous
 62
     7
370
    25
100
AcDbSpline
210
0.0
220
0.0
230
1.0
 70
     8
 71
     3
 72
    13
 73
     9
 74
     0
 42
0.000000001
 43
0.00000001
 40
0.0
 40
0.0
 40
0.0
 40
0.0
 40
0.061451859910781
 40
0.1279925684991841
 40
0.2046090914028039
 40
0.4874957368613561
 40
0.7874779984790421
 40
1.0
 40
1.0
 40
1.0
 40
1.0
 10
6285.431456207671
 20
5261.145490210725
 30
0.0
 10
6285.436455230263
 20
5261.179188655986
 30
0.0
 10
6285.446867246149
 20
5261.249376125814
 30
0.0
 10
6285.403737514803
 20
5261.356628731432
 30
0.0
 10
6285.270341097739
 20
5261.547095822114
 30
0.0
 10
6284.977236306298
 20
5261.768742890121
 30
0.0
 10
6284.604243719569
 20
5261.987944152478
 30
0.0
 10
6284.351542725719
 20
5262.108311934718
 30
0.0
 10
6284.246754288115
 20
5262.158225279523
 30
0.0
  0
SPLINE
  5
CA
330
1F
100
AcDbEntity
  8
0
  6
Continuous
 62
     7
370
    25
100
AcDbSpline
210
0.0
220
0.0
230
1.0
 70
     8
 71
     3
 72
     9
 73
     5
 74
     0
 42
0.000000001
 43
0.00000001
 40
0.0
 40
0.0
 40
0.0
 40
0.0
 40
0.5230858652270053
 40
1.0
 40
1.0
 40
1.0
 40
1.0
 10
6284.184616445937
 20
5262.765898358299
 30
0.0
 10
6284.208858651191
 20
5262.755638071144
 30
0.0
 10
6284.255203251313
 20
5262.736023151611
 30
0.0
 10
6284.300534872744
 20
5262.714170959529
 30
0.0
 10
6284.322154163756
 20
5262.703749340249
 30
0.0
  0
LINE
  5
CB
330
1F
100
AcDbEntity
  8
0
  6
Continuous
 62
     7
370
    25
100
AcDbLine
 10
6281.8163152928
 20
5262.0207546169
 30
0.0
 11
6281.8695124382
 21
5262.0962029213
 31
0.0
  0
SPLINE
  5
CC
330
1F
100
AcDbEntity
  8
0
  6
Continuous
 62
     7
370
    25
100
AcDbSpline
210
0.0
220
0.0
230
1.0
 70
     8
 71
     3
 72
    11
 73
     7
 74
     0
 42
0.000000001
 43
0.00000001
 40
0.0
 40
0.0
 40
0.0
 40
0.0
 40
0.2848813142257748
 40
0.5575108109842986
 40
0.7737888958232075
 40
0.9999999999999999
 40
0.9999999999999999
 40
0.9999999999999999
 40
0.9999999999999999
 10
6284.064870714583
 20
5261.342174362613
 30
0.0
 10
6284.087488223126
 20
5261.344995572863
 30
0.0
 10
6284.131750534834
 20
5261.350516662299
 30
0.0
 10
6284.181024890294
 20
5261.390636190626
 30
0.0
 10
6284.210456352714
 20
5261.440064904395
 30
0.0
 10
6284.213906610958
 20
5261.475078200848
 30
0.0
 10
6284.215670465865
 20
5261.492977839185
 30
0.0
  0
SPLINE
  5
CD
330
1F
100
AcDbEntity
  8
0
  6
Continuous
 62
     7
370
    25
100
AcDbSpline
210
0.0
220
0.0
230
1.0
 70
     8
 71
     3
 72
    11
 73
     7
 74
     0
 42
0.000000001
 43
0.00000001
 40
0.0
 40
0.0
 40
0.0
 40
0.0
 40
0.2797439471817381
 40
0.5591695374235259
 40
0.7790803848683318
 40
1.0
 40
1.0
 40
1.0
 40
1.0
 10
6283.062529205718
 20
5261.342174362613
 30
0.0
 10
6283.084498896969
 20
5261.345372266087
 30
0.0
 10
6283.128413277312
 20
5261.351764433723
 30
0.0
 10
6283.176733976014
 20
5261.392559334205
 30
0.0
 10
6283.20741295083
 20
5261.44107334377
 30
0.0
 10
6283.211334095764
 20
5261.475649966417
 30
0.0
 10
6283.213299154677
 20
5261.492977839185
 30
0.0
  0
SPLINE
  5
CE
330
1F
100
AcDbEntity
  8
0
  6
Continuous
 62
     7
370
    25
100
AcDbSpline
210
0.0
220
0.0
230
1.0
 70
     8
 71
     3
 72
    11
 73
     7
 74
     0
 42
0.000000001
 43
0.00000001
 40
0.0
 40
0.0
 40
0.0
 40
0.0
 40
0.2680344791267615
 40
0.5585763153920605
 40
0.785432840792819
 40
1.0
 40
1.0
 40
1.0
 40
1.0
 10
6283.066969751753
 20
5255.988921027852
 30
0.0
 10
6283.069473506467
 20
5256.390978936618
 30
0.0
 10
6283.074691260868
 20
5257.228856309647
 30
0.0
 10
6283.074013734737
 20
5258.40611841407
 30
0.0
 10
6282.997502800949
 20
5259.505876157931
 30
0.0
 10
6282.82938590538
 20
5260.147635852935
 30
0.0
 10
6282.747667669692
 20
5260.459582310392
 30
0.0
  0
SPLINE
  5
CF
330
1F
100
AcDbEntity
  8
0
  6
Continuous
 62
     7
370
    25
100
AcDbSpline
210
0.0
220
0.0
230
1.0
 70
     8
 71
     3
 72
    13
 73
     9
 74
     0
 42
0.000000001
 43
0.00000001
 40
0.0
 40
0.0
 40
0.0
 40
0.0
 40
0.0408743385599075
 40
0.0926349832777014
 40
0.1575219633146155
 40
0.3707539937271184
 40
0.6424881421455849
 40
1.0
 40
1.0
 40
1.0
 40
1.0
 10
6282.62345158998
 20
5260.801068496181
 30
0.0
 10
6282.666777526055
 20
5260.749535151282
 30
0.0
 10
6282.764968652938
 20
5260.632743278652
 30
0.0
 10
6282.86703901586
 20
5260.392272921908
 30
0.0
 10
6283.021706986008
 20
5259.874248574253
 30
0.0
 10
6283.129687367456
 20
5258.973252005198
 30
0.0
 10
6283.183738728261
 20
5257.593791000759
 30
0.0
 10
6283.157396059543
 20
5256.561833499975
 30
0.0
 10
6283.142429232039
 20
5255.975517433359
 30
0.0
  0
SPLINE
  5
D0
330
1F
100
AcDbEntity
  8
0
  6
Continuous
 62
     7
370
    25
100
AcDbSpline
210
0.0
220
0.0
230
1.0
 70
     8
 71
     3
 72
     9
 73
     5
 74
     0
 42
0.000000001
 43
0.00000001
 40
0.0
 40
0.0
 40
0.0
 40
0.0
 40
0.5576893654949973
 40
0.9999999999999999
 40
0.9999999999999999
 40
0.9999999999999999
 40
0.9999999999999999
 10
6284.310263037123
 20
5260.599440884067
 30
0.0
 10
6284.23861316743
 20
5260.49533646538
 30
0.0
 10
6284.110136861216
 20
5260.30866548844
 30
0.0
 10
6284.05108477197
 20
5260.090396612755
 30
0.0
 10
6284.024965404906
 20
5259.993853967859
 30
0.0
  0
SPLINE
  5
D1
330
1F
100
AcDbEntity
  8
0
  6
Continuous
 62
     7
370
    25
100
AcDbSpline
210
0.0
220
0.0
230
1.0
 70
     8
 71
     3
 72
    10
 73
     6
 74
     0
 42
0.000000001
 43
0.00000001
 40
0.0
 40
0.0
 40
0.0
 40
0.0
 40
0.3230723855992871
 40
0.6047003046810586
 40
0.9999999999999999
 40
0.9999999999999999
 40
0.9999999999999999
 40
0.9999999999999999
 10
6285.47213637773
 20
5261.086857866718
 30
0.0
 10
6285.338239693337
 20
5261.08075721632
 30
0.0
 10
6285.087622898286
 20
5261.069338520949
 30
0.0
 10
6284.683790340508
 20
5260.942195431231
 30
0.0
 10
6284.471584817006
 20
5260.753615733451
 30
0.0
 10
6284.34766495172
 20
5260.643492441846
 30
0.0
  0
SPLINE
  5
D2
330
1F
100
AcDbEntity
  8
0
  6
Continuous
 62
     7
370
    25
100
AcDbSpline
210
0.0
220
0.0
230
1.0
 70
     8
 71
     3
 72
     9
 73
     5
 74
     0
 42
0.000000001
 43
0.00000001
 40
0.0
 40
0.0
 40
0.0
 40
0.0
 40
0.5603799593489718
 40
1.0
 40
1.0
 40
1.0
 40
1.0
 10
6285.494339107909
 20
5259.101296764089
 30
0.0
 10
6285.524523630438
 20
5258.99621032553
 30
0.0
 10
6285.578388016603
 20
5258.808683207892
 30
0.0
 10
6285.602977004278
 20
5258.61522195312
 30
0.0
 10
6285.613786816039
 20
5258.530172508432
 30
0.0
  0
SPLINE
  5
D3
330
1F
100
AcDbEntity
  8
0
  6
Continuous
 62
     7
370
    25
100
AcDbSpline
210
0.0
220
0.0
230
1.0
 70
     8
 71
     3
 72
     9
 73
     5
 74
     0
 42
0.000000001
 43
0.00000001
 40
0.0
 40
0.0
 40
0.0
 40
0.0
 40
0.5605522827873652
 40
1.0
 40
1.0
 40
1.0
 40
1.0
 10
6284.928452610411
 20
5260.150200676395
 30
0.0
 10
6284.987609404657
 20
5260.07288392415
 30
0.0
 10
6285.093142458507
 20
5259.93495432397
 30
0.0
 10
6285.182085294614
 20
5259.785840903885
 30
0.0
 10
6285.221171020903
 20
5259.720313351823
 30
0.0
  0
SPLINE
  5
D4
330
1F
100
AcDbEntity
  8
0
  6
Continuous
 62
     7
370
    25
100
AcDbSpline
210
0.0
220
0.0
230
1.0
 70
     8
 71
     3
 72
    10
 73
     6
 74
     0
 42
0.000000001
 43
0.00000001
 40
0.0
 40
0.0
 40
0.0
 40
0.0
 40
0.2000511966292436
 40
0.4722258866375178
 40
1.0
 40
1.0
 40
1.0
 40
1.0
 10
6281.834017872252
 20
5263.453359704687
 30
0.0
 10
6281.921607992514
 20
5263.429937782236
 30
0.0
 10
6282.128366676783
 20
5263.374649744562
 30
0.0
 10
6282.539792272139
 20
5263.180593706468
 30
0.0
 10
6282.844127719778
 20
5262.984184293256
 30
0.0
 10
6283.044916033186
 20
5262.854601245595
 30
0.0
  0
SPLINE
  5
D5
330
1F
100
AcDbEntity
  8
0
  6
Continuous
 62
     7
370
    25
100
AcDbSpline
210
0.0
220
0.0
230
1.0
 70
     8
 71
     3
 72
    11
 73
     7
 74
     0
 42
0.000000001
 43
0.00000001
 40
0.0
 40
0.0
 40
0.0
 40
0.0
 40
0.293238428125696
 40
0.580987815479114
 40
0.7978133161100186
 40
1.0
 40
1.0
 40
1.0
 40
1.0
 10
6283.474963545241
 20
5262.832413416578
 30
0.0
 10
6283.705900815649
 20
5262.811403020858
 30
0.0
 10
6284.163452512079
 20
5262.769775516613
 30
0.0
 10
6284.706955737698
 20
5262.432256964453
 30
0.0
 10
6285.100631554191
 20
5262.033276081883
 30
0.0
 10
6285.227630618548
 20
5261.728665165784
 30
0.0
 10
6285.28891169969
 20
5261.581680726482
 30
0.0
  0
SPLINE
  5
D6
330
1F
100
AcDbEntity
  8
0
  6
Continuous
 62
     7
370
    25
100
AcDbSpline
210
0.0
220
0.0
230
1.0
 70
     8
 71
     3
 72
     9
 73
     5
 74
     0
 42
0.000000001
 43
0.00000001
 40
0.0
 40
0.0
 40
0.0
 40
0.0
 40
0.585706025482117
 40
1.0
 40
1.0
 40
1.0
 40
1.0
 10
6283.87860619966
 20
5262.863486062957
 30
0.0
 10
6284.065104615158
 20
5263.005026937033
 30
0.0
 10
6284.383521034631
 20
5263.246685495964
 30
0.0
 10
6284.766611355096
 20
5263.355211899878
 30
0.0
 10
6284.92532336656
 20
5263.400173735095
 30
0.0
  0
SPLINE
  5
D7
330
1F
100
AcDbEntity
  8
0
  6
Continuous
 62
     7
370
    25
100
AcDbSpline
210
0.0
220
0.0
230
1.0
 70
     8
 71
     3
 72
    19
 73
    15
 74
     0
 42
0.000000001
 43
0.00000001
 40
0.0
 40
0.0
 40
0.0
 40
0.0
 40
0.2105262213400602
 40
0.3855560931062201
 40
0.5392679605996663
 40
0.6783842932579731
 40
0.8559888125166312
 40
0.9734599110725611
 40
0.9979947938202657
 40
0.9993589711239962
 40
0.9997514929855138
 40
0.9998491887758417
 40
0.9999286019926704
 40
1.0
 40
1.0
 40
1.0
 40
1.0
 10
6284.246754288115
 20
5262.158225279523
 30
0.0
 10
6284.1566990691
 20
5262.090759961611
 30
0.0
 10
6283.991772637674
 20
5261.967204500308
 30
0.0
 10
6283.712896185675
 20
5261.881302567657
 30
0.0
 10
6283.461705213233
 20
5261.876301884006
 30
0.0
 10
6283.217093133397
 20
5261.934111487926
 30
0.0
 10
6283.006398010346
 20
5262.037144715445
 30
0.0
 10
6282.875235628714
 20
5262.141443805734
 30
0.0
 10
6282.816630984988
 20
5262.193680205096
 30
0.0
 10
6282.809955682991
 20
5262.205604382766
 30
0.0
 10
6282.809549493939
 20
5262.206572411894
 30
0.0
 10
6282.809627675514
 20
5262.20686708262
 30
0.0
 10
6282.809645703905
 20
5262.207000388066
 30
0.0
 10
6282.809693484371
 20
5262.207066203967
 30
0.0
 10
6282.809716104903
 20
5262.207097362949
 30
0.0
  0
SPLINE
  5
D8
330
1F
100
AcDbEntity
  8
0
  6
Continuous
 62
     7
370
    25
100
AcDbSpline
210
0.0
220
0.0
230
1.0
 70
     8
 71
     3
 72
    13
 73
     9
 74
     0
 42
0.000000001
 43
0.00000001
 40
0.0
 40
0.0
 40
0.0
 40
0.0
 40
0.2413650537364597
 40
0.5925070492573955
 40
0.8684446655486167
 40
0.9534122615366393
 40
0.9788487053457398
 40
1.0
 40
1.0
 40
1.0
 40
1.0
 10
6282.809716104903
 20
5262.207097362949
 30
0.0
 10
6282.696978857974
 20
5262.142967113826
 30
0.0
 10
6282.420229542014
 20
5261.985539084835
 30
0.0
 10
6282.034206221309
 20
5261.723914590561
 30
0.0
 10
6281.729191248274
 20
5261.489790833067
 30
0.0
 10
6281.592583316457
 20
5261.332096063895
 30
0.0
 10
6281.558208277089
 20
5261.269540788369
 30
0.0
 10
6281.552953640895
 20
5261.244956157744
 30
0.0
 10
6281.550567984023
 20
5261.23379449196
 30
0.0
  0
SPLINE
  5
D9
330
1F
100
AcDbEntity
  8
0
  6
Continuous
 62
     7
370
    25
100
AcDbSpline
210
0.0
220
0.0
230
1.0
 70
     8
 71
     3
 72
    10
 73
     6
 74
     0
 42
0.000000001
 43
0.00000001
 40
0.0
 40
0.0
 40
0.0
 40
0.0
 40
0.2880446204420959
 40
0.5382484618300131
 40
1.0
 40
1.0
 40
1.0
 40
1.0
 10
6281.550567984023
 20
5261.23379449196
 30
0.0
 10
6281.728534788647
 20
5261.322790269074
 30
0.0
 10
6282.061088678039
 20
5261.48909033768
 30
0.0
 10
6282.714753602508
 20
5261.730004449378
 30
0.0
 10
6283.210867438064
 20
5261.747674620668
 30
0.0
 10
6283.532631039061
 20
5261.759134929849
 30
0.0
  0
SPLINE
  5
DA
330
1F
100
AcDbEntity
  8
0
  6
Continuous
 62
     7
370
    25
100
AcDbSpline
210
0.0
220
0.0
230
1.0
 70
     8
 71
     3
 72
    11
 73
     7
 74
     0
 42
0.000000001
 43
0.00000001
 40
0.0
 40
0.0
 40
0.0
 40
0.0
 40
0.3432443901217251
 40
0.6418031499140107
 40
0.8399933724050229
 40
1.0
 40
1.0
 40
1.0
 40
1.0
 10
6283.532631039061
 20
5261.759134929849
 30
0.0
 10
6283.765765544232
 20
5261.746483648096
 30
0.0
 10
6284.201683694909
 20
5261.72282810495
 30
0.0
 10
6284.749428469266
 20
5261.553590526462
 30
0.0
 10
6285.155104461719
 20
5261.363741593092
 30
0.0
 10
6285.346126577893
 20
5261.212880085869
 30
0.0
 10
6285.431456207671
 20
5261.145490210725
 30
0.0
  0
SPLINE
  5
DB
330
1F
100
AcDbEntity
  8
0
  6
Continuous
 62
     7
370
    25
100
AcDbSpline
210
0.0
220
0.0
230
1.0
 70
     8
 71
     3
 72
     9
 73
     5
 74
     0
 42
0.000000001
 43
0.00000001
 40
0.0
 40
0.0
 40
0.0
 40
0.0
 40
0.5674941056784544
 40
1.0
 40
1.0
 40
1.0
 40
1.0
 10
6284.322154163756
 20
5262.703749340249
 30
0.0
 10
6284.514405987418
 20
5262.875917066218
 30
0.0
 10
6284.853179239403
 20
5263.179299470097
 30
0.0
 10
6285.284427060357
 20
5263.317964175069
 30
0.0
 10
6285.470944284834
 20
5263.377937477304
 30
0.0
  0
SPLINE
  5
DC
330
1F
100
AcDbEntity
  8
0
  6
Continuous
 62
     7
370
    25
100
AcDbSpline
210
0.0
220
0.0
230
1.0
 70
     8
 71
     3
 72
     9
 73
     5
 74
     0
 42
0.000000001
 43
0.00000001
 40
0.0
 40
0.0
 40
0.0
 40
0.0
 40
0.5404736293588167
 40
1.0
 40
1.0
 40
1.0
 40
1.0
 10
6285.470944284834
 20
5263.377937477304
 30
0.0
 10
6285.436678543915
 20
5263.147035482123
 30
0.0
 10
6285.373279075268
 20
5262.719813907123
 30
0.0
 10
6285.151467646912
 20
5262.350259281458
 30
0.0
 10
6285.049539446272
 20
5262.180439185573
 30
0.0
  0
SPLINE
  5
DD
330
1F
100
AcDbEntity
  8
0
  6
Continuous
 62
     7
370
    25
100
AcDbSpline
210
0.0
220
0.0
230
1.0
 70
     8
 71
     3
 72
     9
 73
     5
 74
     0
 42
0.000000001
 43
0.00000001
 40
0.0
 40
0.0
 40
0.0
 40
0.0
 40
0.5735049317811419
 40
1.0
 40
1.0
 40
1.0
 40
1.0
 10
6285.049539446272
 20
5262.180439185573
 30
0.0
 10
6285.068383593536
 20
5262.156238406177
 30
0.0
 10
6285.101241457906
 20
5262.114040374297
 30
0.0
 10
6285.12713015249
 20
5262.067278340151
 30
0.0
 10
6285.138171553053
 20
5262.047334563209
 30
0.0
  0
SPLINE
  5
DE
330
1F
100
AcDbEntity
  8
0
  6
Continuous
 62
     7
370
    25
100
AcDbSpline
210
0.0
220
0.0
230
1.0
 70
     8
 71
     3
 72
     9
 73
     5
 74
     0
 42
0.000000001
 43
0.00000001
 40
0.0
 40
0.0
 40
0.0
 40
0.0
 40
0.589229051736489
 40
1.0
 40
1.0
 40
1.0
 40
1.0
 10
6285.138171553053
 20
5262.047334563209
 30
0.0
 10
6285.293338384854
 20
5262.323187345811
 30
0.0
 10
6285.556677117631
 20
5262.791346174351
 30
0.0
 10
6285.605882878239
 20
5263.3234438829
 30
0.0
 10
6285.626095175185
 20
5263.542014163209
 30
0.0
  0
SPLINE
  5
DF
330
1F
100
AcDbEntity
  8
0
  6
Continuous
 62
     7
370
    25
100
AcDbSpline
210
0.0
220
0.0
230
1.0
 70
     8
 71
     3
 72
     9
 73
     5
 74
     0
 42
0.000000001
 43
0.00000001
 40
0.0
 40
0.0
 40
0.0
 40
0.0
 40
0.5674063137691445
 40
1.0
 40
1.0
 40
1.0
 40
1.0
 10
6285.626095175185
 20
5263.542014163209
 30
0.0
 10
6285.318527686321
 20
5263.45688405067
 30
0.0
 10
6284.776469056726
 20
5263.306850273333
 30
0.0
 10
6284.363335440071
 20
5262.929247104874
 30
0.0
 10
6284.184616445937
 20
5262.765898358299
 30
0.0
  0
SPLINE
  5
E0
330
1F
100
AcDbEntity
  8
0
  6
Continuous
 62
     7
370
    25
100
AcDbSpline
210
0.0
220
0.0
230
1.0
 70
     8
 71
     3
 72
     9
 73
     5
 74
     0
 42
0.000000001
 43
0.00000001
 40
0.0
 40
0.0
 40
0.0
 40
0.0
 40
0.5626885848285633
 40
1.0
 40
1.0
 40
1.0
 40
1.0
 10
6281.869512438216
 20
5262.096202921344
 30
0.0
 10
6281.758247418414
 20
5262.330119610133
 30
0.0
 10
6281.56050923285
 20
5262.745832128737
 30
0.0
 10
6281.537875718043
 20
5263.204141800995
 30
0.0
 10
6281.527977823653
 20
5263.404565852357
 30
0.0
  0
SPLINE
  5
E1
330
1F
100
AcDbEntity
  8
0
  6
Continuous
 62
     7
370
    25
100
AcDbSpline
210
0.0
220
0.0
230
1.0
 70
     8
 71
     3
 72
     9
 73
     5
 74
     0
 42
0.000000001
 43
0.00000001
 40
0.0
 40
0.0
 40
0.0
 40
0.0
 40
0.5522731136092977
 40
1.0
 40
1.0
 40
1.0
 40
1.0
 10
6281.527977823653
 20
5263.404565852357
 30
0.0
 10
6281.740171410201
 20
5263.30209920725
 30
0.0
 10
6282.124389981265
 20
5263.116563024912
 30
0.0
 10
6282.429257091714
 20
5262.819160768726
 30
0.0
 10
6282.565754293837
 20
5262.686005782558
 30
0.0
  0
SPLINE
  5
E2
330
1F
100
AcDbEntity
  8
0
  6
Continuous
 62
     7
370
    25
100
AcDbSpline
210
0.0
220
0.0
230
1.0
 70
     8
 71
     3
 72
     9
 73
     5
 74
     0
 42
0.000000001
 43
0.00000001
 40
0.0
 40
0.0
 40
0.0
 40
0.0
 40
0.556906633690357
 40
1.0
 40
1.0
 40
1.0
 40
1.0
 10
6282.565754293837
 20
5262.686005782558
 30
0.0
 10
6282.592419310763
 20
5262.699498134915
 30
0.0
 10
6282.640299898482
 20
5262.723725449766
 30
0.0
 10
6282.690084205306
 20
5262.74373101389
 30
0.0
 10
6282.712143301405
 20
5262.752595346643
 30
0.0
  0
SPLINE
  5
E3
330
1F
100
AcDbEntity
  8
0
  6
Continuous
 62
     7
370
    25
100
AcDbSpline
210
0.0
220
0.0
230
1.0
 70
     8
 71
     3
 72
     9
 73
     5
 74
     0
 42
0.000000001
 43
0.00000001
 40
0.0
 40
0.0
 40
0.0
 40
0.0
 40
0.5864560310049317
 40
1.0
 40
1.0
 40
1.0
 40
1.0
 10
6282.712143301405
 20
5262.752595346643
 30
0.0
 10
6282.494355125881
 20
5262.969485740434
 30
0.0
 10
6282.122991947724
 20
5263.339318059183
 30
0.0
 10
6281.620461338636
 20
5263.473302637324
 30
0.0
 10
6281.412642836012
 20
5263.528711151554
 30
0.0
  0
SPLINE
  5
E4
330
1F
100
AcDbEntity
  8
0
  6
Continuous
 62
     7
370
    25
100
AcDbSpline
210
0.0
220
0.0
230
1.0
 70
     8
 71
     3
 72
     9
 73
     5
 74
     0
 42
0.000000001
 43
0.00000001
 40
0.0
 40
0.0
 40
0.0
 40
0.0
 40
0.5266509799805021
 40
0.9999999999999999
 40
0.9999999999999999
 40
0.9999999999999999
 40
0.9999999999999999
 10
6281.412642836012
 20
5263.528711151554
 30
0.0
 10
6281.430362455531
 20
5263.249346892573
 30
0.0
 10
6281.464008304855
 20
5262.718892626655
 30
0.0
 10
6281.703128148905
 20
5262.245048343842
 30
0.0
 10
6281.816315292754
 20
5262.020754616929
 30
0.0
  0
LINE
  5
E5
330
1F
100
AcDbEntity
  8
0
  6
Continuous
 62
     7
370
    25
100
AcDbLine
 10
6266.9521089787
 20
5261.6996234173
 30
0.0
 11
6267.2226544613
 21
5261.6996234173
 31
0.0
  0
LINE
  5
E6
330
1F
100
AcDbEntity
  8
0
  6
Continuous
 62
     7
370
    25
100
AcDbLine
 10
6266.5286179775
 20
5259.7849694902
 30
0.0
 11
6266.5286179775
 21
5259.5172030742
 31
0.0
  0
LINE
  5
E7
330
1F
100
AcDbEntity
  8
0
  6
Continuous
 62
     7
370
    25
100
AcDbLine
 10
6266.5286179775
 20
5259.5172030742
 30
0.0
 11
6267.6466819042
 21
5259.5172030742
 31
0.0
  0
LINE
  5
E8
330
1F
100
AcDbEntity
  8
0
  6
Continuous
 62
     7
370
    25
100
AcDbLine
 10
6267.6466819042
 20
5259.5172030742
 30
0.0
 11
6267.6466819042
 21
5259.7915222759
 31
0.0
  0
SPLINE
  5
E9
330
1F
100
AcDbEntity
  8
0
  6
Continuous
 62
     7
370
    25
100
AcDbSpline
210
0.0
220
0.0
230
1.0
 70
     8
 71
     3
 72
    12
 73
     8
 74
     0
 42
0.000000001
 43
0.00000001
 40
0.0
 40
0.0
 40
0.0
 40
0.0
 40
0.5919172697754838
 40
0.7068227164448978
 40
0.806417757863665
 40
0.8986344373209341
 40
1.0
 40
1.0
 40
1.0
 40
1.0
 10
6267.646681904234
 20
5259.791522275878
 30
0.0
 10
6267.653172301562
 20
5260.071845719645
 30
0.0
 10
6267.660922641862
 20
5260.406586718301
 30
0.0
 10
6267.55188366416
 20
5260.770778093466
 30
0.0
 10
6267.4772007152
 20
5260.895651735205
 30
0.0
 10
6267.362751777237
 20
5260.982364577724
 30
0.0
 10
6267.270802109895
 20
5260.990701334039
 30
0.0
 10
6267.222654461302
 20
5260.995066713764
 30
0.0
  0
LINE
  5
EA
330
1F
100
AcDbEntity
  8
0
  6
Continuous
 62
     7
370
    25
100
AcDbLine
 10
6267.2226544613
 20
5260.9950667138
 30
0.0
 11
6266.9521089787
 21
5260.9950667138
 31
0.0
  0
SPLINE
  5
EB
330
1F
100
AcDbEntity
  8
0
  6
Continuous
 62
     7
370
    25
100
AcDbSpline
210
0.0
220
0.0
230
1.0
 70
     8
 71
     3
 72
    12
 73
     8
 74
     0
 42
0.000000001
 43
0.00000001
 40
0.0
 40
0.0
 40
0.0
 40
0.0
 40
0.1009447173251554
 40
0.1931012971038254
 40
0.2929450778447675
 40
0.4081814289225566
 40
1.0
 40
1.0
 40
1.0
 40
1.0
 10
6266.952108978667
 20
5260.995066713764
 30
0.0
 10
6266.903987023854
 20
5260.990528159186
 30
0.0
 10
6266.811932559393
 20
5260.981846171668
 30
0.0
 10
6266.697778500132
 20
5260.894016446185
 30
0.0
 10
6266.623264657648
 20
5260.768207217209
 30
0.0
 10
6266.514691058179
 20
5260.402199441584
 30
0.0
 10
6266.522272317581
 20
5260.066204075237
 30
0.0
 10
6266.528617977538
 20
5259.784969490243
 30
0.0
  0
SPLINE
  5
EC
330
1F
100
AcDbEntity
  8
0
  6
Continuous
 62
     7
370
    25
100
AcDbSpline
210
0.0
220
0.0
230
1.0
 70
     8
 71
     3
 72
    11
 73
     7
 74
     0
 42
0.000000001
 43
0.00000001
 40
0.0
 40
0.0
 40
0.0
 40
0.0
 40
0.2748918711650837
 40
0.5431490778991621
 40
0.764954314628762
 40
1.0
 40
1.0
 40
1.0
 40
1.0
 10
6267.222654461302
 20
5261.699623417331
 30
0.0
 10
6267.398933458627
 20
5261.673999289713
 30
0.0
 10
6267.747236864049
 20
5261.623369486694
 30
0.0
 10
6268.10835351454
 20
5261.262134570472
 30
0.0
 10
6268.31086289635
 20
5260.843116124766
 30
0.0
 10
6268.334255921503
 20
5260.552534191545
 30
0.0
 10
6268.346291422286
 20
5260.403032403661
 30
0.0
  0
LINE
  5
ED
330
1F
100
AcDbEntity
  8
0
  6
Continuous
 62
     7
370
    25
100
AcDbLine
 10
6268.3462914223
 20
5260.4030324037
 30
0.0
 11
6268.3462914223
 21
5256.4776455874
 31
0.0
  0
LINE
  5
EE
330
1F
100
AcDbEntity
  8
0
  6
Continuous
 62
     7
370
    25
100
AcDbLine
 10
6268.3462914223
 20
5256.4776455874
 30
0.0
 11
6267.6466819042
 21
5256.4776455874
 31
0.0
  0
LINE
  5
EF
330
1F
100
AcDbEntity
  8
0
  6
Continuous
 62
     7
370
    25
100
AcDbLine
 10
6267.6466819042
 20
5256.4776455874
 30
0.0
 11
6267.6466819042
 21
5258.7847364957
 31
0.0
  0
LINE
  5
F0
330
1F
100
AcDbEntity
  8
0
  6
Continuous
 62
     7
370
    25
100
AcDbLine
 10
6267.6466819042
 20
5258.7847364957
 30
0.0
 11
6266.5288563961
 21
5258.7847364957
 31
0.0
  0
LINE
  5
F1
330
1F
100
AcDbEntity
  8
0
  6
Continuous
 62
     7
370
    25
100
AcDbLine
 10
6266.5288563961
 20
5258.7847364957
 30
0.0
 11
6266.5286179775
 21
5256.4776455874
 31
0.0
  0
LINE
  5
F2
330
1F
100
AcDbEntity
  8
0
  6
Continuous
 62
     7
370
    25
100
AcDbLine
 10
6266.5286179775
 20
5256.4776455874
 30
0.0
 11
6265.8426281208
 21
5256.4776455874
 31
0.0
  0
LINE
  5
F3
330
1F
100
AcDbEntity
  8
0
  6
Continuous
 62
     7
370
    25
100
AcDbLine
 10
6265.8426281208
 20
5256.4776455874
 30
0.0
 11
6265.8426281208
 21
5258.7847364957
 31
0.0
  0
LINE
  5
F4
330
1F
100
AcDbEntity
  8
0
  6
Continuous
 62
     7
370
    25
100
AcDbLine
 10
6265.8426281208
 20
5258.7847364957
 30
0.0
 11
6265.5421015019
 21
5258.7847364957
 31
0.0
  0
LINE
  5
F5
330
1F
100
AcDbEntity
  8
0
  6
Continuous
 62
     7
370
    25
100
AcDbLine
 10
6265.5421015019
 20
5258.7847364957
 30
0.0
 11
6265.2998980278
 21
5259.5170279855
 31
0.0
  0
LINE
  5
F6
330
1F
100
AcDbEntity
  8
0
  6
Continuous
 62
     7
370
    25
100
AcDbLine
 10
6265.2998980278
 20
5259.5170279855
 30
0.0
 11
6265.8426281208
 21
5259.5170279855
 31
0.0
  0
LINE
  5
F7
330
1F
100
AcDbEntity
  8
0
  6
Continuous
 62
     7
370
    25
100
AcDbLine
 10
6265.8426281208
 20
5259.5170279855
 30
0.0
 11
6265.8426281208
 21
5260.412494641
 31
0.0
  0
SPLINE
  5
F8
330
1F
100
AcDbEntity
  8
0
  6
Continuous
 62
     7
370
    25
100
AcDbSpline
210
0.0
220
0.0
230
1.0
 70
     8
 71
     3
 72
    11
 73
     7
 74
     0
 42
0.000000001
 43
0.00000001
 40
0.0
 40
0.0
 40
0.0
 40
0.0
 40
0.2975722477203525
 40
0.5729136841615254
 40
0.782105921050048
 40
1.0
 40
1.0
 40
1.0
 40
1.0
 10
6265.842628120818
 20
5260.412494641019
 30
0.0
 10
6265.861177671467
 20
5260.600587998161
 30
0.0
 10
6265.896890986414
 20
5260.962722770581
 30
0.0
 10
6266.173323322105
 20
5261.389076960621
 30
0.0
 10
6266.543773479916
 20
5261.654070967482
 30
0.0
 10
6266.81416077416
 20
5261.684234408325
 30
0.0
 10
6266.952108978667
 20
5261.699623417331
 30
0.0
  0
LINE
  5
F9
330
1F
100
AcDbEntity
  8
0
  6
Continuous
 62
     7
370
    25
100
AcDbLine
 10
6263.1136294598
 20
5259.9282404298
 30
0.0
 11
6264.0579756493
 21
5258.8596595342
 31
0.0
  0
SPLINE
  5
FA
330
1F
100
AcDbEntity
  8
0
  6
Continuous
 62
     7
370
    25
100
AcDbSpline
210
0.0
220
0.0
230
1.0
 70
     8
 71
     3
 72
    10
 73
     6
 74
     0
 42
0.000000001
 43
0.00000001
 40
0.0
 40
0.0
 40
0.0
 40
0.0
 40
0.3303974466306308
 40
0.5904349812489769
 40
0.9999999999999999
 40
0.9999999999999999
 40
0.9999999999999999
 40
0.9999999999999999
 10
6262.561422228255
 20
5261.44523451872
 30
0.0
 10
6262.556103053616
 20
5261.260585842831
 30
0.0
 10
6262.546597451164
 20
5260.930610418994
 30
0.0
 10
6262.717393791264
 20
5260.387957267385
 30
0.0
 10
6262.96325034054
 20
5260.102711883624
 30
0.0
 10
6263.113629459776
 20
5259.928240429832
 30
0.0
  0
SPLINE
  5
FB
330
1F
100
AcDbEntity
  8
0
  6
Continuous
 62
     7
370
    25
100
AcDbSpline
210
0.0
220
0.0
230
1.0
 70
     8
 71
     3
 72
    11
 73
     7
 74
     0
 42
0.000000001
 43
0.00000001
 40
0.0
 40
0.0
 40
0.0
 40
0.0
 40
0.2749230394017863
 40
0.5425879564433422
 40
0.757733587154124
 40
1.0
 40
1.0
 40
1.0
 40
1.0
 10
6264.223467945494
 20
5262.876688491775
 30
0.0
 10
6263.999857753784
 20
5262.85716548144
 30
0.0
 10
6263.558540804778
 20
5262.818634879185
 30
0.0
 10
6263.011672729782
 20
5262.497078473217
 30
0.0
 10
6262.648113425936
 20
5262.012640709954
 30
0.0
 10
6262.591439395848
 20
5261.641701140378
 30
0.0
 10
6262.561422228255
 20
5261.44523451872
 30
0.0
  0
LINE
  5
FC
330
1F
100
AcDbEntity
  8
0
  6
Continuous
 62
     7
370
    25
100
AcDbLine
 10
6280.5816348786
 20
5262.8767629976
 30
0.0
 11
6264.2234679455
 21
5262.8766884918
 31
0.0
  0
LINE
  5
FD
330
1F
100
AcDbEntity
  8
0
  6
Continuous
 62
     7
370
    25
100
AcDbLine
 10
6280.5816348786
 20
5262.111815613
 30
0.0
 11
6280.5816348786
 21
5262.8767629976
 31
0.0
  0
LINE
  5
FE
330
1F
100
AcDbEntity
  8
0
  6
Continuous
 62
     7
370
    25
100
AcDbLine
 10
6264.2740126843
 20
5262.111815613
 30
0.0
 11
6280.5816348786
 21
5262.111815613
 31
0.0
  0
SPLINE
  5
FF
330
1F
100
AcDbEntity
  8
0
  6
Continuous
 62
     7
370
    25
100
AcDbSpline
210
0.0
220
0.0
230
1.0
 70
     8
 71
     3
 72
    12
 73
     8
 74
     0
 42
0.000000001
 43
0.00000001
 40
0.0
 40
0.0
 40
0.0
 40
0.0
 40
0.2019724833334746
 40
0.3744657684798365
 40
0.5436490691043825
 40
0.7598140769916462
 40
1.0
 40
1.0
 40
1.0
 40
1.0
 10
6263.365459083952
 20
5261.392976146413
 30
0.0
 10
6263.371905766027
 20
5261.481760781527
 30
0.0
 10
6263.383858194982
 20
5261.646371356533
 30
0.0
 10
6263.508899007213
 20
5261.857673728448
 30
0.0
 10
6263.70734682919
 20
5262.005366909696
 30
0.0
 10
6263.970524255353
 20
5262.092068422367
 30
0.0
 10
6264.169361152888
 20
5262.105006214201
 30
0.0
 10
6264.274012684264
 20
5262.111815612985
 30
0.0
  0
SPLINE
  5
100
330
1F
100
AcDbEntity
  8
0
  6
Continuous
 62
     7
370
    25
100
AcDbSpline
210
0.0
220
0.0
230
1.0
 70
     8
 71
     3
 72
    11
 73
     7
 74
     0
 42
0.000000001
 43
0.00000001
 40
0.0
 40
0.0
 40
0.0
 40
0.0
 40
0.3262881850430542
 40
0.5825870261364818
 40
0.7736252143453971
 40
1.0
 40
1.0
 40
1.0
 40
1.0
 10
6264.104109644331
 20
5259.994129639341
 30
0.0
 10
6263.984862568928
 20
5260.125424168317
 30
0.0
 10
6263.771947108856
 20
5260.359850337238
 30
0.0
 10
6263.507861426338
 20
5260.691550162098
 30
0.0
 10
6263.373905195279
 20
5261.040426651319
 30
0.0
 10
6263.368428986088
 20
5261.269009334052
 30
0.0
 10
6263.365459083952
 20
5261.392976146413
 30
0.0
  0
LINE
  5
101
330
1F
100
AcDbEntity
  8
0
  6
Continuous
 62
     7
370
    25
100
AcDbLine
 10
6264.7967454189
 20
5259.2032281572
 30
0.0
 11
6264.1041096443
 21
5259.9941296393
 31
0.0
  0
SPLINE
  5
102
330
1F
100
AcDbEntity
  8
0
  6
Continuous
 62
     7
370
    25
100
AcDbSpline
210
0.0
220
0.0
230
1.0
 70
     8
 71
     3
 72
    10
 73
     6
 74
     0
 42
0.000000001
 43
0.00000001
 40
0.0
 40
0.0
 40
0.0
 40
0.0
 40
0.3698940122576026
 40
0.6616430973113321
 40
1.0
 40
1.0
 40
1.0
 40
1.0
 10
6265.267562508025
 20
5257.680284779741
 30
0.0
 10
6265.281123119768
 20
5257.884466944338
 30
0.0
 10
6265.305379487427
 20
5258.249695132206
 30
0.0
 10
6265.130322377135
 20
5258.785263894965
 30
0.0
 10
6264.913288930829
 20
5259.057201815272
 30
0.0
 10
6264.796745418944
 20
5259.203228157236
 30
0.0
  0
SPLINE
  5
103
330
1F
100
AcDbEntity
  8
0
  6
Continuous
 62
     7
370
    25
100
AcDbSpline
210
0.0
220
0.0
230
1.0
 70
     8
 71
     3
 72
    12
 73
     8
 74
     0
 42
0.000000001
 43
0.00000001
 40
0.0
 40
0.0
 40
0.0
 40
0.0
 40
0.2121941654635335
 40
0.3922490466133983
 40
0.5571578069293032
 40
0.7600183133634054
 40
1.0
 40
1.0
 40
1.0
 40
1.0
 10
6263.855647682585
 20
5256.477645587398
 30
0.0
 10
6264.002293867446
 20
5256.483673850783
 30
0.0
 10
6264.273374959973
 20
5256.494817326665
 30
0.0
 10
6264.644263857183
 20
5256.617297397096
 30
0.0
 10
6264.951805932481
 20
5256.848185196293
 30
0.0
 10
6265.175401292966
 20
5257.216199022642
 30
0.0
 10
6265.235172012483
 20
5257.517179642322
 30
0.0
 10
6265.267562508025
 20
5257.680284779741
 30
0.0
  0
LINE
  5
104
330
1F
100
AcDbEntity
  8
0
  6
Continuous
 62
     7
370
    25
100
AcDbLine
 10
6262.29349935
 20
5256.4776455874
 30
0.0
 11
6263.8556476826
 21
5256.4776455874
 31
0.0
  0
LINE
  5
105
330
1F
100
AcDbEntity
  8
0
  6
Continuous
 62
     7
370
    25
100
AcDbLine
 10
6262.29349935
 20
5257.2554452235
 30
0.0
 11
6262.29349935
 21
5256.4776455874
 31
0.0
  0
LINE
  5
106
330
1F
100
AcDbEntity
  8
0
  6
Continuous
 62
     7
370
    25
100
AcDbLine
 10
6263.7902911896
 20
5257.2554452235
 30
0.0
 11
6262.29349935
 21
5257.2554452235
 31
0.0
  0
SPLINE
  5
107
330
1F
100
AcDbEntity
  8
0
  6
Continuous
 62
     7
370
    25
100
AcDbSpline
210
0.0
220
0.0
230
1.0
 70
     8
 71
     3
 72
    11
 73
     7
 74
     0
 42
0.000000001
 43
0.00000001
 40
0.0
 40
0.0
 40
0.0
 40
0.0
 40
0.2717731097196913
 40
0.5159106248950949
 40
0.7283941284903448
 40
1.0
 40
1.0
 40
1.0
 40
1.0
 10
6264.468472837843
 20
5257.832064282371
 30
0.0
 10
6264.45258612158
 20
5257.742405883129
 30
0.0
 10
6264.422428150016
 20
5257.57220611308
 30
0.0
 10
6264.269192913628
 20
5257.370164821441
 30
0.0
 10
6264.042365210852
 20
5257.26761987585
 30
0.0
 10
6263.880889594881
 20
5257.259820938562
 30
0.0
 10
6263.790291189589
 20
5257.255445223524
 30
0.0
  0
SPLINE
  5
108
330
1F
100
AcDbEntity
  8
0
  6
Continuous
 62
     7
370
    25
100
AcDbSpline
210
0.0
220
0.0
230
1.0
 70
     8
 71
     3
 72
    10
 73
     6
 74
     0
 42
0.000000001
 43
0.00000001
 40
0.0
 40
0.0
 40
0.0
 40
0.0
 40
0.5555087234768977
 40
0.7547914357315547
 40
1.0
 40
1.0
 40
1.0
 40
1.0
 10
6264.057975649275
 20
5258.85965953417
 30
0.0
 10
6264.206815504556
 20
5258.698689598341
 30
0.0
 10
6264.40905003898
 20
5258.479973448912
 30
0.0
 10
6264.493675577166
 20
5258.096844431783
 30
0.0
 10
6264.477433152402
 20
5257.926201407602
 30
0.0
 10
6264.468472837843
 20
5257.832064282371
 30
0.0
  0
LINE
  5
109
330
1F
100
AcDbEntity
  8
0
  6
Continuous
 62
     7
370
    25
100
AcDbLine
 10
6275.1632150406
 20
5261.6087859387
 30
0.0
 11
6275.908064484
 21
5261.6087859387
 31
0.0
  0
LINE
  5
10A
330
1F
100
AcDbEntity
  8
0
  6
Continuous
 62
     7
370
    25
100
AcDbLine
 10
6275.908064484
 20
5261.6087859387
 30
0.0
 11
6275.908064484
 21
5257.1379495675
 31
0.0
  0
LINE
  5
10B
330
1F
100
AcDbEntity
  8
0
  6
Continuous
 62
     7
370
    25
100
AcDbLine
 10
6275.908064484
 20
5257.1379495675
 30
0.0
 11
6277.4832364315
 21
5257.1379495675
 31
0.0
  0
LINE
  5
10C
330
1F
100
AcDbEntity
  8
0
  6
Continuous
 62
     7
370
    25
100
AcDbLine
 10
6277.4832364315
 20
5257.1379495675
 30
0.0
 11
6277.4832364315
 21
5256.4776455874
 31
0.0
  0
LINE
  5
10D
330
1F
100
AcDbEntity
  8
0
  6
Continuous
 62
     7
370
    25
100
AcDbLine
 10
6277.4832364315
 20
5256.4776455874
 30
0.0
 11
6275.1632150406
 21
5256.4776455874
 31
0.0
  0
LINE
  5
10E
330
1F
100
AcDbEntity
  8
0
  6
Continuous
 62
     7
370
    25
100
AcDbLine
 10
6275.1632150406
 20
5256.4776455874
 30
0.0
 11
6275.1632150406
 21
5261.6087859387
 31
0.0
  0
SPLINE
  5
10F
330
1F
100
AcDbEntity
  8
0
  6
Continuous
 62
     7
370
    25
100
AcDbSpline
210
0.0
220
0.0
230
1.0
 70
     8
 71
     3
 72
     9
 73
     5
 74
     0
 42
0.000000001
 43
0.00000001
 40
0.0
 40
0.0
 40
0.0
 40
0.0
 40
0.5472621445707385
 40
1.0
 40
1.0
 40
1.0
 40
1.0
 10
6286.882710098662
 20
5263.0805773551
 30
0.0
 10
6286.892233009289
 20
5263.099078701701
 30
0.0
 10
6286.909634013035
 20
5263.13288580271
 30
0.0
 10
6286.911451264114
 20
5263.170757167928
 30
0.0
 10
6286.91227400247
 20
5263.187902968599
 30
0.0
  0
SPLINE
  5
110
330
1F
100
AcDbEntity
  8
0
  6
Continuous
 62
     7
370
    25
100
AcDbSpline
210
0.0
220
0.0
230
1.0
 70
     8
 71
     3
 72
     9
 73
     5
 74
     0
 42
0.000000001
 43
0.00000001
 40
0.0
 40
0.0
 40
0.0
 40
0.0
 40
0.5723752627934957
 40
1.0
 40
1.0
 40
1.0
 40
1.0
 10
6286.797922491469
 20
5263.007885765506
 30
0.0
 10
6286.817027611532
 20
5263.018480177508
 30
0.0
 10
6286.850406272885
 20
5263.036989733544
 30
0.0
 10
6286.873033945924
 20
5263.067521301413
 30
0.0
 10
6286.882710098662
 20
5263.0805773551
 30
0.0
  0
LINE
  5
111
330
1F
100
AcDbEntity
  8
0
  6
Continuous
 62
     7
370
    25
100
AcDbLine
 10
6286.9800742859
 20
5262.7054816002
 30
0.0
 11
6286.7979224915
 21
5263.0078857655
 31
0.0
  0
LINE
  5
112
330
1F
100
AcDbEntity
  8
0
  6
Continuous
 62
     7
370
    25
100
AcDbLine
 10
6286.7255326504
 20
5262.9827363307
 30
0.0
 11
6286.8871208424
 21
5262.7054816002
 31
0.0
  0
LINE
  5
113
330
1F
100
AcDbEntity
  8
0
  6
Continuous
 62
     7
370
    25
100
AcDbLine
 10
6286.5963991875
 20
5262.9827363307
 30
0.0
 11
6286.7255326504
 21
5262.9827363307
 31
0.0
  0
LINE
  5
114
330
1F
100
AcDbEntity
  8
0
  6
Continuous
 62
     7
370
    25
100
AcDbLine
 10
6286.5963991875
 20
5262.7054816002
 30
0.0
 11
6286.5963991875
 21
5262.9827363307
 31
0.0
  0
LINE
  5
115
330
1F
100
AcDbEntity
  8
0
  6
Continuous
 62
     7
370
    25
100
AcDbLine
 10
6286.5187641377
 20
5262.7054816002
 30
0.0
 11
6286.5963991875
 21
5262.7054816002
 31
0.0
  0
LINE
  5
116
330
1F
100
AcDbEntity
  8
0
  6
Continuous
 62
     7
370
    25
100
AcDbLine
 10
6286.5187641377
 20
5263.3827058489
 30
0.0
 11
6286.5187641377
 21
5262.7054816002
 31
0.0
  0
LINE
  5
117
330
1F
100
AcDbEntity
  8
0
  6
Continuous
 62
     7
370
    25
100
AcDbLine
 10
6286.5963991875
 20
5263.3165409679
 30
0.0
 11
6286.6808589691
 21
5263.3165409679
 31
0.0
  0
LINE
  5
118
330
1F
100
AcDbEntity
  8
0
  6
Continuous
 62
     7
370
    25
100
AcDbLine
 10
6286.8871208424
 20
5262.7054816002
 30
0.0
 11
6286.9800742859
 21
5262.7054816002
 31
0.0
  0
LINE
  5
119
330
1F
100
AcDbEntity
  8
0
  6
Continuous
 62
     7
370
    25
100
AcDbLine
 10
6286.6808589691
 20
5263.3827058489
 30
0.0
 11
6286.5187641377
 21
5263.3827058489
 31
0.0
  0
SPLINE
  5
11A
330
1F
100
AcDbEntity
  8
0
  6
Continuous
 62
     7
370
    25
100
AcDbSpline
210
0.0
220
0.0
230
1.0
 70
     8
 71
     3
 72
     9
 73
     5
 74
     0
 42
0.000000001
 43
0.00000001
 40
0.0
 40
0.0
 40
0.0
 40
0.0
 40
0.5118101182946181
 40
0.9999999999999999
 40
0.9999999999999999
 40
0.9999999999999999
 40
0.9999999999999999
 10
6286.851805090346
 20
5263.334966253711
 30
0.0
 10
6286.824605604572
 20
5263.350252182095
 30
0.0
 10
6286.771461899902
 20
5263.380118587306
 30
0.0
 10
6286.710580602504
 20
5263.381857116517
 30
0.0
 10
6286.68085896913
 20
5263.382705848886
 30
0.0
  0
SPLINE
  5
11B
330
1F
100
AcDbEntity
  8
0
  6
Continuous
 62
     7
370
    25
100
AcDbSpline
210
0.0
220
0.0
230
1.0
 70
     8
 71
     3
 72
    10
 73
     6
 74
     0
 42
0.000000001
 43
0.00000001
 40
0.0
 40
0.0
 40
0.0
 40
0.0
 40
0.3157389287312706
 40
0.5946654720988687
 40
1.0
 40
1.0
 40
1.0
 40
1.0
 10
6286.91227400247
 20
5263.187902968599
 30
0.0
 10
6286.911429597633
 20
5263.205149618173
 30
0.0
 10
6286.909839238145
 20
5263.23763210949
 30
0.0
 10
6286.893831964924
 20
5263.291325560996
 30
0.0
 10
6286.867439279195
 20
5263.318731717161
 30
0.0
 10
6286.851805090346
 20
5263.334966253711
 30
0.0
  0
LINE
  5
11C
330
1F
100
AcDbEntity
  8
0
  6
Continuous
 62
     7
370
    25
100
AcDbLine
 10
6286.5963991875
 20
5263.0441067631
 30
0.0
 11
6286.5963991875
 21
5263.3165409679
 31
0.0
  0
LINE
  5
11D
330
1F
100
AcDbEntity
  8
0
  6
Continuous
 62
     7
370
    25
100
AcDbLine
 10
6286.6824682945
 20
5263.0441067631
 30
0.0
 11
6286.5963991875
 21
5263.0441067631
 31
0.0
  0
SPLINE
  5
11E
330
1F
100
AcDbEntity
  8
0
  6
Continuous
 62
     7
370
    25
100
AcDbSpline
210
0.0
220
0.0
230
1.0
 70
     8
 71
     3
 72
     9
 73
     5
 74
     0
 42
0.000000001
 43
0.00000001
 40
0.0
 40
0.0
 40
0.0
 40
0.0
 40
0.5209863956002433
 40
0.9999999999999999
 40
0.9999999999999999
 40
0.9999999999999999
 40
0.9999999999999999
 10
6286.792468666472
 20
5263.079772692396
 30
0.0
 10
6286.77502149623
 20
5263.068333679102
 30
0.0
 10
6286.741532771018
 20
5263.04637722613
 30
0.0
 10
6286.701597724915
 20
5263.044842106342
 30
0.0
 10
6286.682468294539
 20
5263.044106763078
 30
0.0
  0
SPLINE
  5
11F
330
1F
100
AcDbEntity
  8
0
  6
Continuous
 62
     7
370
    25
100
AcDbSpline
210
0.0
220
0.0
230
1.0
 70
     8
 71
     3
 72
     9
 73
     5
 74
     0
 42
0.000000001
 43
0.00000001
 40
0.0
 40
0.0
 40
0.0
 40
0.0
 40
0.5915830846354247
 40
1.0
 40
1.0
 40
1.0
 40
1.0
 10
6286.832284569182
 20
5263.184263359977
 30
0.0
 10
6286.830845341209
 20
5263.160907751779
 30
0.0
 10
6286.828412499551
 20
5263.121427907265
 30
0.0
 10
6286.80289176582
 20
5263.091851995178
 30
0.0
 10
6286.792468666472
 20
5263.079772692396
 30
0.0
  0
SPLINE
  5
120
330
1F
100
AcDbEntity
  8
0
  6
Continuous
 62
     7
370
    25
100
AcDbSpline
210
0.0
220
0.0
230
1.0
 70
     8
 71
     3
 72
    12
 73
     8
 74
     0
 42
0.000000001
 43
0.00000001
 40
0.0
 40
0.0
 40
0.0
 40
0.0
 40
0.2244892751738364
 40
0.4118026807460228
 40
0.5770578771753269
 40
0.7720534534566154
 40
1.0
 40
1.0
 40
1.0
 40
1.0
 10
6286.68085896913
 20
5263.316540967895
 30
0.0
 10
6286.698072866927
 20
5263.315844498878
 30
0.0
 10
6286.729650006874
 20
5263.314566897496
 30
0.0
 10
6286.772380160574
 20
5263.300899589751
 30
0.0
 10
6286.806736355784
 20
5263.275446634124
 30
0.0
 10
6286.829274706191
 20
5263.234434908096
 30
0.0
 10
6286.831230490494
 20
5263.201833847323
 30
0.0
 10
6286.832284569182
 20
5263.184263359977
 30
0.0
  0
LINE
  5
121
330
1F
100
AcDbEntity
  8
0
  6
Continuous
 62
     7
370
    25
100
AcDbLine
 10
6278.7638422245
 20
5259.7849694902
 30
0.0
 11
6278.7638422245
 21
5259.5172030742
 31
0.0
  0
LINE
  5
122
330
1F
100
AcDbEntity
  8
0
  6
Continuous
 62
     7
370
    25
100
AcDbLine
 10
6278.7638422245
 20
5259.5172030742
 30
0.0
 11
6279.8818763489
 21
5259.5172030742
 31
0.0
  0
LINE
  5
123
330
1F
100
AcDbEntity
  8
0
  6
Continuous
 62
     7
370
    25
100
AcDbLine
 10
6279.8818763489
 20
5259.5172030742
 30
0.0
 11
6279.8818763489
 21
5259.7915222759
 31
0.0
  0
SPLINE
  5
124
330
1F
100
AcDbEntity
  8
0
  6
Continuous
 62
     7
370
    25
100
AcDbSpline
210
0.0
220
0.0
230
1.0
 70
     8
 71
     3
 72
    12
 73
     8
 74
     0
 42
0.000000001
 43
0.00000001
 40
0.0
 40
0.0
 40
0.0
 40
0.0
 40
0.5919144395500603
 40
0.7068126996262405
 40
0.8064186834683249
 40
0.8986349219957478
 40
1.0
 40
1.0
 40
1.0
 40
1.0
 10
6279.881876348891
 20
5259.791522275878
 30
0.0
 10
6279.888335391719
 20
5260.071833393541
 30
0.0
 10
6279.896048218428
 20
5260.406556530149
 30
0.0
 10
6279.787120011105
 20
5260.770793596205
 30
0.0
 10
6279.712390698272
 20
5260.89564312486
 30
0.0
 10
6279.597948631805
 20
5260.982365991669
 30
0.0
 10
6279.505997382773
 20
5260.990701819974
 30
0.0
 10
6279.457848905959
 20
5260.995066713764
 30
0.0
  0
LINE
  5
125
330
1F
100
AcDbEntity
  8
0
  6
Continuous
 62
     7
370
    25
100
AcDbLine
 10
6279.457848906
 20
5260.9950667138
 30
0.0
 11
6279.1873332256
 21
5260.9950667138
 31
0.0
  0
SPLINE
  5
126
330
1F
100
AcDbEntity
  8
0
  6
Continuous
 62
     7
370
    25
100
AcDbSpline
210
0.0
220
0.0
230
1.0
 70
     8
 71
     3
 72
    12
 73
     8
 74
     0
 42
0.000000001
 43
0.00000001
 40
0.0
 40
0.0
 40
0.0
 40
0.0
 40
0.1009447173251554
 40
0.1931012971038254
 40
0.2929450778447675
 40
0.4081814289225566
 40
1.0
 40
1.0
 40
1.0
 40
1.0
 10
6279.187333225645
 20
5260.995066713764
 30
0.0
 10
6279.139211270833
 20
5260.990528159186
 30
0.0
 10
6279.047156806371
 20
5260.981846171668
 30
0.0
 10
6278.933002747111
 20
5260.894016446185
 30
0.0
 10
6278.858488904627
 20
5260.768207217209
 30
0.0
 10
6278.749915305158
 20
5260.402199441584
 30
0.0
 10
6278.75749656456
 20
5260.066204075237
 30
0.0
 10
6278.763842224516
 20
5259.784969490243
 30
0.0
  0
LINE
  5
127
330
1F
100
AcDbEntity
  8
0
  6
Continuous
 62
     7
370
    25
100
AcDbLine
 10
6280.5816050762
 20
5260.4030324037
 30
0.0
 11
6280.5816050762
 21
5256.4776455874
 31
0.0
  0
LINE
  5
128
330
1F
100
AcDbEntity
  8
0
  6
Continuous
 62
     7
370
    25
100
AcDbLine
 10
6280.5816050762
 20
5256.4776455874
 30
0.0
 11
6279.8818763489
 21
5256.4776455874
 31
0.0
  0
LINE
  5
129
330
1F
100
AcDbEntity
  8
0
  6
Continuous
 62
     7
370
    25
100
AcDbLine
 10
6279.8818763489
 20
5256.4776455874
 30
0.0
 11
6279.8818763489
 21
5258.7847364957
 31
0.0
  0
LINE
  5
12A
330
1F
100
AcDbEntity
  8
0
  6
Continuous
 62
     7
370
    25
100
AcDbLine
 10
6279.8818763489
 20
5258.7847364957
 30
0.0
 11
6278.7640806431
 21
5258.7847364957
 31
0.0
  0
LINE
  5
12B
330
1F
100
AcDbEntity
  8
0
  6
Continuous
 62
     7
370
    25
100
AcDbLine
 10
6278.7638422245
 20
5256.4776455874
 30
0.0
 11
6278.0778523678
 21
5256.4776455874
 31
0.0
  0
LINE
  5
12C
330
1F
100
AcDbEntity
  8
0
  6
Continuous
 62
     7
370
    25
100
AcDbLine
 10
6278.0778523678
 20
5256.4776455874
 30
0.0
 11
6278.0778523678
 21
5258.7847364957
 31
0.0
  0
LINE
  5
12D
330
1F
100
AcDbEntity
  8
0
  6
Continuous
 62
     7
370
    25
100
AcDbLine
 10
6278.0778523678
 20
5258.7847364957
 30
0.0
 11
6277.7773853535
 21
5258.7847364957
 31
0.0
  0
LINE
  5
12E
330
1F
100
AcDbEntity
  8
0
  6
Continuous
 62
     7
370
    25
100
AcDbLine
 10
6277.7773853535
 20
5258.7847364957
 30
0.0
 11
6277.5352414841
 21
5259.5170279855
 31
0.0
  0
LINE
  5
12F
330
1F
100
AcDbEntity
  8
0
  6
Continuous
 62
     7
370
    25
100
AcDbLine
 10
6277.5352414841
 20
5259.5170279855
 30
0.0
 11
6278.0778523678
 21
5259.5170279855
 31
0.0
  0
LINE
  5
130
330
1F
100
AcDbEntity
  8
0
  6
Continuous
 62
     7
370
    25
100
AcDbLine
 10
6278.0778523678
 20
5259.5170279855
 30
0.0
 11
6278.0778523678
 21
5260.412494641
 31
0.0
  0
SPLINE
  5
131
330
1F
100
AcDbEntity
  8
0
  6
Continuous
 62
     7
370
    25
100
AcDbSpline
210
0.0
220
0.0
230
1.0
 70
     8
 71
     3
 72
    11
 73
     7
 74
     0
 42
0.000000001
 43
0.00000001
 40
0.0
 40
0.0
 40
0.0
 40
0.0
 40
0.2975743165365565
 40
0.5729262461757253
 40
0.7821199374347166
 40
0.9999999999999999
 40
0.9999999999999999
 40
0.9999999999999999
 40
0.9999999999999999
 10
6278.077852367796
 20
5260.412494641019
 30
0.0
 10
6278.096399393385
 20
5260.600589674205
 30
0.0
 10
6278.132108381551
 20
5260.962733096198
 30
0.0
 10
6278.408578855217
 20
5261.38906990553
 30
0.0
 10
6278.779017821917
 20
5261.65406579279
 30
0.0
 10
6279.049394998985
 20
5261.684233015983
 30
0.0
 10
6279.187333225645
 20
5261.699623417331
 30
0.0
  0
LINE
  5
132
330
1F
100
AcDbEntity
  8
0
  6
Continuous
 62
     7
370
    25
100
AcDbLine
 10
6278.7640806431
 20
5258.7847364957
 30
0.0
 11
6278.7638422245
 21
5256.4776455874
 31
0.0
  0
LINE
  5
133
330
1F
100
AcDbEntity
  8
0
  6
Continuous
 62
     7
370
    25
100
AcDbLine
 10
6279.1873332256
 20
5261.6996234173
 30
0.0
 11
6279.457848906
 21
5261.6996234173
 31
0.0
  0
SPLINE
  5
134
330
1F
100
AcDbEntity
  8
0
  6
Continuous
 62
     7
370
    25
100
AcDbSpline
210
0.0
220
0.0
230
1.0
 70
     8
 71
     3
 72
    11
 73
     7
 74
     0
 42
0.000000001
 43
0.00000001
 40
0.0
 40
0.0
 40
0.0
 40
0.0
 40
0.2748842940517024
 40
0.5431571838228696
 40
0.7649563067178909
 40
0.9999999999999999
 40
0.9999999999999999
 40
0.9999999999999999
 40
0.9999999999999999
 10
6279.457848905959
 20
5261.699623417331
 30
0.0
 10
6279.634123764284
 20
5261.673994918314
 30
0.0
 10
6279.982433790351
 20
5261.623354326426
 30
0.0
 10
6280.343612595714
 20
5261.26215613943
 30
0.0
 10
6280.546101720419
 20
5260.843109508221
 30
0.0
 10
6280.569544081024
 20
5260.552532858678
 30
0.0
 10
6280.581605076231
 20
5260.403032403661
 30
0.0
  0
SPLINE
  5
135
330
1F
100
AcDbEntity
  8
0
  6
Continuous
 62
     7
370
    25
100
AcDbSpline
210
0.0
220
0.0
230
1.0
 70
     8
 71
     3
 72
    11
 73
     7
 74
     0
 42
0.000000001
 43
0.00000001
 40
0.0
 40
0.0
 40
0.0
 40
0.0
 40
0.285029035051562
 40
0.5575611321294808
 40
0.7736896049682512
 40
1.0
 40
1.0
 40
1.0
 40
1.0
 10
6284.126472114958
 20
5261.492951762153
 30
0.0
 10
6284.125347882745
 20
5261.501995906303
 30
0.0
 10
6284.12314870965
 20
5261.519687659183
 30
0.0
 10
6284.107147673106
 20
5261.539404743954
 30
0.0
 10
6284.087393079676
 20
5261.551168339037
 30
0.0
 10
6284.073399453415
 20
5261.552540163232
 30
0.0
 10
6284.066241621413
 20
5261.553241860343
 30
0.0
  0
SPLINE
  5
136
330
1F
100
AcDbEntity
  8
0
  6
Continuous
 62
     7
370
    25
100
AcDbSpline
210
0.0
220
0.0
230
1.0
 70
     8
 71
     3
 72
    11
 73
     7
 74
     0
 42
0.000000001
 43
0.00000001
 40
0.0
 40
0.0
 40
0.0
 40
0.0
 40
0.285141920061929
 40
0.5577129314504548
 40
0.7739322097260828
 40
1.0
 40
1.0
 40
1.0
 40
1.0
 10
6284.066241621413
 20
5261.432661663963
 30
0.0
 10
6284.075289746404
 20
5261.433790429285
 30
0.0
 10
6284.092987096245
 20
5261.435998196618
 30
0.0
 10
6284.112670334996
 20
5261.452055079742
 30
0.0
 10
6284.124406649377
 20
5261.471814500589
 30
0.0
 10
6284.125773481241
 20
5261.48580218592
 30
0.0
 10
6284.126472114958
 20
5261.492951762153
 30
0.0
  0
SPLINE
  5
137
330
1F
100
AcDbEntity
  8
0
  6
Continuous
 62
     7
370
    25
100
AcDbSpline
210
0.0
220
0.0
230
1.0
 70
     8
 71
     3
 72
    11
 73
     7
 74
     0
 42
0.000000001
 43
0.00000001
 40
0.0
 40
0.0
 40
0.0
 40
0.0
 40
0.2892122270437326
 40
0.5647355966740966
 40
0.7799101726589276
 40
1.0
 40
1.0
 40
1.0
 40
1.0
 10
6284.007620453276
 20
5261.492951762153
 30
0.0
 10
6284.008756593123
 20
5261.48392223295
 30
0.0
 10
6284.010975097578
 20
5261.466290555984
 30
0.0
 10
6284.026692555126
 20
5261.446659335546
 30
0.0
 10
6284.045841932623
 20
5261.434814930462
 30
0.0
 10
6284.059390724946
 20
5261.433384802733
 30
0.0
 10
6284.066241621413
 20
5261.432661663963
 30
0.0
  0
SPLINE
  5
138
330
1F
100
AcDbEntity
  8
0
  6
Continuous
 62
     7
370
    25
100
AcDbSpline
210
0.0
220
0.0
230
1.0
 70
     8
 71
     3
 72
    11
 73
     7
 74
     0
 42
0.000000001
 43
0.00000001
 40
0.0
 40
0.0
 40
0.0
 40
0.0
 40
0.2779547245586165
 40
0.5508488195982763
 40
0.770143722310154
 40
1.0
 40
1.0
 40
1.0
 40
1.0
 10
6284.066241621413
 20
5261.553241860343
 30
0.0
 10
6284.057563577683
 20
5261.552078255118
 30
0.0
 10
6284.04036548849
 20
5261.549772230042
 30
0.0
 10
6284.021321888168
 20
5261.533744045801
 30
0.0
 10
6284.009686595376
 20
5261.514100899262
 30
0.0
 10
6284.008319879662
 20
5261.500111126714
 30
0.0
 10
6284.007620453276
 20
5261.492951762153
 30
0.0
  0
LINE
  5
139
330
1F
100
AcDbEntity
  8
0
  6
Continuous
 62
     7
370
    25
100
AcDbLine
 10
6271.222245335
 20
5261.6086853559
 30
0.0
 11
6272.0133181805
 21
5261.6087859387
 31
0.0
  0
LINE
  5
13A
330
1F
100
AcDbEntity
  8
0
  6
Continuous
 62
     7
370
    25
100
AcDbLine
 10
6272.0133181805
 20
5261.6087859387
 30
0.0
 11
6272.0133181805
 21
5259.5172030742
 31
0.0
  0
LINE
  5
13B
330
1F
100
AcDbEntity
  8
0
  6
Continuous
 62
     7
370
    25
100
AcDbLine
 10
6272.6078149075
 20
5259.5172030742
 30
0.0
 11
6272.6078149075
 21
5261.6087859387
 31
0.0
  0
LINE
  5
13C
330
1F
100
AcDbEntity
  8
0
  6
Continuous
 62
     7
370
    25
100
AcDbLine
 10
6273.2485946411
 20
5258.7847364957
 30
0.0
 11
6273.2488330597
 21
5257.1379495675
 31
0.0
  0
LINE
  5
13D
330
1F
100
AcDbEntity
  8
0
  6
Continuous
 62
     7
370
    25
100
AcDbLine
 10
6274.5688971275
 20
5257.1379495675
 30
0.0
 11
6274.5688971275
 21
5256.4776455874
 31
0.0
  0
LINE
  5
13E
330
1F
100
AcDbEntity
  8
0
  6
Continuous
 62
     7
370
    25
100
AcDbLine
 10
6272.6078149075
 20
5256.4776455874
 30
0.0
 11
6272.6079043144
 21
5258.7847364957
 31
0.0
  0
LINE
  5
13F
330
1F
100
AcDbEntity
  8
0
  6
Continuous
 62
     7
370
    25
100
AcDbLine
 10
6272.6079043144
 20
5258.7847364957
 30
0.0
 11
6272.0133181805
 21
5258.7847364957
 31
0.0
  0
LINE
  5
140
330
1F
100
AcDbEntity
  8
0
  6
Continuous
 62
     7
370
    25
100
AcDbLine
 10
6268.9410563702
 20
5261.6996234173
 30
0.0
 11
6271.222245335
 21
5259.8568824942
 31
0.0
  0
LINE
  5
141
330
1F
100
AcDbEntity
  8
0
  6
Continuous
 62
     7
370
    25
100
AcDbLine
 10
6269.6728225941
 20
5259.9614476676
 30
0.0
 11
6269.6731206173
 21
5256.4776455874
 31
0.0
  0
LINE
  5
142
330
1F
100
AcDbEntity
  8
0
  6
Continuous
 62
     7
370
    25
100
AcDbLine
 10
6271.222245335
 20
5258.7847364957
 30
0.0
 11
6269.6728225941
 21
5259.9614476676
 31
0.0
  0
LINE
  5
143
330
1F
100
AcDbEntity
  8
0
  6
Continuous
 62
     7
370
    25
100
AcDbLine
 10
6268.9409967655
 20
5256.4776455874
 30
0.0
 11
6268.9410563702
 21
5261.6996234173
 31
0.0
  0
LINE
  5
144
330
1F
100
AcDbEntity
  8
0
  6
Continuous
 62
     7
370
    25
100
AcDbLine
 10
6272.0133181805
 20
5259.5172030742
 30
0.0
 11
6272.6078149075
 21
5259.5172030742
 31
0.0
  0
LINE
  5
145
330
1F
100
AcDbEntity
  8
0
  6
Continuous
 62
     7
370
    25
100
AcDbLine
 10
6274.5688971275
 20
5261.6087859387
 30
0.0
 11
6274.5688971275
 21
5260.9950667138
 31
0.0
  0
LINE
  5
146
330
1F
100
AcDbEntity
  8
0
  6
Continuous
 62
     7
370
    25
100
AcDbLine
 10
6274.5688971275
 20
5260.9950667138
 30
0.0
 11
6273.2488330597
 21
5260.9950667138
 31
0.0
  0
LINE
  5
147
330
1F
100
AcDbEntity
  8
0
  6
Continuous
 62
     7
370
    25
100
AcDbLine
 10
6273.2488330597
 20
5260.9950667138
 30
0.0
 11
6273.2488330597
 21
5259.5172030742
 31
0.0
  0
LINE
  5
148
330
1F
100
AcDbEntity
  8
0
  6
Continuous
 62
     7
370
    25
100
AcDbLine
 10
6273.2488330597
 20
5259.5172030742
 30
0.0
 11
6274.5790001148
 21
5259.5172030742
 31
0.0
  0
LINE
  5
149
330
1F
100
AcDbEntity
  8
0
  6
Continuous
 62
     7
370
    25
100
AcDbLine
 10
6274.5790001148
 20
5259.5172030742
 30
0.0
 11
6274.8207267517
 21
5258.7847364957
 31
0.0
  0
LINE
  5
14A
330
1F
100
AcDbEntity
  8
0
  6
Continuous
 62
     7
370
    25
100
AcDbLine
 10
6274.8207267517
 20
5258.7847364957
 30
0.0
 11
6273.2485946411
 21
5258.7847364957
 31
0.0
  0
LINE
  5
14B
330
1F
100
AcDbEntity
  8
0
  6
Continuous
 62
     7
370
    25
100
AcDbLine
 10
6269.6731206173
 20
5256.4776455874
 30
0.0
 11
6268.9409967655
 21
5256.4776455874
 31
0.0
  0
LINE
  5
14C
330
1F
100
AcDbEntity
  8
0
  6
Continuous
 62
     7
370
    25
100
AcDbLine
 10
6271.222245335
 20
5256.4776455874
 30
0.0
 11
6271.222245335
 21
5258.7847364957
 31
0.0
  0
LINE
  5
14D
330
1F
100
AcDbEntity
  8
0
  6
Continuous
 62
     7
370
    25
100
AcDbLine
 10
6272.6078149075
 20
5261.6087859387
 30
0.0
 11
6274.5688971275
 21
5261.6087859387
 31
0.0
  0
LINE
  5
14E
330
1F
100
AcDbEntity
  8
0
  6
Continuous
 62
     7
370
    25
100
AcDbLine
 10
6273.2488330597
 20
5257.1379495675
 30
0.0
 11
6274.5688971275
 21
5257.1379495675
 31
0.0
  0
LINE
  5
14F
330
1F
100
AcDbEntity
  8
0
  6
Continuous
 62
     7
370
    25
100
AcDbLine
 10
6274.5688971275
 20
5256.4776455874
 30
0.0
 11
6272.6078149075
 21
5256.4776455874
 31
0.0
  0
LINE
  5
150
330
1F
100
AcDbEntity
  8
0
  6
Continuous
 62
     7
370
    25
100
AcDbLine
 10
6272.0133181805
 20
5256.4776455874
 30
0.0
 11
6271.222245335
 21
5256.4776455874
 31
0.0
  0
LINE
  5
151
330
1F
100
AcDbEntity
  8
0
  6
Continuous
 62
     7
370
    25
100
AcDbLine
 10
6271.222245335
 20
5259.8568824942
 30
0.0
 11
6271.222245335
 21
5261.6086853559
 31
0.0
  0
LINE
  5
152
330
1F
100
AcDbEntity
  8
0
  6
Continuous
 62
     7
370
    25
100
AcDbLine
 10
6272.0133181805
 20
5258.7847364957
 30
0.0
 11
6272.0133181805
 21
5256.4776455874
 31
0.0
  0
CIRCLE
  5
153
330
1F
100
AcDbEntity
  8
0
  6
Continuous
 62
     7
370
    25
100
AcDbCircle
 10
6274.0187553361
 20
5178.3941166548
 30
0.0
 40
11.24999999999909
  0
CIRCLE
  5
154
330
1F
100
AcDbEntity
  8
0
  6
Continuous
 62
     7
370
    25
100
AcDbCircle
 10
6274.0187553361
 20
5213.3941166548
 30
0.0
 40
70.5
  0
CIRCLE
  5
155
330
1F
100
AcDbEntity
  8
0
  6
Continuous
 62
     7
370
    25
100
AcDbCircle
 10
6274.0187553361
 20
5178.3941166548
 30
0.0
 40
11.35000000000036
  0
CIRCLE
  5
156
330
1F
100
AcDbEntity
  8
0
  6
Continuous
 62
     7
370
    25
100
AcDbCircle
 10
6274.0187553361
 20
5213.3941166548
 30
0.0
 40
72.38561808316354
  0
CIRCLE
  5
157
330
1F
100
AcDbEntity
  8
0
  6
Continuous
 62
     7
370
    25
100
AcDbCircle
 10
6274.0187553361
 20
5213.3941166548
 30
0.0
 40
73.32842712474576
  0
ARC
  5
158
330
1F
100
AcDbEntity
  8
0
  6
Continuous
 62
     7
370
    25
100
AcDbCircle
 10
6329.0187553361
 20
5268.3941166548
 30
0.0
 40
28.00000000000091
100
AcDbArc
 50
0.0
 51
90.0
  0
LINE
  5
159
330
1F
100
AcDbEntity
  8
0
  6
Continuous
 62
     7
370
    25
100
AcDbLine
 10
6329.0187534088
 20
5296.3941162343
 30
0.0
 11
6329.0187534088
 21
5298.3941202874
 31
0.0
  0
ARC
  5
15A
330
1F
100
AcDbEntity
  8
0
  6
Continuous
 62
     7
370
    25
100
AcDbCircle
 10
6329.0187553361
 20
5268.3941166548
 30
0.0
 40
30.00000000000091
100
AcDbArc
 50
0.0
 51
90.0
  0
LINE
  5
15B
330
1F
100
AcDbEntity
  8
0
  6
Continuous
 62
     7
370
    25
100
AcDbLine
 10
6357.0187505478
 20
5268.39411537
 30
0.0
 11
6359.0187546009
 21
5268.39411537
 31
0.0
  0
ARC
  5
15C
330
1F
100
AcDbEntity
  8
0
  6
Continuous
 62
     7
370
    25
100
AcDbCircle
 10
6329.0187553361
 20
5158.3941166548
 30
0.0
 40
28.0
100
AcDbArc
 50
270.0
 51
0.0
  0
LINE
  5
15D
330
1F
100
AcDbEntity
  8
0
  6
Continuous
 62
     7
370
    25
100
AcDbLine
 10
6357.0187505478
 20
5158.394115966
 30
0.0
 11
6359.0187546009
 21
5158.394115966
 31
0.0
  0
ARC
  5
15E
330
1F
100
AcDbEntity
  8
0
  6
Continuous
 62
     7
370
    25
100
AcDbCircle
 10
6329.0187553361
 20
5158.3941166548
 30
0.0
 40
30.0
100
AcDbArc
 50
270.0
 51
0.0
  0
LINE
  5
15F
330
1F
100
AcDbEntity
  8
0
  6
Continuous
 62
     7
370
    25
100
AcDbLine
 10
6329.0187534088
 20
5128.3941184992
 30
0.0
 11
6329.0187534088
 21
5130.3941151018
 31
0.0
  0
LINE
  5
160
330
1F
100
AcDbEntity
  8
0
  6
Continuous
 62
     7
370
    25
100
AcDbLine
 10
6357.0187505478
 20
5158.394115966
 30
0.0
 11
6357.0187505478
 21
5268.39411537
 31
0.0
  0
LINE
  5
161
330
1F
100
AcDbEntity
  8
0
  6
Continuous
 62
     7
370
    25
100
AcDbLine
 10
6359.0187546009
 20
5268.39411537
 30
0.0
 11
6359.0187546009
 21
5158.394115966
 31
0.0
  0
LINE
  5
162
330
1F
100
AcDbEntity
  8
0
  6
Continuous
 62
     7
370
    25
100
AcDbLine
 10
6219.018768906
 20
5130.3941151018
 30
0.0
 11
6329.0187534088
 21
5130.3941151018
 31
0.0
  0
ARC
  5
163
330
1F
100
AcDbEntity
  8
0
  6
Continuous
 62
     7
370
    25
100
AcDbCircle
 10
6219.0187553361
 20
5158.3941166548
 30
0.0
 40
28.0
100
AcDbArc
 50
180.0
 51
270.0
  0
LINE
  5
164
330
1F
100
AcDbEntity
  8
0
  6
Continuous
 62
     7
370
    25
100
AcDbLine
 10
6191.0187419647
 20
5268.39411537
 30
0.0
 11
6191.0187419647
 21
5158.394115966
 31
0.0
  0
ARC
  5
165
330
1F
100
AcDbEntity
  8
0
  6
Continuous
 62
     7
370
    25
100
AcDbCircle
 10
6219.0187553361
 20
5268.3941166548
 30
0.0
 40
28.00000000000091
100
AcDbArc
 50
90.0
 51
180.0
  0
LINE
  5
166
330
1F
100
AcDbEntity
  8
0
  6
Continuous
 62
     7
370
    25
100
AcDbLine
 10
6329.0187534088
 20
5296.3941162343
 30
0.0
 11
6219.018768906
 21
5296.3941162343
 31
0.0
  0
LINE
  5
167
330
1F
100
AcDbEntity
  8
0
  6
Continuous
 62
     7
370
    25
100
AcDbLine
 10
6329.0187534088
 20
5128.3941184992
 30
0.0
 11
6219.018768906
 21
5128.3941184992
 31
0.0
  0
LINE
  5
168
330
1F
100
AcDbEntity
  8
0
  6
Continuous
 62
     7
370
    25
100
AcDbLine
 10
6219.018768906
 20
5128.3941184992
 30
0.0
 11
6219.018768906
 21
5130.3941151018
 31
0.0
  0
LINE
  5
169
330
1F
100
AcDbEntity
  8
0
  6
Continuous
 62
     7
370
    25
100
AcDbLine
 10
6219.018768906
 20
5296.3941162343
 30
0.0
 11
6219.018768906
 21
5298.3941202874
 31
0.0
  0
LINE
  5
16A
330
1F
100
AcDbEntity
  8
0
  6
Continuous
 62
     7
370
    25
100
AcDbLine
 10
6219.018768906
 20
5298.3941202874
 30
0.0
 11
6329.0187534088
 21
5298.3941202874
 31
0.0
  0
ARC
  5
16B
330
1F
100
AcDbEntity
  8
0
  6
Continuous
 62
     7
370
    25
100
AcDbCircle
 10
6219.0187553361
 20
5158.3941166548
 30
0.0
 40
30.0
100
AcDbArc
 50
180.0
 51
270.0
  0
LINE
  5
16C
330
1F
100
AcDbEntity
  8
0
  6
Continuous
 62
     7
370
    25
100
AcDbLine
 10
6189.0187677139
 20
5158.394115966
 30
0.0
 11
6191.0187419647
 21
5158.394115966
 31
0.0
  0
LINE
  5
16D
330
1F
100
AcDbEntity
  8
0
  6
Continuous
 62
     7
370
    25
100
AcDbLine
 10
6189.0187677139
 20
5158.394115966
 30
0.0
 11
6189.0187677139
 21
5268.39411537
 31
0.0
  0
LINE
  5
16E
330
1F
100
AcDbEntity
  8
0
  6
Continuous
 62
     7
370
    25
100
AcDbLine
 10
6189.0187677139
 20
5268.39411537
 30
0.0
 11
6191.0187419647
 21
5268.39411537
 31
0.0
  0
ARC
  5
16F
330
1F
100
AcDbEntity
  8
0
  6
Continuous
 62
     7
370
    25
100
AcDbCircle
 10
6219.0187553361
 20
5268.3941166548
 30
0.0
 40
30.00000000000091
100
AcDbArc
 50
90.0
 51
180.0
  0
LINE
  5
170
330
1F
100
AcDbEntity
  8
0
  6
Continuous
 62
     7
370
    25
100
AcDbLine
 10
6262.6768764252
 20
5298.8941138501
 30
0.0
 11
6285.7392545933
 21
5298.8941138501
 31
0.0
  0
LINE
  5
171
330
1F
100
AcDbEntity
  8
0
  6
Continuous
 62
     7
370
    25
100
AcDbLine
 10
6262.2982677216
 20
5298.8941138501
 30
0.0
 11
6262.6768764252
 21
5298.8941138501
 31
0.0
  0
LINE
  5
172
330
1F
100
AcDbEntity
  8
0
  6
Continuous
 62
     7
370
    25
100
AcDbLine
 10
6557.4925398375
 20
5148.3941143269
 30
0.0
 11
6627.0925259139
 21
5148.3941143269
 31
0.0
  0
LINE
  5
173
330
1F
100
AcDbEntity
  8
0
  6
Continuous
 62
     7
370
    25
100
AcDbLine
 10
6627.0925259139
 20
5279.3941190357
 30
0.0
 11
6557.4925398375
 21
5279.3941190357
 31
0.0
  0
LINE
  5
174
330
1F
100
AcDbEntity
  8
0
  6
Continuous
 62
     7
370
    25
100
AcDbLine
 10
6627.0925259139
 20
5154.3428143377
 30
0.0
 11
6627.0150398757
 21
5154.4757438714
 31
0.0
  0
LINE
  5
175
330
1F
100
AcDbEntity
  8
0
  6
Continuous
 62
     7
370
    25
100
AcDbLine
 10
6627.0925259139
 20
5150.5382051582
 30
0.0
 11
6627.1653031851
 21
5150.4133706803
 31
0.0
  0
LINE
  5
176
330
1F
100
AcDbEntity
  8
0
  6
Continuous
 62
     7
370
    25
100
AcDbLine
 10
6627.0925259139
 20
5277.3428177351
 30
0.0
 11
6627.0150398757
 21
5277.4757435436
 31
0.0
  0
LINE
  5
177
330
1F
100
AcDbEntity
  8
0
  6
Continuous
 62
     7
370
    25
100
AcDbLine
 10
6627.4925326849
 20
5293.1441133732
 30
0.0
 11
6627.4925326849
 21
5268.39411537
 31
0.0
  0
LINE
  5
178
330
1F
100
AcDbEntity
  8
0
  6
Continuous
 62
     7
370
    25
100
AcDbLine
 10
6627.4925326849
 20
5158.394115966
 30
0.0
 11
6627.4925326849
 21
5134.059435677
 31
0.0
  0
LINE
  5
179
330
1F
100
AcDbEntity
  8
0
  6
Continuous
 62
     7
370
    25
100
AcDbLine
 10
6627.4925326849
 20
5268.39411537
 30
0.0
 11
6627.4925326849
 21
5158.394115966
 31
0.0
  0
ARC
  5
17A
330
1F
100
AcDbEntity
  8
0
  6
Continuous
 62
     7
370
    25
100
AcDbCircle
 10
6639.4925184526
 20
5140.0656895301
 30
0.0
 40
1.0
100
AcDbArc
 50
109.4712206345
 51
180.0
  0
ARC
  5
17B
330
1F
100
AcDbEntity
  8
0
  6
Continuous
 62
     7
370
    25
100
AcDbCircle
 10
6639.4925184526
 20
5286.7225437796
 30
0.0
 40
1.000000000000049
100
AcDbArc
 50
180.0
 51
250.5287793655
  0
ARC
  5
17C
330
1F
100
AcDbEntity
  8
0
  6
Continuous
 62
     7
370
    25
100
AcDbCircle
 10
6638.4925184526
 20
5283.8941166548
 30
0.0
 40
2.0
100
AcDbArc
 50
0.0
 51
70.5287793655
  0
ARC
  5
17D
330
1F
100
AcDbEntity
  8
0
  6
Continuous
 62
     7
370
    25
100
AcDbCircle
 10
6638.4925184526
 20
5142.8941166548
 30
0.0
 40
2.000000000000401
100
AcDbArc
 50
289.4712206345
 51
0.0
  0
LINE
  5
17E
330
1F
100
AcDbEntity
  8
0
  6
Continuous
 62
     7
370
    25
100
AcDbLine
 10
6600.3925060774
 20
5148.3941143269
 30
0.0
 11
6600.3925060774
 21
5147.4941139931
 31
0.0
  0
LINE
  5
17F
330
1F
100
AcDbEntity
  8
0
  6
Continuous
 62
     7
370
    25
100
AcDbLine
 10
6613.5924911047
 20
5147.4941139931
 30
0.0
 11
6613.5924911047
 21
5148.3941143269
 31
0.0
  0
ARC
  5
180
330
1F
100
AcDbEntity
  8
0
  6
Continuous
 62
     7
370
    25
100
AcDbCircle
 10
6601.1925184526
 20
5147.4941166548
 30
0.0
 40
0.8000000000001819
100
AcDbArc
 50
180.0
 51
270.0
  0
ARC
  5
181
330
1F
100
AcDbEntity
  8
0
  6
Continuous
 62
     7
370
    25
100
AcDbCircle
 10
6612.7925184526
 20
5147.4941166548
 30
0.0
 40
0.8000000000001819
100
AcDbArc
 50
270.0
 51
0.0
  0
LINE
  5
182
330
1F
100
AcDbEntity
  8
0
  6
Continuous
 62
     7
370
    25
100
AcDbLine
 10
6595.9052896048
 20
5297.7018644924
 30
0.0
 11
6594.7130178954
 21
5298.8941138501
 31
0.0
  0
LINE
  5
183
330
1F
100
AcDbEntity
  8
0
  6
Continuous
 62
     7
370
    25
100
AcDbLine
 10
6569.9158763434
 20
5297.5379964227
 30
0.0
 11
6569.7719907309
 21
5297.3941182608
 31
0.0
  0
LINE
  5
184
330
1F
100
AcDbEntity
  8
0
  6
Continuous
 62
     7
370
    25
100
AcDbLine
 10
6571.2720012213
 20
5298.8941138501
 30
0.0
 11
6570.575878575
 21
5298.1979614014
 31
0.0
  0
SPLINE
  5
185
330
1F
100
AcDbEntity
  8
0
  6
Continuous
 62
     7
370
    25
100
AcDbSpline
210
0.0
220
0.0
230
1.0
 70
     8
 71
     3
 72
     9
 73
     5
 74
     0
 42
0.000000001
 43
0.00000001
 40
0.0
 40
0.0
 40
0.0
 40
0.0
 40
0.5045875768097867
 40
1.0
 40
1.0
 40
1.0
 40
1.0
 10
6569.77938170686
 20
5297.043814312889
 30
0.0
 10
6569.922670562253
 20
5296.961029705482
 30
0.0
 10
6570.206642784277
 20
5296.796965802187
 30
0.0
 10
6570.490623379712
 20
5296.632916113575
 30
0.0
 10
6570.631310894635
 20
5296.551643859817
 30
0.0
  0
SPLINE
  5
186
330
1F
100
AcDbEntity
  8
0
  6
Continuous
 62
     7
370
    25
100
AcDbSpline
210
0.0
220
0.0
230
1.0
 70
     8
 71
     3
 72
     9
 73
     5
 74
     0
 42
0.000000001
 43
0.00000001
 40
0.0
 40
0.0
 40
0.0
 40
0.0
 40
0.5045894881748659
 40
1.0
 40
1.0
 40
1.0
 40
1.0
 10
6569.77938170686
 20
5295.456311654521
 30
0.0
 10
6569.922670285828
 20
5295.373526568607
 30
0.0
 10
6570.206640884355
 20
5295.209462338467
 30
0.0
 10
6570.490623113263
 20
5295.045417961022
 30
0.0
 10
6570.631310894635
 20
5294.96414865203
 30
0.0
  0
SPLINE
  5
187
330
1F
100
AcDbEntity
  8
0
  6
Continuous
 62
     7
370
    25
100
AcDbSpline
210
0.0
220
0.0
230
1.0
 70
     8
 71
     3
 72
     9
 73
     5
 74
     0
 42
0.000000001
 43
0.00000001
 40
0.0
 40
0.0
 40
0.0
 40
0.0
 40
0.5045857000911635
 40
1.0
 40
1.0
 40
1.0
 40
1.0
 10
6569.77938170686
 20
5293.868808996154
 30
0.0
 10
6569.922670833664
 20
5293.786027342067
 30
0.0
 10
6570.20664464976
 20
5293.621968681518
 30
0.0
 10
6570.490623641335
 20
5293.457918700273
 30
0.0
 10
6570.631310894635
 20
5293.376645993663
 30
0.0
  0
SPLINE
  5
188
330
1F
100
AcDbEntity
  8
0
  6
Continuous
 62
     7
370
    25
100
AcDbSpline
210
0.0
220
0.0
230
1.0
 70
     8
 71
     3
 72
     9
 73
     5
 74
     0
 42
0.000000001
 43
0.00000001
 40
0.0
 40
0.0
 40
0.0
 40
0.0
 40
0.5045875768097867
 40
1.0
 40
1.0
 40
1.0
 40
1.0
 10
6569.77938170686
 20
5292.281313788368
 30
0.0
 10
6569.922670562253
 20
5292.198529180961
 30
0.0
 10
6570.206642784277
 20
5292.034465277666
 30
0.0
 10
6570.490623379712
 20
5291.870415589055
 30
0.0
 10
6570.631310894635
 20
5291.789143335296
 30
0.0
  0
SPLINE
  5
189
330
1F
100
AcDbEntity
  8
0
  6
Continuous
 62
     7
370
    25
100
AcDbSpline
210
0.0
220
0.0
230
1.0
 70
     8
 71
     3
 72
     9
 73
     5
 74
     0
 42
0.000000001
 43
0.00000001
 40
0.0
 40
0.0
 40
0.0
 40
0.0
 40
0.5045857000911635
 40
1.0
 40
1.0
 40
1.0
 40
1.0
 10
6569.77938170686
 20
5290.693811130001
 30
0.0
 10
6569.922670833664
 20
5290.611029475913
 30
0.0
 10
6570.20664464976
 20
5290.446970815365
 30
0.0
 10
6570.490623641335
 20
5290.282920834119
 30
0.0
 10
6570.631310894635
 20
5290.20164812751
 30
0.0
  0
SPLINE
  5
18A
330
1F
100
AcDbEntity
  8
0
  6
Continuous
 62
     7
370
    25
100
AcDbSpline
210
0.0
220
0.0
230
1.0
 70
     8
 71
     3
 72
     9
 73
     5
 74
     0
 42
0.000000001
 43
0.00000001
 40
0.0
 40
0.0
 40
0.0
 40
0.0
 40
0.4999758264846343
 40
1.0
 40
1.0
 40
1.0
 40
1.0
 10
6595.345900013593
 20
5295.753366302921
 30
0.0
 10
6595.489188076777
 20
5295.836152325697
 30
0.0
 10
6595.77577805892
 20
5296.001732376553
 30
0.0
 10
6596.062386077076
 20
5296.1672809632
 30
0.0
 10
6596.205697014478
 20
5296.250059258415
 30
0.0
  0
SPLINE
  5
18B
330
1F
100
AcDbEntity
  8
0
  6
Continuous
 62
     7
370
    25
100
AcDbSpline
210
0.0
220
0.0
230
1.0
 70
     8
 71
     3
 72
     9
 73
     5
 74
     0
 42
0.000000001
 43
0.00000001
 40
0.0
 40
0.0
 40
0.0
 40
0.0
 40
0.4999720731207873
 40
1.0
 40
1.0
 40
1.0
 40
1.0
 10
6595.345900013593
 20
5294.165871095134
 30
0.0
 10
6595.489188614594
 20
5294.248653703396
 30
0.0
 10
6595.775781823906
 20
5294.414228167877
 30
0.0
 10
6596.062386614968
 20
5294.57978234077
 30
0.0
 10
6596.205697014478
 20
5294.662564050628
 30
0.0
  0
SPLINE
  5
18C
330
1F
100
AcDbEntity
  8
0
  6
Continuous
 62
     7
370
    25
100
AcDbSpline
210
0.0
220
0.0
230
1.0
 70
     8
 71
     3
 72
     9
 73
     5
 74
     0
 42
0.000000001
 43
0.00000001
 40
0.0
 40
0.0
 40
0.0
 40
0.0
 40
0.4999758264846343
 40
1.0
 40
1.0
 40
1.0
 40
1.0
 10
6595.345900013593
 20
5292.578368436767
 30
0.0
 10
6595.489188076777
 20
5292.661154459543
 30
0.0
 10
6595.77577805892
 20
5292.8267345104
 30
0.0
 10
6596.062386077076
 20
5292.992283097046
 30
0.0
 10
6596.205697014478
 20
5293.075061392261
 30
0.0
  0
SPLINE
  5
18D
330
1F
100
AcDbEntity
  8
0
  6
Continuous
 62
     7
370
    25
100
AcDbSpline
210
0.0
220
0.0
230
1.0
 70
     8
 71
     3
 72
     9
 73
     5
 74
     0
 42
0.000000001
 43
0.00000001
 40
0.0
 40
0.0
 40
0.0
 40
0.0
 40
0.4999758264846343
 40
1.0
 40
1.0
 40
1.0
 40
1.0
 10
6595.345900013593
 20
5290.9908657784
 30
0.0
 10
6595.489188076777
 20
5291.073651801176
 30
0.0
 10
6595.77577805892
 20
5291.239231852032
 30
0.0
 10
6596.062386077076
 20
5291.404780438679
 30
0.0
 10
6596.205697014478
 20
5291.487558733894
 30
0.0
  0
SPLINE
  5
18E
330
1F
100
AcDbEntity
  8
0
  6
Continuous
 62
     7
370
    25
100
AcDbSpline
210
0.0
220
0.0
230
1.0
 70
     8
 71
     3
 72
     9
 73
     5
 74
     0
 42
0.000000001
 43
0.00000001
 40
0.0
 40
0.0
 40
0.0
 40
0.0
 40
0.7916671961598842
 40
1.0
 40
1.0
 40
1.0
 40
1.0
 10
6595.345900013593
 20
5297.340868961288
 30
0.0
 10
6595.489186251729
 20
5297.423655671975
 30
0.0
 10
6595.670179273584
 20
5297.528228289219
 30
0.0
 10
6595.851188225105
 20
5297.632773176157
 30
0.0
 10
6595.888898327496
 20
5297.65455330558
 30
0.0
  0
SPLINE
  5
18F
330
1F
100
AcDbEntity
  8
0
  6
Continuous
 62
     7
370
    25
100
AcDbSpline
210
0.0
220
0.0
230
1.0
 70
     8
 71
     3
 72
     9
 73
     5
 74
     0
 42
0.000000001
 43
0.00000001
 40
0.0
 40
0.0
 40
0.0
 40
0.0
 40
0.4999720731207873
 40
1.0
 40
1.0
 40
1.0
 40
1.0
 10
6570.639119103101
 20
5296.366988670303
 30
0.0
 10
6570.495830502098
 20
5296.284206062041
 30
0.0
 10
6570.209237292786
 20
5296.11863159756
 30
0.0
 10
6569.922632501724
 20
5295.953077424667
 30
0.0
 10
6569.779322102216
 20
5295.870295714809
 30
0.0
  0
SPLINE
  5
190
330
1F
100
AcDbEntity
  8
0
  6
Continuous
 62
     7
370
    25
100
AcDbSpline
210
0.0
220
0.0
230
1.0
 70
     8
 71
     3
 72
     9
 73
     5
 74
     0
 42
0.000000001
 43
0.00000001
 40
0.0
 40
0.0
 40
0.0
 40
0.0
 40
0.4999739496071587
 40
1.0
 40
1.0
 40
1.0
 40
1.0
 10
6570.639119103101
 20
5294.779486011936
 30
0.0
 10
6570.495830770978
 20
5294.696702938199
 30
0.0
 10
6570.209239175084
 20
5294.531128164152
 30
0.0
 10
6569.922632770645
 20
5294.365579267808
 30
0.0
 10
6569.779322102216
 20
5294.282800507022
 30
0.0
  0
SPLINE
  5
191
330
1F
100
AcDbEntity
  8
0
  6
Continuous
 62
     7
370
    25
100
AcDbSpline
210
0.0
220
0.0
230
1.0
 70
     8
 71
     3
 72
     9
 73
     5
 74
     0
 42
0.000000001
 43
0.00000001
 40
0.0
 40
0.0
 40
0.0
 40
0.0
 40
0.4999739496071587
 40
1.0
 40
1.0
 40
1.0
 40
1.0
 10
6570.639119103101
 20
5293.191983353569
 30
0.0
 10
6570.495830770978
 20
5293.109200279832
 30
0.0
 10
6570.209239175084
 20
5292.943625505784
 30
0.0
 10
6569.922632770645
 20
5292.778076609441
 30
0.0
 10
6569.779322102216
 20
5292.695297848655
 30
0.0
  0
SPLINE
  5
192
330
1F
100
AcDbEntity
  8
0
  6
Continuous
 62
     7
370
    25
100
AcDbSpline
210
0.0
220
0.0
230
1.0
 70
     8
 71
     3
 72
     9
 73
     5
 74
     0
 42
0.000000001
 43
0.00000001
 40
0.0
 40
0.0
 40
0.0
 40
0.0
 40
0.4999739496071587
 40
1.0
 40
1.0
 40
1.0
 40
1.0
 10
6570.639119103101
 20
5291.604488145782
 30
0.0
 10
6570.495830770978
 20
5291.521705072046
 30
0.0
 10
6570.209239175084
 20
5291.356130297998
 30
0.0
 10
6569.922632770645
 20
5291.190581401655
 30
0.0
 10
6569.779322102216
 20
5291.107802640869
 30
0.0
  0
LINE
  5
193
330
1F
100
AcDbEntity
  8
0
  6
Continuous
 62
     7
370
    25
100
AcDbLine
 10
6570.6391191031
 20
5290.0169854874
 30
0.0
 11
6570.4491591002
 21
5289.9072458858
 31
0.0
  0
SPLINE
  5
194
330
1F
100
AcDbEntity
  8
0
  6
Continuous
 62
     7
370
    25
100
AcDbSpline
210
0.0
220
0.0
230
1.0
 70
     8
 71
     3
 72
     9
 73
     5
 74
     0
 42
0.000000001
 43
0.00000001
 40
0.0
 40
0.0
 40
0.0
 40
0.0
 40
0.5046097589672733
 40
1.0
 40
1.0
 40
1.0
 40
1.0
 10
6596.205697014478
 20
5295.076548110916
 30
0.0
 10
6596.062386486306
 20
5295.159327116598
 30
0.0
 10
6595.778383797843
 20
5295.323372706704
 30
0.0
 10
6595.494393997634
 20
5295.487440821201
 30
0.0
 10
6595.353708222058
 20
5295.568718563987
 30
0.0
  0
SPLINE
  5
195
330
1F
100
AcDbEntity
  8
0
  6
Continuous
 62
     7
370
    25
100
AcDbSpline
210
0.0
220
0.0
230
1.0
 70
     8
 71
     3
 72
     9
 73
     5
 74
     0
 42
0.000000001
 43
0.00000001
 40
0.0
 40
0.0
 40
0.0
 40
0.0
 40
0.5046097589672733
 40
1.0
 40
1.0
 40
1.0
 40
1.0
 10
6596.205697014478
 20
5293.489052903129
 30
0.0
 10
6596.062386486306
 20
5293.571831908812
 30
0.0
 10
6595.778383797843
 20
5293.735877498917
 30
0.0
 10
6595.494393997634
 20
5293.899945613414
 30
0.0
 10
6595.353708222058
 20
5293.981223356201
 30
0.0
  0
SPLINE
  5
196
330
1F
100
AcDbEntity
  8
0
  6
Continuous
 62
     7
370
    25
100
AcDbSpline
210
0.0
220
0.0
230
1.0
 70
     8
 71
     3
 72
     9
 73
     5
 74
     0
 42
0.000000001
 43
0.00000001
 40
0.0
 40
0.0
 40
0.0
 40
0.0
 40
0.5046097589672733
 40
1.0
 40
1.0
 40
1.0
 40
1.0
 10
6596.205697014478
 20
5291.901550244762
 30
0.0
 10
6596.062386486306
 20
5291.984329250445
 30
0.0
 10
6595.778383797843
 20
5292.14837484055
 30
0.0
 10
6595.494393997634
 20
5292.312442955047
 30
0.0
 10
6595.353708222058
 20
5292.393720697833
 30
0.0
  0
SPLINE
  5
197
330
1F
100
AcDbEntity
  8
0
  6
Continuous
 62
     7
370
    25
100
AcDbSpline
210
0.0
220
0.0
230
1.0
 70
     8
 71
     3
 72
     9
 73
     5
 74
     0
 42
0.000000001
 43
0.00000001
 40
0.0
 40
0.0
 40
0.0
 40
0.0
 40
0.5046097589672733
 40
1.0
 40
1.0
 40
1.0
 40
1.0
 10
6596.205697014478
 20
5290.314047586395
 30
0.0
 10
6596.062386486306
 20
5290.396826592078
 30
0.0
 10
6595.778383797843
 20
5290.560872182183
 30
0.0
 10
6595.494393997634
 20
5290.72494029668
 30
0.0
 10
6595.353708222058
 20
5290.806218039466
 30
0.0
  0
SPLINE
  5
198
330
1F
100
AcDbEntity
  8
0
  6
Continuous
 62
     7
370
    25
100
AcDbSpline
210
0.0
220
0.0
230
1.0
 70
     8
 71
     3
 72
     9
 73
     5
 74
     0
 42
0.000000001
 43
0.00000001
 40
0.0
 40
0.0
 40
0.0
 40
0.0
 40
0.5046097589672733
 40
1.0
 40
1.0
 40
1.0
 40
1.0
 10
6596.205697014478
 20
5296.664050769283
 30
0.0
 10
6596.062386486306
 20
5296.746829774966
 30
0.0
 10
6595.778383797843
 20
5296.910875365071
 30
0.0
 10
6595.494393997634
 20
5297.074943479568
 30
0.0
 10
6595.353708222058
 20
5297.156221222354
 30
0.0
  0
SPLINE
  5
199
330
1F
100
AcDbEntity
  8
0
  6
Continuous
 62
     7
370
    25
100
AcDbSpline
210
0.0
220
0.0
230
1.0
 70
     8
 71
     3
 72
     9
 73
     5
 74
     0
 42
0.000000001
 43
0.00000001
 40
0.0
 40
0.0
 40
0.0
 40
0.0
 40
0.614946453355276
 40
1.0
 40
1.0
 40
1.0
 40
1.0
 10
6570.639119103101
 20
5297.954483878089
 30
0.0
 10
6570.495830996736
 20
5297.871700407734
 30
0.0
 10
6570.262821918331
 20
5297.737081417896
 30
0.0
 10
6570.029801260077
 20
5297.602482680401
 30
0.0
 10
6569.940075829175
 20
5297.550654959156
 30
0.0
  0
LINE
  5
19A
330
1F
100
AcDbEntity
  8
0
  6
Continuous
 62
     7
370
    25
100
AcDbLine
 10
6596.2130283858
 20
5296.2585901732
 30
0.0
 11
6596.2130283858
 21
5296.6552814359
 31
0.0
  0
LINE
  5
19B
330
1F
100
AcDbEntity
  8
0
  6
Continuous
 62
     7
370
    25
100
AcDbLine
 10
6596.2130283858
 20
5294.6710875148
 30
0.0
 11
6596.2130283858
 21
5295.0677787776
 31
0.0
  0
LINE
  5
19C
330
1F
100
AcDbEntity
  8
0
  6
Continuous
 62
     7
370
    25
100
AcDbLine
 10
6596.2130283858
 20
5293.083592307
 30
0.0
 11
6596.2130283858
 21
5293.4802761192
 31
0.0
  0
LINE
  5
19D
330
1F
100
AcDbEntity
  8
0
  6
Continuous
 62
     7
370
    25
100
AcDbLine
 10
6596.2130283858
 20
5291.4960896487
 30
0.0
 11
6596.2130283858
 21
5291.8927809114
 31
0.0
  0
LINE
  5
19E
330
1F
100
AcDbEntity
  8
0
  6
Continuous
 62
     7
370
    25
100
AcDbLine
 10
6596.2130283858
 20
5289.8941179628
 30
0.0
 11
6596.2130283858
 21
5290.305278253
 31
0.0
  0
LINE
  5
19F
330
1F
100
AcDbEntity
  8
0
  6
Continuous
 62
     7
370
    25
100
AcDbLine
 10
6569.7719907309
 20
5291.0991823191
 30
0.0
 11
6569.7719907309
 21
5290.7023122425
 31
0.0
  0
LINE
  5
1A0
330
1F
100
AcDbEntity
  8
0
  6
Continuous
 62
     7
370
    25
100
AcDbLine
 10
6569.7719907309
 20
5292.6866849775
 30
0.0
 11
6569.7719907309
 21
5292.2898074502
 31
0.0
  0
LINE
  5
1A1
330
1F
100
AcDbEntity
  8
0
  6
Continuous
 62
     7
370
    25
100
AcDbLine
 10
6569.7719907309
 20
5294.2741801853
 30
0.0
 11
6569.7719907309
 21
5293.8773101086
 31
0.0
  0
LINE
  5
1A2
330
1F
100
AcDbEntity
  8
0
  6
Continuous
 62
     7
370
    25
100
AcDbLine
 10
6569.7719907309
 20
5295.8616828436
 30
0.0
 11
6569.7719907309
 21
5295.4648053164
 31
0.0
  0
LINE
  5
1A3
330
1F
100
AcDbEntity
  8
0
  6
Continuous
 62
     7
370
    25
100
AcDbLine
 10
6569.7719907309
 20
5297.3941182608
 30
0.0
 11
6569.7719907309
 21
5297.0523079748
 31
0.0
  0
LINE
  5
1A4
330
1F
100
AcDbEntity
  8
0
  6
Continuous
 62
     7
370
    25
100
AcDbLine
 10
6570.6313108946
 20
5296.5568220133
 30
0.0
 11
6570.6313108946
 21
5296.3624736185
 31
0.0
  0
LINE
  5
1A5
330
1F
100
AcDbEntity
  8
0
  6
Continuous
 62
     7
370
    25
100
AcDbLine
 10
6570.6313108946
 20
5294.969319355
 30
0.0
 11
6570.6313108946
 21
5294.7749709601
 31
0.0
  0
LINE
  5
1A6
330
1F
100
AcDbEntity
  8
0
  6
Continuous
 62
     7
370
    25
100
AcDbLine
 10
6570.6313108946
 20
5293.3818166966
 30
0.0
 11
6570.6313108946
 21
5293.1874683017
 31
0.0
  0
LINE
  5
1A7
330
1F
100
AcDbEntity
  8
0
  6
Continuous
 62
     7
370
    25
100
AcDbLine
 10
6570.6313108946
 20
5291.7943214888
 30
0.0
 11
6570.6313108946
 21
5291.5999730939
 31
0.0
  0
LINE
  5
1A8
330
1F
100
AcDbEntity
  8
0
  6
Continuous
 62
     7
370
    25
100
AcDbLine
 10
6570.6313108946
 20
5290.2068188304
 30
0.0
 11
6570.6313108946
 21
5290.0124704356
 31
0.0
  0
LINE
  5
1A9
330
1F
100
AcDbEntity
  8
0
  6
Continuous
 62
     7
370
    25
100
AcDbLine
 10
6595.3537082221
 20
5295.5646281952
 30
0.0
 11
6595.3537082221
 21
5295.7578962559
 31
0.0
  0
LINE
  5
1AA
330
1F
100
AcDbEntity
  8
0
  6
Continuous
 62
     7
370
    25
100
AcDbLine
 10
6595.3537082221
 20
5293.9771329875
 30
0.0
 11
6595.3537082221
 21
5294.1703935976
 31
0.0
  0
LINE
  5
1AB
330
1F
100
AcDbEntity
  8
0
  6
Continuous
 62
     7
370
    25
100
AcDbLine
 10
6595.3537082221
 20
5292.3896303291
 30
0.0
 11
6595.3537082221
 21
5292.5828983898
 31
0.0
  0
LINE
  5
1AC
330
1F
100
AcDbEntity
  8
0
  6
Continuous
 62
     7
370
    25
100
AcDbLine
 10
6595.3537082221
 20
5290.8021276707
 30
0.0
 11
6595.3537082221
 21
5290.9953957314
 31
0.0
  0
LINE
  5
1AD
330
1F
100
AcDbEntity
  8
0
  6
Continuous
 62
     7
370
    25
100
AcDbLine
 10
6595.3537082221
 20
5297.1521308536
 30
0.0
 11
6595.3537082221
 21
5297.3453989143
 31
0.0
  0
LINE
  5
1AE
330
1F
100
AcDbEntity
  8
0
  6
Continuous
 62
     7
370
    25
100
AcDbLine
 10
6570.6313108946
 20
5298.1443172211
 30
0.0
 11
6570.6313108946
 21
5297.9499688262
 31
0.0
  0
LINE
  5
1AF
330
1F
100
AcDbEntity
  8
0
  6
Continuous
 62
     7
370
    25
100
AcDbLine
 10
6570.3716134573
 20
5129.7945072765
 30
0.0
 11
6571.2720012213
 21
5128.8941195125
 31
0.0
  0
LINE
  5
1B0
330
1F
100
AcDbEntity
  8
0
  6
Continuous
 62
     7
370
    25
100
AcDbLine
 10
6594.7130178954
 20
5128.8941195125
 30
0.0
 11
6596.1282705809
 21
5130.3093498463
 31
0.0
  0
LINE
  5
1B1
330
1F
100
AcDbEntity
  8
0
  6
Continuous
 62
     7
370
    25
100
AcDbLine
 10
6569.7719907309
 20
5131.0697635526
 30
0.0
 11
6569.7719907309
 21
5130.6730573887
 31
0.0
  0
LINE
  5
1B2
330
1F
100
AcDbEntity
  8
0
  6
Continuous
 62
     7
370
    25
100
AcDbLine
 10
6569.7719907309
 20
5132.6572587604
 30
0.0
 11
6569.7719907309
 21
5132.2605600471
 31
0.0
  0
LINE
  5
1B3
330
1F
100
AcDbEntity
  8
0
  6
Continuous
 62
     7
370
    25
100
AcDbLine
 10
6569.7719907309
 20
5134.2447614188
 30
0.0
 11
6569.7719907309
 21
5133.8480627055
 31
0.0
  0
LINE
  5
1B4
330
1F
100
AcDbEntity
  8
0
  6
Continuous
 62
     7
370
    25
100
AcDbLine
 10
6569.7719907309
 20
5135.8322640771
 30
0.0
 11
6569.7719907309
 21
5135.4355579133
 31
0.0
  0
LINE
  5
1B5
330
1F
100
AcDbEntity
  8
0
  6
Continuous
 62
     7
370
    25
100
AcDbLine
 10
6569.7719907309
 20
5137.4197592849
 30
0.0
 11
6569.7719907309
 21
5137.0230605716
 31
0.0
  0
LINE
  5
1B6
330
1F
100
AcDbEntity
  8
0
  6
Continuous
 62
     7
370
    25
100
AcDbLine
 10
6596.2130283858
 20
5137.8166368122
 30
0.0
 11
6596.2130283858
 21
5137.8941153998
 31
0.0
  0
LINE
  5
1B7
330
1F
100
AcDbEntity
  8
0
  6
Continuous
 62
     7
370
    25
100
AcDbLine
 10
6596.2130283858
 20
5136.2291341538
 30
0.0
 11
6596.2130283858
 21
5136.6262724514
 31
0.0
  0
LINE
  5
1B8
330
1F
100
AcDbEntity
  8
0
  6
Continuous
 62
     7
370
    25
100
AcDbLine
 10
6596.2130283858
 20
5134.641638946
 30
0.0
 11
6596.2130283858
 21
5135.0387772436
 31
0.0
  0
LINE
  5
1B9
330
1F
100
AcDbEntity
  8
0
  6
Continuous
 62
     7
370
    25
100
AcDbLine
 10
6596.2130283858
 20
5133.0541362876
 30
0.0
 11
6596.2130283858
 21
5133.4512745852
 31
0.0
  0
LINE
  5
1BA
330
1F
100
AcDbEntity
  8
0
  6
Continuous
 62
     7
370
    25
100
AcDbLine
 10
6596.2130283858
 20
5131.4666336293
 30
0.0
 11
6596.2130283858
 21
5131.8637719268
 31
0.0
  0
SPLINE
  5
1BB
330
1F
100
AcDbEntity
  8
0
  6
Continuous
 62
     7
370
    25
100
AcDbSpline
210
0.0
220
0.0
230
1.0
 70
     8
 71
     3
 72
     9
 73
     5
 74
     0
 42
0.000000001
 43
0.00000001
 40
0.0
 40
0.0
 40
0.0
 40
0.0
 40
0.5040537279697397
 40
1.0
 40
1.0
 40
1.0
 40
1.0
 10
6596.206591084149
 20
5131.871162902786
 30
0.0
 10
6596.063301525579
 20
5131.953933845155
 30
0.0
 10
6595.779027150408
 20
5132.118144400056
 30
0.0
 10
6595.494752687042
 20
5132.282355439176
 30
0.0
 10
6595.353767826703
 20
5132.363795291854
 30
0.0
  0
SPLINE
  5
1BC
330
1F
100
AcDbEntity
  8
0
  6
Continuous
 62
     7
370
    25
100
AcDbSpline
210
0.0
220
0.0
230
1.0
 70
     8
 71
     3
 72
     9
 73
     5
 74
     0
 42
0.000000001
 43
0.00000001
 40
0.0
 40
0.0
 40
0.0
 40
0.0
 40
0.5040537279697397
 40
1.0
 40
1.0
 40
1.0
 40
1.0
 10
6596.206591084149
 20
5133.458665561153
 30
0.0
 10
6596.063301525579
 20
5133.541436503522
 30
0.0
 10
6595.779027150408
 20
5133.705647058423
 30
0.0
 10
6595.494752687042
 20
5133.869858097543
 30
0.0
 10
6595.353767826703
 20
5133.951297950221
 30
0.0
  0
SPLINE
  5
1BD
330
1F
100
AcDbEntity
  8
0
  6
Continuous
 62
     7
370
    25
100
AcDbSpline
210
0.0
220
0.0
230
1.0
 70
     8
 71
     3
 72
     9
 73
     5
 74
     0
 42
0.000000001
 43
0.00000001
 40
0.0
 40
0.0
 40
0.0
 40
0.0
 40
0.5040556046095309
 40
1.0
 40
1.0
 40
1.0
 40
1.0
 10
6596.206591084149
 20
5135.046160768939
 30
0.0
 10
6596.063301796681
 20
5135.128934664152
 30
0.0
 10
6595.779029017731
 20
5135.293150465849
 30
0.0
 10
6595.49475294949
 20
5135.457361210244
 30
0.0
 10
6595.353767826703
 20
5135.538800608589
 30
0.0
  0
SPLINE
  5
1BE
330
1F
100
AcDbEntity
  8
0
  6
Continuous
 62
     7
370
    25
100
AcDbSpline
210
0.0
220
0.0
230
1.0
 70
     8
 71
     3
 72
     9
 73
     5
 74
     0
 42
0.000000001
 43
0.00000001
 40
0.0
 40
0.0
 40
0.0
 40
0.0
 40
0.5040537279697397
 40
1.0
 40
1.0
 40
1.0
 40
1.0
 10
6596.206591084149
 20
5136.633663427307
 30
0.0
 10
6596.063301525579
 20
5136.716434369676
 30
0.0
 10
6595.779027150408
 20
5136.880644924577
 30
0.0
 10
6595.494752687042
 20
5137.044855963697
 30
0.0
 10
6595.353767826703
 20
5137.126295816375
 30
0.0
  0
SPLINE
  5
1BF
330
1F
100
AcDbEntity
  8
0
  6
Continuous
 62
     7
370
    25
100
AcDbSpline
210
0.0
220
0.0
230
1.0
 70
     8
 71
     3
 72
     9
 73
     5
 74
     0
 42
0.000000001
 43
0.00000001
 40
0.0
 40
0.0
 40
0.0
 40
0.0
 40
0.4999738538668175
 40
1.0
 40
1.0
 40
1.0
 40
1.0
 10
6570.638165428784
 20
5131.574041199161
 30
0.0
 10
6570.494896951676
 20
5131.491268051868
 30
0.0
 10
6570.208345013012
 20
5131.325713100039
 30
0.0
 10
6569.921778424202
 20
5131.160184117903
 30
0.0
 10
6569.778487637189
 20
5131.077415298892
 30
0.0
  0
SPLINE
  5
1C0
330
1F
100
AcDbEntity
  8
0
  6
Continuous
 62
     7
370
    25
100
AcDbSpline
210
0.0
220
0.0
230
1.0
 70
     8
 71
     3
 72
     9
 73
     5
 74
     0
 42
0.000000001
 43
0.00000001
 40
0.0
 40
0.0
 40
0.0
 40
0.0
 40
0.4999719771033228
 40
1.0
 40
1.0
 40
1.0
 40
1.0
 10
6570.638165428784
 20
5133.161543857528
 30
0.0
 10
6570.494896682796
 20
5133.078771175705
 30
0.0
 10
6570.208343130698
 20
5132.913216533417
 30
0.0
 10
6569.921778155279
 20
5132.747682274758
 30
0.0
 10
6569.778487637189
 20
5132.664910506679
 30
0.0
  0
SPLINE
  5
1C1
330
1F
100
AcDbEntity
  8
0
  6
Continuous
 62
     7
370
    25
100
AcDbSpline
210
0.0
220
0.0
230
1.0
 70
     8
 71
     3
 72
     9
 73
     5
 74
     0
 42
0.000000001
 43
0.00000001
 40
0.0
 40
0.0
 40
0.0
 40
0.0
 40
0.4999738538668175
 40
1.0
 40
1.0
 40
1.0
 40
1.0
 10
6570.638165428784
 20
5134.749039065315
 30
0.0
 10
6570.494896951676
 20
5134.666265918022
 30
0.0
 10
6570.208345013012
 20
5134.500710966193
 30
0.0
 10
6569.921778424202
 20
5134.335181984056
 30
0.0
 10
6569.778487637189
 20
5134.252413165046
 30
0.0
  0
SPLINE
  5
1C2
330
1F
100
AcDbEntity
  8
0
  6
Continuous
 62
     7
370
    25
100
AcDbSpline
210
0.0
220
0.0
230
1.0
 70
     8
 71
     3
 72
     9
 73
     5
 74
     0
 42
0.000000001
 43
0.00000001
 40
0.0
 40
0.0
 40
0.0
 40
0.0
 40
0.4999738538668175
 40
1.0
 40
1.0
 40
1.0
 40
1.0
 10
6570.638165428784
 20
5136.336541723682
 30
0.0
 10
6570.494896951676
 20
5136.253768576389
 30
0.0
 10
6570.208345013012
 20
5136.08821362456
 30
0.0
 10
6569.921778424202
 20
5135.922684642424
 30
0.0
 10
6569.778487637189
 20
5135.839915823413
 30
0.0
  0
SPLINE
  5
1C3
330
1F
100
AcDbEntity
  8
0
  6
Continuous
 62
     7
370
    25
100
AcDbSpline
210
0.0
220
0.0
230
1.0
 70
     8
 71
     3
 72
     9
 73
     5
 74
     0
 42
0.000000001
 43
0.00000001
 40
0.0
 40
0.0
 40
0.0
 40
0.0
 40
0.4679154238079029
 40
1.0
 40
1.0
 40
1.0
 40
1.0
 10
6570.586368992474
 20
5137.894115399791
 30
0.0
 10
6570.460365871142
 20
5137.821316318878
 30
0.0
 10
6570.191079767456
 20
5137.66573461071
 30
0.0
 10
6569.921778622676
 20
5137.510179504149
 30
0.0
 10
6569.778487637189
 20
5137.4274110312
 30
0.0
  0
LINE
  5
1C4
330
1F
100
AcDbEntity
  8
0
  6
Continuous
 62
     7
370
    25
100
AcDbLine
 10
6570.6381654288
 20
5129.9865385408
 30
0.0
 11
6570.375189736
 21
5129.8346063013
 31
0.0
  0
SPLINE
  5
1C5
330
1F
100
AcDbEntity
  8
0
  6
Continuous
 62
     7
370
    25
100
AcDbSpline
210
0.0
220
0.0
230
1.0
 70
     8
 71
     3
 72
     9
 73
     5
 74
     0
 42
0.000000001
 43
0.00000001
 40
0.0
 40
0.0
 40
0.0
 40
0.0
 40
0.4387439254713636
 40
1.0
 40
1.0
 40
1.0
 40
1.0
 10
6596.107349350598
 20
5130.340985011531
 30
0.0
 10
6595.997140668762
 20
5130.404650716499
 30
0.0
 10
6595.745949312169
 20
5130.549759745414
 30
0.0
 10
6595.494753181141
 20
5130.69486107911
 30
0.0
 10
6595.353767826703
 20
5130.776300084068
 30
0.0
  0
SPLINE
  5
1C6
330
1F
100
AcDbEntity
  8
0
  6
Continuous
 62
     7
370
    25
100
AcDbSpline
210
0.0
220
0.0
230
1.0
 70
    24
 71
     3
 72
     9
 73
     5
 74
     0
 42
0.000000001
 43
0.00000001
 40
0.0
 40
0.0
 40
0.0
 40
0.0
 40
0.4999998918818558
 40
1.0
 40
1.0
 40
1.0
 40
1.0
 10
6595.346853687909
 20
5132.55009705968
 30
0.0
 10
6595.490143269441
 20
5132.632868052007
 30
0.0
 10
6595.776722494475
 20
5132.798410072458
 30
0.0
 10
6596.063301533601
 20
5132.96395198552
 30
0.0
 10
6596.206591084149
 20
5133.046722959949
 30
0.0
  0
SPLINE
  5
1C7
330
1F
100
AcDbEntity
  8
0
  6
Continuous
 62
     7
370
    25
100
AcDbSpline
210
0.0
220
0.0
230
1.0
 70
     8
 71
     3
 72
     9
 73
     5
 74
     0
 42
0.000000001
 43
0.00000001
 40
0.0
 40
0.0
 40
0.0
 40
0.0
 40
0.5000017686177634
 40
1.0
 40
1.0
 40
1.0
 40
1.0
 10
6595.346853687909
 20
5134.137599718048
 30
0.0
 10
6595.490143000522
 20
5134.220371175923
 30
0.0
 10
6595.776720612058
 20
5134.385913506111
 30
0.0
 10
6596.063301264686
 20
5134.551450142375
 30
0.0
 10
6596.206591084149
 20
5134.634218167736
 30
0.0
  0
SPLINE
  5
1C8
330
1F
100
AcDbEntity
  8
0
  6
Continuous
 62
     7
370
    25
100
AcDbSpline
210
0.0
220
0.0
230
1.0
 70
    24
 71
     3
 72
     9
 73
     5
 74
     0
 42
0.000000001
 43
0.00000001
 40
0.0
 40
0.0
 40
0.0
 40
0.0
 40
0.4999998918818558
 40
1.0
 40
1.0
 40
1.0
 40
1.0
 10
6595.346853687909
 20
5135.725094925834
 30
0.0
 10
6595.490143269441
 20
5135.807865918161
 30
0.0
 10
6595.776722494475
 20
5135.973407938612
 30
0.0
 10
6596.063301533601
 20
5136.138949851674
 30
0.0
 10
6596.206591084149
 20
5136.221720826103
 30
0.0
  0
SPLINE
  5
1C9
330
1F
100
AcDbEntity
  8
0
  6
Continuous
 62
     7
370
    25
100
AcDbSpline
210
0.0
220
0.0
230
1.0
 70
    24
 71
     3
 72
     9
 73
     5
 74
     0
 42
0.000000001
 43
0.00000001
 40
0.0
 40
0.0
 40
0.0
 40
0.0
 40
0.4999998918818558
 40
1.0
 40
1.0
 40
1.0
 40
1.0
 10
6595.346853687909
 20
5137.312597584201
 30
0.0
 10
6595.490143269441
 20
5137.395368576528
 30
0.0
 10
6595.776722494475
 20
5137.560910596979
 30
0.0
 10
6596.063301533601
 20
5137.726452510041
 30
0.0
 10
6596.206591084149
 20
5137.80922348447
 30
0.0
  0
SPLINE
  5
1CA
330
1F
100
AcDbEntity
  8
0
  6
Continuous
 62
     7
370
    25
100
AcDbSpline
210
0.0
220
0.0
230
1.0
 70
     8
 71
     3
 72
     9
 73
     5
 74
     0
 42
0.000000001
 43
0.00000001
 40
0.0
 40
0.0
 40
0.0
 40
0.0
 40
0.5040801057936727
 40
1.0
 40
1.0
 40
1.0
 40
1.0
 10
6569.778487637189
 20
5132.252975356056
 30
0.0
 10
6569.921778474779
 20
5132.170206615089
 30
0.0
 10
6570.206040511594
 20
5132.006009020272
 30
0.0
 10
6570.490287535811
 20
5131.841784950363
 30
0.0
 10
6570.63125128999
 20
5131.760342966987
 30
0.0
  0
SPLINE
  5
1CB
330
1F
100
AcDbEntity
  8
0
  6
Continuous
 62
     7
370
    25
100
AcDbSpline
210
0.0
220
0.0
230
1.0
 70
     8
 71
     3
 72
     9
 73
     5
 74
     0
 42
0.000000001
 43
0.00000001
 40
0.0
 40
0.0
 40
0.0
 40
0.0
 40
0.5040801057936727
 40
1.0
 40
1.0
 40
1.0
 40
1.0
 10
6569.778487637189
 20
5133.840470563842
 30
0.0
 10
6569.921778474779
 20
5133.757701822876
 30
0.0
 10
6570.206040511594
 20
5133.593504228059
 30
0.0
 10
6570.490287535811
 20
5133.42928015815
 30
0.0
 10
6570.63125128999
 20
5133.347838174774
 30
0.0
  0
SPLINE
  5
1CC
330
1F
100
AcDbEntity
  8
0
  6
Continuous
 62
     7
370
    25
100
AcDbSpline
210
0.0
220
0.0
230
1.0
 70
     8
 71
     3
 72
     9
 73
     5
 74
     0
 42
0.000000001
 43
0.00000001
 40
0.0
 40
0.0
 40
0.0
 40
0.0
 40
0.5040801057936727
 40
1.0
 40
1.0
 40
1.0
 40
1.0
 10
6569.778487637189
 20
5135.427973222209
 30
0.0
 10
6569.921778474779
 20
5135.345204481243
 30
0.0
 10
6570.206040511594
 20
5135.181006886426
 30
0.0
 10
6570.490287535811
 20
5135.016782816517
 30
0.0
 10
6570.63125128999
 20
5134.935340833141
 30
0.0
  0
SPLINE
  5
1CD
330
1F
100
AcDbEntity
  8
0
  6
Continuous
 62
     7
370
    25
100
AcDbSpline
210
0.0
220
0.0
230
1.0
 70
     8
 71
     3
 72
     9
 73
     5
 74
     0
 42
0.000000001
 43
0.00000001
 40
0.0
 40
0.0
 40
0.0
 40
0.0
 40
0.5040820134881523
 40
1.0
 40
1.0
 40
1.0
 40
1.0
 10
6569.778487637189
 20
5137.015468429996
 30
0.0
 10
6569.92177819919
 20
5136.932699212002
 30
0.0
 10
6570.206038613503
 20
5136.76850129226
 30
0.0
 10
6570.490287269058
 20
5136.604282529623
 30
0.0
 10
6570.63125128999
 20
5136.522843491508
 30
0.0
  0
SPLINE
  5
1CE
330
1F
100
AcDbEntity
  8
0
  6
Continuous
 62
     7
370
    25
100
AcDbSpline
210
0.0
220
0.0
230
1.0
 70
     8
 71
     3
 72
     9
 73
     5
 74
     0
 42
0.000000001
 43
0.00000001
 40
0.0
 40
0.0
 40
0.0
 40
0.0
 40
0.5040801057936727
 40
1.0
 40
1.0
 40
1.0
 40
1.0
 10
6569.778487637189
 20
5130.665472697689
 30
0.0
 10
6569.921778474779
 20
5130.582703956722
 30
0.0
 10
6570.206040511594
 20
5130.418506361905
 30
0.0
 10
6570.490287535811
 20
5130.254282291996
 30
0.0
 10
6570.63125128999
 20
5130.17284030862
 30
0.0
  0
SPLINE
  5
1CF
330
1F
100
AcDbEntity
  8
0
  6
Continuous
 62
     7
370
    25
100
AcDbSpline
210
0.0
220
0.0
230
1.0
 70
    24
 71
     3
 72
     9
 73
     5
 74
     0
 42
0.000000001
 43
0.00000001
 40
0.0
 40
0.0
 40
0.0
 40
0.0
 40
0.4999998918818558
 40
1.0
 40
1.0
 40
1.0
 40
1.0
 10
6595.346853687909
 20
5130.962594401313
 30
0.0
 10
6595.490143269441
 20
5131.04536539364
 30
0.0
 10
6595.776722494475
 20
5131.210907414091
 30
0.0
 10
6596.063301533601
 20
5131.376449327153
 30
0.0
 10
6596.206591084149
 20
5131.459220301582
 30
0.0
  0
LINE
  5
1D0
330
1F
100
AcDbEntity
  8
0
  6
Continuous
 62
     7
370
    25
100
AcDbLine
 10
6595.3537678267
 20
5132.3595931644
 30
0.0
 11
6595.3537678267
 21
5132.5540905709
 31
0.0
  0
LINE
  5
1D1
330
1F
100
AcDbEntity
  8
0
  6
Continuous
 62
     7
370
    25
100
AcDbLine
 10
6595.3537678267
 20
5133.9470883722
 30
0.0
 11
6595.3537678267
 21
5134.1415857787
 31
0.0
  0
LINE
  5
1D2
330
1F
100
AcDbEntity
  8
0
  6
Continuous
 62
     7
370
    25
100
AcDbLine
 10
6595.3537678267
 20
5135.5345910306
 30
0.0
 11
6595.3537678267
 21
5135.729088437
 31
0.0
  0
LINE
  5
1D3
330
1F
100
AcDbEntity
  8
0
  6
Continuous
 62
     7
370
    25
100
AcDbLine
 10
6595.3537678267
 20
5137.1220936889
 30
0.0
 11
6595.3537678267
 21
5137.3165910954
 31
0.0
  0
LINE
  5
1D4
330
1F
100
AcDbEntity
  8
0
  6
Continuous
 62
     7
370
    25
100
AcDbLine
 10
6570.63125129
 20
5131.7643960828
 30
0.0
 11
6570.63125129
 21
5131.570047688
 31
0.0
  0
LINE
  5
1D5
330
1F
100
AcDbEntity
  8
0
  6
Continuous
 62
     7
370
    25
100
AcDbLine
 10
6570.63125129
 20
5133.3518987412
 30
0.0
 11
6570.63125129
 21
5133.1575503463
 31
0.0
  0
LINE
  5
1D6
330
1F
100
AcDbEntity
  8
0
  6
Continuous
 62
     7
370
    25
100
AcDbLine
 10
6570.63125129
 20
5134.939393949
 30
0.0
 11
6570.63125129
 21
5134.7450455541
 31
0.0
  0
LINE
  5
1D7
330
1F
100
AcDbEntity
  8
0
  6
Continuous
 62
     7
370
    25
100
AcDbLine
 10
6570.63125129
 20
5136.5268966074
 30
0.0
 11
6570.63125129
 21
5136.3325482125
 31
0.0
  0
LINE
  5
1D8
330
1F
100
AcDbEntity
  8
0
  6
Continuous
 62
     7
370
    25
100
AcDbLine
 10
6570.63125129
 20
5130.1768934245
 30
0.0
 11
6570.63125129
 21
5129.9825450296
 31
0.0
  0
LINE
  5
1D9
330
1F
100
AcDbEntity
  8
0
  6
Continuous
 62
     7
370
    25
100
AcDbLine
 10
6595.3537678267
 20
5130.772090506
 30
0.0
 11
6595.3537678267
 21
5130.9665879125
 31
0.0
  0
LINE
  5
1DA
330
1F
100
AcDbEntity
  8
0
  6
Continuous
 62
     7
370
    25
100
AcDbLine
 10
6627.0925259139
 20
5143.8941201086
 30
0.0
 11
6627.4925326849
 21
5143.8941201086
 31
0.0
  0
LINE
  5
1DB
330
1F
100
AcDbEntity
  8
0
  6
Continuous
 62
     7
370
    25
100
AcDbLine
 10
6627.0925259139
 20
5143.8941201086
 30
0.0
 11
6627.0925259139
 21
5163.016657334
 31
0.0
  0
LINE
  5
1DC
330
1F
100
AcDbEntity
  8
0
  6
Continuous
 62
     7
370
    25
100
AcDbLine
 10
6627.0925259139
 20
5283.894113254
 30
0.0
 11
6627.0925259139
 21
5264.7715760285
 31
0.0
  0
LINE
  5
1DD
330
1F
100
AcDbEntity
  8
0
  6
Continuous
 62
     7
370
    25
100
AcDbLine
 10
6627.0925259139
 20
5283.894113254
 30
0.0
 11
6627.4925326849
 21
5283.894113254
 31
0.0
  0
LINE
  5
1DE
330
1F
100
AcDbEntity
  8
0
  6
Continuous
 62
     7
370
    25
100
AcDbLine
 10
6627.0925259139
 20
5264.7715760285
 30
0.0
 11
6627.0925259139
 21
5163.016657334
 31
0.0
  0
LINE
  5
1DF
330
1F
100
AcDbEntity
  8
0
  6
Continuous
 62
     7
370
    25
100
AcDbLine
 10
6557.4925398375
 20
5262.9088340218
 30
0.0
 11
6557.4925398375
 21
5268.323048007
 31
0.0
  0
LINE
  5
1E0
330
1F
100
AcDbEntity
  8
0
  6
Continuous
 62
     7
370
    25
100
AcDbLine
 10
6627.0925259139
 20
5268.323048007
 30
0.0
 11
6557.4925398375
 21
5268.323048007
 31
0.0
  0
LINE
  5
1E1
330
1F
100
AcDbEntity
  8
0
  6
Continuous
 62
     7
370
    25
100
AcDbLine
 10
6627.0925259139
 20
5262.9088340218
 30
0.0
 11
6557.4925398375
 21
5262.9088340218
 31
0.0
  0
LINE
  5
1E2
330
1F
100
AcDbEntity
  8
0
  6
Continuous
 62
     7
370
    25
100
AcDbLine
 10
6627.0925259139
 20
5155.222545367
 30
0.0
 11
6557.4925398375
 21
5155.222545367
 31
0.0
  0
LINE
  5
1E3
330
1F
100
AcDbEntity
  8
0
  6
Continuous
 62
     7
370
    25
100
AcDbLine
 10
6557.4925398375
 20
5155.222545367
 30
0.0
 11
6557.4925398375
 21
5148.3941143269
 31
0.0
  0
LINE
  5
1E4
330
1F
100
AcDbEntity
  8
0
  6
Continuous
 62
     7
370
    25
100
AcDbLine
 10
6627.0925259139
 20
5159.4651853556
 30
0.0
 11
6557.4925398375
 21
5159.4651853556
 31
0.0
  0
LINE
  5
1E5
330
1F
100
AcDbEntity
  8
0
  6
Continuous
 62
     7
370
    25
100
AcDbLine
 10
6627.0925259139
 20
5164.8793993408
 30
0.0
 11
6557.4925398375
 21
5164.8793993408
 31
0.0
  0
LINE
  5
1E6
330
1F
100
AcDbEntity
  8
0
  6
Continuous
 62
     7
370
    25
100
AcDbLine
 10
6557.4925398375
 20
5164.8793993408
 30
0.0
 11
6557.4925398375
 21
5159.4651853556
 31
0.0
  0
LINE
  5
1E7
330
1F
100
AcDbEntity
  8
0
  6
Continuous
 62
     7
370
    25
100
AcDbLine
 10
6627.0925259139
 20
5272.5656879956
 30
0.0
 11
6557.4925398375
 21
5272.5656879956
 31
0.0
  0
LINE
  5
1E8
330
1F
100
AcDbEntity
  8
0
  6
Continuous
 62
     7
370
    25
100
AcDbLine
 10
6557.4925398375
 20
5272.5656879956
 30
0.0
 11
6557.4925398375
 21
5279.3941190357
 31
0.0
  0
LINE
  5
1E9
330
1F
100
AcDbEntity
  8
0
  6
Continuous
 62
     7
370
    25
100
AcDbLine
 10
6557.4925398375
 20
5164.8793993408
 30
0.0
 11
6557.4925398375
 21
5262.9088340218
 31
0.0
  0
LINE
  5
1EA
330
1F
100
AcDbEntity
  8
0
  6
Continuous
 62
     7
370
    25
100
AcDbLine
 10
6557.4925398375
 20
5159.4651853556
 30
0.0
 11
6557.4925398375
 21
5155.222545367
 31
0.0
  0
LINE
  5
1EB
330
1F
100
AcDbEntity
  8
0
  6
Continuous
 62
     7
370
    25
100
AcDbLine
 10
6557.4925398375
 20
5268.323048007
 30
0.0
 11
6557.4925398375
 21
5272.5656879956
 31
0.0
  0
LINE
  5
1EC
330
1F
100
AcDbEntity
  8
0
  6
Continuous
 62
     7
370
    25
100
AcDbLine
 10
6627.0925259139
 20
5148.3941143269
 30
0.0
 11
6557.4925398375
 21
5148.3941143269
 31
0.0
  0
LINE
  5
1ED
330
1F
100
AcDbEntity
  8
0
  6
Continuous
 62
     7
370
    25
100
AcDbLine
 10
6627.0925259139
 20
5279.3941190357
 30
0.0
 11
6557.4925398375
 21
5279.3941190357
 31
0.0
  0
LINE
  5
1EE
330
1F
100
AcDbEntity
  8
0
  6
Continuous
 62
     7
370
    25
100
AcDbLine
 10
6640.6299924399
 20
5263.6130219216
 30
0.0
 11
6640.6050180937
 21
5263.6130219216
 31
0.0
  0
LINE
  5
1EF
330
1F
100
AcDbEntity
  8
0
  6
Continuous
 62
     7
370
    25
100
AcDbLine
 10
6640.6299924399
 20
5263.6218843872
 30
0.0
 11
6640.6050180937
 21
5263.6218843872
 31
0.0
  0
LINE
  5
1F0
330
1F
100
AcDbEntity
  8
0
  6
Continuous
 62
     7
370
    25
100
AcDbLine
 10
6640.6299924399
 20
5258.7847364957
 30
0.0
 11
6640.6299924399
 21
5258.8596595342
 31
0.0
  0
LINE
  5
1F1
330
1F
100
AcDbEntity
  8
0
  6
Continuous
 62
     7
370
    25
100
AcDbLine
 10
6640.6050180937
 20
5258.7847364957
 30
0.0
 11
6640.6050180937
 21
5258.8596595342
 31
0.0
  0
LINE
  5
1F2
330
1F
100
AcDbEntity
  8
0
  6
Continuous
 62
     7
370
    25
100
AcDbLine
 10
6640.6299924399
 20
5257.2554452235
 30
0.0
 11
6640.6299924399
 21
5256.4776455874
 31
0.0
  0
LINE
  5
1F3
330
1F
100
AcDbEntity
  8
0
  6
Continuous
 62
     7
370
    25
100
AcDbLine
 10
6640.6299924399
 20
5256.4776455874
 30
0.0
 11
6640.6050180937
 21
5256.4776455874
 31
0.0
  0
LINE
  5
1F4
330
1F
100
AcDbEntity
  8
0
  6
Continuous
 62
     7
370
    25
100
AcDbLine
 10
6640.6050180937
 20
5257.2554452235
 30
0.0
 11
6640.6050180937
 21
5256.4776455874
 31
0.0
  0
LINE
  5
1F5
330
1F
100
AcDbEntity
  8
0
  6
Continuous
 62
     7
370
    25
100
AcDbLine
 10
6640.6299924399
 20
5257.2554452235
 30
0.0
 11
6640.6050180937
 21
5257.2554452235
 31
0.0
  0
LINE
  5
1F6
330
1F
100
AcDbEntity
  8
0
  6
Continuous
 62
     7
370
    25
100
AcDbLine
 10
6640.6299924399
 20
5261.4452345187
 30
0.0
 11
6640.6050180937
 21
5261.4452345187
 31
0.0
  0
LINE
  5
1F7
330
1F
100
AcDbEntity
  8
0
  6
Continuous
 62
     7
370
    25
100
AcDbLine
 10
6640.6299924399
 20
5259.9282404298
 30
0.0
 11
6640.6050180937
 21
5259.9282404298
 31
0.0
  0
LINE
  5
1F8
330
1F
100
AcDbEntity
  8
0
  6
Continuous
 62
     7
370
    25
100
AcDbLine
 10
6640.6299924399
 20
5262.8766884918
 30
0.0
 11
6640.6050180937
 21
5262.8766884918
 31
0.0
  0
LINE
  5
1F9
330
1F
100
AcDbEntity
  8
0
  6
Continuous
 62
     7
370
    25
100
AcDbLine
 10
6640.6299924399
 20
5258.8596595342
 30
0.0
 11
6640.6050180937
 21
5258.8596595342
 31
0.0
  0
LINE
  5
1FA
330
1F
100
AcDbEntity
  8
0
  6
Continuous
 62
     7
370
    25
100
AcDbLine
 10
6640.6299924399
 20
5259.9282404298
 30
0.0
 11
6640.6299924399
 21
5258.8596595342
 31
0.0
  0
LINE
  5
1FB
330
1F
100
AcDbEntity
  8
0
  6
Continuous
 62
     7
370
    25
100
AcDbLine
 10
6640.6050180937
 20
5259.9282404298
 30
0.0
 11
6640.6050180937
 21
5258.8596595342
 31
0.0
  0
LINE
  5
1FC
330
1F
100
AcDbEntity
  8
0
  6
Continuous
 62
     7
370
    25
100
AcDbLine
 10
6640.6299924399
 20
5257.8320642824
 30
0.0
 11
6640.6050180937
 21
5257.8320642824
 31
0.0
  0
LINE
  5
1FD
330
1F
100
AcDbEntity
  8
0
  6
Continuous
 62
     7
370
    25
100
AcDbLine
 10
6640.6299924399
 20
5262.8767629976
 30
0.0
 11
6640.6050180937
 21
5262.8767629976
 31
0.0
  0
LINE
  5
1FE
330
1F
100
AcDbEntity
  8
0
  6
Continuous
 62
     7
370
    25
100
AcDbLine
 10
6630.0802087332
 20
5296.1156507844
 30
0.0
 11
6630.0802087332
 21
5268.39411537
 31
0.0
  0
LINE
  5
1FF
330
1F
100
AcDbEntity
  8
0
  6
Continuous
 62
     7
370
    25
100
AcDbLine
 10
6630.0802087332
 20
5296.1156507844
 30
0.0
 11
6630.4924940611
 21
5296.1728563423
 31
0.0
  0
LINE
  5
200
330
1F
100
AcDbEntity
  8
0
  6
Continuous
 62
     7
370
    25
100
AcDbLine
 10
6630.0802087332
 20
5131.0402592535
 30
0.0
 11
6630.4924940611
 21
5130.9823086376
 31
0.0
  0
LINE
  5
201
330
1F
100
AcDbEntity
  8
0
  6
Continuous
 62
     7
370
    25
100
AcDbLine
 10
6630.0802087332
 20
5158.394115966
 30
0.0
 11
6630.0802087332
 21
5131.0402592535
 31
0.0
  0
LINE
  5
202
330
1F
100
AcDbEntity
  8
0
  6
Continuous
 62
     7
370
    25
100
AcDbLine
 10
6630.0802087332
 20
5268.39411537
 30
0.0
 11
6630.0802087332
 21
5158.394115966
 31
0.0
  0
ARC
  5
203
330
1F
100
AcDbEntity
  8
0
  6
Continuous
 62
     7
370
    25
100
AcDbCircle
 10
6630.4925184526
 20
5293.1441166548
 30
0.0
 40
3.000000000000476
100
AcDbArc
 50
97.8994336573
 51
180.0
  0
SPLINE
  5
204
330
1F
100
AcDbEntity
  8
0
  6
Continuous
 62
     7
370
    25
100
AcDbSpline
210
0.0
220
0.0
230
1.0
 70
     8
 71
     3
 72
    13
 73
     9
 74
     0
 42
0.000000001
 43
0.00000001
 40
0.0
 40
0.0
 40
0.0
 40
0.0
 40
0.0521718239551528
 40
0.289160069180766
 40
0.5249194544180461
 40
0.6746515962606234
 40
0.9018424417675198
 40
1.0
 40
1.0
 40
1.0
 40
1.0
 10
6627.523467495587
 20
5134.13426185794
 30
0.0
 10
6627.512303291704
 20
5134.058371673766
 30
0.0
 10
6627.450426176389
 20
5133.637753622836
 30
0.0
 10
6627.683487726143
 20
5132.866892892027
 30
0.0
 10
6628.155417009287
 20
5132.077512426205
 30
0.0
 10
6628.831762513047
 20
5131.475077274857
 30
0.0
 10
6629.469049430876
 20
5131.153873294845
 30
0.0
 10
6629.938558059573
 20
5131.066592004078
 30
0.0
 10
6630.080208733228
 20
5131.040259253456
 30
0.0
  0
LINE
  5
205
330
1F
100
AcDbEntity
  8
0
  6
Continuous
 62
     7
370
    25
100
AcDbLine
 10
6638.4925102736
 20
5296.3941162343
 30
0.0
 11
6638.4925102736
 21
5268.39411537
 31
0.0
  0
LINE
  5
206
330
1F
100
AcDbEntity
  8
0
  6
Continuous
 62
     7
370
    25
100
AcDbLine
 10
6636.4925360228
 20
5268.39411537
 30
0.0
 11
6638.4925102736
 21
5268.39411537
 31
0.0
  0
LINE
  5
207
330
1F
100
AcDbEntity
  8
0
  6
Continuous
 62
     7
370
    25
100
AcDbLine
 10
6636.4925360228
 20
5268.39411537
 30
0.0
 11
6636.4925360228
 21
5298.3941202874
 31
0.0
  0
ARC
  5
208
330
1F
100
AcDbEntity
  8
0
  6
Continuous
 62
     7
370
    25
100
AcDbCircle
 10
6636.4925184526
 20
5296.3941166548
 30
0.0
 40
2.0
100
AcDbArc
 50
0.0
 51
90.0
  0
LINE
  5
209
330
1F
100
AcDbEntity
  8
0
  6
Continuous
 62
     7
370
    25
100
AcDbLine
 10
6636.4925360228
 20
5158.394115966
 30
0.0
 11
6636.4925360228
 21
5268.39411537
 31
0.0
  0
LINE
  5
20A
330
1F
100
AcDbEntity
  8
0
  6
Continuous
 62
     7
370
    25
100
AcDbLine
 10
6638.4925102736
 20
5268.39411537
 30
0.0
 11
6638.4925102736
 21
5158.394115966
 31
0.0
  0
LINE
  5
20B
330
1F
100
AcDbEntity
  8
0
  6
Continuous
 62
     7
370
    25
100
AcDbLine
 10
6636.4925360228
 20
5158.394115966
 30
0.0
 11
6638.4925102736
 21
5158.394115966
 31
0.0
  0
LINE
  5
20C
330
1F
100
AcDbEntity
  8
0
  6
Continuous
 62
     7
370
    25
100
AcDbLine
 10
6630.4924940611
 20
5298.3941202874
 30
0.0
 11
6630.4924940611
 21
5268.39411537
 31
0.0
  0
LINE
  5
20D
330
1F
100
AcDbEntity
  8
0
  6
Continuous
 62
     7
370
    25
100
AcDbLine
 10
6636.4925360228
 20
5298.3941202874
 30
0.0
 11
6630.4924940611
 21
5298.3941202874
 31
0.0
  0
LINE
  5
20E
330
1F
100
AcDbEntity
  8
0
  6
Continuous
 62
     7
370
    25
100
AcDbLine
 10
6636.4925360228
 20
5268.39411537
 30
0.0
 11
6630.4924940611
 21
5268.39411537
 31
0.0
  0
LINE
  5
20F
330
1F
100
AcDbEntity
  8
0
  6
Continuous
 62
     7
370
    25
100
AcDbLine
 10
6636.4925360228
 20
5128.3941184992
 30
0.0
 11
6636.4925360228
 21
5158.394115966
 31
0.0
  0
LINE
  5
210
330
1F
100
AcDbEntity
  8
0
  6
Continuous
 62
     7
370
    25
100
AcDbLine
 10
6638.4925102736
 20
5158.394115966
 30
0.0
 11
6638.4925102736
 21
5130.3941151018
 31
0.0
  0
ARC
  5
211
330
1F
100
AcDbEntity
  8
0
  6
Continuous
 62
     7
370
    25
100
AcDbCircle
 10
6636.4925184526
 20
5130.3941166548
 30
0.0
 40
2.0
100
AcDbArc
 50
270.0
 51
0.0
  0
LINE
  5
212
330
1F
100
AcDbEntity
  8
0
  6
Continuous
 62
     7
370
    25
100
AcDbLine
 10
6636.4925360228
 20
5158.394115966
 30
0.0
 11
6630.4924940611
 21
5158.394115966
 31
0.0
  0
LINE
  5
213
330
1F
100
AcDbEntity
  8
0
  6
Continuous
 62
     7
370
    25
100
AcDbLine
 10
6636.4925360228
 20
5128.3941184992
 30
0.0
 11
6630.4924940611
 21
5128.3941184992
 31
0.0
  0
LINE
  5
214
330
1F
100
AcDbEntity
  8
0
  6
Continuous
 62
     7
370
    25
100
AcDbLine
 10
6630.4924940611
 20
5158.394115966
 30
0.0
 11
6630.4924940611
 21
5128.3941184992
 31
0.0
  0
LINE
  5
215
330
1F
100
AcDbEntity
  8
0
  6
Continuous
 62
     7
370
    25
100
AcDbLine
 10
6630.4924940611
 20
5268.39411537
 30
0.0
 11
6630.4924940611
 21
5158.394115966
 31
0.0
  0
LINE
  5
216
330
1F
100
AcDbEntity
  8
0
  6
Continuous
 62
     7
370
    25
100
AcDbLine
 10
6640.492544129
 20
5283.894113254
 30
0.0
 11
6640.492544129
 21
5142.894118082
 31
0.0
  0
LINE
  5
217
330
1F
100
AcDbEntity
  8
0
  6
Continuous
 62
     7
370
    25
100
AcDbLine
 10
6603.8202499892
 20
5146.6941153521
 30
0.0
 11
6612.7925371672
 21
5146.6941153521
 31
0.0
  0
LINE
  5
218
330
1F
100
AcDbEntity
  8
0
  6
Continuous
 62
     7
370
    25
100
AcDbLine
 10
6601.1925196196
 20
5146.6941153521
 30
0.0
 11
6603.8202499892
 21
5146.6941153521
 31
0.0
  0
SPLINE
  5
219
330
1F
100
AcDbEntity
  8
0
  6
Continuous
 62
     7
370
    25
100
AcDbSpline
210
0.0
220
0.0
230
1.0
 70
     8
 71
     3
 72
    18
 73
    14
 74
     0
 42
0.000000001
 43
0.00000001
 40
0.0
 40
0.0
 40
0.0
 40
0.0
 40
0.0907433226095474
 40
0.1814884882727698
 40
0.2746718274083982
 40
0.3687540709303996
 40
0.4656165195747452
 40
0.5588436156733982
 40
0.6547751160932983
 40
0.7480034317703685
 40
0.8439742342806703
 40
0.9365483701710702
 40
1.0
 40
1.0
 40
1.0
 40
1.0
 10
6580.194876148847
 20
5297.394118260814
 30
0.0
 10
6580.892904679384
 20
5297.402893723051
 30
0.0
 10
6582.288975917853
 20
5297.420444825756
 30
0.0
 10
6584.433986427522
 20
5297.4469411505
 30
0.0
 10
6586.558428721271
 20
5297.472131018441
 30
0.0
 10
6588.627550167693
 20
5297.49847947221
 30
0.0
 10
6590.53179341083
 20
5297.526178409643
 30
0.0
 10
6592.227233961901
 20
5297.554171029996
 30
0.0
 10
6593.636091643103
 20
5297.581377795937
 30
0.0
 10
6594.754919969299
 20
5297.607080225129
 30
0.0
 10
6595.507606008814
 20
5297.634212471566
 30
0.0
 10
6595.907342880276
 20
5297.659138644201
 30
0.0
 10
6595.890798515197
 20
5297.674422315688
 30
0.0
 10
6595.88407035127
 20
5297.680637788249
 30
0.0
  0
SPLINE
  5
21A
330
1F
100
AcDbEntity
  8
0
  6
Continuous
 62
     7
370
    25
100
AcDbSpline
210
0.0
220
0.0
230
1.0
 70
     8
 71
     3
 72
    10
 73
     6
 74
     0
 42
0.000000001
 43
0.00000001
 40
0.0
 40
0.0
 40
0.0
 40
0.0
 40
0.3007709800200839
 40
0.6907290877892271
 40
1.0
 40
1.0
 40
1.0
 40
1.0
 10
6570.589945271161
 20
5298.183857452346
 30
0.0
 10
6570.607582080112
 20
5298.19104557615
 30
0.0
 10
6570.648085512186
 20
5298.207553306375
 30
0.0
 10
6571.079145061685
 20
5298.229727381607
 30
0.0
 10
6571.587727532953
 20
5298.246125768447
 30
0.0
 10
6571.812674954083
 20
5298.253378819896
 30
0.0
  0
LINE
  5
21B
330
1F
100
AcDbEntity
  8
0
  6
Continuous
 62
     7
370
    25
100
AcDbLine
 10
6580.1948761488
 20
5297.3941182608
 30
0.0
 11
6569.7719907309
 21
5297.3941182608
 31
0.0
  0
SPLINE
  5
21C
330
1F
100
AcDbEntity
  8
0
  6
Continuous
 62
     7
370
    25
100
AcDbSpline
210
0.0
220
0.0
230
1.0
 70
     8
 71
     3
 72
    15
 73
    11
 74
     0
 42
0.000000001
 43
0.00000001
 40
0.0
 40
0.0
 40
0.0
 40
0.0
 40
0.1354932346417054
 40
0.270282227756086
 40
0.4089668359949017
 40
0.5439862056129603
 40
0.6829076463879088
 40
0.8181608916591561
 40
0.9571788892246017
 40
1.0
 40
1.0
 40
1.0
 40
1.0
 10
6578.816161110547
 20
5298.253378819896
 30
0.0
 10
6578.151803078243
 20
5298.219836853438
 30
0.0
 10
6576.826540090213
 20
5298.152927258717
 30
0.0
 10
6575.015150890104
 20
5298.055802902421
 30
0.0
 10
6573.409592480436
 20
5297.952698887585
 30
0.0
 10
6572.053739076176
 20
5297.849109357436
 30
0.0
 10
6570.999978465919
 20
5297.748060168381
 30
0.0
 10
6570.28834556087
 20
5297.653559216506
 30
0.0
 10
6569.949145386071
 20
5297.578907016427
 30
0.0
 10
6569.933120643747
 20
5297.534921201674
 30
0.0
 10
6569.929346993115
 20
5297.524563025905
 30
0.0
  0
SPLINE
  5
21D
330
1F
100
AcDbEntity
  8
0
  6
Continuous
 62
     7
370
    25
100
AcDbSpline
210
0.0
220
0.0
230
1.0
 70
    24
 71
     3
 72
    13
 73
     9
 74
     0
 42
0.000000001
 43
0.00000001
 40
0.0
 40
0.0
 40
0.0
 40
0.0
 40
0.0409231634133322
 40
0.2049379174057468
 40
0.4196553377973783
 40
0.6343769054736571
 40
0.8171886135617759
 40
1.0
 40
1.0
 40
1.0
 40
1.0
 10
6571.812674954083
 20
5298.253378819896
 30
0.0
 10
6571.870323791763
 20
5298.253378819896
 30
0.0
 10
6572.159021725883
 20
5298.253378819896
 30
0.0
 10
6572.858671195253
 20
5298.253378819896
 30
0.0
 10
6574.079798089569
 20
5298.253378819896
 30
0.0
 10
6575.580309604188
 20
5298.253378819896
 30
0.0
 10
6577.171293661496
 20
5298.253378819896
 30
0.0
 10
6578.267872282428
 20
5298.253378819896
 30
0.0
 10
6578.816161110547
 20
5298.253378819896
 30
0.0
  0
LINE
  5
21E
330
1F
100
AcDbEntity
  8
0
  6
Continuous
 62
     7
370
    25
100
AcDbLine
 10
6585.9475588347
 20
5298.8941138501
 30
0.0
 11
6594.7130178954
 21
5298.8941138501
 31
0.0
  0
LINE
  5
21F
330
1F
100
AcDbEntity
  8
0
  6
Continuous
 62
     7
370
    25
100
AcDbLine
 10
6571.2720012213
 20
5298.8941138501
 30
0.0
 11
6585.9475588347
 21
5298.8941138501
 31
0.0
  0
LINE
  5
220
330
1F
100
AcDbEntity
  8
0
  6
Continuous
 62
     7
370
    25
100
AcDbLine
 10
6579.6651100661
 20
5289.8941179628
 30
0.0
 11
6579.6651100661
 21
5279.3941190357
 31
0.0
  0
LINE
  5
221
330
1F
100
AcDbEntity
  8
0
  6
Continuous
 62
     7
370
    25
100
AcDbLine
 10
6568.7190150763
 20
5289.8941179628
 30
0.0
 11
6568.7190150763
 21
5279.3941190357
 31
0.0
  0
LINE
  5
222
330
1F
100
AcDbEntity
  8
0
  6
Continuous
 62
     7
370
    25
100
AcDbLine
 10
6568.7190150763
 20
5289.8941179628
 30
0.0
 11
6572.9163145567
 21
5289.8941179628
 31
0.0
  0
LINE
  5
223
330
1F
100
AcDbEntity
  8
0
  6
Continuous
 62
     7
370
    25
100
AcDbLine
 10
6575.5008315589
 20
5289.8941179628
 30
0.0
 11
6579.6651100661
 21
5289.8941179628
 31
0.0
  0
SPLINE
  5
224
330
1F
100
AcDbEntity
  8
0
  6
Continuous
 62
     7
370
    25
100
AcDbSpline
210
0.0
220
0.0
230
1.0
 70
     8
 71
     3
 72
    14
 73
    10
 74
     0
 42
0.000000001
 43
0.00000001
 40
0.0
 40
0.0
 40
0.0
 40
0.0
 40
0.0359823062246952
 40
0.1983758753889495
 40
0.3588753460706953
 40
0.5230044965956009
 40
0.6871352289435071
 40
0.8476357811144747
 40
1.0
 40
1.0
 40
1.0
 40
1.0
 10
6580.194876148847
 20
5297.394118260814
 30
0.0
 10
6579.985610756271
 20
5297.389920443949
 30
0.0
 10
6578.831899118626
 20
5297.366777247124
 30
0.0
 10
6576.819063254963
 20
5297.325837291093
 30
0.0
 10
6574.386746184397
 20
5297.272833957978
 30
0.0
 10
6572.358446857161
 20
5297.215212398823
 30
0.0
 10
6570.866667478501
 20
5297.157560239932
 30
0.0
 10
6569.934057812256
 20
5297.105782021461
 30
0.0
 10
6569.837574478485
 20
5297.069820923298
 30
0.0
 10
6569.790587380078
 20
5297.052307974769
 30
0.0
  0
LINE
  5
225
330
1F
100
AcDbEntity
  8
0
  6
Continuous
 62
     7
370
    25
100
AcDbLine
 10
6569.7732424284
 20
5297.0488807077
 30
0.0
 11
6569.8059653784
 21
5297.0437547082
 31
0.0
  0
SPLINE
  5
226
330
1F
100
AcDbEntity
  8
0
  6
Continuous
 62
     7
370
    25
100
AcDbSpline
210
0.0
220
0.0
230
1.0
 70
     8
 71
     3
 72
    23
 73
    19
 74
     0
 42
0.000000001
 43
0.00000001
 40
0.0
 40
0.0
 40
0.0
 40
0.0
 40
0.0495144357226001
 40
0.1209631202634852
 40
0.1909034165553791
 40
0.2622007136387932
 40
0.3340867373537854
 40
0.4048032909118031
 40
0.4750691083633793
 40
0.5190518737942411
 40
0.5632186556946382
 40
0.5789350557729975
 40
0.6498655371935154
 40
0.7199687083513254
 40
0.7916572593314264
 40
0.8633465047614587
 40
0.9334501516751542
 40
1.0
 40
1.0
 40
1.0
 40
1.0
 10
6596.135125115064
 20
5296.249887895061
 30
0.0
 10
6596.110074478031
 20
5296.236646452146
 30
0.0
 10
6596.048876098695
 20
5296.204297779917
 30
0.0
 10
6595.21057550873
 20
5296.153014319406
 30
0.0
 10
6593.777512900138
 20
5296.100598915666
 30
0.0
 10
6591.796382055368
 20
5296.043919265801
 30
0.0
 10
6589.381480326016
 20
5295.985983962829
 30
0.0
 10
6586.666912404149
 20
5295.931002166777
 30
0.0
 10
6584.153295318238
 20
5295.884538481925
 30
0.0
 10
6581.981953632513
 20
5295.842109195228
 30
0.0
 10
6580.571700499695
 20
5295.814202579411
 30
0.0
 10
6578.833567696393
 20
5295.779284763457
 30
0.0
 10
6576.818405845572
 20
5295.738328001883
 30
0.0
 10
6574.386925840966
 20
5295.685341936277
 30
0.0
 10
6572.358398173024
 20
5295.627718868232
 30
0.0
 10
6570.866680192991
 20
5295.57005520472
 30
0.0
 10
6569.934054852691
 20
5295.51827991725
 30
0.0
 10
6569.837573509216
 20
5295.482318446419
 30
0.0
 10
6569.790587380078
 20
5295.464805316402
 30
0.0
  0
LINE
  5
227
330
1F
100
AcDbEntity
  8
0
  6
Continuous
 62
     7
370
    25
100
AcDbLine
 10
6569.7732424284
 20
5295.4613780493
 30
0.0
 11
6569.8059653784
 21
5295.4562520499
 31
0.0
  0
SPLINE
  5
228
330
1F
100
AcDbEntity
  8
0
  6
Continuous
 62
     7
370
    25
100
AcDbSpline
210
0.0
220
0.0
230
1.0
 70
     8
 71
     3
 72
    23
 73
    19
 74
     0
 42
0.000000001
 43
0.00000001
 40
0.0
 40
0.0
 40
0.0
 40
0.0
 40
0.0495144358989506
 40
0.1209631171787907
 40
0.1909034137197838
 40
0.2622007145574372
 40
0.3340867385284584
 40
0.40480329233834
 40
0.4750691100401747
 40
0.5190518756276854
 40
0.5632186576853868
 40
0.5789350578197215
 40
0.6498655360288754
 40
0.7199687108179341
 40
0.7916572620533607
 40
0.8633465077387213
 40
0.9334501549020977
 40
1.0
 40
1.0
 40
1.0
 40
1.0
 10
6596.135125115064
 20
5294.662385236694
 30
0.0
 10
6596.110074481128
 20
5294.649143342497
 30
0.0
 10
6596.048876111136
 20
5294.616793568733
 30
0.0
 10
6595.210575482603
 20
5294.56552112107
 30
0.0
 10
6593.777512842727
 20
5294.513105630924
 30
0.0
 10
6591.796382127381
 20
5294.456414051148
 30
0.0
 10
6589.381480317373
 20
5294.398481983559
 30
0.0
 10
6586.666912406655
 20
5294.343499315128
 30
0.0
 10
6584.153295317241
 20
5294.297035889751
 30
0.0
 10
6581.981953633996
 20
5294.254606447478
 30
0.0
 10
6580.5717004958
 20
5294.226700151839
 30
0.0
 10
6578.83356775331
 20
5294.191781461055
 30
0.0
 10
6576.818405662884
 20
5294.150838788873
 30
0.0
 10
6574.386925934231
 20
5294.097835642573
 30
0.0
 10
6572.358398156501
 20
5294.040217044711
 30
0.0
 10
6570.866680197224
 20
5293.982552880191
 30
0.0
 10
6569.934054867469
 20
5293.930775207087
 30
0.0
 10
6569.837573513212
 20
5293.894820126254
 30
0.0
 10
6569.790587380078
 20
5293.877310108615
 30
0.0
  0
LINE
  5
229
330
1F
100
AcDbEntity
  8
0
  6
Continuous
 62
     7
370
    25
100
AcDbLine
 10
6569.7732424284
 20
5293.8738828415
 30
0.0
 11
6569.8059653784
 21
5293.8687493915
 31
0.0
  0
SPLINE
  5
22A
330
1F
100
AcDbEntity
  8
0
  6
Continuous
 62
     7
370
    25
100
AcDbSpline
210
0.0
220
0.0
230
1.0
 70
     8
 71
     3
 72
    23
 73
    19
 74
     0
 42
0.000000001
 43
0.00000001
 40
0.0
 40
0.0
 40
0.0
 40
0.0
 40
0.0495144323557701
 40
0.1209631171672526
 40
0.1909034137240311
 40
0.2622007145777761
 40
0.334086738565022
 40
0.4048032889481192
 40
0.4750691100639701
 40
0.5190518721303337
 40
0.5632186541980034
 40
0.5789350543358854
 40
0.649865536025038
 40
0.719968710829919
 40
0.7916572620815256
 40
0.8633465042439115
 40
0.9334501514231103
 40
1.0
 40
1.0
 40
1.0
 40
1.0
 10
6596.135125115064
 20
5293.074882578327
 30
0.0
 10
6596.110074473861
 20
5293.061644202387
 30
0.0
 10
6596.048876081743
 20
5293.029303021364
 30
0.0
 10
6595.210575517512
 20
5292.978014896465
 30
0.0
 10
6593.777512844415
 20
5292.925603681892
 30
0.0
 10
6591.796382108755
 20
5292.86891219031
 30
0.0
 10
6589.381480429114
 20
5292.810975408528
 30
0.0
 10
6586.66691218653
 20
5292.756011211881
 30
0.0
 10
6584.153295538428
 20
5292.709526578205
 30
0.0
 10
6581.98195352498
 20
5292.667114414142
 30
0.0
 10
6580.57170050372
 20
5292.639204514104
 30
0.0
 10
6578.833567694403
 20
5292.604286973998
 30
0.0
 10
6576.818405762757
 20
5292.563332727073
 30
0.0
 10
6574.386925911855
 20
5292.510334537666
 30
0.0
 10
6572.358398218836
 20
5292.452711575478
 30
0.0
 10
6570.866680151155
 20
5292.395059793268
 30
0.0
 10
6569.934054858749
 20
5292.343281478795
 30
0.0
 10
6569.8375735112
 20
5292.307320392834
 30
0.0
 10
6569.790587380078
 20
5292.289807450248
 30
0.0
  0
LINE
  5
22B
330
1F
100
AcDbEntity
  8
0
  6
Continuous
 62
     7
370
    25
100
AcDbLine
 10
6569.7732424284
 20
5292.2863801832
 30
0.0
 11
6569.8059653784
 21
5292.2812541837
 31
0.0
  0
SPLINE
  5
22C
330
1F
100
AcDbEntity
  8
0
  6
Continuous
 62
     7
370
    25
100
AcDbSpline
210
0.0
220
0.0
230
1.0
 70
     8
 71
     3
 72
    23
 73
    19
 74
     0
 42
0.000000001
 43
0.00000001
 40
0.0
 40
0.0
 40
0.0
 40
0.0
 40
0.0495144358941165
 40
0.1209631206824975
 40
0.1909034172166623
 40
0.2622007145470479
 40
0.3340867385110509
 40
0.4048032923140285
 40
0.4750691100090031
 40
0.5190518755922198
 40
0.5632186576456092
 40
0.5789350577784096
 40
0.6498655394446283
 40
0.7199687108452735
 40
0.7916572620737012
 40
0.8633465077520627
 40
0.933450154908595
 40
1.0
 40
1.0
 40
1.0
 40
1.0
 10
6596.135125115064
 20
5291.48738737054
 30
0.0
 10
6596.110074478031
 20
5291.474145927626
 30
0.0
 10
6596.048876098695
 20
5291.441797255397
 30
0.0
 10
6595.21057550873
 20
5291.390513794886
 30
0.0
 10
6593.777512900138
 20
5291.338098391144
 30
0.0
 10
6591.796382055368
 20
5291.281418741281
 30
0.0
 10
6589.381480326015
 20
5291.223483438304
 30
0.0
 10
6586.666912404149
 20
5291.168501642267
 30
0.0
 10
6584.153295318238
 20
5291.122037957372
 30
0.0
 10
6581.981953632513
 20
5291.07960867078
 30
0.0
 10
6580.571700499696
 20
5291.051702054689
 30
0.0
 10
6578.833567696392
 20
5291.016784239502
 30
0.0
 10
6576.818405845574
 20
5290.975827465586
 30
0.0
 10
6574.38692584096
 20
5290.922841453838
 30
0.0
 10
6572.358398173046
 20
5290.865218183116
 30
0.0
 10
6570.866680192914
 20
5290.807555273399
 30
0.0
 10
6569.934054868473
 20
5290.755777280486
 30
0.0
 10
6569.837573513541
 20
5290.719822240304
 30
0.0
 10
6569.790587380078
 20
5290.702312242462
 30
0.0
  0
LINE
  5
22D
330
1F
100
AcDbEntity
  8
0
  6
Continuous
 62
     7
370
    25
100
AcDbLine
 10
6569.7732424284
 20
5290.6988849754
 30
0.0
 11
6569.8059653784
 21
5290.6937515254
 31
0.0
  0
LINE
  5
22E
330
1F
100
AcDbEntity
  8
0
  6
Continuous
 62
     7
370
    25
100
AcDbLine
 10
6596.1996769454
 20
5289.9086093421
 30
0.0
 11
6596.1919879462
 21
5289.8941179628
 31
0.0
  0
SPLINE
  5
22F
330
1F
100
AcDbEntity
  8
0
  6
Continuous
 62
     7
370
    25
100
AcDbSpline
210
0.0
220
0.0
230
1.0
 70
     8
 71
     3
 72
    23
 73
    19
 74
     0
 42
0.000000001
 43
0.00000001
 40
0.0
 40
0.0
 40
0.0
 40
0.0
 40
0.0088415291185622
 40
0.0808327609452831
 40
0.1516520538051206
 40
0.222019822700697
 40
0.2939008810602037
 40
0.3655836849408176
 40
0.4356803528818825
 40
0.5069066530781517
 40
0.5789199678183425
 40
0.6499530667489483
 40
0.7201584362631177
 40
0.791951256713493
 40
0.8585985332482321
 40
0.8952657193121023
 40
0.965361725910865
 40
1.0
 40
1.0
 40
1.0
 40
1.0
 10
6595.312938645032
 20
5297.340719949676
 30
0.0
 10
6595.31953495362
 20
5297.338396288239
 30
0.0
 10
6595.379841019241
 20
5297.317152455078
 30
0.0
 10
6594.913454634106
 20
5297.275695439273
 30
0.0
 10
6593.900967988875
 20
5297.220895860488
 30
0.0
 10
6592.305157735768
 20
5297.16733547212
 30
0.0
 10
6590.264779090867
 20
5297.109538310775
 30
0.0
 10
6587.865982379841
 20
5297.052162194821
 30
0.0
 10
6585.241564834881
 20
5296.999504348206
 30
0.0
 10
6582.503394879121
 20
5296.943322395568
 30
0.0
 10
6579.776648810087
 20
5296.885360320604
 30
0.0
 10
6577.220657346852
 20
5296.829730883036
 30
0.0
 10
6574.945098379771
 20
5296.77677015165
 30
0.0
 10
6573.098740103209
 20
5296.720425278067
 30
0.0
 10
6571.928285703351
 20
5296.673524456219
 30
0.0
 10
6571.111135423236
 20
5296.628617206675
 30
0.0
 10
6570.647647715965
 20
5296.593915232444
 30
0.0
 10
6570.692748481407
 20
5296.565872827938
 30
0.0
 10
6570.707664444592
 20
5296.556598495914
 30
0.0
  0
SPLINE
  5
230
330
1F
100
AcDbEntity
  8
0
  6
Continuous
 62
     7
370
    25
100
AcDbSpline
210
0.0
220
0.0
230
1.0
 70
     8
 71
     3
 72
    23
 73
    19
 74
     0
 42
0.000000001
 43
0.00000001
 40
0.0
 40
0.0
 40
0.0
 40
0.0
 40
0.0088415291181516
 40
0.0808327650179566
 40
0.151652057874505
 40
0.2220198267668131
 40
0.2939008810587324
 40
0.3655836889777176
 40
0.4356803530544775
 40
0.506906657237469
 40
0.578919971974315
 40
0.6499530669337709
 40
0.7201584403180785
 40
0.7919512607651193
 40
0.858598537296763
 40
0.8952657233589303
 40
0.9653617299544371
 40
0.9999999999999999
 40
0.9999999999999999
 40
0.9999999999999999
 40
0.9999999999999999
 10
6595.312938645032
 20
5295.753224741889
 30
0.0
 10
6595.319534953455
 20
5295.750901105154
 30
0.0
 10
6595.379841020622
 20
5295.729657496754
 30
0.0
 10
6594.913454667956
 20
5295.68818928289
 30
0.0
 10
6593.900967969619
 20
5295.633395025791
 30
0.0
 10
6592.305157829153
 20
5295.579828952339
 30
0.0
 10
6590.264778896259
 20
5295.522049571396
 30
0.0
 10
6587.865982598161
 20
5295.464652702978
 30
0.0
 10
6585.241564618207
 20
5295.41201524498
 30
0.0
 10
6582.503394987878
 20
5295.355816907439
 30
0.0
 10
6579.776648904266
 20
5295.297855136291
 30
0.0
 10
6577.220657166975
 20
5295.242240857465
 30
0.0
 10
6574.945098475413
 20
5295.189264004111
 30
0.0
 10
6573.098740087763
 20
5295.132923597041
 30
0.0
 10
6571.928285704994
 20
5295.086021409683
 30
0.0
 10
6571.111135423375
 20
5295.041115316466
 30
0.0
 10
6570.647647723311
 20
5295.006408163797
 30
0.0
 10
6570.692748484108
 20
5294.978374671827
 30
0.0
 10
6570.707664444592
 20
5294.969103288127
 30
0.0
  0
SPLINE
  5
231
330
1F
100
AcDbEntity
  8
0
  6
Continuous
 62
     7
370
    25
100
AcDbSpline
210
0.0
220
0.0
230
1.0
 70
     8
 71
     3
 72
    23
 73
    19
 74
     0
 42
0.000000001
 43
0.00000001
 40
0.0
 40
0.0
 40
0.0
 40
0.0
 40
0.0088415291221017
 40
0.0808327650540701
 40
0.1516520539987666
 40
0.2220198268149386
 40
0.2939008811389721
 40
0.3655836850482823
 40
0.4356803530174085
 40
0.5069066532421913
 40
0.5789199680112107
 40
0.6499530669702526
 40
0.7201584403859258
 40
0.7919512568110844
 40
0.8585985333725038
 40
0.8952657194510528
 40
0.965361729938962
 40
1.0
 40
1.0
 40
1.0
 40
1.0
 10
6595.312938645032
 20
5294.165722083522
 30
0.0
 10
6595.319534953379
 20
5294.163398454998
 30
0.0
 10
6595.379841019841
 20
5294.142154921671
 30
0.0
 10
6594.913454714147
 20
5294.100682986708
 30
0.0
 10
6593.900967873214
 20
5294.045905041551
 30
0.0
 10
6592.305157882389
 20
5293.992323721332
 30
0.0
 10
6590.264778995772
 20
5293.934544183536
 30
0.0
 10
6587.865982392487
 20
5293.877163369815
 30
0.0
 10
6585.241564832412
 20
5293.824506679174
 30
0.0
 10
6582.503394876169
 20
5293.768324712383
 30
0.0
 10
6579.776648824492
 20
5293.710361515937
 30
0.0
 10
6577.220657246904
 20
5293.654736511973
 30
0.0
 10
6574.945098542246
 20
5293.601759260354
 30
0.0
 10
6573.098740023765
 20
5293.545430988042
 30
0.0
 10
6571.928285711511
 20
5293.498525349603
 30
0.0
 10
6571.111135398427
 20
5293.453621658238
 30
0.0
 10
6570.647647729337
 20
5293.418904254699
 30
0.0
 10
6570.692748486019
 20
5293.390871702359
 30
0.0
 10
6570.707664444592
 20
5293.38160062976
 30
0.0
  0
SPLINE
  5
232
330
1F
100
AcDbEntity
  8
0
  6
Continuous
 62
     7
370
    25
100
AcDbSpline
210
0.0
220
0.0
230
1.0
 70
     8
 71
     3
 72
    23
 73
    19
 74
     0
 42
0.000000001
 43
0.00000001
 40
0.0
 40
0.0
 40
0.0
 40
0.0
 40
0.0088415291193973
 40
0.0808327609529179
 40
0.1516520538194445
 40
0.2220198227216672
 40
0.2939008810879632
 40
0.3655836849753477
 40
0.4356803529230334
 40
0.5069066531260301
 40
0.5789199678730226
 40
0.6499530628424868
 40
0.7201584362366862
 40
0.7919512566938424
 40
0.8585985332348766
 40
0.89526571930221
 40
0.9653617259075934
 40
1.0
 40
1.0
 40
1.0
 40
1.0
 10
6595.312938645032
 20
5292.578219425155
 30
0.0
 10
6595.31953495362
 20
5292.575895763717
 30
0.0
 10
6595.379841019241
 20
5292.55465193055
 30
0.0
 10
6594.913454634099
 20
5292.51319491512
 30
0.0
 10
6593.900967988899
 20
5292.458395334687
 30
0.0
 10
6592.305157735682
 20
5292.404834952369
 30
0.0
 10
6590.264779091194
 20
5292.347037768046
 30
0.0
 10
6587.865982378632
 20
5292.289661737365
 30
0.0
 10
6585.241564839313
 20
5292.237003577883
 30
0.0
 10
6582.503394862192
 20
5292.180822809939
 30
0.0
 10
6579.776648924136
 20
5292.122856272166
 30
0.0
 10
6577.220657161743
 20
5292.067243246972
 30
0.0
 10
6574.945098476882
 20
5292.014266092398
 30
0.0
 10
6573.098740087265
 20
5291.957925650677
 30
0.0
 10
6571.928285705417
 20
5291.91102381551
 30
0.0
 10
6571.111135422371
 20
5291.866116730856
 30
0.0
 10
6570.647647716084
 20
5291.831414701147
 30
0.0
 10
6570.692748481436
 20
5291.803372301733
 30
0.0
 10
6570.707664444592
 20
5291.794097971393
 30
0.0
  0
SPLINE
  5
233
330
1F
100
AcDbEntity
  8
0
  6
Continuous
 62
     7
370
    25
100
AcDbSpline
210
0.0
220
0.0
230
1.0
 70
     8
 71
     3
 72
    23
 73
    19
 74
     0
 42
0.000000001
 43
0.00000001
 40
0.0
 40
0.0
 40
0.0
 40
0.0
 40
0.008841529119133
 40
0.0808327650269295
 40
0.1516520578913392
 40
0.2220198267914585
 40
0.2939008810913571
 40
0.3655836890182995
 40
0.4356803531028405
 40
0.5069066572937385
 40
0.5789199679597219
 40
0.6499530668949135
 40
0.7201584402870144
 40
0.7919512607420247
 40
0.8585985372810666
 40
0.8952657233473041
 40
0.9653617299505922
 40
1.0
 40
1.0
 40
1.0
 40
1.0
 10
6595.312938645032
 20
5290.990724217369
 30
0.0
 10
6595.319534953455
 20
5290.988400580636
 30
0.0
 10
6595.379841020621
 20
5290.967156972264
 30
0.0
 10
6594.913454667982
 20
5290.925688757024
 30
0.0
 10
6593.900967969525
 20
5290.870894505956
 30
0.0
 10
6592.305157829506
 20
5290.817328410348
 30
0.0
 10
6590.264778894913
 20
5290.759549113563
 30
0.0
 10
6587.86598260312
 20
5290.702151932832
 30
0.0
 10
6585.241564600033
 20
5290.649515620705
 30
0.0
 10
6582.503395109653
 20
5290.5933129453
 30
0.0
 10
6579.776648696721
 20
5290.535367523202
 30
0.0
 10
6577.220657276746
 20
5290.47973694089
 30
0.0
 10
6574.945098456925
 20
5290.42676441049
 30
0.0
 10
6573.098740092455
 20
5290.370422836323
 30
0.0
 10
6571.928285704386
 20
5290.323520915753
 30
0.0
 10
6571.11113542363
 20
5290.278614779122
 30
0.0
 10
6570.647647723275
 20
5290.243907641061
 30
0.0
 10
6570.692748484099
 20
5290.21587414775
 30
0.0
 10
6570.707664444592
 20
5290.206602763606
 30
0.0
  0
SPLINE
  5
234
330
1F
100
AcDbEntity
  8
0
  6
Continuous
 62
     7
370
    25
100
AcDbSpline
210
0.0
220
0.0
230
1.0
 70
    24
 71
     3
 72
    10
 73
     6
 74
     0
 42
0.000000001
 43
0.00000001
 40
0.0
 40
0.0
 40
0.0
 40
0.0
 40
0.0685869763223513
 40
0.5300972916059032
 40
1.0
 40
1.0
 40
1.0
 40
1.0
 10
6572.916314556745
 20
5289.894117962791
 30
0.0
 10
6572.966778945469
 20
5289.894117962791
 30
0.0
 10
6573.356809782519
 20
5289.894117962791
 30
0.0
 10
6574.166761589768
 20
5289.894117962791
 30
0.0
 10
6575.053478348355
 20
5289.894117962791
 30
0.0
 10
6575.50083155885
 20
5289.894117962791
 30
0.0
  0
SPLINE
  5
235
330
1F
100
AcDbEntity
  8
0
  6
Continuous
 62
     7
370
    25
100
AcDbSpline
210
0.0
220
0.0
230
1.0
 70
     8
 71
     3
 72
    14
 73
    10
 74
     0
 42
0.000000001
 43
0.00000001
 40
0.0
 40
0.0
 40
0.0
 40
0.0
 40
0.099114176667429
 40
0.1967382365526289
 40
0.3818923666204562
 40
0.5696029454026212
 40
0.7552638086725572
 40
0.937976485613308
 40
0.9999999999999999
 40
0.9999999999999999
 40
0.9999999999999999
 40
0.9999999999999999
 10
6578.816161110547
 20
5298.253378819896
 30
0.0
 10
6578.364701336213
 20
5298.243461779946
 30
0.0
 10
6577.468569189802
 20
5298.223776796252
 30
0.0
 10
6575.84655343416
 20
5298.187738543048
 30
0.0
 10
6574.052537240335
 20
5298.140266237408
 30
0.0
 10
6572.35363563934
 20
5298.082466897239
 30
0.0
 10
6571.223341657541
 20
5298.026100310578
 30
0.0
 10
6570.667610756069
 20
5297.985726462932
 30
0.0
 10
6570.69899538069
 20
5297.960646244856
 30
0.0
 10
6570.706949188855
 20
5297.954290162994
 30
0.0
  0
SPLINE
  5
236
330
1F
100
AcDbEntity
  8
0
  6
Continuous
 62
     7
370
    25
100
AcDbSpline
210
0.0
220
0.0
230
1.0
 70
     8
 71
     3
 72
    24
 73
    20
 74
     0
 42
0.000000001
 43
0.00000001
 40
0.0
 40
0.0
 40
0.0
 40
0.0
 40
0.0209944352768094
 40
0.0928836105611011
 40
0.1636025042436552
 40
0.2338705140789656
 40
0.3056496639577562
 40
0.3772308485137513
 40
0.4472281378736906
 40
0.5183534658704171
 40
0.5902646886909994
 40
0.6169032322335236
 40
0.6548735533346084
 40
0.6922730155071143
 40
0.7632049610222561
 40
0.8351162777488724
 40
0.9062423590643868
 40
0.9762389918751716
 40
1.0
 40
1.0
 40
1.0
 40
1.0
 10
6595.290765717175
 20
5297.151899885608
 30
0.0
 10
6595.30946783925
 20
5297.1463859606
 30
0.0
 10
6595.39220979447
 20
5297.121991245696
 30
0.0
 10
6594.922885548551
 20
5297.077276256782
 30
0.0
 10
6593.898477434559
 20
5297.022452833501
 30
0.0
 10
6592.305841850015
 20
5296.968894489845
 30
0.0
 10
6590.264585073166
 20
5296.91111311142
 30
0.0
 10
6587.866067530396
 20
5296.853716364913
 30
0.0
 10
6585.241416120611
 20
5296.801080391435
 30
0.0
 10
6582.503916278047
 20
5296.744875908596
 30
0.0
 10
6580.33968008309
 20
5296.698931314902
 30
0.0
 10
6578.673209038859
 20
5296.662832415269
 30
0.0
 10
6577.4709944858
 20
5296.636299195284
 30
0.0
 10
6575.845240875988
 20
5296.600221220198
 30
0.0
 10
6574.052983572344
 20
5296.552777607497
 30
0.0
 10
6572.353516436517
 20
5296.494973309703
 30
0.0
 10
6571.223373860205
 20
5296.438592340534
 30
0.0
 10
6570.667608488812
 20
5296.398232152451
 30
0.0
 10
6570.698994922014
 20
5296.373151218703
 30
0.0
 10
6570.706949188855
 20
5296.366794955207
 30
0.0
  0
SPLINE
  5
237
330
1F
100
AcDbEntity
  8
0
  6
Continuous
 62
     7
370
    25
100
AcDbSpline
210
0.0
220
0.0
230
1.0
 70
     8
 71
     3
 72
    24
 73
    20
 74
     0
 42
0.000000001
 43
0.00000001
 40
0.0
 40
0.0
 40
0.0
 40
0.0
 40
0.0209944352755947
 40
0.0928836105557268
 40
0.163602504234189
 40
0.2338705140654338
 40
0.3056496639400711
 40
0.3772308484919246
 40
0.4472281378478138
 40
0.5183534618560512
 40
0.5902646846724727
 40
0.6169032322317856
 40
0.6548735533306734
 40
0.6922730116913883
 40
0.7632049611646767
 40
0.8351162778871323
 40
0.9062423552141997
 40
0.9762389918765465
 40
1.0
 40
1.0
 40
1.0
 40
1.0
 10
6595.290765717175
 20
5295.564397227241
 30
0.0
 10
6595.309467839251
 20
5295.5588833022
 30
0.0
 10
6595.392209794473
 20
5295.534488587151
 30
0.0
 10
6594.922885548488
 20
5295.489773601375
 30
0.0
 10
6593.898477434779
 20
5295.43495016466
 30
0.0
 10
6592.305841849196
 20
5295.381391870571
 30
0.0
 10
6590.264585076292
 20
5295.323610303824
 30
0.0
 10
6587.866067518883
 20
5295.266214256187
 30
0.0
 10
6585.241416211975
 20
5295.213575719553
 30
0.0
 10
6582.503916220295
 20
5295.15738094721
 30
0.0
 10
6580.339679894605
 20
5295.111443071377
 30
0.0
 10
6578.673209147022
 20
5295.075326790615
 30
0.0
 10
6577.470994556998
 20
5295.048794745177
 30
0.0
 10
6575.845240691356
 20
5295.012732115443
 30
0.0
 10
6574.052983675007
 20
5294.965271282555
 30
0.0
 10
6572.353516471479
 20
5294.907468253965
 30
0.0
 10
6571.223373794549
 20
5294.851102653997
 30
0.0
 10
6570.667608493791
 20
5294.810728582026
 30
0.0
 10
6570.698994923282
 20
5294.78564837572
 30
0.0
 10
6570.706949188855
 20
5294.77929229684
 30
0.0
  0
SPLINE
  5
238
330
1F
100
AcDbEntity
  8
0
  6
Continuous
 62
     7
370
    25
100
AcDbSpline
210
0.0
220
0.0
230
1.0
 70
     8
 71
     3
 72
    24
 73
    20
 74
     0
 42
0.000000001
 43
0.00000001
 40
0.0
 40
0.0
 40
0.0
 40
0.0
 40
0.0209944392009103
 40
0.0928836142118412
 40
0.1636025036875834
 40
0.2338705171426054
 40
0.3056496667484535
 40
0.3772308469962883
 40
0.4472281399456364
 40
0.518353463687533
 40
0.5902646862346707
 40
0.616903229675901
 40
0.6548735506326026
 40
0.6922730126628959
 40
0.7632049618705674
 40
0.8351162783237388
 40
0.9062423553844626
 40
0.9762389879290834
 40
1.0
 40
1.0
 40
1.0
 40
1.0
 10
6595.290765717175
 20
5293.976902019454
 30
0.0
 10
6595.309467840551
 20
5293.971385337267
 30
0.0
 10
6595.392209789315
 20
5293.946978427649
 30
0.0
 10
6594.922885599044
 20
5293.9022702653
 30
0.0
 10
6593.898477336784
 20
5293.847459407579
 30
0.0
 10
6592.305841903544
 20
5293.793886818665
 30
0.0
 10
6590.264585172898
 20
5293.736104991705
 30
0.0
 10
6587.866067323639
 20
5293.678724446459
 30
0.0
 10
6585.241416338868
 20
5293.626068950578
 30
0.0
 10
6582.503916150782
 20
5293.56988186842
 30
0.0
 10
6580.339680090264
 20
5293.523933082524
 30
0.0
 10
6578.673209036599
 20
5293.487834672721
 30
0.0
 10
6577.470994490197
 20
5293.461301048347
 30
0.0
 10
6575.84524081199
 20
5293.425224657097
 30
0.0
 10
6574.052983647432
 20
5293.377769862436
 30
0.0
 10
6572.353516476793
 20
5293.319966680434
 30
0.0
 10
6571.223373821036
 20
5293.2635945396
 30
0.0
 10
6570.667608483743
 20
5293.223240663811
 30
0.0
 10
6570.698994920184
 20
5293.198148698504
 30
0.0
 10
6570.706949188855
 20
5293.191789638473
 30
0.0
  0
SPLINE
  5
239
330
1F
100
AcDbEntity
  8
0
  6
Continuous
 62
     7
370
    25
100
AcDbSpline
210
0.0
220
0.0
230
1.0
 70
     8
 71
     3
 72
    24
 73
    20
 74
     0
 42
0.000000001
 43
0.00000001
 40
0.0
 40
0.0
 40
0.0
 40
0.0
 40
0.0209944352768094
 40
0.0928836105611011
 40
0.1636025042436552
 40
0.2338705140789656
 40
0.3056496639577562
 40
0.3772308485137513
 40
0.4472281378736906
 40
0.5183534658704171
 40
0.5902646886909994
 40
0.6169032322335236
 40
0.6548735533346084
 40
0.6922730155071143
 40
0.7632049610222561
 40
0.8351162777488724
 40
0.9062423590643868
 40
0.9762389918751716
 40
1.0
 40
1.0
 40
1.0
 40
1.0
 10
6595.290765717175
 20
5292.389399361087
 30
0.0
 10
6595.30946783925
 20
5292.383885436079
 30
0.0
 10
6595.39220979447
 20
5292.359490721175
 30
0.0
 10
6594.922885548551
 20
5292.314775732261
 30
0.0
 10
6593.898477434559
 20
5292.25995230898
 30
0.0
 10
6592.305841850015
 20
5292.206393965324
 30
0.0
 10
6590.264585073166
 20
5292.148612586899
 30
0.0
 10
6587.866067530396
 20
5292.091215840393
 30
0.0
 10
6585.241416120611
 20
5292.038579866914
 30
0.0
 10
6582.503916278047
 20
5291.982375384075
 30
0.0
 10
6580.33968008309
 20
5291.936430790381
 30
0.0
 10
6578.673209038859
 20
5291.900331890748
 30
0.0
 10
6577.4709944858
 20
5291.873798670763
 30
0.0
 10
6575.845240875988
 20
5291.837720695677
 30
0.0
 10
6574.052983572344
 20
5291.790277082976
 30
0.0
 10
6572.353516436517
 20
5291.732472785182
 30
0.0
 10
6571.223373860205
 20
5291.676091816013
 30
0.0
 10
6570.667608488812
 20
5291.63573162793
 30
0.0
 10
6570.698994922014
 20
5291.610650694182
 30
0.0
 10
6570.706949188855
 20
5291.604294430686
 30
0.0
  0
SPLINE
  5
23A
330
1F
100
AcDbEntity
  8
0
  6
Continuous
 62
     7
370
    25
100
AcDbSpline
210
0.0
220
0.0
230
1.0
 70
     8
 71
     3
 72
    24
 73
    20
 74
     0
 42
0.000000001
 43
0.00000001
 40
0.0
 40
0.0
 40
0.0
 40
0.0
 40
0.0209944391954673
 40
0.0928836141877599
 40
0.1636025075830685
 40
0.2338705171329649
 40
0.3056496667202033
 40
0.3772308509854506
 40
0.4472281400610753
 40
0.5183534637845317
 40
0.5902646863130256
 40
0.6169032337656795
 40
0.6548735547125367
 40
0.6922730129235066
 40
0.7632049621127882
 40
0.8351162785473156
 40
0.9062423555895991
 40
0.9762389919716841
 40
1.0
 40
1.0
 40
1.0
 40
1.0
 10
6595.290765717175
 20
5290.801904153301
 30
0.0
 10
6595.309467840926
 20
5290.796387431444
 30
0.0
 10
6595.392209791345
 20
5290.771980346319
 30
0.0
 10
6594.92288555398
 20
5290.727275976751
 30
0.0
 10
6593.898477433329
 20
5290.672448874527
 30
0.0
 10
6592.305841849593
 20
5290.618891555575
 30
0.0
 10
6590.264585076186
 20
5290.56110972279
 30
0.0
 10
6587.866067518911
 20
5290.503713746412
 30
0.0
 10
6585.241416211967
 20
5290.451075191041
 30
0.0
 10
6582.503916220296
 20
5290.394880423812
 30
0.0
 10
6580.339679894604
 20
5290.348942546758
 30
0.0
 10
6578.673209147022
 20
5290.312826266117
 30
0.0
 10
6577.470994556998
 20
5290.286294220648
 30
0.0
 10
6575.845240691356
 20
5290.250231590925
 30
0.0
 10
6574.052983675007
 20
5290.202770758034
 30
0.0
 10
6572.353516471479
 20
5290.144967729445
 30
0.0
 10
6571.223373794549
 20
5290.088602129476
 30
0.0
 10
6570.667608493791
 20
5290.048228057505
 30
0.0
 10
6570.698994923282
 20
5290.023147851199
 30
0.0
 10
6570.706949188855
 20
5290.016791772319
 30
0.0
  0
SPLINE
  5
23B
330
1F
100
AcDbEntity
  8
0
  6
Continuous
 62
     7
370
    25
100
AcDbSpline
210
0.0
220
0.0
230
1.0
 70
     8
 71
     3
 72
    22
 73
    18
 74
     0
 42
0.000000001
 43
0.00000001
 40
0.0
 40
0.0
 40
0.0
 40
0.0
 40
0.0201129023535669
 40
0.0912424527982508
 40
0.1612140233976638
 40
0.2307402728853399
 40
0.301761180670585
 40
0.3725871603390333
 40
0.4418446746373361
 40
0.512218139809113
 40
0.5833702705466844
 40
0.6535536180336978
 40
0.7229183729332298
 40
0.793851804985497
 40
0.8647859206709518
 40
0.9341511429691268
 40
1.0
 40
1.0
 40
1.0
 40
1.0
 10
6596.146926834729
 20
5296.65528143592
 30
0.0
 10
6596.166150772413
 20
5296.649940207421
 30
0.0
 10
6596.253360424995
 20
5296.625709652293
 30
0.0
 10
6595.751666551358
 20
5296.581180377311
 30
0.0
 10
6594.656729525518
 20
5296.526355217435
 30
0.0
 10
6592.953222555988
 20
5296.472798108202
 30
0.0
 10
6590.770091349865
 20
5296.415015300833
 30
0.0
 10
6588.204780065696
 20
5296.357621191265
 30
0.0
 10
6585.397878502135
 20
5296.304979646499
 30
0.0
 10
6582.469372975959
 20
5296.24879329548
 30
0.0
 10
6579.553165398114
 20
5296.190830103802
 30
0.0
 10
6576.819145577925
 20
5296.135211775809
 30
0.0
 10
6574.38672368117
 20
5296.082208931857
 30
0.0
 10
6572.358452947044
 20
5296.024587239275
 30
0.0
 10
6570.866665891788
 20
5295.966935116205
 30
0.0
 10
6569.934058182058
 20
5295.915156888605
 30
0.0
 10
6569.837574599596
 20
5295.879195791603
 30
0.0
 10
6569.790587380078
 20
5295.861682843639
 30
0.0
  0
SPLINE
  5
23C
330
1F
100
AcDbEntity
  8
0
  6
Continuous
 62
     7
370
    25
100
AcDbSpline
210
0.0
220
0.0
230
1.0
 70
     8
 71
     3
 72
    22
 73
    18
 74
     0
 42
0.000000001
 43
0.00000001
 40
0.0
 40
0.0
 40
0.0
 40
0.0
 40
0.0201129023537799
 40
0.0912424492779006
 40
0.1612140198780548
 40
0.2307402693664674
 40
0.3017611806632501
 40
0.3725871568411875
 40
0.4418446744754985
 40
0.5122181396480208
 40
0.5833702703863458
 40
0.6535536178741027
 40
0.722918369428419
 40
0.7938518014814375
 40
0.8647859206695195
 40
0.9341511429684293
 40
1.0
 40
1.0
 40
1.0
 40
1.0
 10
6596.146926834729
 20
5295.067778777553
 30
0.0
 10
6596.166150773077
 20
5295.062437436392
 30
0.0
 10
6596.253360425307
 20
5295.038206371107
 30
0.0
 10
6595.751666520805
 20
5294.993688484042
 30
0.0
 10
6594.656729542953
 20
5294.938858246321
 30
0.0
 10
6592.95322246973
 20
5294.885306701108
 30
0.0
 10
6590.770091528246
 20
5294.827506360392
 30
0.0
 10
6588.204779874715
 20
5294.770132140931
 30
0.0
 10
6585.397878610561
 20
5294.717473359062
 30
0.0
 10
6582.469372961647
 20
5294.661291455734
 30
0.0
 10
6579.553165391952
 20
5294.60332787893
 30
0.0
 10
6576.819145659323
 20
5294.547706628987
 30
0.0
 10
6574.386723610663
 20
5294.494715777822
 30
0.0
 10
6572.358452901134
 20
5294.437094015119
 30
0.0
 10
6570.866665933651
 20
5294.379430001153
 30
0.0
 10
6569.934058175993
 20
5294.327654803001
 30
0.0
 10
6569.83757459761
 20
5294.291693320817
 30
0.0
 10
6569.790587380078
 20
5294.274180185272
 30
0.0
  0
SPLINE
  5
23D
330
1F
100
AcDbEntity
  8
0
  6
Continuous
 62
     7
370
    25
100
AcDbSpline
210
0.0
220
0.0
230
1.0
 70
     8
 71
     3
 72
    22
 73
    18
 74
     0
 42
0.000000001
 43
0.00000001
 40
0.0
 40
0.0
 40
0.0
 40
0.0
 40
0.020112898958151
 40
0.0912424496425127
 40
0.1612140204777016
 40
0.230740270199653
 40
0.3017611782242098
 40
0.372587158131313
 40
0.4418446726629857
 40
0.5122181415185922
 40
0.5833702724959174
 40
0.6535536167919179
 40
0.722918371925181
 40
0.7938518042164653
 40
0.8647859236428151
 40
0.9341511461747228
 40
1.0
 40
1.0
 40
1.0
 40
1.0
 10
6596.146926834729
 20
5293.480276119186
 30
0.0
 10
6596.166150770877
 20
5293.474937680059
 30
0.0
 10
6596.253360428198
 20
5293.450719775709
 30
0.0
 10
6595.751666546144
 20
5293.406179488145
 30
0.0
 10
6594.656729526662
 20
5293.351358161327
 30
0.0
 10
6592.953222556541
 20
5293.29779997582
 30
0.0
 10
6590.770091346396
 20
5293.240017677016
 30
0.0
 10
6588.204780078822
 20
5293.182622633899
 30
0.0
 10
6585.397878407966
 20
5293.129984260689
 30
0.0
 10
6582.469373063343
 20
5293.073785964594
 30
0.0
 10
6579.553165479998
 20
5293.015822700657
 30
0.0
 10
6576.81914549119
 20
5292.960216581776
 30
0.0
 10
6574.386723699952
 20
5292.90720971215
 30
0.0
 10
6572.358452885684
 20
5292.849592129887
 30
0.0
 10
6570.866665937604
 20
5292.791927692702
 30
0.0
 10
6569.934058190837
 20
5292.740150089092
 30
0.0
 10
6569.837574601627
 20
5292.704194999426
 30
0.0
 10
6569.790587380078
 20
5292.686684977485
 30
0.0
  0
SPLINE
  5
23E
330
1F
100
AcDbEntity
  8
0
  6
Continuous
 62
     7
370
    25
100
AcDbSpline
210
0.0
220
0.0
230
1.0
 70
     8
 71
     3
 72
    22
 73
    18
 74
     0
 42
0.000000001
 43
0.00000001
 40
0.0
 40
0.0
 40
0.0
 40
0.0
 40
0.0201129023544549
 40
0.0912424528022792
 40
0.161214019998295
 40
0.2307402728513767
 40
0.3017611806397574
 40
0.3725871603113327
 40
0.4418446746126934
 40
0.5122181397875772
 40
0.58337027052829
 40
0.6535536180184022
 40
0.7229183729209967
 40
0.7938518049763955
 40
0.864785920664982
 40
0.9341511429662196
 40
1.0
 40
1.0
 40
1.0
 40
1.0
 10
6596.146926834729
 20
5291.892780911399
 30
0.0
 10
6596.166150772069
 20
5291.887439721129
 30
0.0
 10
6596.253360423092
 20
5291.863209339434
 30
0.0
 10
6595.751666594799
 20
5291.818676201424
 30
0.0
 10
6594.656729430816
 20
5291.763867610415
 30
0.0
 10
6592.953222622955
 20
5291.710294049711
 30
0.0
 10
6590.770091341168
 20
5291.652515729742
 30
0.0
 10
6588.204780067965
 20
5291.595120417995
 30
0.0
 10
6585.397878501522
 20
5291.542479189163
 30
0.0
 10
6582.469372976127
 20
5291.486292752604
 30
0.0
 10
6579.553165398071
 20
5291.428329584149
 30
0.0
 10
6576.819145577937
 20
5291.372711250009
 30
0.0
 10
6574.386723681167
 20
5291.319708407686
 30
0.0
 10
6572.358452947044
 20
5291.26208671466
 30
0.0
 10
6570.866665891788
 20
5291.204434591709
 30
0.0
 10
6569.934058182057
 20
5291.152656364079
 30
0.0
 10
6569.837574599596
 20
5291.116695267079
 30
0.0
 10
6569.790587380078
 20
5291.099182319118
 30
0.0
  0
SPLINE
  5
23F
330
1F
100
AcDbEntity
  8
0
  6
Continuous
 62
     7
370
    25
100
AcDbSpline
210
0.0
220
0.0
230
1.0
 70
     8
 71
     3
 72
    16
 73
    12
 74
     0
 42
0.000000001
 43
0.00000001
 40
0.0
 40
0.0
 40
0.0
 40
0.0
 40
0.0388327575856849
 40
0.1761653217426858
 40
0.3112621362755105
 40
0.4454991521340382
 40
0.5826219692884744
 40
0.7193684176781293
 40
0.8530865825641657
 40
0.9889593504740446
 40
0.9999999999999999
 40
0.9999999999999999
 40
0.9999999999999999
 40
0.9999999999999999
 10
6596.146926834729
 20
5290.305278253032
 30
0.0
 10
6596.166150786888
 20
5290.299936912157
 30
0.0
 10
6596.253360501767
 20
5290.275705848171
 30
0.0
 10
6595.751665201448
 20
5290.231187932171
 30
0.0
 10
6594.656734208942
 20
5290.176357818524
 30
0.0
 10
6592.953205054923
 20
5290.122805815584
 30
0.0
 10
6590.770158006441
 20
5290.065007213941
 30
0.0
 10
6588.204535019267
 20
5290.007626540647
 30
0.0
 10
6585.398776017636
 20
5289.954991437459
 30
0.0
 10
6583.376388995903
 20
5289.916188354344
 30
0.0
 10
6582.32650039742
 20
5289.895660635688
 30
0.0
 10
6582.247600510266
 20
5289.894117962791
 30
0.0
  0
LINE
  5
240
330
1F
100
AcDbEntity
  8
0
  6
Continuous
 62
     7
370
    25
100
AcDbLine
 10
6594.4033121611
 20
5289.8941179628
 30
0.0
 11
6596.1919879462
 21
5289.8941179628
 31
0.0
  0
LINE
  5
241
330
1F
100
AcDbEntity
  8
0
  6
Continuous
 62
     7
370
    25
100
AcDbLine
 10
6593.1272363211
 20
5289.8941179628
 30
0.0
 11
6593.1272363211
 21
5279.3941190357
 31
0.0
  0
LINE
  5
242
330
1F
100
AcDbEntity
  8
0
  6
Continuous
 62
     7
370
    25
100
AcDbLine
 10
6579.6651100661
 20
5289.8941179628
 30
0.0
 11
6593.1272363211
 21
5289.8941179628
 31
0.0
  0
LINE
  5
243
330
1F
100
AcDbEntity
  8
0
  6
Continuous
 62
     7
370
    25
100
AcDbLine
 10
6597.2660040404
 20
5289.8941179628
 30
0.0
 11
6597.2660040404
 21
5279.3941190357
 31
0.0
  0
LINE
  5
244
330
1F
100
AcDbEntity
  8
0
  6
Continuous
 62
     7
370
    25
100
AcDbLine
 10
6596.1927032019
 20
5289.8941179628
 30
0.0
 11
6597.2660040404
 21
5289.8941179628
 31
0.0
  0
LINE
  5
245
330
1F
100
AcDbEntity
  8
0
  6
Continuous
 62
     7
370
    25
100
AcDbLine
 10
6593.1272363211
 20
5289.8941179628
 30
0.0
 11
6594.4033121611
 21
5289.8941179628
 31
0.0
  0
LINE
  5
246
330
1F
100
AcDbEntity
  8
0
  6
Continuous
 62
     7
370
    25
100
AcDbLine
 10
6582.9434251334
 20
5137.8941153998
 30
0.0
 11
6582.9434251334
 21
5148.3941143269
 31
0.0
  0
LINE
  5
247
330
1F
100
AcDbEntity
  8
0
  6
Continuous
 62
     7
370
    25
100
AcDbLine
 10
6596.4678978468
 20
5137.8941153998
 30
0.0
 11
6596.4678978468
 21
5148.3941143269
 31
0.0
  0
LINE
  5
248
330
1F
100
AcDbEntity
  8
0
  6
Continuous
 62
     7
370
    25
100
AcDbLine
 10
6596.4678978468
 20
5137.8941153998
 30
0.0
 11
6582.9434251334
 21
5137.8941153998
 31
0.0
  0
LINE
  5
249
330
1F
100
AcDbEntity
  8
0
  6
Continuous
 62
     7
370
    25
100
AcDbLine
 10
6569.4680070426
 20
5137.8941153998
 30
0.0
 11
6569.4680070426
 21
5148.3941143269
 31
0.0
  0
LINE
  5
24A
330
1F
100
AcDbEntity
  8
0
  6
Continuous
 62
     7
370
    25
100
AcDbLine
 10
6582.9434251334
 20
5137.8941153998
 30
0.0
 11
6569.4680070426
 21
5137.8941153998
 31
0.0
  0
SPLINE
  5
24B
330
1F
100
AcDbEntity
  8
0
  6
Continuous
 62
     7
370
    25
100
AcDbSpline
210
0.0
220
0.0
230
1.0
 70
     8
 71
     3
 72
    27
 73
    23
 74
     0
 42
0.000000001
 43
0.00000001
 40
0.0
 40
0.0
 40
0.0
 40
0.0
 40
0.0169335983943968
 40
0.070571169823302
 40
0.1257949239182838
 40
0.1789454995501068
 40
0.2336379882383608
 40
0.2867890075751979
 40
0.3415045249083021
 40
0.3942826336591804
 40
0.4485993005014735
 40
0.5012400374545599
 40
0.555414671977321
 40
0.6078462409671067
 40
0.6618173340509823
 40
0.713945770761547
 40
0.767586592610161
 40
0.8196695161816298
 40
0.8732921039569205
 40
0.9249097148385848
 40
0.9780244068021572
 40
1.0
 40
1.0
 40
1.0
 40
1.0
 10
6596.097693398145
 20
5130.324273359252
 30
0.0
 10
6596.113172886938
 20
5130.321545517601
 30
0.0
 10
6596.177684020777
 20
5130.310177173323
 30
0.0
 10
6595.917876894725
 20
5130.289768440217
 30
0.0
 10
6595.310633756166
 20
5130.262051234809
 30
0.0
 10
6594.321238560912
 20
5130.234063610763
 30
0.0
 10
6593.032313861948
 20
5130.206854278507
 30
0.0
 10
6591.445315973479
 20
5130.181157160174
 30
0.0
 10
6589.637790773585
 20
5130.154004898814
 30
0.0
 10
6587.630811624811
 20
5130.126006188678
 30
0.0
 10
6585.521280817219
 20
5130.098331588393
 30
0.0
 10
6583.326486740568
 20
5130.071518883275
 30
0.0
 10
6581.151062056991
 20
5130.045791565707
 30
0.0
 10
6579.016341072934
 20
5130.017936744175
 30
0.0
 10
6577.025551380215
 20
5129.990206496062
 30
0.0
 10
6575.19633033851
 20
5129.962392873375
 30
0.0
 10
6573.611437657687
 20
5129.936713137678
 30
0.0
 10
6572.287657014579
 20
5129.909807457568
 30
0.0
 10
6571.283436253087
 20
5129.882091385075
 30
0.0
 10
6570.632898919399
 20
5129.854110143457
 30
0.0
 10
6570.332107420413
 20
5129.832156330723
 30
0.0
 10
6570.379361242605
 20
5129.819711350123
 30
0.0
 10
6570.393190338757
 20
5129.816069256736
 30
0.0
  0
LINE
  5
24C
330
1F
100
AcDbEntity
  8
0
  6
Continuous
 62
     7
370
    25
100
AcDbLine
 10
6594.7129582907
 20
5128.8941195125
 30
0.0
 11
6571.2720012213
 21
5128.8941195125
 31
0.0
  0
SPLINE
  5
24D
330
1F
100
AcDbEntity
  8
0
  6
Continuous
 62
     7
370
    25
100
AcDbSpline
210
0.0
220
0.0
230
1.0
 70
     8
 71
     3
 72
    22
 73
    18
 74
     0
 42
0.000000001
 43
0.00000001
 40
0.0
 40
0.0
 40
0.0
 40
0.0
 40
0.0374814342772737
 40
0.1081750080400782
 40
0.1792585585540645
 40
0.2489964492453779
 40
0.3187335992860261
 40
0.3898169753693169
 40
0.4605115369647184
 40
0.5297117778754449
 40
0.6002551702801271
 40
0.6713819893825995
 40
0.7413514099628072
 40
0.8108742840120883
 40
0.881892567255381
 40
0.9527154376888723
 40
1.0
 40
1.0
 40
1.0
 40
1.0
 10
6569.849476769116
 20
5130.673057388736
 30
0.0
 10
6569.837186410491
 20
5130.682586078033
 30
0.0
 10
6569.801715258741
 20
5130.710086787681
 30
0.0
 10
6570.446031036233
 20
5130.75856317725
 30
0.0
 10
6571.707007120781
 20
5130.816467264107
 30
0.0
 10
6573.540879163621
 20
5130.870673390202
 30
0.0
 10
6575.821213347189
 20
5130.924897632973
 30
0.0
 10
6578.465095744102
 20
5130.982795489501
 30
0.0
 10
6581.323278408258
 20
5131.039857044412
 30
0.0
 10
6584.253464665511
 20
5131.092328408803
 30
0.0
 10
6587.129867815054
 20
5131.149003937057
 30
0.0
 10
6589.814456608408
 20
5131.206944799144
 30
0.0
 10
6592.151346733459
 20
5131.261906621156
 30
0.0
 10
6594.052510557859
 20
5131.315425891748
 30
0.0
 10
6595.39983590211
 20
5131.373227670364
 30
0.0
 10
6596.140395743384
 20
5131.424613591795
 30
0.0
 10
6596.143910406468
 20
5131.454620356929
 30
0.0
 10
6596.14531750932
 20
5131.466633629276
 30
0.0
  0
SPLINE
  5
24E
330
1F
100
AcDbEntity
  8
0
  6
Continuous
 62
     7
370
    25
100
AcDbSpline
210
0.0
220
0.0
230
1.0
 70
     8
 71
     3
 72
    22
 73
    18
 74
     0
 42
0.000000001
 43
0.00000001
 40
0.0
 40
0.0
 40
0.0
 40
0.0
 40
0.0374814309544064
 40
0.1081750082090392
 40
0.1792585552196075
 40
0.2489964493075909
 40
0.3187335993615351
 40
0.3898169719413991
 40
0.4605115370285804
 40
0.5297117779525006
 40
0.6002551703706326
 40
0.6713819859654775
 40
0.7413514065590256
 40
0.8108742806215619
 40
0.8818925673890474
 40
0.9527154343448887
 40
1.0
 40
1.0
 40
1.0
 40
1.0
 10
6569.849476769116
 20
5132.260560047103
 30
0.0
 10
6569.83718641605
 20
5132.270085359331
 30
0.0
 10
6569.801715277146
 20
5132.297576324912
 30
0.0
 10
6570.44603095958
 20
5132.346073567775
 30
0.0
 10
6571.70700722478
 20
5132.40395612633
 30
0.0
 10
6573.540879108263
 20
5132.458178871947
 30
0.0
 10
6575.821213256042
 20
5132.512402679547
 30
0.0
 10
6578.465095932773
 20
5132.570285449423
 30
0.0
 10
6581.323278295482
 20
5132.627363197947
 30
0.0
 10
6584.253464694477
 20
5132.679829446161
 30
0.0
 10
6587.129867714911
 20
5132.736509620051
 30
0.0
 10
6589.814456699886
 20
5132.794436992815
 30
0.0
 10
6592.15134671365
 20
5132.849403534779
 30
0.0
 10
6594.052510617308
 20
5132.902917233033
 30
0.0
 10
6595.39983582697
 20
5132.960736940884
 30
0.0
 10
6596.140395769675
 20
5133.01210363912
 30
0.0
 10
6596.143910413911
 20
5133.04211940926
 30
0.0
 10
6596.14531750932
 20
5133.054136287643
 30
0.0
  0
SPLINE
  5
24F
330
1F
100
AcDbEntity
  8
0
  6
Continuous
 62
     7
370
    25
100
AcDbSpline
210
0.0
220
0.0
230
1.0
 70
     8
 71
     3
 72
    22
 73
    18
 74
     0
 42
0.000000001
 43
0.00000001
 40
0.0
 40
0.0
 40
0.0
 40
0.0
 40
0.0374814309520785
 40
0.1081750047239708
 40
0.1792585552470951
 40
0.2489964493307472
 40
0.3187335959969503
 40
0.389816972089379
 40
0.4605115336938683
 40
0.5297117779433413
 40
0.6002551668937709
 40
0.6713819860053868
 40
0.7413514065945893
 40
0.8108742806528074
 40
0.8818925639052297
 40
0.9527154343478255
 40
1.0
 40
1.0
 40
1.0
 40
1.0
 10
6569.849476769116
 20
5133.848062705471
 30
0.0
 10
6569.837186413409
 20
5133.857588410384
 30
0.0
 10
6569.801715268022
 20
5133.885080508411
 30
0.0
 10
6570.446031024727
 20
5133.93356336848
 30
0.0
 10
6571.707007187964
 20
5133.99146122501
 30
0.0
 10
6573.540879024892
 20
5134.045684302738
 30
0.0
 10
6575.821213441064
 20
5134.099891695811
 30
0.0
 10
6578.465095713709
 20
5134.157795264792
 30
0.0
 10
6581.323278522023
 20
5134.214851155519
 30
0.0
 10
6584.253464469559
 20
5134.267339230051
 30
0.0
 10
6587.129867926261
 20
5134.323998275433
 30
0.0
 10
6589.814456590632
 20
5134.381943579677
 30
0.0
 10
6592.151346738194
 20
5134.43690430942
 30
0.0
 10
6594.052510556407
 20
5134.490423569176
 30
0.0
 10
6595.399835903101
 20
5134.548226496309
 30
0.0
 10
6596.140395754336
 20
5134.599608335751
 30
0.0
 10
6596.143910409555
 20
5134.629622650607
 30
0.0
 10
6596.14531750932
 20
5134.64163894601
 30
0.0
  0
SPLINE
  5
250
330
1F
100
AcDbEntity
  8
0
  6
Continuous
 62
     7
370
    25
100
AcDbSpline
210
0.0
220
0.0
230
1.0
 70
     8
 71
     3
 72
    22
 73
    18
 74
     0
 42
0.000000001
 43
0.00000001
 40
0.0
 40
0.0
 40
0.0
 40
0.0
 40
0.0374814309433529
 40
0.1081750081771376
 40
0.1792585586837136
 40
0.248996449367757
 40
0.3187335994011353
 40
0.3898169754770158
 40
0.4605115370650475
 40
0.5297117779685601
 40
0.6002551703658883
 40
0.6713819894609458
 40
0.7413514066275232
 40
0.8108742840318042
 40
0.8818925672676935
 40
0.9527154376938016
 40
1.0
 40
1.0
 40
1.0
 40
1.0
 10
6569.849476769116
 20
5135.435557913257
 30
0.0
 10
6569.837186414987
 20
5135.445083331048
 30
0.0
 10
6569.801715273014
 20
5135.472574601299
 30
0.0
 10
6570.446031007036
 20
5135.521067978665
 30
0.0
 10
6571.707007123009
 20
5135.578966663627
 30
0.0
 10
6573.540879163013
 20
5135.63317421472
 30
0.0
 10
6575.821213347416
 20
5135.687398070913
 30
0.0
 10
6578.465095743808
 20
5135.745296054242
 30
0.0
 10
6581.323278409192
 20
5135.802357496155
 30
0.0
 10
6584.253464662116
 20
5135.854829181249
 30
0.0
 10
6587.129867828042
 20
5135.911503517817
 30
0.0
 10
6589.814456516654
 20
5135.969448849309
 30
0.0
 10
6592.151346875204
 20
5136.024394260843
 30
0.0
 10
6594.05251048819
 20
5136.077929943291
 30
0.0
 10
6595.399835915224
 20
5136.135727235784
 30
0.0
 10
6596.140395741344
 20
5136.187114265586
 30
0.0
 10
6596.143910405884
 20
5136.217120924126
 30
0.0
 10
6596.14531750932
 20
5136.229134153797
 30
0.0
  0
SPLINE
  5
251
330
1F
100
AcDbEntity
  8
0
  6
Continuous
 62
     7
370
    25
100
AcDbSpline
210
0.0
220
0.0
230
1.0
 70
     8
 71
     3
 72
    22
 73
    18
 74
     0
 42
0.000000001
 43
0.00000001
 40
0.0
 40
0.0
 40
0.0
 40
0.0
 40
0.0374814309544064
 40
0.1081750082090392
 40
0.1792585552196075
 40
0.2489964493075909
 40
0.3187335993615351
 40
0.3898169719413991
 40
0.4605115370285804
 40
0.5297117779525006
 40
0.6002551703706326
 40
0.6713819859654775
 40
0.7413514065590256
 40
0.8108742806215619
 40
0.8818925673890474
 40
0.9527154343448887
 40
1.0
 40
1.0
 40
1.0
 40
1.0
 10
6569.849476769116
 20
5137.023060571624
 30
0.0
 10
6569.83718641605
 20
5137.032585883851
 30
0.0
 10
6569.801715277146
 20
5137.060076849433
 30
0.0
 10
6570.44603095958
 20
5137.108574092295
 30
0.0
 10
6571.70700722478
 20
5137.166456650851
 30
0.0
 10
6573.540879108263
 20
5137.220679396468
 30
0.0
 10
6575.821213256042
 20
5137.274903204068
 30
0.0
 10
6578.465095932773
 20
5137.332785973944
 30
0.0
 10
6581.323278295482
 20
5137.389863722468
 30
0.0
 10
6584.253464694477
 20
5137.442329970682
 30
0.0
 10
6587.129867714911
 20
5137.499010144572
 30
0.0
 10
6589.814456699886
 20
5137.556937517335
 30
0.0
 10
6592.15134671365
 20
5137.611904059299
 30
0.0
 10
6594.052510617308
 20
5137.665417757554
 30
0.0
 10
6595.39983582697
 20
5137.723237465405
 30
0.0
 10
6596.140395769675
 20
5137.774604163641
 30
0.0
 10
6596.143910413911
 20
5137.80461993378
 30
0.0
 10
6596.14531750932
 20
5137.816636812164
 30
0.0
  0
SPLINE
  5
252
330
1F
100
AcDbEntity
  8
0
  6
Continuous
 62
     7
370
    25
100
AcDbSpline
210
0.0
220
0.0
230
1.0
 70
     8
 71
     3
 72
    22
 73
    18
 74
     0
 42
0.000000001
 43
0.00000001
 40
0.0
 40
0.0
 40
0.0
 40
0.0
 40
0.0672988820114151
 40
0.1391458043272898
 40
0.2104032861374761
 40
0.2803054022265362
 40
0.3517141507401687
 40
0.4235170719264591
 40
0.4939616443064816
 40
0.5644055881378058
 40
0.636208342492719
 40
0.7076177030291337
 40
0.7775195456466534
 40
0.8487768091065366
 40
0.9206241239318953
 40
0.9913012753383956
 40
1.0
 40
1.0
 40
1.0
 40
1.0
 10
6569.792971565869
 20
5131.07751215644
 30
0.0
 10
6569.871964549314
 20
5131.094806444045
 30
0.0
 10
6570.035288840732
 20
5131.130563762551
 30
0.0
 10
6571.077548792162
 20
5131.187686058918
 30
0.0
 10
6572.66396668796
 20
5131.244337345211
 30
0.0
 10
6574.757623826085
 20
5131.29680911562
 30
0.0
 10
6577.252265417018
 20
5131.353887018604
 30
0.0
 10
6580.036605280379
 20
5131.411770241426
 30
0.0
 10
6582.950506116841
 20
5131.465992564435
 30
0.0
 10
6585.866584486826
 20
5131.520215778898
 30
0.0
 10
6588.656471441842
 20
5131.578099087174
 30
0.0
 10
6591.162577102899
 20
5131.63517635876
 30
0.0
 10
6593.262735417858
 20
5131.687647854915
 30
0.0
 10
6594.889077874505
 20
5131.744302336853
 30
0.0
 10
6595.873401710738
 20
5131.802285341102
 30
0.0
 10
6596.290604919056
 20
5131.84124749348
 30
0.0
 10
6596.18990998384
 20
5131.861547291783
 30
0.0
 10
6596.178874924329
 20
5131.863771926834
 30
0.0
  0
SPLINE
  5
253
330
1F
100
AcDbEntity
  8
0
  6
Continuous
 62
     7
370
    25
100
AcDbSpline
210
0.0
220
0.0
230
1.0
 70
     8
 71
     3
 72
    22
 73
    18
 74
     0
 42
0.000000001
 43
0.00000001
 40
0.0
 40
0.0
 40
0.0
 40
0.0
 40
0.0672988820007253
 40
0.1391458043051877
 40
0.2104032861040553
 40
0.2803054021820121
 40
0.3517141471706993
 40
0.4235170718981867
 40
0.4939616408494127
 40
0.5644055846695475
 40
0.6362083425656659
 40
0.7076176995771654
 40
0.7775195421835818
 40
0.848776809130557
 40
0.9206241239445034
 40
0.9913012753397772
 40
0.9999999999999999
 40
0.9999999999999999
 40
0.9999999999999999
 40
0.9999999999999999
 10
6569.792971565869
 20
5132.665014814807
 30
0.0
 10
6569.871964549664
 20
5132.682309082594
 30
0.0
 10
6570.035288841804
 20
5132.718066360122
 30
0.0
 10
6571.077548787554
 20
5132.775188978858
 30
0.0
 10
6572.663966704906
 20
5132.831839041552
 30
0.0
 10
6574.757623728982
 20
5132.884315321078
 30
0.0
 10
6577.252265612595
 20
5132.941376075742
 30
0.0
 10
6580.036605078861
 20
5132.999278834051
 30
0.0
 10
6582.950506214465
 20
5133.0534850418
 30
0.0
 10
6585.866584576975
 20
5133.107708634252
 30
0.0
 10
6588.656471265481
 20
5133.165606750083
 30
0.0
 10
6591.162577188683
 20
5133.222668992938
 30
0.0
 10
6593.262735462284
 20
5133.275141290562
 30
0.0
 10
6594.889077830196
 20
5133.331807518333
 30
0.0
 10
6595.873401718559
 20
5133.389787299457
 30
0.0
 10
6596.29060491888
 20
5133.428750167654
 30
0.0
 10
6596.189909983823
 20
5133.449049951711
 30
0.0
 10
6596.178874924329
 20
5133.451274585201
 30
0.0
  0
SPLINE
  5
254
330
1F
100
AcDbEntity
  8
0
  6
Continuous
 62
     7
370
    25
100
AcDbSpline
210
0.0
220
0.0
230
1.0
 70
     8
 71
     3
 72
    22
 73
    18
 74
     0
 42
0.000000001
 43
0.00000001
 40
0.0
 40
0.0
 40
0.0
 40
0.0
 40
0.0672988820183428
 40
0.1391458007847648
 40
0.2104032826022862
 40
0.2803053986985419
 40
0.3517141472195251
 40
0.4235170684132067
 40
0.4939616408004807
 40
0.5644055846390562
 40
0.6362083390013606
 40
0.7076176995451261
 40
0.7775195421698413
 40
0.8487768091354703
 40
0.9206241239682248
 40
0.9913012719411355
 40
1.0
 40
1.0
 40
1.0
 40
1.0
 10
6569.792971565869
 20
5134.252517473175
 30
0.0
 10
6569.871964542985
 20
5134.269812527768
 30
0.0
 10
6570.035288817143
 20
5134.305571431169
 30
0.0
 10
6571.077548833572
 20
5134.362681250781
 30
0.0
 10
6572.663966684065
 20
5134.419335910024
 30
0.0
 10
6574.757623827143
 20
5134.471806791822
 30
0.0
 10
6577.252265416739
 20
5134.528884935807
 30
0.0
 10
6580.036605280418
 20
5134.586768096597
 30
0.0
 10
6582.950506116957
 20
5134.640990424619
 30
0.0
 10
6585.866584486321
 20
5134.695213680142
 30
0.0
 10
6588.656471443786
 20
5134.753096816364
 30
0.0
 10
6591.162577095752
 20
5134.810174729014
 30
0.0
 10
6593.262735478689
 20
5134.862643869251
 30
0.0
 10
6594.889077823356
 20
5134.919307298638
 30
0.0
 10
6595.873401713371
 20
5134.977301564228
 30
0.0
 10
6596.290604887794
 20
5135.016225883971
 30
0.0
 10
6596.189909984641
 20
5135.036549948351
 30
0.0
 10
6596.178874924329
 20
5135.038777243568
 30
0.0
  0
SPLINE
  5
255
330
1F
100
AcDbEntity
  8
0
  6
Continuous
 62
     7
370
    25
100
AcDbSpline
210
0.0
220
0.0
230
1.0
 70
     8
 71
     3
 72
    22
 73
    18
 74
     0
 42
0.000000001
 43
0.00000001
 40
0.0
 40
0.0
 40
0.0
 40
0.0
 40
0.0672988820087905
 40
0.1391458043218632
 40
0.2104032861292704
 40
0.2803054022156043
 40
0.3517141472128493
 40
0.4235170719489417
 40
0.4939616443262169
 40
0.5644055881547939
 40
0.6362083425069067
 40
0.7076177030405365
 40
0.7775195456553301
 40
0.8487768091124342
 40
0.9206241239349909
 40
0.9913012753387348
 40
1.0
 40
1.0
 40
1.0
 40
1.0
 10
6569.792971565869
 20
5135.840012680961
 30
0.0
 10
6569.871964549645
 20
5135.857306949742
 30
0.0
 10
6570.035288841746
 20
5135.893064229326
 30
0.0
 10
6571.077548787804
 20
5135.950186831888
 30
0.0
 10
6572.663966703988
 20
5136.006836955969
 30
0.0
 10
6574.757623732368
 20
5136.059313009239
 30
0.0
 10
6577.252265599616
 20
5136.116374624189
 30
0.0
 10
6580.036605171708
 20
5136.174274161313
 30
0.0
 10
6582.950506132778
 20
5136.228492186851
 30
0.0
 10
6585.866584482464
 20
5136.282716550389
 30
0.0
 10
6588.656471443015
 20
5136.340599545349
 30
0.0
 10
6591.162577102594
 20
5136.397676900589
 30
0.0
 10
6593.26273541794
 20
5136.45014837474
 30
0.0
 10
6594.889077874484
 20
5136.50680286266
 30
0.0
 10
6595.873401710744
 20
5136.564785865267
 30
0.0
 10
6596.290604919055
 20
5136.603748018009
 30
0.0
 10
6596.189909983841
 20
5136.624047816304
 30
0.0
 10
6596.178874924329
 20
5136.626272451354
 30
0.0
  0
SPLINE
  5
256
330
1F
100
AcDbEntity
  8
0
  6
Continuous
 62
     7
370
    25
100
AcDbSpline
210
0.0
220
0.0
230
1.0
 70
     8
 71
     3
 72
    16
 73
    12
 74
     0
 42
0.000000001
 43
0.00000001
 40
0.0
 40
0.0
 40
0.0
 40
0.0
 40
0.1132810305814069
 40
0.2342175626721488
 40
0.3541619115013344
 40
0.4718248487559054
 40
0.5920238176593737
 40
0.7128862907061221
 40
0.8314623076089268
 40
0.9500372722580809
 40
0.9999999999999999
 40
0.9999999999999999
 40
0.9999999999999999
 40
0.9999999999999999
 10
6569.792971565869
 20
5137.427515339328
 30
0.0
 10
6569.871964352124
 20
5137.444809343918
 30
0.0
 10
6570.035288235837
 20
5137.480566077265
 30
0.0
 10
6571.077551377397
 20
5137.537692976179
 30
0.0
 10
6572.663957084799
 20
5137.594326789193
 30
0.0
 10
6574.757659584118
 20
5137.646818949447
 30
0.0
 10
6577.252127871639
 20
5137.703877185158
 30
0.0
 10
6580.037117855079
 20
5137.761773879542
 30
0.0
 10
6582.948633189302
 20
5137.816006429435
 30
0.0
 10
6585.294380477829
 20
5137.859411895262
 30
0.0
 10
6586.611229576376
 20
5137.886180029474
 30
0.0
 10
6587.001607372907
 20
5137.894115399791
 30
0.0
  0
SPLINE
  5
257
330
1F
100
AcDbEntity
  8
0
  6
Continuous
 62
     7
370
    25
100
AcDbSpline
210
0.0
220
0.0
230
1.0
 70
     8
 71
     3
 72
    22
 73
    18
 74
     0
 42
0.000000001
 43
0.00000001
 40
0.0
 40
0.0
 40
0.0
 40
0.0
 40
0.0271117622629534
 40
0.0985783594786059
 40
0.1704380721562421
 40
0.2409387414237059
 40
0.3114380865195533
 40
0.3832985905748005
 40
0.4547651663045409
 40
0.5247223994664992
 40
0.5960372935370438
 40
0.6679410861681448
 40
0.7386760944954281
 40
0.8089589983272005
 40
0.8807531781897857
 40
0.9523502963548773
 40
1.0
 40
1.0
 40
1.0
 40
1.0
 10
6570.707485630658
 20
5129.986717354728
 30
0.0
 10
6570.701489504574
 20
5129.993543636946
 30
0.0
 10
6570.679687591927
 20
5130.018363997046
 30
0.0
 10
6571.267066895795
 20
5130.064066254198
 30
0.0
 10
6572.439067302578
 20
5130.121919635247
 30
0.0
 10
6574.155583605821
 20
5130.176149278434
 30
0.0
 10
6576.287216935038
 20
5130.230371578857
 30
0.0
 10
6578.759384551819
 20
5130.288254151029
 30
0.0
 10
6581.431750254536
 20
5130.345332966186
 30
0.0
 10
6584.171509432583
 20
5130.397798467143
 30
0.0
 10
6586.860967940726
 20
5130.454478235132
 30
0.0
 10
6589.371049975417
 20
5130.512406826458
 30
0.0
 10
6591.556110024088
 20
5130.567372228679
 30
0.0
 10
6593.333664268633
 20
5130.620886354048
 30
0.0
 10
6594.593302975245
 20
5130.678705558466
 30
0.0
 10
6595.285531751279
 20
5130.730034392833
 30
0.0
 10
6595.288888111257
 20
5130.760008770131
 30
0.0
 10
6595.290229275372
 20
5130.771986197902
 30
0.0
  0
SPLINE
  5
258
330
1F
100
AcDbEntity
  8
0
  6
Continuous
 62
     7
370
    25
100
AcDbSpline
210
0.0
220
0.0
230
1.0
 70
     8
 71
     3
 72
    22
 73
    18
 74
     0
 42
0.000000001
 43
0.00000001
 40
0.0
 40
0.0
 40
0.0
 40
0.0
 40
0.0271117622610063
 40
0.0985783554495217
 40
0.1704380721887225
 40
0.2409387414511231
 40
0.3114380826296614
 40
0.3832985907464282
 40
0.4547651624490304
 40
0.5247223994562438
 40
0.5960372895170469
 40
0.667941086214567
 40
0.7386760945367704
 40
0.8089589983634954
 40
0.8807531741615302
 40
0.9523502963582993
 40
1.0
 40
1.0
 40
1.0
 40
1.0
 10
6570.707485630658
 20
5131.574220013095
 30
0.0
 10
6570.70148950292
 20
5131.581046520685
 30
0.0
 10
6570.679687585146
 20
5131.605867699226
 30
0.0
 10
6571.267066966725
 20
5131.6515559186
 30
0.0
 10
6572.439067262895
 20
5131.7094247697
 30
0.0
 10
6574.155583516707
 20
5131.763654699419
 30
0.0
 10
6576.287217132887
 20
5131.817860598321
 30
0.0
 10
6578.759384317545
 20
5131.875763965014
 30
0.0
 10
6581.431750496809
 20
5131.932820924589
 30
0.0
 10
6584.171509192043
 20
5131.985308250406
 30
0.0
 10
6586.860968166756
 20
5132.041966891163
 30
0.0
 10
6589.371049858572
 20
5132.099913413046
 30
0.0
 10
6591.556110050337
 20
5132.154873003297
 30
0.0
 10
6593.333664203498
 20
5132.208392690254
 30
0.0
 10
6594.59330305668
 20
5132.266195113016
 30
0.0
 10
6595.285531734928
 20
5132.317539081872
 30
0.0
 10
6595.288888106621
 20
5132.347512008554
 30
0.0
 10
6595.290229275372
 20
5132.359488856269
 30
0.0
  0
SPLINE
  5
259
330
1F
100
AcDbEntity
  8
0
  6
Continuous
 62
     7
370
    25
100
AcDbSpline
210
0.0
220
0.0
230
1.0
 70
     8
 71
     3
 72
    22
 73
    18
 74
     0
 42
0.000000001
 43
0.00000001
 40
0.0
 40
0.0
 40
0.0
 40
0.0
 40
0.027111758412963
 40
0.0985783556276934
 40
0.1704380683044025
 40
0.2409387375709566
 40
0.3114380826658945
 40
0.3832985907868949
 40
0.4547651624937075
 40
0.5247223956547632
 40
0.5960372897243877
 40
0.6679410864261439
 40
0.7386760908138059
 40
0.808958998532438
 40
0.8807531743347026
 40
0.9523502924988704
 40
1.0
 40
1.0
 40
1.0
 40
1.0
 10
6570.707485630658
 20
5133.161722671462
 30
0.0
 10
6570.70148950686
 20
5133.168546090942
 30
0.0
 10
6570.679687600277
 20
5133.193356044681
 30
0.0
 10
6571.267066896284
 20
5133.239066314688
 30
0.0
 10
6572.439067306989
 20
5133.296916693703
 30
0.0
 10
6574.155583588104
 20
5133.35114820021
 30
0.0
 10
6576.287217042905
 20
5133.405365990563
 30
0.0
 10
6578.759384347002
 20
5133.463265018094
 30
0.0
 10
6581.431750376854
 20
5133.520327197726
 30
0.0
 10
6584.171509397795
 20
5133.572798214375
 30
0.0
 10
6586.860968061715
 20
5133.629472152704
 30
0.0
 10
6589.371049779645
 20
5133.687418591868
 30
0.0
 10
6591.556110196134
 20
5133.742363290396
 30
0.0
 10
6593.33366413328
 20
5133.795897808875
 30
0.0
 10
6594.593303035404
 20
5133.853700644006
 30
0.0
 10
6595.285531756116
 20
5133.905029706873
 30
0.0
 10
6595.288888112592
 20
5133.935011230636
 30
0.0
 10
6595.290229275372
 20
5133.946991514636
 30
0.0
  0
SPLINE
  5
25A
330
1F
100
AcDbEntity
  8
0
  6
Continuous
 62
     7
370
    25
100
AcDbSpline
210
0.0
220
0.0
230
1.0
 70
     8
 71
     3
 72
    22
 73
    18
 74
     0
 42
0.000000001
 43
0.00000001
 40
0.0
 40
0.0
 40
0.0
 40
0.0
 40
0.0271117622629534
 40
0.0985783594786059
 40
0.1704380721562421
 40
0.2409387414237059
 40
0.3114380865195533
 40
0.3832985905748005
 40
0.4547651663045409
 40
0.5247223994664992
 40
0.5960372935370438
 40
0.6679410861681448
 40
0.7386760944954281
 40
0.8089589983272005
 40
0.8807531781897857
 40
0.9523502963548773
 40
1.0
 40
1.0
 40
1.0
 40
1.0
 10
6570.707485630658
 20
5134.749217879249
 30
0.0
 10
6570.701489504574
 20
5134.756044161467
 30
0.0
 10
6570.679687591927
 20
5134.780864521566
 30
0.0
 10
6571.267066895795
 20
5134.826566778719
 30
0.0
 10
6572.439067302578
 20
5134.884420159768
 30
0.0
 10
6574.155583605821
 20
5134.938649802954
 30
0.0
 10
6576.287216935038
 20
5134.992872103378
 30
0.0
 10
6578.759384551819
 20
5135.05075467555
 30
0.0
 10
6581.431750254536
 20
5135.107833490707
 30
0.0
 10
6584.171509432583
 20
5135.160298991664
 30
0.0
 10
6586.860967940726
 20
5135.216978759653
 30
0.0
 10
6589.371049975417
 20
5135.274907350979
 30
0.0
 10
6591.556110024088
 20
5135.3298727532
 30
0.0
 10
6593.333664268633
 20
5135.383386878569
 30
0.0
 10
6594.593302975245
 20
5135.441206082987
 30
0.0
 10
6595.285531751279
 20
5135.492534917354
 30
0.0
 10
6595.288888111257
 20
5135.522509294652
 30
0.0
 10
6595.290229275372
 20
5135.534486722423
 30
0.0
  0
SPLINE
  5
25B
330
1F
100
AcDbEntity
  8
0
  6
Continuous
 62
     7
370
    25
100
AcDbSpline
210
0.0
220
0.0
230
1.0
 70
     8
 71
     3
 72
    22
 73
    18
 74
     0
 42
0.000000001
 43
0.00000001
 40
0.0
 40
0.0
 40
0.0
 40
0.0
 40
0.0271117622568218
 40
0.0985783554343071
 40
0.1704380721624169
 40
0.2409387414139365
 40
0.3114380825815938
 40
0.3832985906872697
 40
0.4547651623788416
 40
0.5247223955249786
 40
0.596037289579395
 40
0.6679410862658174
 40
0.7386760945771034
 40
0.8089589983929808
 40
0.8807531741799349
 40
0.9523502963656536
 40
1.0
 40
1.0
 40
1.0
 40
1.0
 10
6570.707485630658
 20
5136.336720537616
 30
0.0
 10
6570.701489502918
 20
5136.343547045293
 30
0.0
 10
6570.679687585138
 20
5136.368368224152
 30
0.0
 10
6571.267066966826
 20
5136.414056438084
 30
0.0
 10
6572.43906726253
 20
5136.471925312507
 30
0.0
 10
6574.155583518035
 20
5136.526155157269
 30
0.0
 10
6576.287217127885
 20
5136.58036137381
 30
0.0
 10
6578.759384336573
 20
5136.638263534943
 30
0.0
 10
6581.431750378662
 20
5136.695324955121
 30
0.0
 10
6584.171509400651
 20
5136.74779588658
 30
0.0
 10
6586.860968048091
 20
5136.804470929683
 30
0.0
 10
6589.371049877502
 20
5136.862413009358
 30
0.0
 10
6591.55611004534
 20
5136.917373772887
 30
0.0
 10
6593.333664204865
 20
5136.970893147671
 30
0.0
 10
6594.593303056307
 20
5137.028695655782
 30
0.0
 10
6595.285531734986
 20
5137.080039603564
 30
0.0
 10
6595.288888106637
 20
5137.110012532266
 30
0.0
 10
6595.290229275372
 20
5137.12198938079
 30
0.0
  0
SPLINE
  5
25C
330
1F
100
AcDbEntity
  8
0
  6
Continuous
 62
     7
370
    25
100
AcDbSpline
210
0.0
220
0.0
230
1.0
 70
     8
 71
     3
 72
    22
 73
    18
 74
     0
 42
0.000000001
 43
0.00000001
 40
0.0
 40
0.0
 40
0.0
 40
0.0
 40
0.0379060476104232
 40
0.1093596540921229
 40
0.1812063126872102
 40
0.251694170767754
 40
0.3221807049173064
 40
0.3940281506802115
 40
0.4654817397011771
 40
0.5354262604279239
 40
0.6067281913489738
 40
0.6786189218922953
 40
0.7493410764492119
 40
0.8196112086657981
 40
0.8913923382296336
 40
0.9629764500002255
 40
1.0
 40
1.0
 40
1.0
 40
1.0
 10
6570.703730538037
 20
5130.176953029109
 30
0.0
 10
6570.692206702559
 20
5130.186483556752
 30
0.0
 10
6570.658960222351
 20
5130.213979306691
 30
0.0
 10
6571.261515714584
 20
5130.262467900976
 30
0.0
 10
6572.440526723661
 20
5130.32036815145
 30
0.0
 10
6574.155195983477
 20
5130.374585467763
 30
0.0
 10
6576.287322949664
 20
5130.428810985492
 30
0.0
 10
6578.759356477783
 20
5130.486692977341
 30
0.0
 10
6581.43175608669
 20
5130.543770848844
 30
0.0
 10
6584.171513264031
 20
5130.596240636336
 30
0.0
 10
6586.860945850355
 20
5130.652903906304
 30
0.0
 10
6589.371135124778
 20
5130.710849670269
 30
0.0
 10
6591.55579805109
 20
5130.765807637853
 30
0.0
 10
6593.334831553957
 20
5130.819334544779
 30
0.0
 10
6594.588846039994
 20
5130.877109198118
 30
0.0
 10
6595.26024322006
 20
5130.925686305918
 30
0.0
 10
6595.270559629
 20
5130.953022406663
 30
0.0
 10
6595.274076416638
 20
5130.962341081573
 30
0.0
  0
SPLINE
  5
25D
330
1F
100
AcDbEntity
  8
0
  6
Continuous
 62
     7
370
    25
100
AcDbSpline
210
0.0
220
0.0
230
1.0
 70
     8
 71
     3
 72
    22
 73
    18
 74
     0
 42
0.000000001
 43
0.00000001
 40
0.0
 40
0.0
 40
0.0
 40
0.0
 40
0.0379060513088805
 40
0.109359657505718
 40
0.1812063158143762
 40
0.2516941697024462
 40
0.3221807035709918
 40
0.394028153113406
 40
0.4654817378282347
 40
0.5354262582761354
 40
0.6067281929168201
 40
0.6786189231735369
 40
0.7493410774485073
 40
0.8196112093849492
 40
0.8913923386626168
 40
0.9629764501478262
 40
1.0
 40
1.0
 40
1.0
 40
1.0
 10
6570.703730538037
 20
5131.764448236896
 30
0.0
 10
6570.692206699583
 20
5131.773981740696
 30
0.0
 10
6570.658960212993
 20
5131.801486075082
 30
0.0
 10
6571.261515722123
 20
5131.849968510071
 30
0.0
 10
6572.440526669277
 20
5131.907873707836
 30
0.0
 10
6574.155196036603
 20
5131.962078752015
 30
0.0
 10
6576.287323047602
 20
5132.016303620304
 30
0.0
 10
6578.759356280469
 20
5132.074200699222
 30
0.0
 10
6581.431756189299
 20
5132.131263467156
 30
0.0
 10
6584.171513351203
 20
5132.183734078964
 30
0.0
 10
6586.860945751562
 20
5132.240409076663
 30
0.0
 10
6589.37113513846
 20
5132.298351665019
 30
0.0
 10
6591.555798047479
 20
5132.353310471437
 30
0.0
 10
6593.334831554947
 20
5132.406837155141
 30
0.0
 10
6594.588846039723
 20
5132.464611869643
 30
0.0
 10
6595.260243220092
 20
5132.513188962766
 30
0.0
 10
6595.270559629008
 20
5132.540525064644
 30
0.0
 10
6595.274076416638
 20
5132.54984373994
 30
0.0
  0
SPLINE
  5
25E
330
1F
100
AcDbEntity
  8
0
  6
Continuous
 62
     7
370
    25
100
AcDbSpline
210
0.0
220
0.0
230
1.0
 70
     8
 71
     3
 72
    22
 73
    18
 74
     0
 42
0.000000001
 43
0.00000001
 40
0.0
 40
0.0
 40
0.0
 40
0.0
 40
0.0379060474691143
 40
0.109359657705718
 40
0.181206311966984
 40
0.2516941697847582
 40
0.3221807036715459
 40
0.394028149166613
 40
0.4654817379212089
 40
0.5354262583872116
 40
0.6067281930463494
 40
0.6786189233216715
 40
0.7493410736769522
 40
0.8196112095186404
 40
0.8913923388148852
 40
0.962976446282535
 40
1.0
 40
1.0
 40
1.0
 40
1.0
 10
6570.703730538037
 20
5133.351950895263
 30
0.0
 10
6570.692206705533
 20
5133.361481021469
 30
0.0
 10
6570.658960232681
 20
5133.38897561427
 30
0.0
 10
6571.261515640141
 20
5133.437478898911
 30
0.0
 10
6572.440526780521
 20
5133.495362569643
 30
0.0
 10
6574.155195977313
 20
5133.549584238385
 30
0.0
 10
6576.287322950453
 20
5133.603808647812
 30
0.0
 10
6578.759356480991
 20
5133.661690731327
 30
0.0
 10
6581.431756073289
 20
5133.718769357274
 30
0.0
 10
6584.171513365273
 20
5133.771236083398
 30
0.0
 10
6586.860945760567
 20
5133.827911057841
 30
0.0
 10
6589.37113504183
 20
5133.885857701489
 30
0.0
 10
6591.555798197925
 20
5133.940800564441
 30
0.0
 10
6593.334831483666
 20
5133.994342206038
 30
0.0
 10
6594.588846018364
 20
5134.052117881523
 30
0.0
 10
6595.260243239915
 20
5134.100678944252
 30
0.0
 10
6595.270559633771
 20
5134.128024499456
 30
0.0
 10
6595.274076416638
 20
5134.137346398307
 30
0.0
  0
SPLINE
  5
25F
330
1F
100
AcDbEntity
  8
0
  6
Continuous
 62
     7
370
    25
100
AcDbSpline
210
0.0
220
0.0
230
1.0
 70
     8
 71
     3
 72
    22
 73
    18
 74
     0
 42
0.000000001
 43
0.00000001
 40
0.0
 40
0.0
 40
0.0
 40
0.0
 40
0.0379060476045702
 40
0.1093596540752371
 40
0.1812063126592308
 40
0.2516941707288908
 40
0.3221807009560244
 40
0.3940281507737772
 40
0.46548173978371
 40
0.5354262604996569
 40
0.6067281914096974
 40
0.6786189219419185
 40
0.7493410764879151
 40
0.8196112086936511
 40
0.8913923382464033
 40
0.9629764500059421
 40
1.0
 40
1.0
 40
1.0
 40
1.0
 10
6570.703730538037
 20
5134.93945355363
 30
0.0
 10
6570.692206702694
 20
5134.948984073439
 30
0.0
 10
6570.658960222872
 20
5134.976479800776
 30
0.0
 10
6571.261515710194
 20
5135.024968681749
 30
0.0
 10
6572.440526739755
 20
5135.082867736568
 30
0.0
 10
6574.155195893235
 20
5135.137089418925
 30
0.0
 10
6576.287323129188
 20
5135.191298605858
 30
0.0
 10
6578.75935636601
 20
5135.249196967091
 30
0.0
 10
6581.431756102555
 20
5135.306270469096
 30
0.0
 10
6584.171513259727
 20
5135.358741406108
 30
0.0
 10
6586.860945851528
 20
5135.415404363931
 30
0.0
 10
6589.37113512447
 20
5135.473350212455
 30
0.0
 10
6591.555798051172
 20
5135.52830815771
 30
0.0
 10
6593.334831553934
 20
5135.581835070579
 30
0.0
 10
6594.58884604
 20
5135.639609722289
 30
0.0
 10
6595.26024322006
 20
5135.68818683048
 30
0.0
 10
6595.270559629
 20
5135.715522931195
 30
0.0
 10
6595.274076416638
 20
5135.724841606094
 30
0.0
  0
SPLINE
  5
260
330
1F
100
AcDbEntity
  8
0
  6
Continuous
 62
     7
370
    25
100
AcDbSpline
210
0.0
220
0.0
230
1.0
 70
     8
 71
     3
 72
    22
 73
    18
 74
     0
 42
0.000000001
 43
0.00000001
 40
0.0
 40
0.0
 40
0.0
 40
0.0
 40
0.0379060513088805
 40
0.109359657505718
 40
0.1812063158143762
 40
0.2516941697024462
 40
0.3221807035709918
 40
0.394028153113406
 40
0.4654817378282347
 40
0.5354262582761354
 40
0.6067281929168201
 40
0.6786189231735369
 40
0.7493410774485073
 40
0.8196112093849492
 40
0.8913923386626168
 40
0.9629764501478262
 40
1.0
 40
1.0
 40
1.0
 40
1.0
 10
6570.703730538037
 20
5136.526948761417
 30
0.0
 10
6570.692206699583
 20
5136.536482265217
 30
0.0
 10
6570.658960212993
 20
5136.563986599603
 30
0.0
 10
6571.261515722123
 20
5136.612469034591
 30
0.0
 10
6572.440526669277
 20
5136.670374232357
 30
0.0
 10
6574.155196036603
 20
5136.724579276536
 30
0.0
 10
6576.287323047602
 20
5136.778804144825
 30
0.0
 10
6578.759356280469
 20
5136.836701223743
 30
0.0
 10
6581.431756189299
 20
5136.893763991677
 30
0.0
 10
6584.171513351203
 20
5136.946234603485
 30
0.0
 10
6586.860945751562
 20
5137.002909601184
 30
0.0
 10
6589.37113513846
 20
5137.06085218954
 30
0.0
 10
6591.555798047479
 20
5137.115810995958
 30
0.0
 10
6593.334831554947
 20
5137.169337679662
 30
0.0
 10
6594.588846039723
 20
5137.227112394164
 30
0.0
 10
6595.260243220092
 20
5137.275689487287
 30
0.0
 10
6595.270559629008
 20
5137.303025589165
 30
0.0
 10
6595.274076416638
 20
5137.312344264461
 30
0.0
  0
LINE
  5
261
330
1F
100
AcDbEntity
  8
0
  6
Continuous
 62
     7
370
    25
100
AcDbLine
 10
6596.5170120741
 20
5137.8941153998
 30
0.0
 11
6596.5170120741
 21
5148.3941143269
 31
0.0
  0
LINE
  5
262
330
1F
100
AcDbEntity
  8
0
  6
Continuous
 62
     7
370
    25
100
AcDbLine
 10
6596.5170120741
 20
5137.8941153998
 30
0.0
 11
6596.4678978468
 21
5137.8941153998
 31
0.0
  0
LINE
  5
263
330
1F
100
AcDbEntity
  8
0
  6
Continuous
 62
     8
370
    25
100
AcDbLine
 10
6627.0925259139
 20
5163.016657334
 30
0.0
 11
6627.4925326849
 21
5163.016657334
 31
0.0
  0
LINE
  5
264
330
1F
100
AcDbEntity
  8
0
  6
Continuous
 62
     8
370
    25
100
AcDbLine
 10
6627.0925259139
 20
5264.7715760285
 30
0.0
 11
6627.4925326849
 21
5264.7715760285
 31
0.0
  0
LINE
  5
265
330
1F
100
AcDbEntity
  8
0
  6
Continuous
 62
     8
370
    25
100
AcDbLine
 10
6630.0802087332
 20
5268.39411537
 30
0.0
 11
6630.4924940611
 21
5268.39411537
 31
0.0
  0
LINE
  5
266
330
1F
100
AcDbEntity
  8
0
  6
Continuous
 62
     8
370
    25
100
AcDbLine
 10
6630.0802087332
 20
5158.394115966
 30
0.0
 11
6630.4924940611
 21
5158.394115966
 31
0.0
  0
LINE
  5
267
330
1F
100
AcDbEntity
  8
0
  6
Continuous
 62
     8
370
    25
100
AcDbLine
 10
6627.4925326849
 20
5268.39411537
 30
0.0
 11
6630.0802087332
 21
5268.39411537
 31
0.0
  0
LINE
  5
268
330
1F
100
AcDbEntity
  8
0
  6
Continuous
 62
     8
370
    25
100
AcDbLine
 10
6627.4925326849
 20
5158.394115966
 30
0.0
 11
6630.0802087332
 21
5158.394115966
 31
0.0
  0
LINE
  5
269
330
1F
100
AcDbEntity
  8
0
  6
Continuous
 62
     8
370
    25
100
AcDbLine
 10
6639.1591882254
 20
5285.7797359938
 30
0.0
 11
6639.1591882254
 21
5141.0084953422
 31
0.0
  0
LINE
  5
26A
330
1F
100
AcDbEntity
  8
0
  6
Continuous
 62
     8
370
    25
100
AcDbLine
 10
6603.3826922919
 20
5147.4941139931
 30
0.0
 11
6613.5924911047
 21
5147.4941139931
 31
0.0
  0
LINE
  5
26B
330
1F
100
AcDbEntity
  8
0
  6
Continuous
 62
     8
370
    25
100
AcDbLine
 10
6603.3826922919
 20
5147.4941139931
 30
0.0
 11
6600.3925060774
 21
5147.4941139931
 31
0.0
  0
LINE
  5
26C
330
1F
100
AcDbEntity
  8
0
  6
Continuous
 62
     7
370
    25
100
AcDbLine
 10
6339.5187672371
 20
4862.5863467228
 30
0.0
 11
6339.5187672371
 21
4932.1863327992
 31
0.0
  0
LINE
  5
26D
330
1F
100
AcDbEntity
  8
0
  6
Continuous
 62
     7
370
    25
100
AcDbLine
 10
6208.5187550778
 20
4932.1863327992
 30
0.0
 11
6208.5187550778
 21
4862.5863467228
 31
0.0
  0
LINE
  5
26E
330
1F
100
AcDbEntity
  8
0
  6
Continuous
 62
     7
370
    25
100
AcDbLine
 10
6353.7687476868
 20
4862.1863399518
 30
0.0
 11
6329.0187534088
 21
4862.1863399518
 31
0.0
  0
LINE
  5
26F
330
1F
100
AcDbEntity
  8
0
  6
Continuous
 62
     7
370
    25
100
AcDbLine
 10
6329.0187534088
 20
4862.1863399518
 30
0.0
 11
6219.018768906
 21
4862.1863399518
 31
0.0
  0
LINE
  5
270
330
1F
100
AcDbEntity
  8
0
  6
Continuous
 62
     7
370
    25
100
AcDbLine
 10
6219.018768906
 20
4862.1863399518
 30
0.0
 11
6194.2687448258
 21
4862.1863399518
 31
0.0
  0
ARC
  5
271
330
1F
100
AcDbEntity
  8
0
  6
Continuous
 62
     7
370
    25
100
AcDbCircle
 10
6200.6903282114
 20
4850.1863541841
 30
0.0
 40
1.000000000000909
100
AcDbArc
 50
19.4712206345
 51
90.0
  0
ARC
  5
272
330
1F
100
AcDbEntity
  8
0
  6
Continuous
 62
     7
370
    25
100
AcDbCircle
 10
6347.3471824608
 20
4850.1863541841
 30
0.0
 40
1.000000000000906
100
AcDbArc
 50
90.0
 51
160.5287793655
  0
ARC
  5
273
330
1F
100
AcDbEntity
  8
0
  6
Continuous
 62
     7
370
    25
100
AcDbCircle
 10
6344.5187553361
 20
4851.1863541841
 30
0.0
 40
2.0
100
AcDbArc
 50
270.0
 51
340.5287793655
  0
ARC
  5
274
330
1F
100
AcDbEntity
  8
0
  6
Continuous
 62
     7
370
    25
100
AcDbCircle
 10
6203.5187553361
 20
4851.1863541841
 30
0.0
 40
2.000000000000909
100
AcDbArc
 50
199.4712206345
 51
270.0
  0
LINE
  5
275
330
1F
100
AcDbEntity
  8
0
  6
Continuous
 62
     7
370
    25
100
AcDbLine
 10
6324.8962279553
 20
4862.5863467228
 30
0.0
 11
6223.1412943596
 21
4862.5863467228
 31
0.0
  0
LINE
  5
276
330
1F
100
AcDbEntity
  8
0
  6
Continuous
 62
     7
370
    25
100
AcDbLine
 10
6204.0187534088
 20
4862.5863467228
 30
0.0
 11
6204.0187534088
 21
4862.1863399518
 31
0.0
  0
LINE
  5
277
330
1F
100
AcDbEntity
  8
0
  6
Continuous
 62
     7
370
    25
100
AcDbLine
 10
6223.1412943596
 20
4862.5863467228
 30
0.0
 11
6204.0187534088
 21
4862.5863467228
 31
0.0
  0
LINE
  5
278
330
1F
100
AcDbEntity
  8
0
  6
Continuous
 62
     7
370
    25
100
AcDbLine
 10
6344.018768906
 20
4862.5863467228
 30
0.0
 11
6344.018768906
 21
4862.1863399518
 31
0.0
  0
LINE
  5
279
330
1F
100
AcDbEntity
  8
0
  6
Continuous
 62
     7
370
    25
100
AcDbLine
 10
6324.8962279553
 20
4862.5863467228
 30
0.0
 11
6344.018768906
 21
4862.5863467228
 31
0.0
  0
LINE
  5
27A
330
1F
100
AcDbEntity
  8
0
  6
Continuous
 62
     7
370
    25
100
AcDbLine
 10
6323.0334635967
 20
4862.5863467228
 30
0.0
 11
6323.0334635967
 21
4932.1863327992
 31
0.0
  0
LINE
  5
27B
330
1F
100
AcDbEntity
  8
0
  6
Continuous
 62
     7
370
    25
100
AcDbLine
 10
6328.4476813072
 20
4932.1863327992
 30
0.0
 11
6323.0334635967
 21
4932.1863327992
 31
0.0
  0
LINE
  5
27C
330
1F
100
AcDbEntity
  8
0
  6
Continuous
 62
     7
370
    25
100
AcDbLine
 10
6328.4476813072
 20
4862.5863467228
 30
0.0
 11
6328.4476813072
 21
4932.1863327992
 31
0.0
  0
LINE
  5
27D
330
1F
100
AcDbEntity
  8
0
  6
Continuous
 62
     7
370
    25
100
AcDbLine
 10
6225.0040289158
 20
4932.1863327992
 30
0.0
 11
6323.0334635967
 21
4932.1863327992
 31
0.0
  0
LINE
  5
27E
330
1F
100
AcDbEntity
  8
0
  6
Continuous
 62
     7
370
    25
100
AcDbLine
 10
6225.0040289158
 20
4862.5863467228
 30
0.0
 11
6225.0040289158
 21
4932.1863327992
 31
0.0
  0
LINE
  5
27F
330
1F
100
AcDbEntity
  8
0
  6
Continuous
 62
     7
370
    25
100
AcDbLine
 10
6219.5898112053
 20
4862.5863467228
 30
0.0
 11
6219.5898112053
 21
4932.1863327992
 31
0.0
  0
LINE
  5
280
330
1F
100
AcDbEntity
  8
0
  6
Continuous
 62
     7
370
    25
100
AcDbLine
 10
6219.5898112053
 20
4932.1863327992
 30
0.0
 11
6225.0040289158
 21
4932.1863327992
 31
0.0
  0
LINE
  5
281
330
1F
100
AcDbEntity
  8
0
  6
Continuous
 62
     7
370
    25
100
AcDbLine
 10
6332.6903399223
 20
4862.5863467228
 30
0.0
 11
6332.6903399223
 21
4932.1863327992
 31
0.0
  0
LINE
  5
282
330
1F
100
AcDbEntity
  8
0
  6
Continuous
 62
     7
370
    25
100
AcDbLine
 10
6339.5187672371
 20
4932.1863327992
 30
0.0
 11
6332.6903399223
 21
4932.1863327992
 31
0.0
  0
LINE
  5
283
330
1F
100
AcDbEntity
  8
0
  6
Continuous
 62
     7
370
    25
100
AcDbLine
 10
6215.3471823925
 20
4862.5863467228
 30
0.0
 11
6215.3471823925
 21
4932.1863327992
 31
0.0
  0
LINE
  5
284
330
1F
100
AcDbEntity
  8
0
  6
Continuous
 62
     7
370
    25
100
AcDbLine
 10
6208.5187550778
 20
4932.1863327992
 30
0.0
 11
6215.3471823925
 21
4932.1863327992
 31
0.0
  0
LINE
  5
285
330
1F
100
AcDbEntity
  8
0
  6
Continuous
 62
     7
370
    25
100
AcDbLine
 10
6215.3471823925
 20
4932.1863327992
 30
0.0
 11
6219.5898112053
 21
4932.1863327992
 31
0.0
  0
LINE
  5
286
330
1F
100
AcDbEntity
  8
0
  6
Continuous
 62
     7
370
    25
100
AcDbLine
 10
6332.6903399223
 20
4932.1863327992
 30
0.0
 11
6328.4476813072
 21
4932.1863327992
 31
0.0
  0
LINE
  5
287
330
1F
100
AcDbEntity
  8
0
  6
Continuous
 62
     7
370
    25
100
AcDbLine
 10
6339.5187672371
 20
4862.5863467228
 30
0.0
 11
6339.5187672371
 21
4932.1863327992
 31
0.0
  0
LINE
  5
288
330
1F
100
AcDbEntity
  8
0
  6
Continuous
 62
     7
370
    25
100
AcDbLine
 10
6208.5187550778
 20
4862.5863467228
 30
0.0
 11
6208.5187550778
 21
4932.1863327992
 31
0.0
  0
LINE
  5
289
330
1F
100
AcDbEntity
  8
0
  6
Continuous
 62
     7
370
    25
100
AcDbLine
 10
6287.2811373467
 20
4849.073854543
 30
0.0
 11
6287.2877832646
 21
4849.073854543
 31
0.0
  0
LINE
  5
28A
330
1F
100
AcDbEntity
  8
0
  6
Continuous
 62
     7
370
    25
100
AcDbLine
 10
6286.7063399548
 20
4849.0488801968
 30
0.0
 11
6286.124896645
 21
4849.0488801968
 31
0.0
  0
LINE
  5
28B
330
1F
100
AcDbEntity
  8
0
  6
Continuous
 62
     7
370
    25
100
AcDbLine
 10
6286.7063399548
 20
4849.0488801968
 30
0.0
 11
6287.2877832646
 21
4849.0488801968
 31
0.0
  0
LINE
  5
28C
330
1F
100
AcDbEntity
  8
0
  6
Continuous
 62
     7
370
    25
100
AcDbLine
 10
6285.6748219723
 20
4849.0488801968
 30
0.0
 11
6285.6748219723
 21
4849.073854543
 31
0.0
  0
LINE
  5
28D
330
1F
100
AcDbEntity
  8
0
  6
Continuous
 62
     7
370
    25
100
AcDbLine
 10
6283.803295731
 20
4849.0488801968
 30
0.0
 11
6283.803295731
 21
4849.073854543
 31
0.0
  0
LINE
  5
28E
330
1F
100
AcDbEntity
  8
0
  6
Continuous
 62
     7
370
    25
100
AcDbLine
 10
6283.0979939694
 20
4849.0488801968
 30
0.0
 11
6283.0979939694
 21
4849.073854543
 31
0.0
  0
LINE
  5
28F
330
1F
100
AcDbEntity
  8
0
  6
Continuous
 62
     7
370
    25
100
AcDbLine
 10
6281.3328918213
 20
4849.0488801968
 30
0.0
 11
6281.3328918213
 21
4849.073854543
 31
0.0
  0
SPLINE
  5
290
330
1F
100
AcDbEntity
  8
0
  6
Continuous
 62
     7
370
    25
100
AcDbSpline
210
0.0
220
0.0
230
1.0
 70
    24
 71
     3
 72
    12
 73
     8
 74
     0
 42
0.000000001
 43
0.00000001
 40
0.0
 40
0.0
 40
0.0
 40
0.0
 40
0.1051367395647855
 40
0.260440435900565
 40
0.5553449395913282
 40
0.8115337200654078
 40
1.0
 40
1.0
 40
1.0
 40
1.0
 10
6283.097993969359
 20
4849.073854542978
 30
0.0
 10
6283.122177828336
 20
4849.073854542978
 30
0.0
 10
6283.182085095765
 20
4849.073854542978
 30
0.0
 10
6283.313560194175
 20
4849.073854542978
 30
0.0
 10
6283.480310584065
 20
4849.073854542978
 30
0.0
 10
6283.655996017448
 20
4849.073854542978
 30
0.0
 10
6283.759447850213
 20
4849.073854542978
 30
0.0
 10
6283.803295730986
 20
4849.073854542978
 30
0.0
  0
SPLINE
  5
291
330
1F
100
AcDbEntity
  8
0
  6
Continuous
 62
     7
370
    25
100
AcDbSpline
210
0.0
220
0.0
230
1.0
 70
    24
 71
     3
 72
    12
 73
     8
 74
     0
 42
0.000000001
 43
0.00000001
 40
0.0
 40
0.0
 40
0.0
 40
0.0
 40
0.1051367395647855
 40
0.260440435900565
 40
0.5553449395913282
 40
0.8115337200654078
 40
1.0
 40
1.0
 40
1.0
 40
1.0
 10
6283.097993969359
 20
4849.048880196817
 30
0.0
 10
6283.122177828336
 20
4849.048880196817
 30
0.0
 10
6283.182085095765
 20
4849.048880196817
 30
0.0
 10
6283.313560194175
 20
4849.048880196817
 30
0.0
 10
6283.480310584065
 20
4849.048880196817
 30
0.0
 10
6283.655996017448
 20
4849.048880196817
 30
0.0
 10
6283.759447850213
 20
4849.048880196817
 30
0.0
 10
6283.803295730986
 20
4849.048880196817
 30
0.0
  0
LINE
  5
292
330
1F
100
AcDbEntity
  8
0
  6
Continuous
 62
     7
370
    25
100
AcDbLine
 10
6280.5816348786
 20
4849.0488801968
 30
0.0
 11
6280.5816348786
 21
4849.073854543
 31
0.0
  0
LINE
  5
293
330
1F
100
AcDbEntity
  8
0
  6
Continuous
 62
     7
370
    25
100
AcDbLine
 10
6280.5816348786
 20
4849.0488801968
 30
0.0
 11
6264.2234679455
 21
4849.0488801968
 31
0.0
  0
LINE
  5
294
330
1F
100
AcDbEntity
  8
0
  6
Continuous
 62
     7
370
    25
100
AcDbLine
 10
6264.2234679455
 20
4849.0488801968
 30
0.0
 11
6264.2234679455
 21
4849.073854543
 31
0.0
  0
LINE
  5
295
330
1F
100
AcDbEntity
  8
0
  6
Continuous
 62
     7
370
    25
100
AcDbLine
 10
6280.5816348786
 20
4849.073854543
 30
0.0
 11
6264.2234679455
 21
4849.073854543
 31
0.0
  0
LINE
  5
296
330
1F
100
AcDbEntity
  8
0
  6
Continuous
 62
     7
370
    25
100
AcDbLine
 10
6262.5614222283
 20
4849.0488801968
 30
0.0
 11
6262.5614222283
 21
4849.073854543
 31
0.0
  0
LINE
  5
297
330
1F
100
AcDbEntity
  8
0
  6
Continuous
 62
     7
370
    25
100
AcDbLine
 10
6262.29349935
 20
4849.0488801968
 30
0.0
 11
6262.29349935
 21
4849.073854543
 31
0.0
  0
LINE
  5
298
330
1F
100
AcDbEntity
  8
0
  6
Continuous
 62
     7
370
    25
100
AcDbLine
 10
6262.4744590515
 20
4849.073854543
 30
0.0
 11
6262.29349935
 21
4849.073854543
 31
0.0
  0
LINE
  5
299
330
1F
100
AcDbEntity
  8
0
  6
Continuous
 62
     7
370
    25
100
AcDbLine
 10
6262.4744590515
 20
4849.0488801968
 30
0.0
 11
6262.29349935
 21
4849.0488801968
 31
0.0
  0
LINE
  5
29A
330
1F
100
AcDbEntity
  8
0
  6
Continuous
 62
     7
370
    25
100
AcDbLine
 10
6286.6808589691
 20
4849.0488801968
 30
0.0
 11
6286.6808589691
 21
4849.073854543
 31
0.0
  0
LINE
  5
29B
330
1F
100
AcDbEntity
  8
0
  6
Continuous
 62
     7
370
    25
100
AcDbLine
 10
6286.5187641377
 20
4849.0488801968
 30
0.0
 11
6286.5187641377
 21
4849.073854543
 31
0.0
  0
LINE
  5
29C
330
1F
100
AcDbEntity
  8
0
  6
Continuous
 62
     7
370
    25
100
AcDbLine
 10
6286.6808589691
 20
4849.073854543
 30
0.0
 11
6286.5187641377
 21
4849.073854543
 31
0.0
  0
LINE
  5
29D
330
1F
100
AcDbEntity
  8
0
  6
Continuous
 62
     7
370
    25
100
AcDbLine
 10
6286.8518050903
 20
4849.0488801968
 30
0.0
 11
6286.8518050903
 21
4849.073854543
 31
0.0
  0
SPLINE
  5
29E
330
1F
100
AcDbEntity
  8
0
  6
Continuous
 62
     7
370
    25
100
AcDbSpline
210
0.0
220
0.0
230
1.0
 70
    24
 71
     3
 72
     9
 73
     5
 74
     0
 42
0.000000001
 43
0.00000001
 40
0.0
 40
0.0
 40
0.0
 40
0.0
 40
0.5118101182946181
 40
0.9999999999999999
 40
0.9999999999999999
 40
0.9999999999999999
 40
0.9999999999999999
 10
6286.851805090346
 20
4849.048880196817
 30
0.0
 10
6286.824605604572
 20
4849.048880196817
 30
0.0
 10
6286.771461899902
 20
4849.048880196817
 30
0.0
 10
6286.710580602504
 20
4849.048880196817
 30
0.0
 10
6286.68085896913
 20
4849.048880196817
 30
0.0
  0
SPLINE
  5
29F
330
1F
100
AcDbEntity
  8
0
  6
Continuous
 62
     7
370
    25
100
AcDbSpline
210
0.0
220
0.0
230
1.0
 70
    24
 71
     3
 72
     9
 73
     5
 74
     0
 42
0.000000001
 43
0.00000001
 40
0.0
 40
0.0
 40
0.0
 40
0.0
 40
0.5118101182946181
 40
0.9999999999999999
 40
0.9999999999999999
 40
0.9999999999999999
 40
0.9999999999999999
 10
6286.851805090346
 20
4849.073854542978
 30
0.0
 10
6286.824605604572
 20
4849.073854542978
 30
0.0
 10
6286.771461899902
 20
4849.073854542978
 30
0.0
 10
6286.710580602504
 20
4849.073854542978
 30
0.0
 10
6286.68085896913
 20
4849.073854542978
 30
0.0
  0
LINE
  5
2A0
330
1F
100
AcDbEntity
  8
0
  6
Continuous
 62
     7
370
    25
100
AcDbLine
 10
6286.9122740025
 20
4849.0488801968
 30
0.0
 11
6286.9122740025
 21
4849.073854543
 31
0.0
  0
SPLINE
  5
2A1
330
1F
100
AcDbEntity
  8
0
  6
Continuous
 62
     7
370
    25
100
AcDbSpline
210
0.0
220
0.0
230
1.0
 70
    24
 71
     3
 72
    10
 73
     6
 74
     0
 42
0.000000001
 43
0.00000001
 40
0.0
 40
0.0
 40
0.0
 40
0.0
 40
0.3157389287312706
 40
0.5946654720988687
 40
1.0
 40
1.0
 40
1.0
 40
1.0
 10
6286.91227400247
 20
4849.048880196817
 30
0.0
 10
6286.911429597633
 20
4849.048880196817
 30
0.0
 10
6286.909839238145
 20
4849.048880196817
 30
0.0
 10
6286.893831964924
 20
4849.048880196817
 30
0.0
 10
6286.867439279195
 20
4849.048880196817
 30
0.0
 10
6286.851805090346
 20
4849.048880196817
 30
0.0
  0
SPLINE
  5
2A2
330
1F
100
AcDbEntity
  8
0
  6
Continuous
 62
     7
370
    25
100
AcDbSpline
210
0.0
220
0.0
230
1.0
 70
    24
 71
     3
 72
    10
 73
     6
 74
     0
 42
0.000000001
 43
0.00000001
 40
0.0
 40
0.0
 40
0.0
 40
0.0
 40
0.3157389287312706
 40
0.5946654720988687
 40
1.0
 40
1.0
 40
1.0
 40
1.0
 10
6286.91227400247
 20
4849.073854542978
 30
0.0
 10
6286.911429597633
 20
4849.073854542978
 30
0.0
 10
6286.909839238145
 20
4849.073854542978
 30
0.0
 10
6286.893831964924
 20
4849.073854542978
 30
0.0
 10
6286.867439279195
 20
4849.073854542978
 30
0.0
 10
6286.851805090346
 20
4849.073854542978
 30
0.0
  0
LINE
  5
2A3
330
1F
100
AcDbEntity
  8
0
  6
Continuous
 62
     7
370
    25
100
AcDbLine
 10
6286.9800742859
 20
4849.0488801968
 30
0.0
 11
6286.9800742859
 21
4849.073854543
 31
0.0
  0
LINE
  5
2A4
330
1F
100
AcDbEntity
  8
0
  6
Continuous
 62
     7
370
    25
100
AcDbLine
 10
6286.9800742859
 20
4849.073854543
 30
0.0
 11
6286.9223173851
 21
4849.073854543
 31
0.0
  0
LINE
  5
2A5
330
1F
100
AcDbEntity
  8
0
  6
Continuous
 62
     7
370
    25
100
AcDbLine
 10
6191.2972148651
 20
4859.5986639035
 30
0.0
 11
6191.2400242085
 21
4859.1863785756
 31
0.0
  0
LINE
  5
2A6
330
1F
100
AcDbEntity
  8
0
  6
Continuous
 62
     7
370
    25
100
AcDbLine
 10
6219.018768906
 20
4859.5986639035
 30
0.0
 11
6191.2972148651
 21
4859.5986639035
 31
0.0
  0
LINE
  5
2A7
330
1F
100
AcDbEntity
  8
0
  6
Continuous
 62
     7
370
    25
100
AcDbLine
 10
6329.0187534088
 20
4859.5986639035
 30
0.0
 11
6219.018768906
 21
4859.5986639035
 31
0.0
  0
LINE
  5
2A8
330
1F
100
AcDbEntity
  8
0
  6
Continuous
 62
     7
370
    25
100
AcDbLine
 10
6356.7402776474
 20
4859.5986639035
 30
0.0
 11
6329.0187534088
 21
4859.5986639035
 31
0.0
  0
LINE
  5
2A9
330
1F
100
AcDbEntity
  8
0
  6
Continuous
 62
     7
370
    25
100
AcDbLine
 10
6356.7402776474
 20
4859.5986639035
 30
0.0
 11
6356.7974981064
 21
4859.1863785756
 31
0.0
  0
ARC
  5
2AA
330
1F
100
AcDbEntity
  8
0
  6
Continuous
 62
     7
370
    25
100
AcDbCircle
 10
6353.7687553361
 20
4859.1863541841
 30
0.0
 40
3.000000000000601
100
AcDbArc
 50
7.8994336573
 51
90.0
  0
ARC
  5
2AB
330
1F
100
AcDbEntity
  8
0
  6
Continuous
 62
     7
370
    25
100
AcDbCircle
 10
6194.2687553361
 20
4859.1863541841
 30
0.0
 40
3.0
100
AcDbArc
 50
90.0
 51
172.1005663427
  0
LINE
  5
2AC
330
1F
100
AcDbEntity
  8
0
  6
Continuous
 62
     7
370
    25
100
AcDbLine
 10
6329.0187534088
 20
4859.1863785756
 30
0.0
 11
6219.018768906
 21
4859.1863785756
 31
0.0
  0
LINE
  5
2AD
330
1F
100
AcDbEntity
  8
0
  6
Continuous
 62
     7
370
    25
100
AcDbLine
 10
6329.0187534088
 20
4853.1863366139
 30
0.0
 11
6329.0187534088
 21
4859.1863785756
 31
0.0
  0
LINE
  5
2AE
330
1F
100
AcDbEntity
  8
0
  6
Continuous
 62
     7
370
    25
100
AcDbLine
 10
6219.018768906
 20
4853.1863366139
 30
0.0
 11
6329.0187534088
 21
4853.1863366139
 31
0.0
  0
LINE
  5
2AF
330
1F
100
AcDbEntity
  8
0
  6
Continuous
 62
     7
370
    25
100
AcDbLine
 10
6219.018768906
 20
4853.1863366139
 30
0.0
 11
6219.018768906
 21
4859.1863785756
 31
0.0
  0
LINE
  5
2B0
330
1F
100
AcDbEntity
  8
0
  6
Continuous
 62
     7
370
    25
100
AcDbLine
 10
6189.0187677139
 20
4853.1863366139
 30
0.0
 11
6219.018768906
 21
4853.1863366139
 31
0.0
  0
LINE
  5
2B1
330
1F
100
AcDbEntity
  8
0
  6
Continuous
 62
     7
370
    25
100
AcDbLine
 10
6189.0187677139
 20
4853.1863366139
 30
0.0
 11
6189.0187677139
 21
4859.1863785756
 31
0.0
  0
LINE
  5
2B2
330
1F
100
AcDbEntity
  8
0
  6
Continuous
 62
     7
370
    25
100
AcDbLine
 10
6219.018768906
 20
4859.1863785756
 30
0.0
 11
6189.0187677139
 21
4859.1863785756
 31
0.0
  0
LINE
  5
2B3
330
1F
100
AcDbEntity
  8
0
  6
Continuous
 62
     7
370
    25
100
AcDbLine
 10
6329.0187534088
 20
4851.1863623631
 30
0.0
 11
6219.018768906
 21
4851.1863623631
 31
0.0
  0
LINE
  5
2B4
330
1F
100
AcDbEntity
  8
0
  6
Continuous
 62
     7
370
    25
100
AcDbLine
 10
6219.018768906
 20
4851.1863623631
 30
0.0
 11
6219.018768906
 21
4853.1863366139
 31
0.0
  0
LINE
  5
2B5
330
1F
100
AcDbEntity
  8
0
  6
Continuous
 62
     7
370
    25
100
AcDbLine
 10
6329.0187534088
 20
4851.1863623631
 30
0.0
 11
6329.0187534088
 21
4853.1863366139
 31
0.0
  0
LINE
  5
2B6
330
1F
100
AcDbEntity
  8
0
  6
Continuous
 62
     7
370
    25
100
AcDbLine
 10
6359.0187546009
 20
4853.1863366139
 30
0.0
 11
6359.0187546009
 21
4859.1863785756
 31
0.0
  0
LINE
  5
2B7
330
1F
100
AcDbEntity
  8
0
  6
Continuous
 62
     7
370
    25
100
AcDbLine
 10
6329.0187534088
 20
4853.1863366139
 30
0.0
 11
6359.0187546009
 21
4853.1863366139
 31
0.0
  0
LINE
  5
2B8
330
1F
100
AcDbEntity
  8
0
  6
Continuous
 62
     7
370
    25
100
AcDbLine
 10
6359.0187546009
 20
4859.1863785756
 30
0.0
 11
6329.0187534088
 21
4859.1863785756
 31
0.0
  0
LINE
  5
2B9
330
1F
100
AcDbEntity
  8
0
  6
Continuous
 62
     7
370
    25
100
AcDbLine
 10
6219.018768906
 20
4851.1863623631
 30
0.0
 11
6191.0187419647
 21
4851.1863623631
 31
0.0
  0
ARC
  5
2BA
330
1F
100
AcDbEntity
  8
0
  6
Continuous
 62
     7
370
    25
100
AcDbCircle
 10
6191.0187553361
 20
4853.1863541841
 30
0.0
 40
2.0
100
AcDbArc
 50
180.0
 51
270.0
  0
LINE
  5
2BB
330
1F
100
AcDbEntity
  8
0
  6
Continuous
 62
     7
370
    25
100
AcDbLine
 10
6357.0187505478
 20
4851.1863623631
 30
0.0
 11
6329.0187534088
 21
4851.1863623631
 31
0.0
  0
ARC
  5
2BC
330
1F
100
AcDbEntity
  8
0
  6
Continuous
 62
     7
370
    25
100
AcDbCircle
 10
6357.0187553361
 20
4853.1863541841
 30
0.0
 40
2.0
100
AcDbArc
 50
270.0
 51
0.0
  0
LINE
  5
2BD
330
1F
100
AcDbEntity
  8
0
  6
Continuous
 62
     7
370
    25
100
AcDbLine
 10
6344.5187624687
 20
4849.1863285077
 30
0.0
 11
6203.5187598461
 21
4849.1863285077
 31
0.0
  0
LINE
  5
2BE
330
1F
100
AcDbEntity
  8
0
  6
Continuous
 62
     7
370
    25
100
AcDbLine
 10
6281.2973078484
 20
4905.4034625065
 30
0.0
 11
6280.8079239124
 21
4903.3649240506
 31
0.0
  0
SPLINE
  5
2BF
330
1F
100
AcDbEntity
  8
0
  6
Continuous
 62
     7
370
    25
100
AcDbSpline
210
0.0
220
0.0
230
1.0
 70
     8
 71
     3
 72
    12
 73
     8
 74
     0
 42
0.000000001
 43
0.00000001
 40
0.0
 40
0.0
 40
0.0
 40
0.0
 40
0.0684912475318621
 40
0.3439697530933544
 40
0.558771424758859
 40
0.7735851537419656
 40
1.0
 40
1.0
 40
1.0
 40
1.0
 10
6278.258335232176
 20
4900.632527924783
 30
0.0
 10
6278.365437493206
 20
4900.710260577221
 30
0.0
 10
6278.903315537624
 20
4901.100641570849
 30
0.0
 10
6279.681519141668
 20
4901.865673370675
 30
0.0
 10
6280.455981109114
 20
4902.991096697981
 30
0.0
 10
6281.008103644243
 20
4904.142739963721
 30
0.0
 10
6281.199231355283
 20
4904.975919462581
 30
0.0
 10
6281.297307848372
 20
4905.40346250654
 30
0.0
  0
CIRCLE
  5
2C0
330
1F
100
AcDbEntity
  8
0
  6
Continuous
 62
     7
370
    25
100
AcDbCircle
 10
6274.0187553361
 20
4906.6863541841
 30
0.0
 40
7.25
  0
SPLINE
  5
2C1
330
1F
100
AcDbEntity
  8
0
  6
Continuous
 62
     7
370
    25
100
AcDbSpline
210
0.0
220
0.0
230
1.0
 70
     8
 71
     3
 72
    14
 73
    10
 74
     0
 42
0.000000001
 43
0.00000001
 40
0.0
 40
0.0
 40
0.0
 40
0.0
 40
0.0896526161251218
 40
0.2406138252080042
 40
0.3915763483965856
 40
0.5426032142572885
 40
0.6936170808290599
 40
0.846807079757087
 40
1.0
 40
1.0
 40
1.0
 40
1.0
 10
6270.290058493056
 20
4900.127020932443
 30
0.0
 10
6270.510397342777
 20
4900.004051766757
 30
0.0
 10
6271.1017529079
 20
4899.674021449545
 30
0.0
 10
6272.166475900818
 20
4899.359981933199
 30
0.0
 10
6273.428124934613
 20
4899.170111545445
 30
0.0
 10
6274.707985125819
 20
4899.208071448663
 30
0.0
 10
6275.966246949697
 20
4899.461227303363
 30
0.0
 10
6277.176590316765
 20
4899.921956769832
 30
0.0
 10
6277.897751301653
 20
4900.39566936754
 30
0.0
 10
6278.258335232176
 20
4900.632527924783
 30
0.0
  0
CIRCLE
  5
2C2
330
1F
100
AcDbEntity
  8
0
  6
Continuous
 62
     7
370
    25
100
AcDbCircle
 10
6274.0187553361
 20
4906.6863541841
 30
0.0
 40
6.25
  0
CIRCLE
  5
2C3
330
1F
100
AcDbEntity
  8
0
  6
Continuous
 62
     7
370
    25
100
AcDbCircle
 10
6274.0187553361
 20
4906.6863541841
 30
0.0
 40
3.649999999999636
  0
SPLINE
  5
2C4
330
1F
100
AcDbEntity
  8
0
  6
Continuous
 62
     7
370
    25
100
AcDbSpline
210
0.0
220
0.0
230
1.0
 70
     8
 71
     3
 72
    39
 73
    35
 74
     0
 42
0.000000001
 43
0.00000001
 40
0.0
 40
0.0
 40
0.0
 40
0.0
 40
0.0308458557997305
 40
0.0621058572234386
 40
0.0933651296827232
 40
0.1258167332984806
 40
0.1582684679261054
 40
0.1904162796525075
 40
0.2225647982348069
 40
0.2547202506991754
 40
0.2868744069980919
 40
0.3187996691146409
 40
0.3507246838122313
 40
0.382567211619151
 40
0.4144081052581246
 40
0.4461269634587213
 40
0.4778453505282395
 40
0.5093759532991403
 40
0.5409064627458938
 40
0.5724169649190823
 40
0.6039276849779522
 40
0.6351487538120867
 40
0.6663697758439836
 40
0.6975985938880798
 40
0.7288263369107896
 40
0.7598090738317839
 40
0.7907916930258331
 40
0.8217075037288735
 40
0.8526214936534346
 40
0.8833982031034388
 40
0.914174655995966
 40
0.9447784299104103
 40
0.9753808539201995
 40
1.0
 40
1.0
 40
1.0
 40
1.0
 10
6261.097651361861
 20
4909.483996487863
 30
0.0
 10
6260.98880314388
 20
4908.785954786085
 30
0.0
 10
6260.769645279404
 20
4907.380499267262
 30
0.0
 10
6260.878624873631
 20
4905.235531353784
 30
0.0
 10
6261.30968349194
 20
4903.100645182595
 30
0.0
 10
6262.112388196682
 20
4901.042558648524
 30
0.0
 10
6263.254444703652
 20
4899.129016168927
 30
0.0
 10
6264.70475399958
 20
4897.446168343982
 30
0.0
 10
6266.406543035437
 20
4896.028865686104
 30
0.0
 10
6268.326516701691
 20
4894.924442377879
 30
0.0
 10
6270.398248510015
 20
4894.155089775921
 30
0.0
 10
6272.566347102309
 20
4893.756102362926
 30
0.0
 10
6274.763361496221
 20
4893.720119610367
 30
0.0
 10
6276.932110291353
 20
4894.060853518691
 30
0.0
 10
6279.010552651975
 20
4894.75346769189
 30
0.0
 10
6280.935434223589
 20
4895.793518891969
 30
0.0
 10
6282.656162979914
 20
4897.133209407186
 30
0.0
 10
6284.11815691302
 20
4898.745272645604
 30
0.0
 10
6285.292684627336
 20
4900.571857121683
 30
0.0
 10
6286.134449646353
 20
4902.573310310509
 30
0.0
 10
6286.630565805482
 20
4904.679862982747
 30
0.0
 10
6286.756211885658
 20
4906.83349748208
 30
0.0
 10
6286.526787788793
 20
4908.972077844484
 30
0.0
 10
6285.933740173773
 20
4911.039821551476
 30
0.0
 10
6285.008238791936
 20
4912.975752132461
 30
0.0
 10
6283.765763267665
 20
4914.718025190429
 30
0.0
 10
6282.258246191495
 20
4916.226655481318
 30
0.0
 10
6280.515810027791
 20
4917.453695956754
 30
0.0
 10
6278.598678020864
 20
4918.374225172573
 30
0.0
 10
6276.554635154724
 20
4918.948201586459
 30
0.0
 10
6274.450142032635
 20
4919.176846893054
 30
0.0
 10
6272.34466815909
 20
4919.035835576162
 30
0.0
 10
6270.418374839232
 20
4918.600972301657
 30
0.0
 10
6269.261105216578
 20
4918.09276784068
 30
0.0
 10
6268.745165705122
 20
4917.866197682626
 30
0.0
  0
ARC
  5
2C5
330
1F
100
AcDbEntity
  8
0
  6
Continuous
 62
     7
370
    25
100
AcDbCircle
 10
6274.0187553361
 20
4906.6863541841
 30
0.0
 40
13.22050000000024
100
AcDbArc
 50
77.7830172522
 51
167.7830161819
  0
SPLINE
  5
2C6
330
1F
100
AcDbEntity
  8
0
  6
Continuous
 62
     7
370
    25
100
AcDbSpline
210
0.0
220
0.0
230
1.0
 70
     8
 71
     3
 72
    16
 73
    12
 74
     0
 42
0.000000001
 43
0.00000001
 40
0.0
 40
0.0
 40
0.0
 40
0.0
 40
0.1148344335310139
 40
0.2307142421351034
 40
0.3466021602983799
 40
0.4626832444344932
 40
0.5787638447504035
 40
0.6949739497595742
 40
0.81121082413202
 40
0.9056051174195081
 40
1.0
 40
1.0
 40
1.0
 40
1.0
 10
6262.384396433272
 20
4910.862711526162
 30
0.0
 10
6262.624184118522
 20
4911.527137386859
 30
0.0
 10
6263.105942354051
 20
4912.862037592241
 30
0.0
 10
6264.253695121405
 20
4914.670960338537
 30
0.0
 10
6265.663168814525
 20
4916.283806200319
 30
0.0
 10
6267.33501736972
 20
4917.629969415554
 30
0.0
 10
6269.205475934339
 20
4918.684453201451
 30
0.0
 10
6271.230742059766
 20
4919.404396026473
 30
0.0
 10
6273.212330211227
 20
4919.759397280596
 30
0.0
 10
6275.090605904902
 20
4919.830043882384
 30
0.0
 10
6276.24114041659
 20
4919.681633562179
 30
0.0
 10
6276.816409468092
 20
4919.60742817045
 30
0.0
  0
SPLINE
  5
2C7
330
1F
100
AcDbEntity
  8
0
  6
Continuous
 62
     7
370
    25
100
AcDbSpline
210
0.0
220
0.0
230
1.0
 70
     8
 71
     3
 72
    13
 73
     9
 74
     0
 42
0.000000001
 43
0.00000001
 40
0.0
 40
0.0
 40
0.0
 40
0.0
 40
0.0409231634133322
 40
0.2049379174057468
 40
0.4196553377973783
 40
0.6343769054736571
 40
0.8171886135617759
 40
1.0
 40
1.0
 40
1.0
 40
1.0
 10
6268.745165705122
 20
4917.866197682626
 30
0.0
 10
6268.626074553415
 20
4917.808548844945
 30
0.0
 10
6268.029681445538
 20
4917.519850910826
 30
0.0
 10
6266.86216750382
 20
4916.820201441456
 30
0.0
 10
6265.37019246483
 20
4915.59907454714
 30
0.0
 10
6264.066858354462
 20
4914.098563032521
 30
0.0
 10
6263.054426858978
 20
4912.507578975213
 30
0.0
 10
6262.607739777519
 20
4911.411000354281
 30
0.0
 10
6262.384396433272
 20
4910.862711526162
 30
0.0
  0
CIRCLE
  5
2C8
330
1F
100
AcDbEntity
  8
0
  6
Continuous
 62
     7
370
    25
100
AcDbCircle
 10
6274.0187553361
 20
4906.6863541841
 30
0.0
 40
11.72049999999968
  0
CIRCLE
  5
2C9
330
1F
100
AcDbEntity
  8
0
  6
Continuous
 62
     7
370
    25
100
AcDbCircle
 10
6274.0187553361
 20
4906.6863541841
 30
0.0
 40
7.624999999999623
  0
SPLINE
  5
2CA
330
1F
100
AcDbEntity
  8
0
  6
Continuous
 62
     7
370
    25
100
AcDbSpline
210
0.0
220
0.0
230
1.0
 70
     8
 71
     3
 72
    28
 73
    24
 74
     0
 42
0.000000001
 43
0.00000001
 40
0.0
 40
0.0
 40
0.0
 40
0.0
 40
0.0280929163094166
 40
0.0779663999271752
 40
0.1281598091879693
 40
0.1791842822101002
 40
0.2297892205470032
 40
0.2794318511733441
 40
0.3301456670935627
 40
0.3811383782510394
 40
0.4311660453337708
 40
0.4811933079001922
 40
0.5321864439181159
 40
0.5828998127427119
 40
0.6325418871121758
 40
0.6831473265851722
 40
0.7341714219331994
 40
0.7843648516342934
 40
0.8342388345411409
 40
0.8851849961277509
 40
0.9359913279142951
 40
0.9856725362311133
 40
1.0
 40
1.0
 40
1.0
 40
1.0
 10
6276.816409468092
 20
4919.60742817045
 30
0.0
 10
6277.3412032292
 20
4919.473379514319
 30
0.0
 10
6278.79766576969
 20
4919.101353662022
 30
0.0
 10
6281.039911548412
 20
4918.007519286018
 30
0.0
 10
6283.350514433426
 20
4916.205745384312
 30
0.0
 10
6285.215170658415
 20
4913.919887476056
 30
0.0
 10
6286.52512904961
 20
4911.291085390808
 30
0.0
 10
6287.229335830519
 20
4908.446352106127
 30
0.0
 10
6287.296844247175
 20
4905.50802779395
 30
0.0
 10
6286.712014288506
 20
4902.619754668543
 30
0.0
 10
6285.513601264858
 20
4899.943242454073
 30
0.0
 10
6283.762118379482
 20
4897.591164171917
 30
0.0
 10
6281.52644849602
 20
4895.671322652162
 30
0.0
 10
6278.928724750665
 20
4894.29641929889
 30
0.0
 10
6276.102139898412
 20
4893.523163870091
 30
0.0
 10
6273.167890912753
 20
4893.383422271514
 30
0.0
 10
6270.264512094506
 20
4893.896890970243
 30
0.0
 10
6267.557924771121
 20
4895.030097220108
 30
0.0
 10
6265.167384459913
 20
4896.723658686178
 30
0.0
 10
6263.183808978605
 20
4898.908608656706
 30
0.0
 10
6261.783173340495
 20
4901.476751287843
 30
0.0
 10
6261.034782463401
 20
4903.601622517999
 30
0.0
 10
6260.972455381492
 20
4904.834876019915
 30
0.0
 10
6260.958504318633
 20
4905.110922909982
 30
0.0
  0
SPLINE
  5
2CB
330
1F
100
AcDbEntity
  8
0
  6
Continuous
 62
     7
370
    25
100
AcDbSpline
210
0.0
220
0.0
230
1.0
 70
     8
 71
     3
 72
    12
 73
     8
 74
     0
 42
0.000000001
 43
0.00000001
 40
0.0
 40
0.0
 40
0.0
 40
0.0
 40
0.1689543130239662
 40
0.3353685085215387
 40
0.650990248024319
 40
0.9709698205923049
 40
1.0
 40
1.0
 40
1.0
 40
1.0
 10
6262.384396433272
 20
4910.862711526162
 30
0.0
 10
6262.564248181257
 20
4911.313896879263
 30
0.0
 10
6262.921247723899
 20
4912.209484308955
 30
0.0
 10
6263.860743446792
 20
4913.836739174833
 30
0.0
 10
6265.353271437387
 20
4915.592270804654
 30
0.0
 10
6266.815368696615
 20
4916.889914569841
 30
0.0
 10
6267.727401590491
 20
4917.307535672319
 30
0.0
 10
6267.803263306059
 20
4917.34227285505
 30
0.0
  0
LINE
  5
2CC
330
1F
100
AcDbEntity
  8
0
  6
Continuous
 62
     7
370
    25
100
AcDbLine
 10
6285.3289064163
 20
4916.8210898411
 30
0.0
 11
6280.5194672341
 21
4918.1455646527
 31
0.0
  0
LINE
  5
2CD
330
1F
100
AcDbEntity
  8
0
  6
Continuous
 62
     7
370
    25
100
AcDbLine
 10
6274.1252001518
 20
4919.9064050686
 30
0.0
 11
6270.2999230618
 21
4920.9598575604
 31
0.0
  0
LINE
  5
2CE
330
1F
100
AcDbEntity
  8
0
  6
Continuous
 62
     7
370
    25
100
AcDbLine
 10
6288.8363417381
 20
4903.3589635861
 30
0.0
 11
6285.3289064163
 21
4916.8210898411
 31
0.0
  0
LINE
  5
2CF
330
1F
100
AcDbEntity
  8
0
  6
Continuous
 62
     7
370
    25
100
AcDbLine
 10
6285.4068394894
 20
4899.9766384137
 30
0.0
 11
6288.8363417381
 21
4903.3589635861
 31
0.0
  0
LINE
  5
2D0
330
1F
100
AcDbEntity
  8
0
  6
Continuous
 62
     7
370
    25
100
AcDbLine
 10
6270.2999230618
 20
4920.9598575604
 30
0.0
 11
6267.4749609226
 21
4918.1737576497
 31
0.0
  0
LINE
  5
2D1
330
1F
100
AcDbEntity
  8
0
  6
Continuous
 62
     7
370
    25
100
AcDbLine
 10
6262.7085860962
 20
4896.5516363156
 30
0.0
 11
6267.342251181
 21
4895.2755604756
 31
0.0
  0
LINE
  5
2D2
330
1F
100
AcDbEntity
  8
0
  6
Continuous
 62
     7
370
    25
100
AcDbLine
 10
6259.2011507744
 20
4910.0137625706
 30
0.0
 11
6262.7085860962
 21
4896.5516363156
 31
0.0
  0
LINE
  5
2D3
330
1F
100
AcDbEntity
  8
0
  6
Continuous
 62
     7
370
    25
100
AcDbLine
 10
6262.623053431
 20
4913.3885775578
 30
0.0
 11
6259.2011507744
 21
4910.0137625706
 31
0.0
  0
LINE
  5
2D4
330
1F
100
AcDbEntity
  8
0
  6
Continuous
 62
     7
370
    25
100
AcDbLine
 10
6273.8399919266
 20
4893.4861694348
 30
0.0
 11
6277.7375992531
 21
4892.4128685963
 31
0.0
  0
LINE
  5
2D5
330
1F
100
AcDbEntity
  8
0
  6
Continuous
 62
     7
370
    25
100
AcDbLine
 10
6277.7375992531
 20
4892.4128685963
 30
0.0
 11
6280.748438477
 21
4895.3823123944
 31
0.0
  0
LINE
  5
2D6
330
1F
100
AcDbEntity
  8
0
  6
Continuous
 62
     8
370
    25
100
AcDbLine
 10
6223.1412943596
 20
4862.5863467228
 30
0.0
 11
6223.1412943596
 21
4862.1863399518
 31
0.0
  0
LINE
  5
2D7
330
1F
100
AcDbEntity
  8
0
  6
Continuous
 62
     8
370
    25
100
AcDbLine
 10
6324.8962279553
 20
4862.5863467228
 30
0.0
 11
6324.8962279553
 21
4862.1863399518
 31
0.0
  0
LINE
  5
2D8
330
1F
100
AcDbEntity
  8
0
  6
Continuous
 62
     8
370
    25
100
AcDbLine
 10
6219.018768906
 20
4859.5986639035
 30
0.0
 11
6219.018768906
 21
4859.1863785756
 31
0.0
  0
LINE
  5
2D9
330
1F
100
AcDbEntity
  8
0
  6
Continuous
 62
     8
370
    25
100
AcDbLine
 10
6329.0187534088
 20
4859.5986639035
 30
0.0
 11
6329.0187534088
 21
4859.1863785756
 31
0.0
  0
LINE
  5
2DA
330
1F
100
AcDbEntity
  8
0
  6
Continuous
 62
     8
370
    25
100
AcDbLine
 10
6329.0187534088
 20
4862.1863399518
 30
0.0
 11
6329.0187534088
 21
4859.5986639035
 31
0.0
  0
LINE
  5
2DB
330
1F
100
AcDbEntity
  8
0
  6
Continuous
 62
     8
370
    25
100
AcDbLine
 10
6219.018768906
 20
4862.1863399518
 30
0.0
 11
6219.018768906
 21
4859.5986639035
 31
0.0
  0
LINE
  5
2DC
330
1F
100
AcDbEntity
  8
0
  6
Continuous
 62
     8
370
    25
100
AcDbLine
 10
6274.0187462563
 20
4850.5196844113
 30
0.0
 11
6201.6331371063
 21
4850.5196844113
 31
0.0
  0
LINE
  5
2DD
330
1F
100
AcDbEntity
  8
0
  6
Continuous
 62
     8
370
    25
100
AcDbLine
 10
6346.4043852085
 20
4850.5196844113
 30
0.0
 11
6274.0187462563
 21
4850.5196844113
 31
0.0
  0
ENDSEC
  0
SECTION
  2
OBJECTS
  0
DICTIONARY
  5
C
330
0
100
AcDbDictionary
281
     1
  3
ACAD_GROUP
350
D
  3
ACAD_LAYOUT
350
1A
  3
ACAD_MLINESTYLE
350
17
  3
ACAD_PLOTSETTINGS
350
19
  3
ACAD_PLOTSTYLENAME
350
E
  3
ACAD_SCALELIST
350
47
  0
DICTIONARY
  5
D
102
{ACAD_REACTORS
330
C
102
}
330
C
100
AcDbDictionary
281
     1
  0
DICTIONARY
  5
1A
102
{ACAD_REACTORS
330
C
102
}
330
C
100
AcDbDictionary
281
     1
  3
Layout1
350
1E
  3
Layout2
350
26
  3
Model
350
22
  0
DICTIONARY
  5
17
102
{ACAD_REACTORS
330
C
102
}
330
C
100
AcDbDictionary
281
     1
  3
Standard
350
18
  0
DICTIONARY
  5
19
102
{ACAD_REACTORS
330
C
102
}
330
C
100
AcDbDictionary
281
     1
  0
ACDBDICTIONARYWDFLT
  5
E
102
{ACAD_REACTORS
330
C
102
}
330
C
100
AcDbDictionary
281
     1
  3
Normal
350
F
100
AcDbDictionaryWithDefault
340
F
  0
DICTIONARY
  5
47
102
{ACAD_REACTORS
330
C
102
}
330
C
100
AcDbDictionary
281
     1
  3
A0
350
48
  3
A1
350
49
  3
A2
350
4A
  3
A3
350
4B
  3
A4
350
4C
  3
A5
350
4D
  3
A6
350
4E
  3
A7
350
4F
  3
A8
350
50
  3
A9
350
51
  3
B0
350
52
  3
B1
350
53
  3
B2
350
54
  3
B3
350
55
  3
B4
350
56
  3
B5
350
57
  3
B6
350
58
  3
B7
350
59
  3
B8
350
5A
  3
B9
350
5B
  3
C0
350
5C
  3
C1
350
5D
  3
C2
350
5E
  3
C3
350
5F
  3
C4
350
60
  3
C5
350
61
  3
C6
350
62
  3
C7
350
63
  3
C8
350
64
  3
C9
350
65
  3
D0
350
66
  3
D1
350
67
  3
D2
350
68
  0
LAYOUT
  5
1E
102
{ACAD_REACTORS
330
1A
102
}
330
1A
100
AcDbPlotSettings
  1

  2
none_device
  4

  6

 40
0.0
 41
0.0
 42
0.0
 43
0.0
 44
0.0
 45
0.0
 46
0.0
 47
0.0
 48
0.0
 49
0.0
140
0.0
141
0.0
142
1.0
143
1.0
 70
   688
 72
     1
 73
     0
 74
     5
  7

 75
    16
147
1.0
148
0.0
149
0.0
100
AcDbLayout
  1
Layout1
 70
     1
 71
     1
 10
0.0
 20
0.0
 11
420.0
 21
297.0
 12
0.0
 22
0.0
 32
0.0
 14
1.0000000000E+20
 24
1.0000000000E+20
 34
1.0000000000E+20
 15
-1.0000000000E+20
 25
-1.0000000000E+20
 35
-1.0000000000E+20
146
0.0
 13
0.0
 23
0.0
 33
0.0
 16
1.0
 26
0.0
 36
0.0
 17
0.0
 27
1.0
 37
0.0
 76
     0
330
1B
  0
LAYOUT
  5
26
102
{ACAD_REACTORS
330
1A
102
}
330
1A
100
AcDbPlotSettings
  1

  2
none_device
  4

  6

 40
0.0
 41
0.0
 42
0.0
 43
0.0
 44
0.0
 45
0.0
 46
0.0
 47
0.0
 48
0.0
 49
0.0
140
0.0
141
0.0
142
1.0
143
1.0
 70
   688
 72
     1
 73
     0
 74
     5
  7

 75
    16
147
1.0
148
0.0
149
0.0
100
AcDbLayout
  1
Layout2
 70
     1
 71
     2
 10
0.0
 20
0.0
 11
0.0
 21
0.0
 12
0.0
 22
0.0
 32
0.0
 14
0.0
 24
0.0
 34
0.0
 15
0.0
 25
0.0
 35
0.0
146
0.0
 13
0.0
 23
0.0
 33
0.0
 16
1.0
 26
0.0
 36
0.0
 17
0.0
 27
1.0
 37
0.0
 76
     0
330
23
  0
LAYOUT
  5
22
102
{ACAD_REACTORS
330
1A
102
}
330
1A
100
AcDbPlotSettings
  1

  2
none_device
  4
Letter_(8.50_x_11.00_Inches)
  6

 40
6.35
 41
6.35
 42
6.35000508
 43
6.35000508
 44
215.9
 45
279.4
 46
0.0
 47
0.0
 48
0.0
 49
0.0
140
0.0
141
0.0
142
1.0
143
1.0
 70
  1712
 72
     1
 73
     0
 74
     0
  7

 75
     0
147
1.0
148
0.0
149
0.0
100
AcDbLayout
  1
Model
 70
     1
 71
     0
 10
0.0
 20
0.0
 11
20000.0
 21
10000.0
 12
0.0
 22
0.0
 32
0.0
 14
0.0
 24
0.0
 34
0.0
 15
20000.0
 25
10000.0
 35
0.0
146
0.0
 13
0.0
 23
0.0
 33
0.0
 16
1.0
 26
0.0
 36
0.0
 17
0.0
 27
1.0
 37
0.0
 76
     0
330
1F
331
29
  0
MLINESTYLE
  5
18
102
{ACAD_REACTORS
330
17
102
}
330
17
100
AcDbMlineStyle
  2
Standard
 70
     0
  3

 62
   256
 51
90.0
 52
90.0
 71
     2
 49
0.5
 62
   256
  6
BYLAYER
 49
-0.5
 62
   256
  6
BYLAYER
  0
ACDBPLACEHOLDER
  5
F
102
{ACAD_REACTORS
330
E
102
}
330
E
  0
SCALE
  5
48
102
{ACAD_REACTORS
330
47
102
}
330
47
100
AcDbScale
 70
     0
300
1:1
140
1.0
141
1.0
290
     1
  0
SCALE
  5
49
102
{ACAD_REACTORS
330
47
102
}
330
47
100
AcDbScale
 70
     0
300
1:2
140
1.0
141
2.0
290
     0
  0
SCALE
  5
4A
102
{ACAD_REACTORS
330
47
102
}
330
47
100
AcDbScale
 70
     0
300
1:4
140
1.0
141
4.0
290
     0
  0
SCALE
  5
4B
102
{ACAD_REACTORS
330
47
102
}
330
47
100
AcDbScale
 70
     0
300
1:5
140
1.0
141
5.0
290
     0
  0
SCALE
  5
4C
102
{ACAD_REACTORS
330
47
102
}
330
47
100
AcDbScale
 70
     0
300
1:8
140
1.0
141
8.0
290
     0
  0
SCALE
  5
4D
102
{ACAD_REACTORS
330
47
102
}
330
47
100
AcDbScale
 70
     0
300
1:10
140
1.0
141
10.0
290
     0
  0
SCALE
  5
4E
102
{ACAD_REACTORS
330
47
102
}
330
47
100
AcDbScale
 70
     0
300
1:16
140
1.0
141
16.0
290
     0
  0
SCALE
  5
4F
102
{ACAD_REACTORS
330
47
102
}
330
47
100
AcDbScale
 70
     0
300
1:20
140
1.0
141
20.0
290
     0
  0
SCALE
  5
50
102
{ACAD_REACTORS
330
47
102
}
330
47
100
AcDbScale
 70
     0
300
1:30
140
1.0
141
30.0
290
     0
  0
SCALE
  5
51
102
{ACAD_REACTORS
330
47
102
}
330
47
100
AcDbScale
 70
     0
300
1:40
140
1.0
141
40.0
290
     0
  0
SCALE
  5
52
102
{ACAD_REACTORS
330
47
102
}
330
47
100
AcDbScale
 70
     0
300
1:50
140
1.0
141
50.0
290
     0
  0
SCALE
  5
53
102
{ACAD_REACTORS
330
47
102
}
330
47
100
AcDbScale
 70
     0
300
1:100
140
1.0
141
100.0
290
     0
  0
SCALE
  5
54
102
{ACAD_REACTORS
330
47
102
}
330
47
100
AcDbScale
 70
     0
300
2:1
140
2.0
141
1.0
290
     0
  0
SCALE
  5
55
102
{ACAD_REACTORS
330
47
102
}
330
47
100
AcDbScale
 70
     0
300
4:1
140
4.0
141
1.0
290
     0
  0
SCALE
  5
56
102
{ACAD_REACTORS
330
47
102
}
330
47
100
AcDbScale
 70
     0
300
8:1
140
8.0
141
1.0
290
     0
  0
SCALE
  5
57
102
{ACAD_REACTORS
330
47
102
}
330
47
100
AcDbScale
 70
     0
300
10:1
140
10.0
141
1.0
290
     0
  0
SCALE
  5
58
102
{ACAD_REACTORS
330
47
102
}
330
47
100
AcDbScale
 70
     0
300
100:1
140
100.0
141
1.0
290
     0
  0
SCALE
  5
59
102
{ACAD_REACTORS
330
47
102
}
330
47
100
AcDbScale
 70
     0
300
1/128" = 1'-0"
140
0.0078125
141
12.0
290
     0
  0
SCALE
  5
5A
102
{ACAD_REACTORS
330
47
102
}
330
47
100
AcDbScale
 70
     0
300
1/64" = 1'-0"
140
0.015625
141
12.0
290
     0
  0
SCALE
  5
5B
102
{ACAD_REACTORS
330
47
102
}
330
47
100
AcDbScale
 70
     0
300
1/32" = 1'-0"
140
0.03125
141
12.0
290
     0
  0
SCALE
  5
5C
102
{ACAD_REACTORS
330
47
102
}
330
47
100
AcDbScale
 70
     0
300
1/16" = 1'-0"
140
0.0625
141
12.0
290
     0
  0
SCALE
  5
5D
102
{ACAD_REACTORS
330
47
102
}
330
47
100
AcDbScale
 70
     0
300
3/32" = 1'-0"
140
0.09375
141
12.0
290
     0
  0
SCALE
  5
5E
102
{ACAD_REACTORS
330
47
102
}
330
47
100
AcDbScale
 70
     0
300
1/8" = 1'-0"
140
0.125
141
12.0
290
     0
  0
SCALE
  5
5F
102
{ACAD_REACTORS
330
47
102
}
330
47
100
AcDbScale
 70
     0
300
3/16" = 1'-0"
140
0.1875
141
12.0
290
     0
  0
SCALE
  5
60
102
{ACAD_REACTORS
330
47
102
}
330
47
100
AcDbScale
 70
     0
300
1/4" = 1'-0"
140
0.25
141
12.0
290
     0
  0
SCALE
  5
61
102
{ACAD_REACTORS
330
47
102
}
330
47
100
AcDbScale
 70
     0
300
3/8" = 1'-0"
140
0.375
141
12.0
290
     0
  0
SCALE
  5
62
102
{ACAD_REACTORS
330
47
102
}
330
47
100
AcDbScale
 70
     0
300
1/2" = 1'-0"
140
0.5
141
12.0
290
     0
  0
SCALE
  5
63
102
{ACAD_REACTORS
330
47
102
}
330
47
100
AcDbScale
 70
     0
300
3/4" = 1'-0"
140
0.75
141
12.0
290
     0
  0
SCALE
  5
64
102
{ACAD_REACTORS
330
47
102
}
330
47
100
AcDbScale
 70
     0
300
1" = 1'-0"
140
1.0
141
12.0
290
     0
  0
SCALE
  5
65
102
{ACAD_REACTORS
330
47
102
}
330
47
100
AcDbScale
 70
     0
300
1-1/2" = 1'-0"
140
1.5
141
12.0
290
     0
  0
SCALE
  5
66
102
{ACAD_REACTORS
330
47
102
}
330
47
100
AcDbScale
 70
     0
300
3" = 1'-0"
140
3.0
141
12.0
290
     0
  0
SCALE
  5
67
102
{ACAD_REACTORS
330
47
102
}
330
47
100
AcDbScale
 70
     0
300
6" = 1'-0"
140
6.0
141
12.0
290
     0
  0
SCALE
  5
68
102
{ACAD_REACTORS
330
47
102
}
330
47
100
AcDbScale
 70
     0
300
1'-0" = 1'-0"
140
12.0
141
12.0
290
     0
  0
ENDSEC
  0
EOF
