  0
SECTION
  2
HEADER
  9
$ACADVER
  1
AC1015
  9
$ACADMAINTVER
 70
     6
  9
$DWGCODEPAGE
  3
ANSI_1250
  9
$INSBASE
 10
0.0
 20
0.0
 30
0.0
  9
$EXTMIN
 10
0.0
 20
0.0
 30
0.0
  9
$EXTMAX
 10
20000.0
 20
10000.0
 30
0.0
  9
$LIMMIN
 10
0.0
 20
0.0
  9
$LIMMAX
 10
20000.0
 20
10000.0
  9
$ORTHOMODE
 70
     0
  9
$REGENMODE
 70
     1
  9
$FILLMODE
 70
     1
  9
$QTEXTMODE
 70
     0
  9
$MIRRTEXT
 70
     1
  9
$LTSCALE
 40
1.0
  9
$ATTMODE
 70
     1
  9
$TEXTSIZE
 40
2.0
  9
$TRACEWID
 40
1.0
  9
$TEXTSTYLE
  7
STANDARD
  9
$CLAYER
  8
0
  9
$CELTYPE
  6
ByLayer
  9
$CECOLOR
 62
   256
  9
$CELTSCALE
 40
1.0
  9
$DISPSILH
 70
     0
  9
$DIMSCALE
 40
1.0
  9
$DIMASZ
 40
2.0
  9
$DIMEXO
 40
1.0
  9
$DIMDLI
 40
3.75
  9
$DIMRND
 40
0.0
  9
$DIMDLE
 40
0.0
  9
$DIMEXE
 40
1.0
  9
$DIMTP
 40
0.0
  9
$DIMTM
 40
0.0
  9
$DIMTXT
 40
2.0
  9
$DIMCEN
 40
2.5
  9
$DIMTSZ
 40
0.0
  9
$DIMTOL
 70
     0
  9
$DIMLIM
 70
     0
  9
$DIMTIH
 70
     1
  9
$DIMTOH
 70
     1
  9
$DIMSE1
 70
     0
  9
$DIMSE2
 70
     0
  9
$DIMTAD
 70
     1
  9
$DIMZIN
 70
     0
  9
$DIMBLK
  1

  9
$DIMASO
 70
     1
  9
$DIMSHO
 70
     1
  9
$DIMPOST
  1

  9
$DIMAPOST
  1

  9
$DIMALT
 70
     0
  9
$DIMALTD
 70
     3
  9
$DIMALTF
 40
0.0393700787
  9
$DIMLFAC
 40
1.0
  9
$DIMTOFL
 70
     1
  9
$DIMTVP
 40
0.0
  9
$DIMTIX
 70
     0
  9
$DIMSOXD
 70
     0
  9
$DIMSAH
 70
     0
  9
$DIMBLK1
  1

  9
$DIMBLK2
  1

  9
$DIMSTYLE
  2
ISO-25
  9
$DIMCLRD
 70
     0
  9
$DIMCLRE
 70
     0
  9
$DIMCLRT
 70
     0
  9
$DIMTFAC
 40
1.0
  9
$DIMGAP
 40
1.524
  9
$DIMJUST
 70
     0
  9
$DIMSD1
 70
     0
  9
$DIMSD2
 70
     0
  9
$DIMTOLJ
 70
     0
  9
$DIMTZIN
 70
     0
  9
$DIMALTZ
 70
     0
  9
$DIMALTTZ
 70
     0
  9
$DIMUPT
 70
     0
  9
$DIMDEC
 70
     2
  9
$DIMTDEC
 70
     0
  9
$DIMALTU
 70
     2
  9
$DIMALTTD
 70
     3
  9
$DIMTXSTY
  7
STANDARD
  9
$DIMAUNIT
 70
     0
  9
$DIMADEC
 70
     2
  9
$DIMALTRND
 40
0.0
  9
$DIMAZIN
 70
     0
  9
$DIMDSEP
 70
    44
  9
$DIMATFIT
 70
     3
  9
$DIMFRAC
 70
     0
  9
$DIMLDRBLK
  1

  9
$DIMLUNIT
 70
     2
  9
$DIMLWD
 70
    -2
  9
$DIMLWE
 70
    -2
  9
$DIMTMOVE
 70
     0
  9
$LUNITS
 70
     2
  9
$LUPREC
 70
     3
  9
$SKETCHINC
 40
1.0
  9
$FILLETRAD
 40
10.0
  9
$AUNITS
 70
     0
  9
$AUPREC
 70
     2
  9
$MENU
  1
.
  9
$ELEVATION
 40
0.0
  9
$PELEVATION
 40
0.0
  9
$THICKNESS
 40
0.0
  9
$LIMCHECK
 70
     0
  9
$CHAMFERA
 40
0.0
  9
$CHAMFERB
 40
0.0
  9
$CHAMFERC
 40
0.0
  9
$CHAMFERD
 40
0.0
  9
$SKPOLY
 70
     0
  9
$TDCREATE
 40
2460811.527103218
  9
$TDUCREATE
 40
2460811.443769884
  9
$TDUPDATE
 40
2460811.527104919
  9
$TDUUPDATE
 40
2460811.443771586
  9
$TDINDWG
 40
0.0000000116
  9
$TDUSRTIMER
 40
0.0000000116
  9
$USRTIMER
 70
     1
  9
$ANGBASE
 50
0.0
  9
$ANGDIR
 70
     0
  9
$PDMODE
 70
     0
  9
$PDSIZE
 40
-1.0
  9
$PLINEWID
 40
0.0
  9
$SPLFRAME
 70
     0
  9
$SPLINETYPE
 70
     6
  9
$SPLINESEGS
 70
     8
  9
$HANDSEED
  5
1EE
  9
$SURFTAB1
 70
     6
  9
$SURFTAB2
 70
     6
  9
$SURFTYPE
 70
     6
  9
$SURFU
 70
     6
  9
$SURFV
 70
     6
  9
$UCSBASE
  2

  9
$UCSNAME
  2

  9
$UCSORG
 10
0.0
 20
0.0
 30
0.0
  9
$UCSXDIR
 10
1.0
 20
0.0
 30
0.0
  9
$UCSYDIR
 10
0.0
 20
1.0
 30
0.0
  9
$UCSORTHOREF
  2

  9
$UCSORTHOVIEW
 70
     0
  9
$UCSORGTOP
 10
0.0
 20
0.0
 30
0.0
  9
$UCSORGBOTTOM
 10
0.0
 20
0.0
 30
0.0
  9
$UCSORGLEFT
 10
0.0
 20
0.0
 30
0.0
  9
$UCSORGRIGHT
 10
0.0
 20
0.0
 30
0.0
  9
$UCSORGFRONT
 10
0.0
 20
0.0
 30
0.0
  9
$UCSORGBACK
 10
0.0
 20
0.0
 30
0.0
  9
$PUCSBASE
  2

  9
$PUCSNAME
  2

  9
$PUCSORG
 10
0.0
 20
0.0
 30
0.0
  9
$PUCSXDIR
 10
1.0
 20
0.0
 30
0.0
  9
$PUCSYDIR
 10
0.0
 20
1.0
 30
0.0
  9
$PUCSORTHOREF
  2

  9
$PUCSORTHOVIEW
 70
     0
  9
$PUCSORGTOP
 10
0.0
 20
0.0
 30
0.0
  9
$PUCSORGBOTTOM
 10
0.0
 20
0.0
 30
0.0
  9
$PUCSORGLEFT
 10
0.0
 20
0.0
 30
0.0
  9
$PUCSORGRIGHT
 10
0.0
 20
0.0
 30
0.0
  9
$PUCSORGFRONT
 10
0.0
 20
0.0
 30
0.0
  9
$PUCSORGBACK
 10
0.0
 20
0.0
 30
0.0
  9
$USERI1
 70
     0
  9
$USERI2
 70
     0
  9
$USERI3
 70
     0
  9
$USERI4
 70
     0
  9
$USERI5
 70
     0
  9
$USERR1
 40
0.0
  9
$USERR2
 40
0.0
  9
$USERR3
 40
0.0
  9
$USERR4
 40
0.0
  9
$USERR5
 40
0.0
  9
$WORLDVIEW
 70
     1
  9
$SHADEDGE
 70
     3
  9
$SHADEDIF
 70
    70
  9
$TILEMODE
 70
     1
  9
$MAXACTVP
 70
    64
  9
$PINSBASE
 10
0.0
 20
0.0
 30
0.0
  9
$PLIMCHECK
 70
     0
  9
$PEXTMIN
 10
1.0000000000E+20
 20
1.0000000000E+20
 30
1.0000000000E+20
  9
$PEXTMAX
 10
-1.0000000000E+20
 20
-1.0000000000E+20
 30
-1.0000000000E+20
  9
$PLIMMIN
 10
0.0
 20
0.0
  9
$PLIMMAX
 10
420.0
 20
297.0
  9
$UNITMODE
 70
     0
  9
$VISRETAIN
 70
     1
  9
$PLINEGEN
 70
     0
  9
$PSLTSCALE
 70
     1
  9
$TREEDEPTH
 70
  3020
  9
$CMLSTYLE
  2
Standard
  9
$CMLJUST
 70
     0
  9
$CMLSCALE
 40
20.0
  9
$PROXYGRAPHICS
 70
     1
  9
$MEASUREMENT
 70
     1
  9
$CELWEIGHT
370
    -1
  9
$ENDCAPS
280
     0
  9
$JOINSTYLE
280
     0
  9
$LWDISPLAY
290
     1
  9
$INSUNITS
 70
     4
  9
$HYPERLINKBASE
  1

  9
$STYLESHEET
  1

  9
$XEDIT
290
     1
  9
$CEPSNTYPE
380
     0
  9
$PSTYLEMODE
290
     1
  9
$FINGERPRINTGUID
  2
{ecbb2595-31e4-4126-bd3e-5f9c8d1a3b65}
  9
$VERSIONGUID
  2
{FAEB1C32-E019-11D5-929B-00C0DF256EC4}
  9
$EXTNAMES
290
     1
  9
$PSVPSCALE
 40
0.0
  9
$OLESTARTUP
290
     0
  0
ENDSEC
  0
SECTION
  2
CLASSES
  0
CLASS
  1
ACDBDICTIONARYWDFLT
  2
AcDbDictionaryWithDefault
  3
ObjectDBX Classes
 90
        0
280
     0
281
     0
  0
CLASS
  1
VISUALSTYLE
  2
AcDbVisualStyle
  3
ObjectDBX Classes
 90
     4095
280
     0
281
     0
  0
CLASS
  1
MATERIAL
  2
AcDbMaterial
  3
ObjectDBX Classes
 90
     1153
280
     0
281
     0
  0
CLASS
  1
SCALE
  2
AcDbScale
  3
ObjectDBX Classes
 90
     1153
280
     0
281
     0
  0
CLASS
  1
TABLESTYLE
  2
AcDbTableStyle
  3
ObjectDBX Classes
 90
     4095
280
     0
281
     0
  0
CLASS
  1
MLEADERSTYLE
  2
AcDbMLeaderStyle
  3
ACDB_MLEADERSTYLE_CLASS
 90
     4095
280
     0
281
     0
  0
CLASS
  1
SUN
  2
AcDbSun
  3
SCENEOE
 90
     1153
280
     0
281
     0
  0
CLASS
  1
ACDBPLACEHOLDER
  2
AcDbPlaceHolder
  3
ObjectDBX Classes
 90
        0
280
     0
281
     0
  0
CLASS
  1
LAYOUT
  2
AcDbLayout
  3
ObjectDBX Classes
 90
        0
280
     0
281
     0
  0
ENDSEC
  0
SECTION
  2
TABLES
  0
TABLE
  2
VPORT
  5
8
330
0
100
AcDbSymbolTable
 70
     1
  0
VPORT
  5
29
330
8
100
AcDbSymbolTableRecord
100
AcDbViewportTableRecord
  2
*Active
 70
     0
 10
0.0
 20
0.0
 11
1.0
 21
1.0
 12
10000.0
 22
5000.0
 13
0.0
 23
0.0
 14
10.0
 24
10.0
 15
10.0
 25
10.0
 16
0.0
 26
0.0
 36
1.0
 17
0.0
 27
0.0
 37
0.0
 40
10000.0
 41
2.0
 42
50.0
 43
0.0
 44
0.0
 50
0.0
 51
0.0
 71
     0
 72
  2000
 73
     1
 74
     3
 75
     0
 76
     0
 77
     0
 78
     0
281
     0
 65
     1
110
0.0
120
0.0
130
0.0
111
1.0
121
0.0
131
0.0
112
0.0
122
1.0
132
0.0
 79
     0
146
0.0
  0
ENDTAB
  0
TABLE
  2
LTYPE
  5
5
330
0
100
AcDbSymbolTable
 70
    10
  0
LTYPE
  5
14
330
5
100
AcDbSymbolTableRecord
100
AcDbLinetypeTableRecord
  2
ByBlock
 70
     0
  3

 72
    65
 73
     0
 40
0.0
  0
LTYPE
  5
15
330
5
100
AcDbSymbolTableRecord
100
AcDbLinetypeTableRecord
  2
ByLayer
 70
     0
  3

 72
    65
 73
     0
 40
0.0
  0
LTYPE
  5
16
330
5
100
AcDbSymbolTableRecord
100
AcDbLinetypeTableRecord
  2
Continuous
 70
     0
  3
Solid line
 72
    65
 73
     0
 40
0.0
  0
LTYPE
  5
6E
330
5
100
AcDbSymbolTableRecord
100
AcDbLinetypeTableRecord
  2
SLD-Plná
 70
     0
  3
SolidWorks Line Style
 72
    65
 73
     0
 40
0.0
  0
LTYPE
  5
6F
330
5
100
AcDbSymbolTableRecord
100
AcDbLinetypeTableRecord
  2
SLD-Čárkovaná
 70
     0
  3
SolidWorks Line Style
 72
    65
 73
     2
 40
1.905
 49
1.27
 74
     0
 49
-0.635
 74
     0
  0
LTYPE
  5
70
330
5
100
AcDbSymbolTableRecord
100
AcDbLinetypeTableRecord
  2
SLD-Dvojitě-čerchovaná
 70
     0
  3
SolidWorks Line Style
 72
    65
 73
     6
 40
12.7
 49
6.35
 74
     0
 49
-1.27
 74
     0
 49
1.27
 74
     0
 49
-1.27
 74
     0
 49
1.27
 74
     0
 49
-1.27
 74
     0
  0
LTYPE
  5
71
330
5
100
AcDbSymbolTableRecord
100
AcDbLinetypeTableRecord
  2
SLD-Čerchovaná
 70
     0
  3
SolidWorks Line Style
 72
    65
 73
     4
 40
10.16
 49
6.35
 74
     0
 49
-1.27
 74
     0
 49
1.27
 74
     0
 49
-1.27
 74
     0
  0
LTYPE
  5
72
330
5
100
AcDbSymbolTableRecord
100
AcDbLinetypeTableRecord
  2
SLD-Osa
 70
     0
  3
SolidWorks Line Style
 72
    65
 73
     4
 40
19.05
 49
15.24
 74
     0
 49
-1.27
 74
     0
 49
1.27
 74
     0
 49
-1.27
 74
     0
  0
LTYPE
  5
73
330
5
100
AcDbSymbolTableRecord
100
AcDbLinetypeTableRecord
  2
SLD-Tečkovaná
 70
     0
  3
SolidWorks Line Style
 72
    65
 73
     2
 40
0.635
 49
0.0
 74
     0
 49
-0.635
 74
     0
  0
LTYPE
  5
74
330
5
100
AcDbSymbolTableRecord
100
AcDbLinetypeTableRecord
  2
SLD-Hrubá-tenká-čerchovaná
 70
     0
  3
SolidWorks Line Style
 72
    65
 73
     4
 40
10.16
 49
6.35
 74
     0
 49
-1.27
 74
     0
 49
1.27
 74
     0
 49
-1.27
 74
     0
  0
LTYPE
  5
75
330
5
100
AcDbSymbolTableRecord
100
AcDbLinetypeTableRecord
  2
SLD-Řez-1
 70
     0
  3
SolidWorks Line Style
 72
    65
 73
     4
 40
8.128
 49
5.08
 74
     0
 49
-1.016
 74
     0
 49
1.016
 74
     0
 49
-1.016
 74
     0
  0
LTYPE
  5
76
330
5
100
AcDbSymbolTableRecord
100
AcDbLinetypeTableRecord
  2
SLD-Řez-2
 70
     0
  3
SolidWorks Line Style
 72
    65
 73
     2
 40
5080.0
 49
0.0
 74
     0
 49
-5080.0
 74
     0
  0
ENDTAB
  0
TABLE
  2
LAYER
  5
2
330
0
100
AcDbSymbolTable
 70
    13
  0
LAYER
  5
10
330
2
100
AcDbSymbolTableRecord
100
AcDbLayerTableRecord
  2
0
 70
     0
 62
     7
  6
Continuous
370
    -3
390
F
  0
LAYER
  5
77
330
2
100
AcDbSymbolTableRecord
100
AcDbLayerTableRecord
  2
FORMAT
 70
     0
 62
     7
  6
SLD-Plná
370
    -3
390
F
  0
LAYER
  5
78
330
2
100
AcDbSymbolTableRecord
100
AcDbLayerTableRecord
  2
OSA
 70
     0
 62
     7
  6
SLD-Hrubá-tenká-čerchovaná
370
    -3
390
F
  0
LAYER
  5
79
330
2
100
AcDbSymbolTableRecord
100
AcDbLayerTableRecord
  2
0_35
 70
     0
 62
     7
  6
SLD-Plná
370
    35
390
F
  0
LAYER
  5
7A
330
2
100
AcDbSymbolTableRecord
100
AcDbLayerTableRecord
  2
0_5
 70
     0
 62
     7
  6
SLD-Plná
370
    50
390
F
  0
LAYER
  5
7B
330
2
100
AcDbSymbolTableRecord
100
AcDbLayerTableRecord
  2
0_25
 70
     0
 62
     7
  6
SLD-Plná
370
    25
390
F
  0
LAYER
  5
7C
330
2
100
AcDbSymbolTableRecord
100
AcDbLayerTableRecord
  2
0_18
 70
     0
 62
     7
  6
SLD-Plná
370
    -3
390
F
  0
LAYER
  5
7D
330
2
100
AcDbSymbolTableRecord
100
AcDbLayerTableRecord
  2
SLD-0
 70
     0
 62
   179
  6
SLD-Plná
370
    -3
390
F
  0
LAYER
  5
7E
330
2
100
AcDbSymbolTableRecord
100
AcDbLayerTableRecord
  2
KOTY
 70
     0
 62
     7
  6
SLD-Plná
370
    -3
390
F
  0
LAYER
  5
7F
330
2
100
AcDbSymbolTableRecord
100
AcDbLayerTableRecord
  2
SILNA
 70
     0
 62
   179
  6
SLD-Plná
370
    -3
390
F
  0
LAYER
  5
80
330
2
100
AcDbSymbolTableRecord
100
AcDbLayerTableRecord
  2
0_18_1
 70
     0
 62
   179
  6
SLD-Plná
370
    -3
390
F
  0
LAYER
  5
81
330
2
100
AcDbSymbolTableRecord
100
AcDbLayerTableRecord
  2
0_35_1
 70
     0
 62
   179
  6
SLD-Plná
370
    35
390
F
  0
LAYER
  5
82
330
2
100
AcDbSymbolTableRecord
100
AcDbLayerTableRecord
  2
0_5_1
 70
     0
 62
   179
  6
SLD-Plná
370
    50
390
F
  0
ENDTAB
  0
TABLE
  2
STYLE
  5
3
330
0
100
AcDbSymbolTable
 70
     1
  0
STYLE
  5
11
330
3
100
AcDbSymbolTableRecord
100
AcDbTextStyleTableRecord
  2
STANDARD
 70
     0
 40
0.0
 41
1.0
 50
0.0
 71
     0
 42
2.0
  3
SWISOP1.TTF
  4

1001
ACAD
1000
SWISOP1
1071
        2
  0
ENDTAB
  0
TABLE
  2
VIEW
  5
6
330
0
100
AcDbSymbolTable
 70
     0
  0
ENDTAB
  0
TABLE
  2
UCS
  5
7
330
0
100
AcDbSymbolTable
 70
     0
  0
ENDTAB
  0
TABLE
  2
APPID
  5
9
330
0
100
AcDbSymbolTable
 70
     1
  0
APPID
  5
12
330
9
100
AcDbSymbolTableRecord
100
AcDbRegAppTableRecord
  2
ACAD
 70
     0
  0
ENDTAB
  0
TABLE
  2
DIMSTYLE
  5
A
330
0
100
AcDbSymbolTable
 70
     1
100
AcDbDimStyleTable
  0
DIMSTYLE
105
27
330
A
100
AcDbSymbolTableRecord
100
AcDbDimStyleTableRecord
  2
ISO-25
 70
     0
 41
2.5
 42
0.625
 43
3.75
 44
1.25
 73
     0
 74
     0
 77
     1
 78
     8
140
2.5
141
2.5
143
0.0393700787
147
0.625
171
     3
172
     1
178
     0
271
     2
272
     2
274
     3
278
    44
283
     0
284
     8
340
11
  0
ENDTAB
  0
TABLE
  2
BLOCK_RECORD
  5
1
330
0
100
AcDbSymbolTable
 70
     1
  0
BLOCK_RECORD
  5
1F
330
1
100
AcDbSymbolTableRecord
100
AcDbBlockTableRecord
  2
*Model_Space
340
22
  0
BLOCK_RECORD
  5
1B
330
1
100
AcDbSymbolTableRecord
100
AcDbBlockTableRecord
  2
*Paper_Space
340
1E
  0
BLOCK_RECORD
  5
23
330
1
100
AcDbSymbolTableRecord
100
AcDbBlockTableRecord
  2
*Paper_Space0
340
26
  0
ENDTAB
  0
ENDSEC
  0
SECTION
  2
BLOCKS
  0
BLOCK
  5
20
330
1F
100
AcDbEntity
  8
0
100
AcDbBlockBegin
  2
*Model_Space
 70
     0
 10
0.0
 20
0.0
 30
0.0
  3
*Model_Space
  1

  0
ENDBLK
  5
21
330
1F
100
AcDbEntity
  8
0
100
AcDbBlockEnd
  0
BLOCK
  5
1C
330
1B
100
AcDbEntity
 67
     1
  8
0
100
AcDbBlockBegin
  2
*Paper_Space
 70
     0
 10
0.0
 20
0.0
 30
0.0
  3
*Paper_Space
  1

  0
ENDBLK
  5
1D
330
1B
100
AcDbEntity
 67
     1
  8
0
100
AcDbBlockEnd
  0
BLOCK
  5
24
330
23
100
AcDbEntity
  8
0
100
AcDbBlockBegin
  2
*Paper_Space0
 70
     0
 10
0.0
 20
0.0
 30
0.0
  3
*Paper_Space0
  1

  0
ENDBLK
  5
25
330
23
100
AcDbEntity
  8
0
100
AcDbBlockEnd
  0
ENDSEC
  0
SECTION
  2
ENTITIES
  0
ARC
  5
83
330
1F
100
AcDbEntity
  8
0
  6
SLD-Plná
 62
     7
370
    25
100
AcDbCircle
 10
8614.8618678098
 20
5731.3905800522
 30
0.0
 40
9.425000000039919
100
AcDbArc
 50
342.4531955767
 51
358.2360189164
  0
ARC
  5
84
330
1F
100
AcDbEntity
  8
0
  6
SLD-Plná
 62
     7
370
    25
100
AcDbCircle
 10
8614.8618678098
 20
5731.3905800522
 30
0.0
 40
9.425000000041377
100
AcDbArc
 50
181.7639810836
 51
197.5468044233
  0
LINE
  5
85
330
1F
100
AcDbEntity
  8
0
  6
SLD-Plná
 62
     7
370
    25
100
AcDbLine
 10
8623.8618678098
 20
5728.6331183438
 30
0.0
 11
8623.8618678098
 21
5728.6347675108
 31
0.0
  0
LINE
  5
86
330
1F
100
AcDbEntity
  8
0
  6
SLD-Plná
 62
     7
370
    25
100
AcDbLine
 10
8605.8618678098
 20
5728.6347675108
 30
0.0
 11
8605.8618678098
 21
5728.6331183438
 31
0.0
  0
ARC
  5
87
330
1F
100
AcDbEntity
  8
0
  6
SLD-Plná
 62
     7
370
    25
100
AcDbCircle
 10
8614.8618678098
 20
5731.3905800522
 30
0.0
 40
8.775000000076055
100
AcDbArc
 50
198.9056536101
 51
210.5032741311
  0
LINE
  5
88
330
1F
100
AcDbEntity
  8
0
  6
SLD-Plná
 62
     7
370
    25
100
AcDbLine
 10
8621.9685456668
 20
5725.8467339249
 30
0.0
 11
8622.4417864114
 21
5726.9749316109
 31
0.0
  0
LINE
  5
89
330
1F
100
AcDbEntity
  8
0
  6
SLD-Plná
 62
     7
370
    25
100
AcDbLine
 10
8607.2819492083
 20
5726.9749316109
 30
0.0
 11
8607.7551899529
 21
5725.8467339249
 31
0.0
  0
LINE
  5
8A
330
1F
100
AcDbEntity
  8
0
  6
SLD-Plná
 62
     7
370
    25
100
AcDbLine
 10
8620.2696287202
 20
5725.9494199489
 30
0.0
 11
8620.3231378104
 21
5726.5114355926
 31
0.0
  0
LINE
  5
8B
330
1F
100
AcDbEntity
  8
0
  6
SLD-Plná
 62
     7
370
    25
100
AcDbLine
 10
8609.4005978093
 20
5726.5114355926
 30
0.0
 11
8609.4541068995
 21
5725.9494199489
 31
0.0
  0
LINE
  5
8C
330
1F
100
AcDbEntity
  8
0
  6
SLD-Plná
 62
     7
370
    25
100
AcDbLine
 10
8618.6736331632
 20
5725.9406910956
 30
0.0
 11
8618.7622153187
 21
5726.498792082
 31
0.0
  0
LINE
  5
8D
330
1F
100
AcDbEntity
  8
0
  6
SLD-Plná
 62
     7
370
    25
100
AcDbLine
 10
8610.961520301
 20
5726.498792082
 30
0.0
 11
8611.0501024565
 21
5725.9406910956
 31
0.0
  0
ARC
  5
8E
330
1F
100
AcDbEntity
  8
0
  6
SLD-Plná
 62
     7
370
    25
100
AcDbCircle
 10
8614.8618678098
 20
5731.3905800522
 30
0.0
 40
8.775000000069141
100
AcDbArc
 50
329.4967258689
 51
341.0943463899
  0
SPLINE
  5
8F
330
1F
100
AcDbEntity
  8
0
  6
SLD-Plná
 62
     7
370
    25
100
AcDbSpline
210
0.0
220
0.0
230
1.0
 70
     8
 71
     3
 72
    10
 73
     6
 74
     0
 42
0.00000001
 43
0.00000001
 40
0.0
 40
0.0
 40
0.0
 40
0.0
 40
0.291090259439521
 40
0.8351735349118308
 40
1.0
 40
1.0
 40
1.0
 40
1.0
 10
8615.151763120146
 20
5726.251005326622
 30
0.0
 10
8615.254548856494
 20
5726.249046294538
 30
0.0
 10
8615.5494536978
 20
5726.243425592033
 30
0.0
 10
8615.890493620496
 20
5726.218867589168
 30
0.0
 10
8616.08218797855
 20
5726.190919709353
 30
0.0
 10
8616.126758255425
 20
5726.184421632131
 30
0.0
  0
SPLINE
  5
90
330
1F
100
AcDbEntity
  8
0
  6
SLD-Plná
 62
     7
370
    25
100
AcDbSpline
210
0.0
220
0.0
230
1.0
 70
     8
 71
     3
 72
    10
 73
     6
 74
     0
 42
0.00000001
 43
0.00000001
 40
0.0
 40
0.0
 40
0.0
 40
0.0
 40
0.2625528334469305
 40
0.7653446043340609
 40
1.0
 40
1.0
 40
1.0
 40
1.0
 10
8614.023718613782
 20
5726.228774766526
 30
0.0
 10
8614.11825075132
 20
5726.23469081336
 30
0.0
 10
8614.393813046543
 20
5726.251936159615
 30
0.0
 10
8614.783795739935
 20
5726.262565130274
 30
0.0
 10
8615.06293964148
 20
5726.253795742371
 30
0.0
 10
8615.151763120146
 20
5726.251005326622
 30
0.0
  0
LINE
  5
91
330
1F
100
AcDbEntity
  8
0
  6
SLD-Plná
 62
     7
370
    25
100
AcDbLine
 10
8617.170052306
 20
5725.9583185547
 30
0.0
 11
8617.2094639245
 21
5726.3722659082
 31
0.0
  0
LINE
  5
92
330
1F
100
AcDbEntity
  8
0
  6
SLD-Plná
 62
     7
370
    25
100
AcDbLine
 10
8612.5071562541
 20
5726.4470006725
 30
0.0
 11
8612.5536833137
 21
5725.9583185547
 31
0.0
  0
LINE
  5
93
330
1F
100
AcDbEntity
  8
0
  6
SLD-Plná
 62
     7
370
    25
100
AcDbLine
 10
8620.260460258
 20
5726.4887800304
 30
0.0
 11
8620.3969054531
 21
5726.4918993335
 31
0.0
  0
LINE
  5
94
330
1F
100
AcDbEntity
  8
0
  6
SLD-Plná
 62
     7
370
    25
100
AcDbLine
 10
8609.3243665849
 20
5726.4912315922
 30
0.0
 11
8609.4627661729
 21
5726.4880676093
 31
0.0
  0
LINE
  5
95
330
1F
100
AcDbEntity
  8
0
  6
SLD-Plná
 62
     7
370
    25
100
AcDbLine
 10
8610.7597492268
 20
5726.4584169995
 30
0.0
 11
8611.0181233394
 21
5726.4525102531
 31
0.0
  0
LINE
  5
96
330
1F
100
AcDbEntity
  8
0
  6
SLD-Plná
 62
     7
370
    25
100
AcDbLine
 10
8618.7268977839
 20
5726.2762782935
 30
0.0
 11
8619.6928024538
 21
5726.2541965379
 31
0.0
  0
LINE
  5
97
330
1F
100
AcDbEntity
  8
0
  6
SLD-Plná
 62
     7
370
    25
100
AcDbLine
 10
8608.5969349072
 20
5726.2221376552
 30
0.0
 11
8609.4263363754
 21
5726.2410987816
 31
0.0
  0
LINE
  5
98
330
1F
100
AcDbEntity
  8
0
  6
SLD-Plná
 62
     7
370
    25
100
AcDbLine
 10
8620.2973304566
 20
5726.2403762924
 30
0.0
 11
8621.128185095
 21
5726.2213819448
 31
0.0
  0
LINE
  5
99
330
1F
100
AcDbEntity
  8
0
  6
SLD-Plná
 62
     7
370
    25
100
AcDbLine
 10
8611.537518623
 20
5726.125156157
 30
0.0
 11
8612.5309953456
 21
5726.1966143847
 31
0.0
  0
LINE
  5
9A
330
1F
100
AcDbEntity
  8
0
  6
SLD-Plná
 62
     7
370
    25
100
AcDbLine
 10
8617.1792131511
 20
5726.0545365667
 30
0.0
 11
8617.7139012218
 21
5725.9832920904
 31
0.0
  0
LINE
  5
9B
330
1F
100
AcDbEntity
  8
0
  6
SLD-Plná
 62
     7
370
    25
100
AcDbLine
 10
8610.0593068339
 20
5726.018832182
 30
0.0
 11
8611.0266562342
 21
5726.0884111385
 31
0.0
  0
LINE
  5
9C
330
1F
100
AcDbEntity
  8
0
  6
SLD-Plná
 62
     7
370
    25
100
AcDbLine
 10
8620.2721496184
 20
5725.9758973987
 30
0.0
 11
8621.0518388251
 21
5725.9198163576
 31
0.0
  0
LINE
  5
9D
330
1F
100
AcDbEntity
  8
0
  6
SLD-Plná
 62
     7
370
    25
100
AcDbLine
 10
8608.6734852438
 20
5725.9191535962
 30
0.0
 11
8609.4516594771
 21
5725.9751256691
 31
0.0
  0
LINE
  5
9E
330
1F
100
AcDbEntity
  8
0
  6
SLD-Plná
 62
     7
370
    25
100
AcDbLine
 10
8618.6329945365
 20
5725.8608275634
 30
0.0
 11
8618.9832704618
 21
5725.8141550712
 31
0.0
  0
LINE
  5
9F
330
1F
100
AcDbEntity
  8
0
  6
SLD-Plná
 62
     7
370
    25
100
AcDbLine
 10
8609.5479110238
 20
5725.6561581276
 30
0.0
 11
8609.6815467414
 21
5725.6739644098
 31
0.0
  0
LINE
  5
A0
330
1F
100
AcDbEntity
  8
0
  6
SLD-Plná
 62
     7
370
    25
100
AcDbLine
 10
8620.0104361074
 20
5725.6772904535
 30
0.0
 11
8620.1733024353
 21
5725.6555893405
 31
0.0
  0
ARC
  5
A1
330
1F
100
AcDbEntity
  8
0
  6
SLD-Plná
 62
     7
370
    25
100
AcDbCircle
 10
8614.8618677926
 20
5574.0851150564
 30
0.0
 40
176.5625000000032
100
AcDbArc
 50
81.9319231874
 51
98.0680934136
  0
SPLINE
  5
A2
330
1F
100
AcDbEntity
  8
0
  6
SLD-Plná
 62
     7
370
    25
100
AcDbSpline
210
0.0
220
0.0
230
1.0
 70
     8
 71
     3
 72
    11
 73
     7
 74
     0
 42
0.00000001
 43
0.00000001
 40
0.0
 40
0.0
 40
0.0
 40
0.0
 40
0.3097460703355622
 40
0.6095020239740705
 40
0.9267126344736127
 40
0.9999999999999999
 40
0.9999999999999999
 40
0.9999999999999999
 40
0.9999999999999999
 10
8626.33771974303
 20
5730.501387052882
 30
0.0
 10
8626.463055284134
 20
5730.443804746549
 30
0.0
 10
8626.709683969033
 20
5730.330497313087
 30
0.0
 10
8626.910828312784
 20
5730.186300771092
 30
0.0
 10
8626.96949462932
 20
5730.096740485658
 30
0.0
 10
8626.96558775869
 20
5730.11197858246
 30
0.0
 10
8626.964854530162
 20
5730.11483841795
 30
0.0
  0
SPLINE
  5
A3
330
1F
100
AcDbEntity
  8
0
  6
SLD-Plná
 62
     7
370
    25
100
AcDbSpline
210
0.0
220
0.0
230
1.0
 70
     8
 71
     3
 72
    10
 73
     6
 74
     0
 42
0.00000001
 43
0.00000001
 40
0.0
 40
0.0
 40
0.0
 40
0.0
 40
0.2764301736458465
 40
0.6560253370694487
 40
1.0
 40
1.0
 40
1.0
 40
1.0
 10
8602.762345248655
 20
5730.11481747452
 30
0.0
 10
8602.763472767478
 20
5730.117903711222
 30
0.0
 10
8602.76614860024
 20
5730.125227982102
 30
0.0
 10
8602.88804044789
 20
5730.250445959779
 30
0.0
 10
8603.08290019424
 20
5730.35513669078
 30
0.0
 10
8603.175533708143
 20
5730.404905154855
 30
0.0
  0
LINE
  5
A4
330
1F
100
AcDbEntity
  8
0
  6
SLD-Plná
 62
     7
370
    25
100
AcDbLine
 10
8629.6250864506
 20
5729.5496164787
 30
0.0
 11
8629.9430956002
 21
5729.9090229684
 31
0.0
  0
SPLINE
  5
A5
330
1F
100
AcDbEntity
  8
0
  6
SLD-Plná
 62
     7
370
    25
100
AcDbSpline
210
0.0
220
0.0
230
1.0
 70
     8
 71
     3
 72
     9
 73
     5
 74
     0
 42
0.00000001
 43
0.00000001
 40
0.0
 40
0.0
 40
0.0
 40
0.0
 40
0.6758540916603369
 40
1.0
 40
1.0
 40
1.0
 40
1.0
 10
8628.550140743353
 20
5728.799869320812
 30
0.0
 10
8628.87931174372
 20
5728.964453426788
 30
0.0
 10
8629.366356217415
 20
5729.207973600754
 30
0.0
 10
8629.561750268436
 20
5729.465983594783
 30
0.0
 10
8629.625086450587
 20
5729.549616478658
 30
0.0
  0
SPLINE
  5
A6
330
1F
100
AcDbEntity
  8
0
  6
SLD-Plná
 62
     7
370
    25
100
AcDbSpline
210
0.0
220
0.0
230
1.0
 70
     8
 71
     3
 72
    15
 73
    11
 74
     0
 42
0.00000001
 43
0.00000001
 40
0.0
 40
0.0
 40
0.0
 40
0.0
 40
0.1027122780953801
 40
0.2620904970021907
 40
0.3990383629541752
 40
0.5143554841775634
 40
0.6406486420678542
 40
0.7601255553986375
 40
0.8769397773807093
 40
1.0
 40
1.0
 40
1.0
 40
1.0
 10
8599.969844529538
 20
5729.667750753182
 30
0.0
 10
8600.041835905382
 20
5729.560813222171
 30
0.0
 10
8600.225536002628
 20
5729.287941164705
 30
0.0
 10
8600.845055661057
 20
5728.898465529055
 30
0.0
 10
8601.64207697874
 20
5728.542792223197
 30
0.0
 10
8602.526404203636
 20
5728.256624770278
 30
0.0
 10
8603.462509974359
 20
5728.023969461167
 30
0.0
 10
8604.539525795988
 20
5727.809038986527
 30
0.0
 10
8605.70812559613
 20
5727.613234990154
 30
0.0
 10
8606.60057548522
 20
5727.50872237742
 30
0.0
 10
8607.058419513623
 20
5727.455105388703
 30
0.0
  0
LINE
  5
A7
330
1F
100
AcDbEntity
  8
0
  6
SLD-Plná
 62
     7
370
    25
100
AcDbLine
 10
8599.7798856914
 20
5729.9092786402
 30
0.0
 11
8599.8636298549
 21
5729.8028000416
 31
0.0
  0
LINE
  5
A8
330
1F
100
AcDbEntity
  8
0
  6
SLD-Plná
 62
     7
370
    25
100
AcDbLine
 10
8641.3618678021
 20
5589.6475327149
 30
0.0
 11
8641.3618678093
 21
5709.6428233298
 31
0.0
  0
LINE
  5
A9
330
1F
100
AcDbEntity
  8
0
  6
SLD-Plná
 62
     7
370
    25
100
AcDbLine
 10
8588.3618678093
 20
5709.6375327181
 30
0.0
 11
8588.3618678021
 21
5589.6475327181
 31
0.0
  0
SPLINE
  5
AA
330
1F
100
AcDbEntity
  8
0
  6
SLD-Plná
 62
     7
370
    25
100
AcDbSpline
210
0.0
220
0.0
230
1.0
 70
     8
 71
     3
 72
    46
 73
    42
 74
     0
 42
0.00000001
 43
0.00000001
 40
0.0
 40
0.0
 40
0.0
 40
0.0
 40
0.025145045349376
 40
0.0502970354268887
 40
0.0750534953161526
 40
0.0998178486550216
 40
0.1263486073458661
 40
0.1528775390161667
 40
0.1807244423630632
 40
0.2085586198871999
 40
0.2348066044992143
 40
0.2610506729950676
 40
0.2854908524565806
 40
0.3099372018453387
 40
0.3347069361354896
 40
0.3594836366243939
 40
0.3861789384069492
 40
0.4128724968864302
 40
0.4407074448928638
 40
0.4685271089376407
 40
0.4944682203648141
 40
0.5204071931293731
 40
0.544359381731137
 40
0.5683196974479686
 40
0.5933172285341545
 40
0.618320256975486
 40
0.6456436302787295
 40
0.6729605612493343
 40
0.7005076273465668
 40
0.7280434502773994
 40
0.7534691757768921
 40
0.7788954988006022
 40
0.8031671105524301
 40
0.8274456029989291
 40
0.8528307698820199
 40
0.8782213626434883
 40
0.9055919588905437
 40
0.9329545860020907
 40
0.9604157845499958
 40
0.9878622918926521
 40
1.0
 40
1.0
 40
1.0
 40
1.0
 10
8603.985339582629
 20
5631.375014507221
 30
0.0
 10
8604.012807313118
 20
5631.955497416526
 30
0.0
 10
8604.067750360322
 20
5633.116623556817
 30
0.0
 10
8604.490851310307
 20
5634.79720538394
 30
0.0
 10
8605.147376540053
 20
5636.369880475323
 30
0.0
 10
8606.049467400451
 20
5637.840706259782
 30
0.0
 10
8607.19763077812
 20
5639.173227157215
 30
0.0
 10
8608.600740157994
 20
5640.349171006958
 30
0.0
 10
8610.220943004819
 20
5641.287684317422
 30
0.0
 10
8611.986014714625
 20
5641.939931901024
 30
0.0
 10
8613.813661501212
 20
5642.269380923321
 30
0.0
 10
8615.597403837568
 20
5642.296819225582
 30
0.0
 10
8617.31505916335
 20
5642.036956702239
 30
0.0
 10
8618.932083570677
 20
5641.533335233788
 30
0.0
 10
8620.445310282792
 20
5640.783806476801
 30
0.0
 10
8621.859987436226
 20
5639.790521647833
 30
0.0
 10
8623.122760104194
 20
5638.554798797634
 30
0.0
 10
8624.210873704413
 20
5637.073075241724
 30
0.0
 10
8625.04508641159
 20
5635.391659737798
 30
0.0
 10
8625.581600616579
 20
5633.592930578729
 30
0.0
 10
8625.794250362555
 20
5631.760054146421
 30
0.0
 10
8625.714602381735
 20
5630.003718352347
 30
0.0
 10
8625.364240670258
 20
5628.337229941611
 30
0.0
 10
8624.7839680061
 20
5626.772427439005
 30
0.0
 10
8623.962215997797
 20
5625.306692890576
 30
0.0
 10
8622.885205559991
 20
5623.929925582792
 30
0.0
 10
8621.557587154544
 20
5622.712535007082
 30
0.0
 10
8619.990739975763
 20
5621.696523890859
 30
0.0
 10
8618.251654447586
 20
5620.961740919356
 30
0.0
 10
8616.441341750955
 20
5620.538388599452
 30
0.0
 10
8614.627893232793
 20
5620.434852228358
 30
0.0
 10
8612.897056145963
 20
5620.610943866552
 30
0.0
 10
8611.251835345227
 20
5621.053584599887
 30
0.0
 10
8609.703012736913
 20
5621.732125792409
 30
0.0
 10
8608.269130709397
 20
5622.65404255147
 30
0.0
 10
8606.948856479301
 20
5623.827937964677
 30
0.0
 10
8605.812371180316
 20
5625.239367378183
 30
0.0
 10
8604.898003020513
 20
5626.869668533643
 30
0.0
 10
8604.279262649927
 20
5628.651563556569
 30
0.0
 10
8604.01289749994
 20
5630.181611843387
 30
0.0
 10
8603.991806658072
 20
5631.094610708877
 30
0.0
 10
8603.985339573164
 20
5631.374563553859
 30
0.0
  0
LWPOLYLINE
  5
AB
330
1F
100
AcDbEntity
  8
0
  6
SLD-Plná
 62
     7
370
    25
100
AcDbPolyline
 90
        9
 70
   128
 43
0.0
 10
8603.9853395732
 20
5631.3745635539
 10
8603.9912120351
 20
5631.3745635951
 10
8604.006336724
 20
5631.3745636353
 10
8604.030430396
 20
5631.3745636737
 10
8604.0630418427
 20
5631.3745637095
 10
8604.1035603412
 20
5631.374563742
 10
8604.1512270911
 20
5631.3745637707
 10
8604.205149425
 20
5631.3745637951
 10
8604.2643175255
 20
5631.3745638146
  0
SPLINE
  5
AC
330
1F
100
AcDbEntity
  8
0
  6
SLD-Plná
 62
     7
370
    25
100
AcDbSpline
210
0.0
220
0.0
230
1.0
 70
     8
 71
     3
 72
    46
 73
    42
 74
     0
 42
0.00000001
 43
0.00000001
 40
0.0
 40
0.0
 40
0.0
 40
0.0
 40
0.0243994025661343
 40
0.0488074784326524
 40
0.0731217176059706
 40
0.097446376731542
 40
0.1234636786720208
 40
0.1494818456039272
 40
0.1773493606382454
 40
0.2052060886478727
 40
0.2319772994957661
 40
0.2587441321962118
 40
0.28384984751534
 40
0.3089610387430999
 40
0.3343028585659136
 40
0.3596508203773136
 40
0.3867479475519527
 40
0.4138410123943381
 40
0.4416242584226841
 40
0.4693873889862332
 40
0.4947450686814038
 40
0.5200998460992076
 40
0.5433101751417277
 40
0.5665302232194768
 40
0.5908819384352505
 40
0.6152406885321235
 40
0.6421829883307327
 40
0.6691211030009507
 40
0.6969158041400997
 40
0.7246998176281157
 40
0.750752308749977
 40
0.7768045772964276
 40
0.8017353831030253
 40
0.8266731088805814
 40
0.8525861945371134
 40
0.8785040207379482
 40
0.9061172129153129
 40
0.9337185647890494
 40
0.9609310877855051
 40
0.988125140789366
 40
1.0
 40
1.0
 40
1.0
 40
1.0
 10
8604.264317525514
 20
5631.374563814579
 30
0.0
 10
8604.29021163642
 20
5630.83062752744
 30
0.0
 10
8604.34200906286
 20
5629.742561599132
 30
0.0
 10
8604.74065332622
 20
5628.162510476558
 30
0.0
 10
8605.361191370483
 20
5626.679465553582
 30
0.0
 10
8606.215823104882
 20
5625.289336493805
 30
0.0
 10
8607.299694582682
 20
5624.029865920418
 30
0.0
 10
8608.628996751246
 20
5622.906749363585
 30
0.0
 10
8610.17328893282
 20
5621.996259700008
 30
0.0
 10
8611.87885280431
 20
5621.345007269052
 30
0.0
 10
8613.660974402543
 20
5620.997986201011
 30
0.0
 10
8615.421029165162
 20
5620.943978354745
 30
0.0
 10
8617.125116258096
 20
5621.172776178324
 30
0.0
 10
8618.73478077197
 20
5621.645067453139
 30
0.0
 10
8620.241869092793
 20
5622.361485242959
 30
0.0
 10
8621.647676201836
 20
5623.316635869032
 30
0.0
 10
8622.900995951739
 20
5624.510956877125
 30
0.0
 10
8623.973666912165
 20
5625.939896534668
 30
0.0
 10
8624.791913108651
 20
5627.560311272946
 30
0.0
 10
8625.311353007794
 20
5629.279667077173
 30
0.0
 10
8625.513701372302
 20
5631.022464449014
 30
0.0
 10
8625.436495065453
 20
5632.67600964978
 30
0.0
 10
8625.103776894577
 20
5634.238630202924
 30
0.0
 10
8624.557800704191
 20
5635.702668410276
 30
0.0
 10
8623.787202419204
 20
5637.076058112951
 30
0.0
 10
8622.774520331406
 20
5638.374687403101
 30
0.0
 10
8621.524407126723
 20
5639.531630865416
 30
0.0
 10
8620.033891681931
 20
5640.516106065636
 30
0.0
 10
8618.364840987813
 20
5641.245238448551
 30
0.0
 10
8616.601110980178
 20
5641.684982834582
 30
0.0
 10
8614.818785854894
 20
5641.817299687841
 30
0.0
 10
8613.10151960747
 20
5641.673597610421
 30
0.0
 10
8611.463157809472
 20
5641.264693728896
 30
0.0
 10
8609.919387328491
 20
5640.62112090742
 30
0.0
 10
8608.49033684854
 20
5639.736339726455
 30
0.0
 10
8607.180054127164
 20
5638.606797088476
 30
0.0
 10
8606.05418531535
 20
5637.245332063836
 30
0.0
 10
8605.155091482835
 20
5635.678979965879
 30
0.0
 10
8604.549718190387
 20
5633.969577935617
 30
0.0
 10
8604.291005353529
 20
5632.509655993397
 30
0.0
 10
8604.270538395149
 20
5631.639480710108
 30
0.0
 10
8604.26431753474
 20
5631.374993976489
 30
0.0
  0
LWPOLYLINE
  5
AD
330
1F
100
AcDbEntity
  8
0
  6
SLD-Plná
 62
     7
370
    25
100
AcDbPolyline
 90
        9
 70
   128
 43
0.0
 10
8604.2643175347
 20
5631.3749939765
 10
8604.2051494342
 20
5631.3749971492
 10
8604.1512271003
 20
5631.3750002573
 10
8604.1035603504
 20
5631.3750032426
 10
8604.063041852
 20
5631.3750060492
 10
8604.0304304053
 20
5631.3750086244
 10
8604.0063367334
 20
5631.3750109202
 10
8603.9912120445
 20
5631.3750128934
 10
8603.9853395826
 20
5631.3750145072
  0
SPLINE
  5
AE
330
1F
100
AcDbEntity
  8
0
  6
SLD-Plná
 62
     7
370
    25
100
AcDbSpline
210
0.0
220
0.0
230
1.0
 70
    11
 71
     3
 72
    46
 73
    42
 74
     0
 42
0.00000001
 43
0.00000001
 40
0.0
 40
0.0
 40
0.0
 40
0.0
 40
0.0249199188375594
 40
0.0498510814075986
 40
0.0746764650539487
 40
0.0995125526085037
 40
0.1263568885093621
 40
0.153197997438642
 40
0.1815978599762273
 40
0.2099676756665453
 40
0.2351821905714673
 40
0.2603962535991183
 40
0.2827981025167249
 40
0.3052124540135318
 40
0.3294381581372758
 40
0.3536715295632809
 40
0.3813487539465629
 40
0.4090152251125029
 40
0.4369181302678548
 40
0.4648016736681914
 40
0.4896193123774876
 40
0.5144376287638164
 40
0.5377163904503869
 40
0.5610046689943
 40
0.5856997057260869
 40
0.6104033727485715
 40
0.6378505801118539
 40
0.6652877028983675
 40
0.6933792287846432
 40
0.7214401813616887
 40
0.7457455686488106
 40
0.770056463314617
 40
0.7925082623678933
 40
0.8149721971795001
 40
0.8399547905126852
 40
0.8649428265550239
 40
0.8930880013290212
 40
0.9212175815004447
 40
0.9485553089200719
 40
0.9758764126870064
 40
1.0
 40
1.0
 40
1.0
 40
1.0
 10
8615.7913025711
 20
5642.28623460435
 30
0.0
 10
8616.368840578725
 20
5642.209751177531
 30
0.0
 10
8617.524177175996
 20
5642.056749814985
 30
0.0
 10
8619.164881966222
 20
5641.493616626612
 30
0.0
 10
8620.678970768642
 20
5640.707873629748
 30
0.0
 10
8622.076114344125
 20
5639.681645106336
 30
0.0
 10
8623.31620653476
 20
5638.41967756652
 30
0.0
 10
8624.384622487942
 20
5636.903809182025
 30
0.0
 10
8625.19862568179
 20
5635.174030042038
 30
0.0
 10
8625.69887133416
 20
5633.335549490088
 30
0.0
 10
8625.864176661704
 20
5631.492831427396
 30
0.0
 10
8625.747515244777
 20
5629.785356028216
 30
0.0
 10
8625.385314314091
 20
5628.197272033706
 30
0.0
 10
8624.821724137148
 20
5626.714299259682
 30
0.0
 10
8624.034655380188
 20
5625.310157336856
 30
0.0
 10
8622.984562431333
 20
5623.952873489118
 30
0.0
 10
8621.67181790212
 20
5622.728093376296
 30
0.0
 10
8620.091391746126
 20
5621.686315296207
 30
0.0
 10
8618.323583072925
 20
5620.927147460792
 30
0.0
 10
8616.49196561142
 20
5620.491863439689
 30
0.0
 10
8614.674266551192
 20
5620.382833736144
 30
0.0
 10
8612.970496299084
 20
5620.546127393442
 30
0.0
 10
8611.361597571504
 20
5620.962136007365
 30
0.0
 10
8609.848140401524
 20
5621.597082976491
 30
0.0
 10
8608.437020216043
 20
5622.46221148259
 30
0.0
 10
8607.110907268718
 20
5623.580898912391
 30
0.0
 10
8605.944462375672
 20
5624.943622521963
 30
0.0
 10
8604.97449980388
 20
5626.556688252804
 30
0.0
 10
8604.287910438654
 20
5628.354117904302
 30
0.0
 10
8603.929248022256
 20
5630.200669790205
 30
0.0
 10
8603.8957177222
 20
5632.002866170445
 30
0.0
 10
8604.116918351221
 20
5633.652797764596
 30
0.0
 10
8604.568071916716
 20
5635.18991018991
 30
0.0
 10
8605.225513168181
 20
5636.64579897343
 30
0.0
 10
8606.11507538257
 20
5638.022445376305
 30
0.0
 10
8607.282040029115
 20
5639.338715742004
 30
0.0
 10
8608.711425511525
 20
5640.494207003114
 30
0.0
 10
8610.381553268802
 20
5641.42622610045
 30
0.0
 10
8612.196872038774
 20
5642.044368691854
 30
0.0
 10
8614.021877543817
 20
5642.356334598174
 30
0.0
 10
8615.226450756989
 20
5642.30861255655
 30
0.0
 10
8615.7913025711
 20
5642.28623460435
 30
0.0
  0
LINE
  5
AF
330
1F
100
AcDbEntity
  8
0
  6
SLD-Plná
 62
     7
370
    25
100
AcDbLine
 10
8603.9853395732
 20
5631.3745635539
 30
0.0
 11
8603.9853395826
 21
5631.3750145072
 31
0.0
  0
LINE
  5
B0
330
1F
100
AcDbEntity
  8
0
  6
SLD-Plná
 62
     7
370
    25
100
AcDbLine
 10
8604.2643175347
 20
5631.3749939765
 30
0.0
 11
8604.2643175255
 21
5631.3745638146
 31
0.0
  0
LWPOLYLINE
  5
B1
330
1F
100
AcDbEntity
  8
0
  6
SLD-Plná
 62
     7
370
    25
100
AcDbPolyline
 90
        3
 70
   128
 43
0.0
 10
8624.2761631956
 20
5730.9415061256
 10
8624.3605569717
 20
5730.9642487886
 10
8624.6059408351
 20
5731.0346251973
  0
LWPOLYLINE
  5
B2
330
1F
100
AcDbEntity
  8
0
  6
SLD-Plná
 62
     7
370
    25
100
AcDbPolyline
 90
        3
 70
   128
 43
0.0
 10
8605.1177947846
 20
5731.0346251973
 10
8605.3631786479
 20
5730.9642487886
 10
8605.4475724243
 20
5730.9415061255
  0
LWPOLYLINE
  5
B3
330
1F
100
AcDbEntity
  8
0
  6
SLD-Plná
 62
     7
370
    25
100
AcDbPolyline
 90
       12
 70
   128
 43
0.0
 10
8614.8618678098
 20
5730.1976011098
 10
8616.1427013543
 20
5730.1816937171
 10
8617.3974608214
 20
5730.1342953679
 10
8618.6006029269
 20
5730.0563709558
 10
8619.727635167
 20
5729.9495067971
 10
8620.7556144154
 20
5729.815878338
 10
8621.6636139791
 20
5729.6582058684
 10
8622.4331496054
 20
5729.4796991452
 10
8623.0485557681
 20
5729.2839920506
 10
8623.4973045725
 20
5729.0750686165
 10
8623.7702607869
 20
5728.8571819216
 10
8623.8618678099
 20
5728.6347675107
  0
LWPOLYLINE
  5
B4
330
1F
100
AcDbEntity
  8
0
  6
SLD-Plná
 62
     7
370
    25
100
AcDbPolyline
 90
       12
 70
   128
 43
0.0
 10
8605.8618678098
 20
5728.6347675107
 10
8605.9534748328
 20
5728.8571819215
 10
8606.2264310472
 20
5729.0750686164
 10
8606.6751798516
 20
5729.2839920505
 10
8607.2905860143
 20
5729.4796991451
 10
8608.0601216406
 20
5729.6582058683
 10
8608.9681212043
 20
5729.8158783378
 10
8609.9961004527
 20
5729.949506797
 10
8611.1231326928
 20
5730.0563709557
 10
8612.3262747983
 20
5730.1342953678
 10
8613.5810342654
 20
5730.181693717
 10
8614.8618678098
 20
5730.1976011098
  0
LWPOLYLINE
  5
B5
330
1F
100
AcDbEntity
  8
0
  6
SLD-Plná
 62
     7
370
    25
100
AcDbPolyline
 90
       16
 70
   128
 43
0.0
 10
8622.9302483482
 20
5727.9406727364
 10
8623.048555768
 20
5727.983893804
 10
8623.4973045724
 20
5728.192817238
 10
8623.7702607868
 20
5728.4107039329
 10
8623.8618678098
 20
5728.6331183438
 10
8623.7702607868
 20
5728.8555327547
 10
8623.4973045724
 20
5729.0734194496
 10
8623.048555768
 20
5729.2823428837
 10
8622.4331496053
 20
5729.4780499783
 10
8621.663613979
 20
5729.6565567015
 10
8620.7556144154
 20
5729.814229171
 10
8619.7276351669
 20
5729.9478576302
 10
8618.6006029269
 20
5730.0547217889
 10
8617.3974608214
 20
5730.132646201
 10
8616.1427013543
 20
5730.1800445502
 10
8614.8618678098
 20
5730.1959519428
  0
LINE
  5
B6
330
1F
100
AcDbEntity
  8
0
  6
SLD-Plná
 62
     7
370
    25
100
AcDbLine
 10
8614.8618678098
 20
5730.1959519428
 30
0.0
 11
8614.8618678098
 21
5730.1976011098
 31
0.0
  0
LWPOLYLINE
  5
B7
330
1F
100
AcDbEntity
  8
0
  6
SLD-Plná
 62
     7
370
    25
100
AcDbPolyline
 90
       16
 70
   128
 43
0.0
 10
8614.8618678098
 20
5730.1959519428
 10
8613.5810342654
 20
5730.1800445502
 10
8612.3262747983
 20
5730.132646201
 10
8611.1231326928
 20
5730.0547217889
 10
8609.9961004527
 20
5729.9478576302
 10
8608.9681212043
 20
5729.814229171
 10
8608.0601216407
 20
5729.6565567015
 10
8607.2905860144
 20
5729.4780499783
 10
8606.6751798517
 20
5729.2823428837
 10
8606.2264310473
 20
5729.0734194496
 10
8605.9534748329
 20
5728.8555327547
 10
8605.8618678098
 20
5728.6331183438
 10
8605.9534748329
 20
5728.4107039329
 10
8606.2264310473
 20
5728.192817238
 10
8606.6751798517
 20
5727.983893804
 10
8606.7934872715
 20
5727.9406727364
  0
LWPOLYLINE
  5
B8
330
1F
100
AcDbEntity
  8
0
  6
SLD-Plná
 62
     7
370
    25
100
AcDbPolyline
 90
        5
 70
   128
 43
0.0
 10
8622.5451149078
 20
5729.1857545637
 10
8622.9336271657
 20
5728.9807325862
 10
8623.1418296577
 20
5728.767945481
 10
8623.1650714842
 20
5728.5521465604
 10
8623.1634863241
 20
5728.547385539
  0
LWPOLYLINE
  5
B9
330
1F
100
AcDbEntity
  8
0
  6
SLD-Plná
 62
     7
370
    25
100
AcDbPolyline
 90
       20
 70
   128
 43
0.0
 10
8606.5602492956
 20
5728.547385539
 10
8606.5586641355
 20
5728.7140901273
 10
8606.7209021584
 20
5728.9280802721
 10
8607.0649959014
 20
5729.1354814548
 10
8607.5832588789
 20
5729.3316606758
 10
8608.2641139524
 20
5729.5122356154
 10
8609.0923519446
 20
5729.6731725279
 10
8610.0494713874
 20
5729.8108763485
 10
8611.114091814
 20
5729.9222710014
 10
8612.2624313634
 20
5730.0048681143
 10
8613.4688380275
 20
5730.056822604
 10
8614.7063626751
 20
5730.0769738932
 10
8615.9473610504
 20
5730.0648718353
 10
8617.1641113004
 20
5730.0207867703
 10
8618.3294332352
 20
5729.9457034857
 10
8619.4172954884
 20
5729.841299218
 10
8620.4033970149
 20
5729.709906186
 10
8621.265709936
 20
5729.554459493
 10
8621.984971606
 20
5729.3784315612
 10
8622.5451149078
 20
5729.1857545637
  0
ARC
  5
BA
330
1F
100
AcDbEntity
  8
0
  6
SLD-Plná
 62
     7
370
    25
100
AcDbCircle
 10
8614.9343314954
 20
5700.3484683111
 30
0.0
 40
28.1001571511471
100
AcDbArc
 50
75.6825142341
 51
96.0893793923
  0
LWPOLYLINE
  5
BB
330
1F
100
AcDbEntity
  8
0
  6
SLD-Plná
 62
     7
370
    25
100
AcDbPolyline
 90
        9
 70
   128
 43
0.0
 10
8611.9534737238
 20
5728.290073828
 10
8610.890878718
 20
5728.196057371
 10
8609.9260626425
 20
5728.0743334869
 10
8609.0827824712
 20
5727.9278994219
 10
8608.3818025607
 20
5727.7603608686
 10
8607.8403833627
 20
5727.5758431822
 10
8607.4718564147
 20
5727.3788898006
 10
8607.2852960734
 20
5727.1743503696
 10
8607.2819492083
 20
5726.9749316109
  0
ARC
  5
BC
330
1F
100
AcDbEntity
  8
0
  6
SLD-Plná
 62
     7
370
    25
100
AcDbCircle
 10
8613.3348991573
 20
5732.0306965978
 30
0.0
 40
9.639593837326881
100
AcDbArc
 50
332.4746385596
 51
342.8346129455
  0
LWPOLYLINE
  5
BD
330
1F
100
AcDbEntity
  8
0
  6
SLD-Plná
 62
     7
370
    25
100
AcDbPolyline
 90
        4
 70
   128
 43
0.0
 10
8622.4417864114
 20
5726.9749316109
 10
8622.4384395463
 20
5727.1743503696
 10
8622.251879205
 20
5727.3788898005
 10
8621.8833522568
 20
5727.5758431823
  0
LWPOLYLINE
  5
BE
330
1F
100
AcDbEntity
  8
0
  6
SLD-Plná
 62
     7
370
    25
100
AcDbPolyline
 90
       16
 70
   128
 43
0.0
 10
8612.1350549068
 20
5727.0797672281
 10
8613.1984515853
 20
5727.1397658904
 10
8614.3028070917
 20
5727.170139167
 10
8615.4209285284
 20
5727.170139167
 10
8616.5252840348
 20
5727.1397658904
 10
8617.5886807132
 20
5727.0797672281
 10
8618.5849342081
 20
5726.9916205462
 10
8619.4895134522
 20
5726.8774963086
 10
8620.2801447023
 20
5726.7402046328
 10
8620.937359993
 20
5726.5831260956
 10
8621.4449765028
 20
5726.4101284917
 10
8621.7904950285
 20
5726.2254715963
 10
8621.9654077573
 20
5726.0337022752
 10
8621.9654077572
 20
5725.8395425253
 10
8621.7904950284
 20
5725.6477732041
 10
8621.6891410088
 20
5725.5823984475
  0
LINE
  5
BF
330
1F
100
AcDbEntity
  8
0
  6
SLD-Plná
 62
     7
370
    25
100
AcDbLine
 10
8611.9534737238
 20
5728.290073828
 30
0.0
 11
8612.1350549068
 21
5727.0797672281
 31
0.0
  0
LWPOLYLINE
  5
C0
330
1F
100
AcDbEntity
  8
0
  6
SLD-Plná
 62
     7
370
    25
100
AcDbPolyline
 90
       21
 70
   128
 43
0.0
 10
8617.5532977708
 20
5724.7473451783
 10
8618.5366239471
 20
5724.8343480747
 10
8619.4294654315
 20
5724.9469914438
 10
8620.2098375034
 20
5725.082501632
 10
8620.8585248126
 20
5725.2375419287
 10
8621.3595545246
 20
5725.4082947272
 10
8621.7005896251
 20
5725.590555527
 10
8621.8732326981
 20
5725.7798364623
 10
8621.8732326981
 20
5725.9714768083
 10
8621.7005896252
 20
5726.1607577436
 10
8621.3595545248
 20
5726.3430185434
 10
8620.8585248129
 20
5726.513771342
 10
8620.2098375039
 20
5726.6688116387
 10
8619.429465432
 20
5726.8043218269
 10
8618.5366239478
 20
5726.916965196
 10
8617.5532977715
 20
5727.0039680924
 10
8616.5036996573
 20
5727.0631882162
 10
8615.4136741941
 20
5727.0931673712
 10
8614.3100614263
 20
5727.0931673712
 10
8613.2200359631
 20
5727.0631882162
 10
8612.1704378488
 20
5727.0039680925
  0
ARC
  5
C1
330
1F
100
AcDbEntity
  8
0
  6
SLD-Plná
 62
     7
370
    25
100
AcDbCircle
 10
8612.2374846168
 20
5727.0814233646
 30
0.0
 40
0.1024430977163958
100
AcDbArc
 50
180.9263070576
 51
229.1199084665
  0
LWPOLYLINE
  5
C2
330
1F
100
AcDbEntity
  8
0
  6
SLD-Plná
 62
     7
370
    25
100
AcDbPolyline
 90
       21
 70
   128
 43
0.0
 10
8612.1704378488
 20
5727.0039680925
 10
8611.1871116726
 20
5726.9169651961
 10
8610.2942701882
 20
5726.804321827
 10
8609.5138981163
 20
5726.6688116388
 10
8608.8652108071
 20
5726.5137713421
 10
8608.3641810951
 20
5726.3430185435
 10
8608.0231459946
 20
5726.1607577437
 10
8607.8505029216
 20
5725.9714768084
 10
8607.8505029216
 20
5725.7798364625
 10
8608.0231459945
 20
5725.5905555272
 10
8608.3641810948
 20
5725.4082947273
 10
8608.8652108067
 20
5725.2375419288
 10
8609.5138981158
 20
5725.0825016321
 10
8610.2942701877
 20
5724.9469914439
 10
8611.1871116719
 20
5724.8343480748
 10
8612.1704378482
 20
5724.7473451783
 10
8613.2200359624
 20
5724.6881250546
 10
8614.3100614256
 20
5724.6581458996
 10
8615.4136741933
 20
5724.6581458996
 10
8616.5036996566
 20
5724.6881250546
 10
8617.5532977708
 20
5724.7473451783
  0
LWPOLYLINE
  5
C3
330
1F
100
AcDbEntity
  8
0
  6
SLD-Plná
 62
     7
370
    25
100
AcDbPolyline
 90
       20
 70
   128
 43
0.0
 10
8617.3780113778
 20
5724.8208294038
 10
8618.3435256024
 20
5724.9071311572
 10
8619.2140692783
 20
5725.0198517609
 10
8619.9658962435
 20
5725.1559164907
 10
8620.5784986183
 20
5725.3116138554
 10
8621.0351662068
 20
5725.4826968368
 10
8621.3234423075
 20
5725.6644987371
 10
8621.4354635001
 20
5725.8520604744
 10
8621.3681741383
 20
5726.0402658535
 10
8621.1234097005
 20
5726.2239811222
 10
8620.7078467226
 20
5726.398195007
 10
8620.1328206793
 20
5726.5581554071
 10
8619.414016782
 20
5726.6994990199
 10
8618.5710421273
 20
5726.81837036
 10
8617.6268908664
 20
5726.9115269272
 10
8616.6073169844
 20
5726.9764276531
 10
8615.5401317989
 20
5727.0113022151
 10
8614.4544453399
 20
5727.0151993262
 10
8613.3798723038
 20
5726.9880126832
 10
8612.3457242418
 20
5726.930483867
  0
LWPOLYLINE
  5
C4
330
1F
100
AcDbEntity
  8
0
  6
SLD-Plná
 62
     7
370
    25
100
AcDbPolyline
 90
       20
 70
   128
 43
0.0
 10
8612.3457242418
 20
5726.930483867
 10
8611.3802100173
 20
5726.8441821135
 10
8610.5096663414
 20
5726.7314615098
 10
8609.7578393762
 20
5726.5953967801
 10
8609.1452370014
 20
5726.4396994154
 10
8608.6885694129
 20
5726.268616434
 10
8608.4002933122
 20
5726.0868145337
 10
8608.2882721196
 20
5725.8992527963
 10
8608.3555614814
 20
5725.7110474173
 10
8608.6003259192
 20
5725.5273321485
 10
8609.0158888971
 20
5725.3531182638
 10
8609.5909149404
 20
5725.1931578637
 10
8610.3097188377
 20
5725.0518142509
 10
8611.1526934923
 20
5724.9329429108
 10
8612.0968447533
 20
5724.8397863436
 10
8613.1164186353
 20
5724.7748856177
 10
8614.1836038208
 20
5724.7400110556
 10
8615.2692902798
 20
5724.7361139445
 10
8616.3438633159
 20
5724.7633005875
 10
8617.3780113778
 20
5724.8208294038
  0
LWPOLYLINE
  5
C5
330
1F
100
AcDbEntity
  8
0
  6
SLD-Plná
 62
     7
370
    25
100
AcDbPolyline
 90
       11
 70
   128
 43
0.0
 10
8608.0345945152
 20
5725.5823985031
 10
8607.9332405912
 20
5725.6477732041
 10
8607.7583278624
 20
5725.8395425253
 10
8607.7583278624
 20
5726.0337022752
 10
8607.9332405913
 20
5726.2254715964
 10
8608.278759117
 20
5726.4101284918
 10
8608.7863756269
 20
5726.5831260957
 10
8609.4435909177
 20
5726.7402046329
 10
8610.2342221678
 20
5726.8774963087
 10
8611.1388014119
 20
5726.9916205463
 10
8612.1350549068
 20
5727.0797672281
  0
LINE
  5
C6
330
1F
100
AcDbEntity
  8
0
  6
SLD-Plná
 62
     7
370
    25
100
AcDbLine
 10
8620.1838611323
 20
5725.6612782546
 30
0.0
 11
8620.1708092389
 21
5725.6583245759
 31
0.0
  0
SPLINE
  5
C7
330
1F
100
AcDbEntity
  8
0
  6
SLD-Plná
 62
     7
370
    25
100
AcDbSpline
210
0.0
220
0.0
230
1.0
 70
     8
 71
     3
 72
    11
 73
     7
 74
     0
 42
0.00000001
 43
0.00000001
 40
0.0
 40
0.0
 40
0.0
 40
0.0
 40
0.2500000000002905
 40
0.5000000000001203
 40
0.7499999999998836
 40
1.0
 40
1.0
 40
1.0
 40
1.0
 10
8620.183854328277
 20
5725.661279161143
 30
0.0
 10
8620.19119707913
 20
5725.664233124377
 30
0.0
 10
8620.205882580836
 20
5725.670141050843
 30
0.0
 10
8620.224852618447
 20
5725.694234297946
 30
0.0
 10
8620.238958999185
 20
5725.726039675188
 30
0.0
 10
8620.242073340973
 20
5725.750295584138
 30
0.0
 10
8620.243630511868
 20
5725.762423538614
 30
0.0
  0
LWPOLYLINE
  5
C8
330
1F
100
AcDbEntity
  8
0
  6
SLD-Plná
 62
     7
370
    25
100
AcDbPolyline
 90
        3
 70
   128
 43
0.0
 10
8620.2436305118
 20
5725.7624235386
 10
8620.249995189
 20
5725.8566051617
 10
8620.2549863728
 20
5725.9306043818
  0
LWPOLYLINE
  5
C9
330
1F
100
AcDbEntity
  8
0
  6
SLD-Plná
 62
     7
370
    25
100
AcDbPolyline
 90
        3
 70
   128
 43
0.0
 10
8620.2549863728
 20
5725.9306043818
 10
8620.3646382125
 20
5725.9572105526
 10
8620.4017185587
 20
5725.9665778377
  0
LINE
  5
CA
330
1F
100
AcDbEntity
  8
0
  6
SLD-Plná
 62
     7
370
    25
100
AcDbLine
 10
8621.0493403205
 20
5725.9217736376
 30
0.0
 11
8621.0543810353
 21
5725.9238868254
 31
0.0
  0
SPLINE
  5
CB
330
1F
100
AcDbEntity
  8
0
  6
SLD-Plná
 62
     7
370
    25
100
AcDbSpline
210
0.0
220
0.0
230
1.0
 70
     8
 71
     3
 72
    11
 73
     7
 74
     0
 42
0.00000001
 43
0.00000001
 40
0.0
 40
0.0
 40
0.0
 40
0.0
 40
0.2499999999997818
 40
0.4999999999998328
 40
0.7499999999997443
 40
1.0
 40
1.0
 40
1.0
 40
1.0
 10
8621.091780820369
 20
5726.0317304922
 30
0.0
 10
8621.090994951739
 20
5726.019144876463
 30
0.0
 10
8621.089423214478
 20
5725.99397364499
 30
0.0
 10
8621.080669661858
 20
5725.960080733009
 30
0.0
 10
8621.06857507157
 20
5725.933991277515
 30
0.0
 10
8621.059110386683
 20
5725.927255119082
 30
0.0
 10
8621.054378044237
 20
5725.923887039868
 30
0.0
  0
LWPOLYLINE
  5
CC
330
1F
100
AcDbEntity
  8
0
  6
SLD-Plná
 62
     7
370
    25
100
AcDbPolyline
 90
        3
 70
   128
 43
0.0
 10
8621.0958767518
 20
5726.1946254685
 10
8621.0935851584
 20
5726.1034046863
 10
8621.0917808198
 20
5726.0317304922
  0
LINE
  5
CD
330
1F
100
AcDbEntity
  8
0
  6
SLD-Plná
 62
     7
370
    25
100
AcDbLine
 10
8621.0958767518
 20
5726.1946254685
 30
0.0
 11
8621.1531742113
 21
5726.2208106632
 31
0.0
  0
ARC
  5
CE
330
1F
100
AcDbEntity
  8
0
  6
SLD-Plná
 62
     7
370
    25
100
AcDbCircle
 10
8618.9615629365
 20
5730.6441078067
 30
0.0
 40
5.194252639276544
100
AcDbArc
 50
275.7091354959
 51
297.5962458233
  0
LWPOLYLINE
  5
CF
330
1F
100
AcDbEntity
  8
0
  6
SLD-Plná
 62
     7
370
    25
100
AcDbPolyline
 90
        8
 70
   128
 43
0.0
 10
8617.3780113778
 20
5724.9257757601
 10
8618.3435256024
 20
5725.0120775135
 10
8619.2140692784
 20
5725.1247981172
 10
8619.9658962437
 20
5725.2608628469
 10
8620.5784986186
 20
5725.4165602116
 10
8621.0351662071
 20
5725.5876431929
 10
8621.3234423079
 20
5725.7694450932
 10
8621.4299201584
 20
5725.9281298125
  0
LINE
  5
D0
330
1F
100
AcDbEntity
  8
0
  6
SLD-Plná
 62
     7
370
    25
100
AcDbLine
 10
8617.3780113778
 20
5724.9257757601
 30
0.0
 11
8617.3780113778
 21
5724.8208294038
 31
0.0
  0
ARC
  5
D1
330
1F
100
AcDbEntity
  8
0
  6
SLD-Plná
 62
     7
370
    25
100
AcDbCircle
 10
8610.4975661754
 20
5729.9546257019
 30
0.0
 40
4.461442133844173
100
AcDbArc
 50
241.3134808981
 51
263.0797105681
  0
LWPOLYLINE
  5
D2
330
1F
100
AcDbEntity
  8
0
  6
SLD-Plná
 62
     7
370
    25
100
AcDbPolyline
 90
       13
 70
   128
 43
0.0
 10
8608.2938154613
 20
5725.9281298125
 10
8608.355561481
 20
5725.8159937732
 10
8608.6003259188
 20
5725.6322785044
 10
8609.0158888967
 20
5725.4580646196
 10
8609.5909149401
 20
5725.2981042194
 10
8610.3097188374
 20
5725.1567606066
 10
8611.1526934921
 20
5725.0378892664
 10
8612.0968447531
 20
5724.9447326991
 10
8613.1164186352
 20
5724.8798319732
 10
8614.1836038207
 20
5724.8449574111
 10
8615.2692902797
 20
5724.8410603
 10
8616.3438633159
 20
5724.868246943
 10
8617.3780113778
 20
5724.9257757601
  0
LINE
  5
D3
330
1F
100
AcDbEntity
  8
0
  6
SLD-Plná
 62
     7
370
    25
100
AcDbLine
 10
8608.5691058409
 20
5726.2215014489
 30
0.0
 11
8608.6235908718
 21
5726.1965122303
 31
0.0
  0
LWPOLYLINE
  5
D4
330
1F
100
AcDbEntity
  8
0
  6
SLD-Plná
 62
     7
370
    25
100
AcDbPolyline
 90
        3
 70
   128
 43
0.0
 10
8608.6235908718
 20
5726.1965122303
 10
8608.6275010377
 20
5726.10209665
 10
8608.6305844598
 20
5726.0279118961
  0
SPLINE
  5
D5
330
1F
100
AcDbEntity
  8
0
  6
SLD-Plná
 62
     7
370
    25
100
AcDbSpline
210
0.0
220
0.0
230
1.0
 70
     8
 71
     3
 72
    11
 73
     7
 74
     0
 42
0.00000001
 43
0.00000001
 40
0.0
 40
0.0
 40
0.0
 40
0.0
 40
0.249999999999773
 40
0.4999999999996336
 40
0.7499999999993353
 40
1.0
 40
1.0
 40
1.0
 40
1.0
 10
8608.630584459335
 20
5726.027911896158
 30
0.0
 10
8608.631531600015
 20
5726.015726691258
 30
0.0
 10
8608.633425881371
 20
5725.99135628146
 30
0.0
 10
8608.64219830835
 20
5725.959027869109
 30
0.0
 10
8608.65402815747
 20
5725.934230499218
 30
0.0
 10
8608.663196373285
 20
5725.927777245326
 30
0.0
 10
8608.667780481193
 20
5725.924550618381
 30
0.0
  0
ARC
  5
D6
330
1F
100
AcDbEntity
  8
0
  6
SLD-Plná
 62
     7
370
    25
100
AcDbCircle
 10
8609.7326052092
 20
5728.4530638234
 30
0.0
 40
2.743579911250967
100
AcDbArc
 50
247.1627352869
 51
247.2554836621
  0
LINE
  5
D7
330
1F
100
AcDbEntity
  8
0
  6
SLD-Plná
 62
     7
370
    25
100
AcDbLine
 10
8608.6759773208
 20
5725.9211104167
 30
0.0
 11
8608.6718749418
 21
5725.9228302315
 31
0.0
  0
LWPOLYLINE
  5
D8
330
1F
100
AcDbEntity
  8
0
  6
SLD-Plná
 62
     7
370
    25
100
AcDbPolyline
 90
        3
 70
   128
 43
0.0
 10
8609.3243929734
 20
5725.9659717165
 10
8609.3657653634
 20
5725.9555466834
 10
8609.4756839948
 20
5725.9289737285
  0
LWPOLYLINE
  5
D9
330
1F
100
AcDbEntity
  8
0
  6
SLD-Plná
 62
     7
370
    25
100
AcDbPolyline
 90
        3
 70
   128
 43
0.0
 10
8609.4823257148
 20
5725.766324228
 10
8609.4786045128
 20
5725.8574082656
 10
8609.4756839948
 20
5725.9289737285
  0
SPLINE
  5
DA
330
1F
100
AcDbEntity
  8
0
  6
SLD-Plná
 62
     7
370
    25
100
AcDbSpline
210
0.0
220
0.0
230
1.0
 70
     8
 71
     3
 72
    11
 73
     7
 74
     0
 42
0.00000001
 43
0.00000001
 40
0.0
 40
0.0
 40
0.0
 40
0.0
 40
0.2500000000001371
 40
0.4999999999997874
 40
0.7499999999994994
 40
1.0
 40
1.0
 40
1.0
 40
1.0
 10
8609.542392403888
 20
5725.660708904867
 30
0.0
 10
8609.534817045453
 20
5725.663795627047
 30
0.0
 10
8609.51966632858
 20
5725.669969071407
 30
0.0
 10
8609.500284747699
 20
5725.69533897871
 30
0.0
 10
8609.486217990127
 20
5725.728710225687
 30
0.0
 10
8609.48362313953
 20
5725.753786227139
 30
0.0
 10
8609.48232571423
 20
5725.766324227866
 30
0.0
  0
LINE
  5
DB
330
1F
100
AcDbEntity
  8
0
  6
SLD-Plná
 62
     7
370
    25
100
AcDbLine
 10
8609.5423911198
 20
5725.6607087339
 30
0.0
 11
8609.5504097399
 21
5725.6588940986
 31
0.0
  0
LWPOLYLINE
  5
DC
330
1F
100
AcDbEntity
  8
0
  6
SLD-Plná
 62
     7
370
    25
100
AcDbPolyline
 90
       13
 70
   128
 43
0.0
 10
8620.0698992661
 20
5725.6967724448
 10
8620.1580614211
 20
5725.8118211286
 10
8620.1354325616
 20
5725.9818977713
 10
8619.9332187794
 20
5726.1483564995
 10
8619.5583062224
 20
5726.3055287609
 10
8619.023462088
 20
5726.4480622427
 10
8618.3468998517
 20
5726.571103138
 10
8617.5516590291
 20
5726.6704614368
 10
8616.6648205926
 20
5726.7427536113
 10
8615.7165847614
 20
5726.7855178383
 10
8614.7392425696
 20
5726.7972978333
 10
8613.7660762333
 20
5726.7776924427
 10
8612.8302257648
 20
5726.7273693045
  0
ARC
  5
DD
330
1F
100
AcDbEntity
  8
0
  6
SLD-Plná
 62
     7
370
    25
100
AcDbCircle
 10
8612.9225303966
 20
5726.8203070705
 30
0.0
 40
0.1309869206935939
100
AcDbArc
 50
174.6014299911
 51
225.1958287276
  0
LWPOLYLINE
  5
DE
330
1F
100
AcDbEntity
  8
0
  6
SLD-Plná
 62
     7
370
    25
100
AcDbPolyline
 90
       14
 70
   128
 43
0.0
 10
8620.0895236533
 20
5725.7241128461
 10
8620.0967012079
 20
5725.7288608333
 10
8620.2573858646
 20
5725.8999124717
 10
8620.2343326252
 20
5726.0731787199
 10
8620.02832654
 20
5726.2427592035
 10
8619.6463828993
 20
5726.4028790625
 10
8619.1015083356
 20
5726.5480856072
 10
8618.4122578986
 20
5726.6734340029
 10
8617.6021031855
 20
5726.7746556603
 10
8616.6986330431
 20
5726.8483035972
 10
8615.7326140637
 20
5726.8918698216
 10
8614.736942865
 20
5726.9038707378
 10
8613.7455258354
 20
5726.883897669
 10
8612.7921244928
 20
5726.832630774
  0
ARC
  5
DF
330
1F
100
AcDbEntity
  8
0
  6
SLD-Plná
 62
     7
370
    25
100
AcDbCircle
 10
8620.0100728766
 20
5726.300410903
 30
0.0
 40
0.3163250893284198
100
AcDbArc
 50
36.9100924092
 51
37.4255521642
  0
LWPOLYLINE
  5
E0
330
1F
100
AcDbEntity
  8
0
  6
SLD-Plná
 62
     7
370
    25
100
AcDbPolyline
 90
       18
 70
   128
 43
0.0
 10
8612.8302257648
 20
5726.7273693045
 10
8611.9635604296
 20
5726.6480421129
 10
8611.195593476
 20
5726.5424122602
 10
8610.5524770976
 20
5726.4140768444
 10
8610.0561118514
 20
5726.2674061742
 10
8609.7234008605
 20
5726.1073949432
 10
8609.5656741986
 20
5725.9394921422
 10
8609.5883030581
 20
5725.7694154995
 10
8609.7905168403
 20
5725.6029567713
 10
8610.1654293973
 20
5725.4457845098
 10
8610.7002735317
 20
5725.3032510281
 10
8611.376835768
 20
5725.1802101327
 10
8612.1720765906
 20
5725.0808518339
 10
8613.0589150271
 20
5725.0085596594
 10
8614.0071508583
 20
5724.9657954324
 10
8614.9844930501
 20
5724.9540154375
 10
8615.9576593864
 20
5724.9736208281
 10
8616.8935098548
 20
5725.0239439663
  0
LWPOLYLINE
  5
E1
330
1F
100
AcDbEntity
  8
0
  6
SLD-Plná
 62
     7
370
    25
100
AcDbPolyline
 90
       13
 70
   128
 43
0.0
 10
8620.0618411844
 20
5725.6976967417
 10
8620.1491463632
 20
5725.8119285827
 10
8620.1265555947
 20
5725.9817189362
 10
8619.9246821979
 20
5726.1478974652
 10
8619.5504007293
 20
5726.3048051593
 10
8619.0164568955
 20
5726.4470987151
 10
8618.3410335132
 20
5726.5699324963
 10
8617.5471313157
 20
5726.6691235457
 10
8616.6617856901
 20
5726.7412940311
 10
8615.7151460198
 20
5726.7839862732
 10
8614.7394489835
 20
5726.795746439
 10
8613.7679207736
 20
5726.77617405
 10
8612.8336456178
 20
5726.7259356205
  0
LWPOLYLINE
  5
E2
330
1F
100
AcDbEntity
  8
0
  6
SLD-Plná
 62
     7
370
    25
100
AcDbPolyline
 90
       18
 70
   128
 43
0.0
 10
8612.8336456178
 20
5726.7259356205
 10
8611.9684391363
 20
5726.64674196
 10
8611.201764898
 20
5726.5412899135
 10
8610.5597310745
 20
5726.4131705241
 10
8610.0642013576
 20
5726.2667467439
 10
8609.7320504177
 20
5726.1070048591
 10
8609.5745892565
 20
5725.9393846881
 10
8609.597180025
 20
5725.7695943346
 10
8609.7990534218
 20
5725.6034158056
 10
8610.1733348903
 20
5725.4465081115
 10
8610.7072787242
 20
5725.3042145557
 10
8611.3827021065
 20
5725.1813807745
 10
8612.176604304
 20
5725.0821897251
 10
8613.0619499296
 20
5725.0100192397
 10
8614.0085895999
 20
5724.9673269975
 10
8614.9842866362
 20
5724.9555668318
 10
8615.9558148461
 20
5724.9751392208
 10
8616.8900900018
 20
5725.0253776502
  0
LWPOLYLINE
  5
E3
330
1F
100
AcDbEntity
  8
0
  6
SLD-Plná
 62
     7
370
    25
100
AcDbPolyline
 90
        9
 70
   128
 43
0.0
 10
8616.8518216578
 20
5725.1399014252
 10
8617.7007034889
 20
5725.2176008657
 10
8618.4529121756
 20
5725.3210632509
 10
8619.0828321535
 20
5725.4467652933
 10
8619.5690122531
 20
5725.5904263607
 10
8619.8948961944
 20
5725.7471542476
 10
8620.0493863904
 20
5725.9116117739
 10
8620.0272218629
 20
5726.0781985358
 10
8620.0220654219
 20
5726.0856461264
  0
ARC
  5
E4
330
1F
100
AcDbEntity
  8
0
  6
SLD-Plná
 62
     7
370
    25
100
AcDbCircle
 10
8616.9899425485
 20
5725.1223991831
 30
0.0
 40
0.1392253889383113
100
AcDbArc
 50
172.7781501595
 51
224.1761537908
  0
ARC
  5
E5
330
1F
100
AcDbEntity
  8
0
  6
SLD-Plná
 62
     7
370
    25
100
AcDbCircle
 10
8617.3801564741
 20
5732.9200944573
 30
0.0
 40
7.28130904886884
100
AcDbArc
 50
282.6987564367
 51
282.8040574057
  0
SPLINE
  5
E6
330
1F
100
AcDbEntity
  8
0
  6
SLD-Plná
 62
     7
370
    25
100
AcDbSpline
210
0.0
220
0.0
230
1.0
 70
     8
 71
     3
 72
    11
 73
     7
 74
     0
 42
0.00000001
 43
0.00000001
 40
0.0
 40
0.0
 40
0.0
 40
0.0
 40
0.2499999999999269
 40
0.5000000000000218
 40
0.7500000000001249
 40
1.0
 40
1.0
 40
1.0
 40
1.0
 10
8619.053393493092
 20
5725.921016590502
 30
0.0
 10
8619.051853409534
 20
5725.908886360467
 30
0.0
 10
8619.048773242417
 20
5725.884625900393
 30
0.0
 10
8619.03471812541
 20
5725.852813695122
 30
0.0
 10
8619.015799352144
 20
5725.828713617768
 30
0.0
 10
8619.001148026337
 20
5725.822801135289
 30
0.0
 10
8618.993822363433
 20
5725.819844894049
 30
0.0
  0
SPLINE
  5
E7
330
1F
100
AcDbEntity
  8
0
  6
SLD-Plná
 62
     7
370
    25
100
AcDbSpline
210
0.0
220
0.0
230
1.0
 70
     8
 71
     3
 72
     9
 73
     5
 74
     0
 42
0.00000001
 43
0.00000001
 40
0.0
 40
0.0
 40
0.0
 40
0.0
 40
0.559989766753211
 40
1.0
 40
1.0
 40
1.0
 40
1.0
 10
8619.064671264849
 20
5726.089207838849
 30
0.0
 10
8619.06256986272
 20
5726.05781222632
 30
0.0
 10
8619.058817290339
 20
5726.001747608014
 30
0.0
 10
8619.05505079107
 20
5725.945684799799
 30
0.0
 10
8619.053393492848
 20
5725.921016590481
 30
0.0
  0
ARC
  5
E8
330
1F
100
AcDbEntity
  8
0
  6
SLD-Plná
 62
     7
370
    25
100
AcDbCircle
 10
8618.1498002491
 20
5730.1279448498
 30
0.0
 40
4.141060929160593
100
AcDbArc
 50
282.7634696431
 51
290.7661206605
  0
LWPOLYLINE
  5
E9
330
1F
100
AcDbEntity
  8
0
  6
SLD-Plná
 62
     7
370
    25
100
AcDbPolyline
 90
        9
 70
   128
 43
0.0
 10
8612.7921244928
 20
5726.832630774
 10
8611.9092057766
 20
5726.7518158858
 10
8611.1268364245
 20
5726.6442050583
 10
8610.4716590867
 20
5726.5134628492
 10
8609.9659850414
 20
5726.3640415275
 10
8609.6270344118
 20
5726.2010294572
 10
8609.4663497551
 20
5726.0299778188
 10
8609.4894029945
 20
5725.8567115707
 10
8609.6106201041
 20
5725.7401214451
  0
ARC
  5
EA
330
1F
100
AcDbEntity
  8
0
  6
SLD-Plná
 62
     7
370
    25
100
AcDbCircle
 10
8609.7136664258
 20
5726.3004128982
 30
0.0
 40
0.3163268188214619
100
AcDbArc
 50
142.4126710615
 51
143.2516843131
  0
LWPOLYLINE
  5
EB
330
1F
100
AcDbEntity
  8
0
  6
SLD-Plná
 62
     7
370
    25
100
AcDbPolyline
 90
       13
 70
   128
 43
0.0
 10
8609.7016699775
 20
5726.085645819
 10
8609.6743492293
 20
5726.0366630474
 10
8609.6965137568
 20
5725.8700762855
 10
8609.8945782214
 20
5725.7070332004
 10
8610.2617977753
 20
5725.5530860289
 10
8610.7856671971
 20
5725.4134772571
 10
8611.4483467419
 20
5725.2929610945
 10
8612.2272696525
 20
5725.1956415743
 10
8613.0959106436
 20
5725.1248327961
 10
8614.024689188
 20
5725.0829460679
 10
8614.9819768462
 20
5725.0714077921
 10
8615.9351743352
 20
5725.0906108907
 10
8616.8518216578
 20
5725.1399014252
  0
SPLINE
  5
EC
330
1F
100
AcDbEntity
  8
0
  6
SLD-Plná
 62
     7
370
    25
100
AcDbSpline
210
0.0
220
0.0
230
1.0
 70
     8
 71
     3
 72
    11
 73
     7
 74
     0
 42
0.00000001
 43
0.00000001
 40
0.0
 40
0.0
 40
0.0
 40
0.0
 40
0.2500000000002252
 40
0.5000000000001474
 40
0.749999999999849
 40
1.0
 40
1.0
 40
1.0
 40
1.0
 10
8610.016644823954
 20
5726.127607656487
 30
0.0
 10
8610.017572066283
 20
5726.115421020368
 30
0.0
 10
8610.019426550945
 20
5726.091047748132
 30
0.0
 10
8610.02813928286
 20
5726.058715042088
 30
0.0
 10
8610.039909436919
 20
5726.033913378461
 30
0.0
 10
8610.049037856035
 20
5726.027457262036
 30
0.0
 10
8610.053602065593
 20
5726.024229203823
 30
0.0
  0
ARC
  5
ED
330
1F
100
AcDbEntity
  8
0
  6
SLD-Plná
 62
     7
370
    25
100
AcDbCircle
 10
8610.8849034129
 20
5727.9956773984
 30
0.0
 40
2.139548997806885
100
AcDbArc
 50
247.1362871273
 51
247.374532383
  0
LWPOLYLINE
  5
EE
330
1F
100
AcDbEntity
  8
0
  6
SLD-Plná
 62
     7
370
    25
100
AcDbPolyline
 90
        3
 70
   128
 43
0.0
 10
8611.0392971881
 20
5726.0087683614
 10
8610.9310807455
 20
5726.0297938657
 10
8610.7488953705
 20
5726.0684325134
  0
LWPOLYLINE
  5
EF
330
1F
100
AcDbEntity
  8
0
  6
SLD-Plná
 62
     7
370
    25
100
AcDbPolyline
 90
       11
 70
   128
 43
0.0
 10
8618.5388773352
 20
5725.7843541945
 10
8618.5704360109
 20
5725.8394911511
 10
8618.5237986141
 20
5725.9836982859
 10
8618.2935367158
 20
5726.1224877613
 10
8617.8911966093
 20
5726.2489000932
 10
8617.3369533073
 20
5726.3565964397
 10
8616.6585988835
 20
5726.4401764562
 10
8615.8901488611
 20
5726.4954490916
 10
8615.0701365331
 20
5726.5196427452
 10
8614.2396807417
 20
5726.5115442463
 10
8613.4404240078
 20
5726.4715596873
  0
ARC
  5
F0
330
1F
100
AcDbEntity
  8
0
  6
SLD-Plná
 62
     7
370
    25
100
AcDbCircle
 10
8613.5275905514
 20
5726.5615816384
 30
0.0
 40
0.1253074539308258
100
AcDbArc
 50
175.8325260572
 51
225.923246401
  0
LWPOLYLINE
  5
F1
330
1F
100
AcDbEntity
  8
0
  6
SLD-Plná
 62
     7
370
    25
100
AcDbPolyline
 90
       10
 70
   128
 43
0.0
 10
8618.6736331632
 20
5725.9406910956
 10
8618.6212038576
 20
5726.0698497519
 10
8618.3848171259
 20
5726.2123309471
 10
8617.9717750049
 20
5726.342105774
 10
8617.4027891513
 20
5726.4526667811
 10
8616.7063908917
 20
5726.5384699777
 10
8615.9175005428
 20
5726.5952128333
 10
8615.0756763606
 20
5726.6200500241
 10
8614.223130925
 20
5726.6117361097
 10
8613.4026144238
 20
5726.5706879846
  0
LWPOLYLINE
  5
F2
330
1F
100
AcDbEntity
  8
0
  6
SLD-Plná
 62
     7
370
    25
100
AcDbPolyline
 90
       10
 70
   128
 43
0.0
 10
8611.1484136267
 20
5725.8903008455
 10
8611.1999370056
 20
5725.7676149848
 10
8611.4301989038
 20
5725.6288255095
 10
8611.8325390104
 20
5725.5024131775
 10
8612.3867823124
 20
5725.394716831
 10
8613.0651367362
 20
5725.3111368146
 10
8613.8335867586
 20
5725.2558641792
 10
8614.6535990866
 20
5725.2316705255
 10
8615.484054878
 20
5725.2397690245
 10
8616.2833116118
 20
5725.2797535835
  0
LWPOLYLINE
  5
F3
330
1F
100
AcDbEntity
  8
0
  6
SLD-Plná
 62
     7
370
    25
100
AcDbPolyline
 90
       11
 70
   128
 43
0.0
 10
8618.5240893865
 20
5725.78407749
 10
8618.5560470253
 20
5725.8396314708
 10
8618.5095905781
 20
5725.983279092
 10
8618.2802220798
 20
5726.1215300738
 10
8617.8794430247
 20
5726.2474519348
 10
8617.3273501479
 20
5726.354730427
 10
8616.6516276918
 20
5726.4379861588
 10
8615.8861592017
 20
5726.4930443402
 10
8615.0693284643
 20
5726.5171441241
 10
8614.2420947833
 20
5726.5090770467
 10
8613.4459391098
 20
5726.469247625
  0
LWPOLYLINE
  5
F4
330
1F
100
AcDbEntity
  8
0
  6
SLD-Plná
 62
     7
370
    25
100
AcDbPolyline
 90
       10
 70
   128
 43
0.0
 10
8611.1627771203
 20
5725.8899000954
 10
8611.2141450416
 20
5725.7680341788
 10
8611.4435135398
 20
5725.6297831969
 10
8611.844292595
 20
5725.503861336
 10
8612.3963854718
 20
5725.3965828438
 10
8613.0721079279
 20
5725.313327112
 10
8613.837576418
 20
5725.2582689306
 10
8614.6544071554
 20
5725.2341691466
 10
8615.4816408364
 20
5725.242236224
 10
8616.2777965098
 20
5725.2820656458
  0
LWPOLYLINE
  5
F5
330
1F
100
AcDbEntity
  8
0
  6
SLD-Plná
 62
     7
370
    25
100
AcDbPolyline
 90
        7
 70
   128
 43
0.0
 10
8616.2395281668
 20
5725.3965894208
 10
8616.9450844766
 20
5725.4643030395
 10
8617.5461796038
 20
5725.5575818825
 10
8618.0126721291
 20
5725.671748559
 10
8618.3211701691
 20
5725.8010782753
 10
8618.4562043441
 20
5725.9390858992
 10
8618.4438196683
 20
5726.0366557911
  0
LWPOLYLINE
  5
F6
330
1F
100
AcDbEntity
  8
0
  6
SLD-Plná
 62
     7
370
    25
100
AcDbPolyline
 90
        3
 70
   128
 43
0.0
 10
8613.4459391098
 20
5726.469247625
 10
8613.4534048932
 20
5726.4680100715
 10
8613.4600219706
 20
5726.4702546774
  0
ARC
  5
F7
330
1F
100
AcDbEntity
  8
0
  6
SLD-Plná
 62
     7
370
    25
100
AcDbCircle
 10
8616.3776490527
 20
5725.3790871762
 30
0.0
 40
0.1392253844327922
100
AcDbArc
 50
172.7781488886
 51
224.1761541609
  0
ARC
  5
F8
330
1F
100
AcDbEntity
  8
0
  6
SLD-Plná
 62
     7
370
    25
100
AcDbCircle
 10
8616.6052949897
 20
5730.9040709285
 30
0.0
 40
5.040894261211842
100
AcDbArc
 50
282.6753560379
 51
282.8274578168
  0
SPLINE
  5
F9
330
1F
100
AcDbEntity
  8
0
  6
SLD-Plná
 62
     7
370
    25
100
AcDbSpline
210
0.0
220
0.0
230
1.0
 70
     8
 71
     3
 72
    11
 73
     7
 74
     0
 42
0.00000001
 43
0.00000001
 40
0.0
 40
0.0
 40
0.0
 40
0.0
 40
0.2499999999999593
 40
0.4999999999999398
 40
0.7499999999999084
 40
1.0
 40
1.0
 40
1.0
 40
1.0
 10
8617.783617100973
 20
5726.090207861073
 30
0.0
 10
8617.78211094674
 20
5726.078073110103
 30
0.0
 10
8617.779098638275
 20
5726.053803608163
 30
0.0
 10
8617.765145309239
 20
5726.021977840071
 30
0.0
 10
8617.746328323938
 20
5725.997864199878
 30
0.0
 10
8617.731744856752
 20
5725.991942675491
 30
0.0
 10
8617.724453123157
 20
5725.988981913299
 30
0.0
  0
SPLINE
  5
FA
330
1F
100
AcDbEntity
  8
0
  6
SLD-Plná
 62
     7
370
    25
100
AcDbSpline
210
0.0
220
0.0
230
1.0
 70
     8
 71
     3
 72
     9
 73
     5
 74
     0
 42
0.00000001
 43
0.00000001
 40
0.0
 40
0.0
 40
0.0
 40
0.0
 40
0.5599786375853409
 40
1.0
 40
1.0
 40
1.0
 40
1.0
 10
8617.794739760842
 20
5726.258419777206
 30
0.0
 10
8617.792669022147
 20
5726.227020721775
 30
0.0
 10
8617.788971133412
 20
5726.170948840951
 30
0.0
 10
8617.785253110398
 20
5726.114879547815
 30
0.0
 10
8617.783617100846
 20
5726.090207861059
 30
0.0
  0
LWPOLYLINE
  5
FB
330
1F
100
AcDbEntity
  8
0
  6
SLD-Plná
 62
     7
370
    25
100
AcDbPolyline
 90
        8
 70
   128
 43
0.0
 10
8613.4026144238
 20
5726.5706879846
 10
8612.6552709808
 20
5726.498963973
 10
8612.0185755167
 20
5726.4001606164
 10
8611.5244546008
 20
5726.2792323277
 10
8611.1976855189
 20
5726.1422429562
 10
8611.0546538375
 20
5725.996061721
 10
8611.1025317621
 20
5725.8480187598
 10
8611.1862776779
 20
5725.7826467571
  0
ARC
  5
FC
330
1F
100
AcDbEntity
  8
0
  6
SLD-Plná
 62
     7
370
    25
100
AcDbCircle
 10
8611.1963997512
 20
5726.3198982732
 30
0.0
 40
0.225223679354945
100
AcDbArc
 50
142.2429751986
 51
143.4213801824
  0
LWPOLYLINE
  5
FD
330
1F
100
AcDbEntity
  8
0
  6
SLD-Plná
 62
     7
370
    25
100
AcDbPolyline
 90
       10
 70
   128
 43
0.0
 10
8611.2618678098
 20
5725.9741374107
 10
8611.3127321431
 20
5725.8694236691
 10
8611.5359014928
 20
5725.7349092002
 10
8611.9258486817
 20
5725.6123906328
 10
8612.4630201295
 20
5725.5080115594
 10
8613.1204798166
 20
5725.4270059825
 10
8613.8652599691
 20
5725.37343586
 10
8614.6600142002
 20
5725.3499874216
 10
8615.4648902142
 20
5725.3578364699
 10
8616.2395281668
 20
5725.3965894208
  0
ARC
  5
FE
330
1F
100
AcDbEntity
  8
0
  6
SLD-Plná
 62
     7
370
    25
100
AcDbCircle
 10
8612.1085889459
 20
5727.4948644099
 30
0.0
 40
1.481220658848436
100
AcDbArc
 50
247.0833429508
 51
247.4274765508
  0
LWPOLYLINE
  5
FF
330
1F
100
AcDbEntity
  8
0
  6
SLD-Plná
 62
     7
370
    25
100
AcDbPolyline
 90
        3
 70
   128
 43
0.0
 10
8612.5360253403
 20
5726.143783442
 10
8612.3392263189
 20
5726.1749510439
 10
8612.3070584284
 20
5726.1805071777
  0
ARC
  5
100
330
1F
100
AcDbEntity
  8
0
  6
SLD-Plná
 62
     7
370
    25
100
AcDbCircle
 10
8614.8548697508
 20
5714.8083486806
 30
0.0
 40
11.45241187547015
100
AcDbArc
 50
83.5208387111
 51
94.1978497036
  0
ARC
  5
101
330
1F
100
AcDbEntity
  8
0
  6
SLD-Plná
 62
     7
370
    25
100
AcDbCircle
 10
8614.1088490358
 20
5726.3229740791
 30
0.0
 40
0.1309869199909826
100
AcDbArc
 50
174.6014299137
 51
225.1958288657
  0
ARC
  5
102
330
1F
100
AcDbEntity
  8
0
  6
SLD-Plná
 62
     7
370
    25
100
AcDbCircle
 10
8614.9327907769
 20
5720.7160583811
 30
0.0
 40
5.69970445531027
100
AcDbArc
 50
66.888459744
 51
99.6388976365
  0
LWPOLYLINE
  5
103
330
1F
100
AcDbEntity
  8
0
  6
SLD-Plná
 62
     7
370
    25
100
AcDbPolyline
 90
        3
 70
   128
 43
0.0
 10
8614.0165444048
 20
5726.2300363133
 10
8613.4758286114
 20
5726.174326243
 10
8613.1182179505
 20
5726.1111459521
  0
LWPOLYLINE
  5
104
330
1F
100
AcDbEntity
  8
0
  6
SLD-Plná
 62
     7
370
    25
100
AcDbPolyline
 90
        6
 70
   128
 43
0.0
 10
8615.7037713608
 20
5725.5227106414
 10
8616.242299626
 20
5725.5781953302
 10
8616.6689935152
 20
5725.6577785648
 10
8616.9492848271
 20
5725.7550129849
 10
8617.0604660266
 20
5725.8620212361
 10
8617.0616780931
 20
5725.880673589
  0
ARC
  5
105
330
1F
100
AcDbEntity
  8
0
  6
SLD-Plná
 62
     7
370
    25
100
AcDbCircle
 10
8614.8604777437
 20
5737.6810776631
 30
0.0
 40
12.18757698469983
100
AcDbArc
 50
266.4840985834
 51
273.96763055
  0
LWPOLYLINE
  5
106
330
1F
100
AcDbEntity
  8
0
  6
SLD-Plná
 62
     7
370
    25
100
AcDbPolyline
 90
        6
 70
   128
 43
0.0
 10
8613.9784431328
 20
5726.3352977827
 10
8613.4133556499
 20
5726.2770766917
 10
8612.9656180074
 20
5726.1935685592
 10
8612.6715032466
 20
5726.0915387173
 10
8612.554838796
 20
5725.9792530172
 10
8612.5536833137
 20
5725.9583185547
  0
LINE
  5
107
330
1F
100
AcDbEntity
  8
0
  6
SLD-Plná
 62
     7
370
    25
100
AcDbLine
 10
8617.2060923886
 20
5726.3368540569
 30
0.0
 11
8617.7947397608
 21
5726.2584197772
 31
0.0
  0
LINE
  5
108
330
1F
100
AcDbEntity
  8
0
  6
SLD-Plná
 62
     7
370
    25
100
AcDbLine
 10
8609.4630012861
 20
5726.4933627466
 30
0.0
 11
8609.3424818504
 21
5726.4961179675
 31
0.0
  0
LINE
  5
109
330
1F
100
AcDbEntity
  8
0
  6
SLD-Plná
 62
     7
370
    25
100
AcDbLine
 10
8620.2612804442
 20
5726.4926511698
 30
0.0
 11
8620.3837393774
 21
5726.4954507299
 31
0.0
  0
LINE
  5
10A
330
1F
100
AcDbEntity
  8
0
  6
SLD-Plná
 62
     7
370
    25
100
AcDbLine
 10
8611.0183346432
 20
5726.4578059344
 30
0.0
 11
8610.7824334808
 21
5726.4631989219
 31
0.0
  0
LINE
  5
10B
330
1F
100
AcDbEntity
  8
0
  6
SLD-Plná
 62
     7
370
    25
100
AcDbLine
 10
8610.185765226
 20
5726.3088754171
 30
0.0
 11
8610.9825674111
 21
5726.3661873507
 31
0.0
  0
LINE
  5
10C
330
1F
100
AcDbEntity
  8
0
  6
SLD-Plná
 62
     7
370
    25
100
AcDbLine
 10
8618.7277360429
 20
5726.2815596414
 30
0.0
 11
8619.6780185049
 21
5726.2598350286
 31
0.0
  0
LINE
  5
10D
330
1F
100
AcDbEntity
  8
0
  6
SLD-Plná
 62
     7
370
    25
100
AcDbLine
 10
8620.2978340183
 20
5726.245665292
 30
0.0
 11
8621.1179701354
 21
5726.2269159829
 31
0.0
  0
LINE
  5
10E
330
1F
100
AcDbEntity
  8
0
  6
SLD-Plná
 62
     7
370
    25
100
AcDbLine
 10
8609.425970389
 20
5726.244942803
 30
0.0
 11
8608.604359075
 21
5726.226159769
 31
0.0
  0
LINE
  5
10F
330
1F
100
AcDbEntity
  8
0
  6
SLD-Plná
 62
     7
370
    25
100
AcDbLine
 10
8618.7048163112
 20
5726.1371566881
 30
0.0
 11
8619.0646712648
 21
5726.0892078388
 31
0.0
  0
LINE
  5
110
330
1F
100
AcDbEntity
  8
0
  6
SLD-Plná
 62
     7
370
    25
100
AcDbLine
 10
8612.5304461927
 20
5726.202382237
 30
0.0
 11
8611.5318138547
 21
5726.1305531792
 31
0.0
  0
LINE
  5
111
330
1F
100
AcDbEntity
  8
0
  6
SLD-Plná
 62
     7
370
    25
100
AcDbLine
 10
8608.6235908718
 20
5726.1965122303
 30
0.0
 11
8609.1582726945
 21
5726.2349705198
 31
0.0
  0
LINE
  5
112
330
1F
100
AcDbEntity
  8
0
  6
SLD-Plná
 62
     7
370
    25
100
AcDbLine
 10
8621.0958767518
 20
5726.1946254685
 30
0.0
 11
8620.5355098085
 21
5726.2349312227
 31
0.0
  0
LINE
  5
113
330
1F
100
AcDbEntity
  8
0
  6
SLD-Plná
 62
     7
370
    25
100
AcDbLine
 10
8617.1798802746
 20
5726.0615434862
 30
0.0
 11
8617.7244531231
 21
5725.9889819135
 31
0.0
  0
LINE
  5
114
330
1F
100
AcDbEntity
  8
0
  6
SLD-Plná
 62
     7
370
    25
100
AcDbLine
 10
8611.0257448918
 20
5726.0941529391
 30
0.0
 11
8610.0536020656
 21
5726.0242292038
 31
0.0
  0
LINE
  5
115
330
1F
100
AcDbEntity
  8
0
  6
SLD-Plná
 62
     7
370
    25
100
AcDbLine
 10
8609.4511103242
 20
5725.9808935211
 30
0.0
 11
8608.6677804813
 21
5725.9245506183
 31
0.0
  0
LINE
  5
116
330
1F
100
AcDbEntity
  8
0
  6
SLD-Plná
 62
     7
370
    25
100
AcDbLine
 10
8620.2725518198
 20
5725.980121792
 30
0.0
 11
8621.0543795407
 21
5725.9238869331
 31
0.0
  0
LINE
  5
117
330
1F
100
AcDbEntity
  8
0
  6
SLD-Plná
 62
     7
370
    25
100
AcDbLine
 10
8618.6383210695
 20
5725.86721364
 30
0.0
 11
8618.9938223633
 21
5725.8198448938
 31
0.0
  0
LINE
  5
118
330
1F
100
AcDbEntity
  8
0
  6
SLD-Plná
 62
     7
370
    25
100
AcDbLine
 10
8620.0208879406
 20
5725.6829936097
 30
0.0
 11
8620.1838543364
 21
5725.6612791632
 31
0.0
  0
LINE
  5
119
330
1F
100
AcDbEntity
  8
0
  6
SLD-Plná
 62
     7
370
    25
100
AcDbLine
 10
8609.6757817318
 20
5725.6784823574
 30
0.0
 11
8609.5423924029
 21
5725.6607089052
 31
0.0
  0
SPLINE
  5
11A
330
1F
100
AcDbEntity
  8
0
  6
SLD-Plná
 62
     7
370
    25
100
AcDbSpline
210
0.0
220
0.0
230
1.0
 70
     8
 71
     3
 72
    19
 73
    15
 74
     0
 42
0.00000001
 43
0.00000001
 40
0.0
 40
0.0
 40
0.0
 40
0.0
 40
0.0832177451002586
 40
0.1664654425870093
 40
0.2497986528660295
 40
0.3331904101545605
 40
0.4165790883965782
 40
0.4999513913777293
 40
0.583346023597014
 40
0.6667726893089165
 40
0.7502574069733838
 40
0.8337739496926427
 40
0.9171087183892813
 40
1.0
 40
1.0
 40
1.0
 40
1.0
 10
8614.86187508833
 20
5744.64655335382
 30
0.0
 10
8613.707271593288
 20
5744.646553327132
 30
0.0
 10
8611.39764902922
 20
5744.646553273747
 30
0.0
 10
8607.990705946691
 20
5744.646552839298
 30
0.0
 10
8604.70078286747
 20
5744.64655214969
 30
0.0
 10
8601.58148440825
 20
5744.646551197395
 30
0.0
 10
8598.686136467164
 20
5744.646550004563
 30
0.0
 10
8596.071353360423
 20
5744.646548584461
 30
0.0
 10
8593.778354293958
 20
5744.646546965103
 30
0.0
 10
8591.843370545685
 20
5744.646545174493
 30
0.0
 10
8590.30425409346
 20
5744.646543240117
 30
0.0
 10
8589.200062876482
 20
5744.646541198137
 30
0.0
 10
8588.495845808775
 20
5744.646539090049
 30
0.0
 10
8588.406447634141
 20
5744.646537662305
 30
0.0
 10
8588.361867802907
 20
5744.646536950337
 30
0.0
  0
LINE
  5
11B
330
1F
100
AcDbEntity
  8
0
  6
SLD-Plná
 62
     7
370
    25
100
AcDbLine
 10
8588.361867803
 20
5746.9197655371
 30
0.0
 11
8588.3618678029
 21
5744.6480294824
 31
0.0
  0
SPLINE
  5
11C
330
1F
100
AcDbEntity
  8
0
  6
SLD-Plná
 62
     7
370
    25
100
AcDbSpline
210
0.0
220
0.0
230
1.0
 70
     8
 71
     3
 72
    19
 73
    15
 74
     0
 42
0.00000001
 43
0.00000001
 40
0.0
 40
0.0
 40
0.0
 40
0.0
 40
0.0828912816107271
 40
0.166226050307376
 40
0.2497425930266385
 40
0.3332273106911022
 40
0.4166539764030051
 40
0.5000486086222877
 40
0.5834209116034396
 40
0.6668095898454628
 40
0.7502013471339914
 40
0.8335345574130006
 40
0.9167822548997407
 40
1.0
 40
1.0
 40
1.0
 40
1.0
 10
8588.361867803047
 20
5746.920069706063
 30
0.0
 10
8588.40644763428
 20
5746.920070418031
 30
0.0
 10
8588.495845808917
 20
5746.920071845776
 30
0.0
 10
8589.200062876645
 20
5746.920073953864
 30
0.0
 10
8590.304254093666
 20
5746.920075995843
 30
0.0
 10
8591.84337054594
 20
5746.920077930219
 30
0.0
 10
8593.778354294278
 20
5746.92007972083
 30
0.0
 10
8596.071353360816
 20
5746.920081340188
 30
0.0
 10
8598.686136467635
 20
5746.920082760289
 30
0.0
 10
8601.581484408804
 20
5746.92008395312
 30
0.0
 10
8604.700782868107
 20
5746.920084905416
 30
0.0
 10
8607.99070594741
 20
5746.920085595025
 30
0.0
 10
8611.397649030014
 20
5746.920086029472
 30
0.0
 10
8613.707271594125
 20
5746.920086082859
 30
0.0
 10
8614.861875089186
 20
5746.920086109545
 30
0.0
  0
LINE
  5
11D
330
1F
100
AcDbEntity
  8
0
  6
SLD-Plná
 62
     7
370
    25
100
AcDbLine
 10
8614.8618750907
 20
5746.9199730901
 30
0.0
 11
8614.8618750906
 21
5744.6470601096
 31
0.0
  0
SPLINE
  5
11E
330
1F
100
AcDbEntity
  8
0
  6
SLD-Plná
 62
     7
370
    25
100
AcDbSpline
210
0.0
220
0.0
230
1.0
 70
     8
 71
     3
 72
    19
 73
    15
 74
     0
 42
0.00000001
 43
0.00000001
 40
0.0
 40
0.0
 40
0.0
 40
0.0
 40
0.0828912814781491
 40
0.1662260499759206
 40
0.2497425926110722
 40
0.3332273103319847
 40
0.4166539760615249
 40
0.5000486082977059
 40
0.5834209112511175
 40
0.6668095893882926
 40
0.7502013467159983
 40
0.833534557240712
 40
0.9167822549190399
 40
1.0
 40
1.0
 40
1.0
 40
1.0
 10
8641.361867803045
 20
5746.920092432415
 30
0.0
 10
8641.317288002996
 20
5746.920093144387
 30
0.0
 10
8641.227889890934
 20
5746.920094572141
 30
0.0
 10
8640.52367331163
 20
5746.920096680315
 30
0.0
 10
8639.419482854333
 20
5746.920098722427
 30
0.0
 10
8637.880367458345
 20
5746.920100656988
 30
0.0
 10
8635.945384985711
 20
5746.920102447833
 30
0.0
 10
8633.652387380336
 20
5746.920104067467
 30
0.0
 10
8631.037605889274
 20
5746.920105487886
 30
0.0
 10
8628.142259631195
 20
5746.920106681067
 30
0.0
 10
8625.02296285806
 20
5746.920107633741
 30
0.0
 10
8621.733041414187
 20
5746.920108323749
 30
0.0
 10
8618.326099869386
 20
5746.92010875861
 30
0.0
 10
8616.016478158332
 20
5746.920108812275
 30
0.0
 10
8614.861875091185
 20
5746.920108839104
 30
0.0
  0
LINE
  5
11F
330
1F
100
AcDbEntity
  8
0
  6
SLD-Plná
 62
     7
370
    25
100
AcDbLine
 10
8641.361867803
 20
5746.9197655339
 30
0.0
 11
8641.3618678029
 21
5744.6480294792
 31
0.0
  0
SPLINE
  5
120
330
1F
100
AcDbEntity
  8
0
  6
SLD-Plná
 62
     7
370
    25
100
AcDbSpline
210
0.0
220
0.0
230
1.0
 70
     8
 71
     3
 72
    19
 73
    15
 74
     0
 42
0.00000001
 43
0.00000001
 40
0.0
 40
0.0
 40
0.0
 40
0.0
 40
0.0832177450809605
 40
0.1664654427593029
 40
0.2497986532840343
 40
0.3331904106117427
 40
0.4165790887489104
 40
0.4999513917023197
 40
0.5833460239385023
 40
0.6667726896680436
 40
0.7502574073889602
 40
0.8337739500241054
 40
0.9171087185218606
 40
1.0
 40
1.0
 40
1.0
 40
1.0
 10
8614.861875092152
 20
5744.645943010425
 30
0.0
 10
8616.016478159268
 20
5744.645942983596
 30
0.0
 10
8618.326099870259
 20
5744.645942929932
 30
0.0
 10
8621.733041414942
 20
5744.645942495071
 30
0.0
 10
8625.022962858691
 20
5744.645941805063
 30
0.0
 10
8628.142259631697
 20
5744.64594085239
 30
0.0
 10
8631.037605889649
 20
5744.645939659207
 30
0.0
 10
8633.652387380587
 20
5744.645938238789
 30
0.0
 10
8635.945384985853
 20
5744.645936619154
 30
0.0
 10
8637.880367458392
 20
5744.64593482831
 30
0.0
 10
8639.419482854297
 20
5744.645932893748
 30
0.0
 10
8640.523673311536
 20
5744.645930851636
 30
0.0
 10
8641.227889890803
 20
5744.645928743464
 30
0.0
 10
8641.317288002861
 20
5744.645927315709
 30
0.0
 10
8641.361867802909
 20
5744.645926603736
 30
0.0
  0
SPLINE
  5
121
330
1F
100
AcDbEntity
  8
0
  6
SLD-Plná
 62
     7
370
    25
100
AcDbSpline
210
0.0
220
0.0
230
1.0
 70
     8
 71
     3
 72
    19
 73
    15
 74
     0
 42
0.00000001
 43
0.00000001
 40
0.0
 40
0.0
 40
0.0
 40
0.0
 40
0.0833354356337388
 40
0.1666704890341623
 40
0.2500051602003351
 40
0.3333394491313196
 40
0.4166733558261795
 40
0.5000068802839772
 40
0.5833400225037768
 40
0.6666727824846402
 40
0.7500051602256316
 40
0.8333371557258127
 40
0.9166687689842484
 40
1.0
 40
1.0
 40
1.0
 40
1.0
 10
8589.181539933958
 20
5743.033462629591
 30
0.0
 10
8589.223980952087
 20
5743.033434620655
 30
0.0
 10
8589.308862793681
 20
5743.033378602912
 30
0.0
 10
8589.991136384378
 20
5743.033294540836
 30
0.0
 10
8591.067400172946
 20
5743.033210408509
 30
0.0
 10
8592.559235015802
 20
5743.033126172135
 30
0.0
 10
8594.430393734752
 20
5743.033041799722
 30
0.0
 10
8596.651728749828
 20
5743.032957261573
 30
0.0
 10
8599.184459880882
 20
5743.03287253099
 30
0.0
 10
8601.985454894018
 20
5743.032787583973
 30
0.0
 10
8605.006730600875
 20
5743.032702402486
 30
0.0
 10
8608.196604780045
 20
5743.032616964101
 30
0.0
 10
8611.500493937878
 20
5743.032531282188
 30
0.0
 10
8613.741411559924
 20
5743.032473932005
 30
0.0
 10
8614.861867801166
 20
5743.032445256979
 30
0.0
  0
ARC
  5
122
330
1F
100
AcDbEntity
  8
0
  6
SLD-Plná
 62
     7
370
    25
100
AcDbCircle
 10
8590.3618678029
 20
5744.6480294823
 30
0.0
 40
2.000000000001819
100
AcDbArc
 50
179.999999995
 51
233.8313576489
  0
SPLINE
  5
123
330
1F
100
AcDbEntity
  8
0
  6
SLD-Plná
 62
     7
370
    25
100
AcDbSpline
210
0.0
220
0.0
230
1.0
 70
     8
 71
     3
 72
    11
 73
     7
 74
     0
 42
0.00000001
 43
0.00000001
 40
0.0
 40
0.0
 40
0.0
 40
0.0
 40
0.2465199612333604
 40
0.5000002565128949
 40
0.7534804115863135
 40
1.0
 40
1.0
 40
1.0
 40
1.0
 10
8614.861777565375
 20
5744.647055165085
 30
0.0
 10
8614.861788909635
 20
5744.492570133021
 30
0.0
 10
8614.861811918454
 20
5744.179238282435
 30
0.0
 10
8614.861857714604
 20
5743.734141571365
 30
0.0
 10
8614.861908704584
 20
5743.333758395008
 30
0.0
 10
8614.861944667044
 20
5743.13194396552
 30
0.0
 10
8614.861962397954
 20
5743.032441494286
 30
0.0
  0
ARC
  5
124
330
1F
100
AcDbEntity
  8
0
  6
SLD-Plná
 62
     7
370
    25
100
AcDbCircle
 10
8639.3618678029
 20
5744.6480294793
 30
0.0
 40
2.000000000001819
100
AcDbArc
 50
306.1686423441
 51
359.999999995
  0
SPLINE
  5
125
330
1F
100
AcDbEntity
  8
0
  6
SLD-Plná
 62
     7
370
    25
100
AcDbSpline
210
0.0
220
0.0
230
1.0
 70
     8
 71
     3
 72
    19
 73
    15
 74
     0
 42
0.00000001
 43
0.00000001
 40
0.0
 40
0.0
 40
0.0
 40
0.0
 40
0.0833354356337384
 40
0.1666704890341623
 40
0.2500051602003345
 40
0.3333394491313188
 40
0.4166733558261793
 40
0.500006880283978
 40
0.5833400225037773
 40
0.6666727824846406
 40
0.7500051602256325
 40
0.8333371557258151
 40
0.91666876898425
 40
1.0
 40
1.0
 40
1.0
 40
1.0
 10
8640.542195671664
 20
5743.033462626484
 30
0.0
 10
8640.49975465339
 20
5743.033434617553
 30
0.0
 10
8640.41487281151
 20
5743.03337859982
 30
0.0
 10
8639.732599220388
 20
5743.033294537828
 30
0.0
 10
8638.656335431411
 20
5743.033210405631
 30
0.0
 10
8637.16450058817
 20
5743.033126169436
 30
0.0
 10
8635.29334186886
 20
5743.033041797251
 30
0.0
 10
8633.072006853461
 20
5743.03295725937
 30
0.0
 10
8630.539275722122
 20
5743.032872529093
 30
0.0
 10
8627.738280708745
 20
5743.032787582415
 30
0.0
 10
8624.717005001698
 20
5743.032702401295
 30
0.0
 10
8621.527130822387
 20
5743.032616963295
 30
0.0
 10
8618.22324166447
 20
5743.03253128178
 30
0.0
 10
8615.982324042412
 20
5743.032473931869
 30
0.0
 10
8614.861867801166
 20
5743.032445256979
 30
0.0
  0
ARC
  5
126
330
1F
100
AcDbEntity
  8
0
  6
SLD-Plná
 62
     7
370
    25
100
AcDbCircle
 10
8590.361867803
 20
5746.919765537
 30
0.0
 40
1.999999999999361
100
AcDbArc
 50
98.0681504966
 51
179.999999995
  0
SPLINE
  5
127
330
1F
100
AcDbEntity
  8
0
  6
SLD-Plná
 62
     7
370
    25
100
AcDbSpline
210
0.0
220
0.0
230
1.0
 70
     8
 71
     3
 72
    19
 73
    15
 74
     0
 42
0.00000001
 43
0.00000001
 40
0.0
 40
0.0
 40
0.0
 40
0.0
 40
0.0833312310240255
 40
0.1666628442862247
 40
0.2499948397865618
 40
0.3333272175250027
 40
0.4166599775015108
 40
0.4999931197160511
 40
0.5833266441685883
 40
0.666660550859088
 40
0.7499948397875138
 40
0.8333295109538315
 40
0.916664564358006
 40
1.0
 40
1.0
 40
1.0
 40
1.0
 10
8614.86186780056
 20
5748.900177873365
 30
0.0
 10
8613.780663071295
 20
5748.900172477713
 30
0.0
 10
8611.618248653303
 20
5748.900161686382
 30
0.0
 10
8608.430100423579
 20
5748.900145167826
 30
0.0
 10
8605.351973031627
 20
5748.900128413818
 30
0.0
 10
8602.436537817204
 20
5748.900111411455
 30
0.0
 10
8599.733666484362
 20
5748.900094182382
 30
0.0
 10
8597.289661287617
 20
5748.900076744002
 30
0.0
 10
8595.146143464339
 20
5748.900059119475
 30
0.0
 10
8593.340534658093
 20
5748.900041334561
 30
0.0
 10
8591.900961358873
 20
5748.900023417921
 30
0.0
 10
8590.862400943763
 20
5748.900005400424
 30
0.0
 10
8590.204028570952
 20
5748.899987314679
 30
0.0
 10
8590.122120285452
 20
5748.899975234553
 30
0.0
 10
8590.08116604878
 20
5748.899969194476
 30
0.0
  0
SPLINE
  5
128
330
1F
100
AcDbEntity
  8
0
  6
SLD-Plná
 62
     7
370
    25
100
AcDbSpline
210
0.0
220
0.0
230
1.0
 70
     8
 71
     3
 72
    11
 73
     7
 74
     0
 42
0.00000001
 43
0.00000001
 40
0.0
 40
0.0
 40
0.0
 40
0.0
 40
0.2418392384619534
 40
0.5000003165226522
 40
0.7581612024098859
 40
0.9999999999999999
 40
0.9999999999999999
 40
0.9999999999999999
 40
0.9999999999999999
 10
8614.86196532176
 20
5746.919974048949
 30
0.0
 10
8614.861960201586
 20
5747.150628899533
 30
0.0
 10
8614.861949615675
 20
5747.627505600903
 30
0.0
 10
8614.861906219323
 20
5748.258231692404
 30
0.0
 10
8614.861848281458
 20
5748.73018406586
 30
0.0
 10
8614.861804513816
 20
5748.844760671507
 30
0.0
 10
8614.861783344373
 20
5748.900178843673
 30
0.0
  0
SPLINE
  5
129
330
1F
100
AcDbEntity
  8
0
  6
SLD-Plná
 62
     7
370
    25
100
AcDbSpline
210
0.0
220
0.0
230
1.0
 70
     8
 71
     3
 72
    30
 73
    26
 74
     0
 42
0.00000001
 43
0.00000001
 40
0.0
 40
0.0
 40
0.0
 40
0.0
 40
0.0832521489899776
 40
0.1665046940986994
 40
0.2497577421645553
 40
0.3330114000258957
 40
0.4162657745210238
 40
0.499520972488186
 40
0.5695816982362516
 40
0.6396371154298937
 40
0.6553701490178885
 40
0.6711025469337324
 40
0.6868342417070621
 40
0.7025651658674632
 40
0.718295251944465
 40
0.7340244324675336
 40
0.749752639966072
 40
0.7650162518767712
 40
0.7834400827472427
 40
0.8078437804781184
 40
0.8382281241771314
 40
0.8745942786831579
 40
0.9283859598524205
 40
0.9701907147016972
 40
1.0
 40
1.0
 40
1.0
 40
1.0
 10
8614.86186780056
 20
5748.900177873365
 30
0.0
 10
8615.942198677329
 20
5748.900173360335
 30
0.0
 10
8618.102865571147
 20
5748.900164334254
 30
0.0
 10
8621.28853472005
 20
5748.900144498552
 30
0.0
 10
8624.364454455274
 20
5748.90012124705
 30
0.0
 10
8627.278137082196
 20
5748.900089392681
 30
0.0
 10
8629.97964368041
 20
5748.900066868544
 30
0.0
 10
8632.294367369292
 20
5748.899991426566
 30
0.0
 10
8634.231384084918
 20
5748.90007737513
 30
0.0
 10
8635.408143066268
 20
5748.900394894254
 30
0.0
 10
8636.098536119598
 20
5748.900684814968
 30
0.0
 10
8636.406469417529
 20
5748.90083493765
 30
0.0
 10
8636.701124021973
 20
5748.901000507794
 30
0.0
 10
8636.98233978299
 20
5748.901179888303
 30
0.0
 10
8637.24989776933
 20
5748.90137950085
 30
0.0
 10
8637.50379066198
 20
5748.90157528494
 30
0.0
 10
8637.740922502544
 20
5748.901854271263
 30
0.0
 10
8637.978985113572
 20
5748.901892265986
 30
0.0
 10
8638.241212022831
 20
5748.901792285516
 30
0.0
 10
8638.541994341058
 20
5748.901610550499
 30
0.0
 10
8638.868264272514
 20
5748.901326889129
 30
0.0
 10
8639.221251860907
 20
5748.900891798726
 30
0.0
 10
8639.486730537821
 20
5748.900433734185
 30
0.0
 10
8639.623664047822
 20
5748.900066338294
 30
0.0
 10
8639.63701304744
 20
5748.899997743854
 30
0.0
 10
8639.64256955755
 20
5748.899969191475
 30
0.0
  0
ARC
  5
12A
330
1F
100
AcDbEntity
  8
0
  6
SLD-Plná
 62
     7
370
    25
100
AcDbCircle
 10
8639.361867803
 20
5746.919765534
 30
0.0
 40
2.0
100
AcDbArc
 50
359.9999999949
 51
81.9318494965
  0
ARC
  5
12B
330
1F
100
AcDbEntity
  8
0
  6
SLD-Plná
 62
     7
370
    25
100
AcDbCircle
 10
8614.8618678049
 20
5778.1615039452
 30
0.0
 40
43.5138888888882
100
AcDbArc
 50
233.831357649
 51
239.1707582197
  0
ARC
  5
12C
330
1F
100
AcDbEntity
  8
0
  6
SLD-Plná
 62
     7
370
    25
100
AcDbCircle
 10
8614.8618678049
 20
5778.1615039452
 30
0.0
 40
43.51388888888868
100
AcDbArc
 50
300.8292417734
 51
306.1686423441
  0
SPLINE
  5
12D
330
1F
100
AcDbEntity
  8
0
  6
SLD-Plná
 62
     7
370
    25
100
AcDbSpline
210
0.0
220
0.0
230
1.0
 70
     8
 71
     3
 72
    43
 73
    39
 74
     0
 42
0.00000001
 43
0.00000001
 40
0.0
 40
0.0
 40
0.0
 40
0.0
 40
0.0228745521203451
 40
0.0534185300052998
 40
0.09154546491397
 40
0.1250618987093862
 40
0.1627284680456117
 40
0.1901241273660469
 40
0.2193168985274929
 40
0.2502789149619279
 40
0.2785217583005129
 40
0.3037631634741036
 40
0.3260332190597221
 40
0.3453579974884588
 40
0.3617595541566441
 40
0.3752833588775312
 40
0.4147058498396306
 40
0.4563000597197452
 40
0.5001103983349725
 40
0.5193211788166084
 40
0.5380708287708942
 40
0.5563632145833767
 40
0.574201937747757
 40
0.5915903364282868
 40
0.6085314874034113
 40
0.6250000456031289
 40
0.6411795300521894
 40
0.6617288101349231
 40
0.6866818788111104
 40
0.7160815866519887
 40
0.7499838958882942
 40
0.7956664404429341
 40
0.8373509634660269
 40
0.874964992254963
 40
0.9084443171337953
 40
0.9465462316308567
 40
0.9770935130517563
 40
1.0
 40
1.0
 40
1.0
 40
1.0
 10
8592.56181861423
 20
5740.796194735668
 30
0.0
 10
8592.587915974067
 20
5740.787015541161
 30
0.0
 10
8592.648860668949
 20
5740.765579533381
 30
0.0
 10
8592.972717372491
 20
5740.722252262006
 30
0.0
 10
8593.56477812887
 20
5740.671836325466
 30
0.0
 10
8594.466580611297
 20
5740.615857780551
 30
0.0
 10
8595.506521338206
 20
5740.564293957971
 30
0.0
 10
8596.6877627586
 20
5740.514288200306
 30
0.0
 10
8597.928145622816
 20
5740.467419701455
 30
0.0
 10
8599.324127088901
 20
5740.419484388485
 30
0.0
 10
8600.779707932721
 20
5740.374047650256
 30
0.0
 10
8602.173854025292
 20
5740.334659463254
 30
0.0
 10
8603.466002846368
 20
5740.301188457013
 30
0.0
 10
8604.629052623488
 20
5740.273671621238
 30
0.0
 10
8605.643697125392
 20
5740.251898303525
 30
0.0
 10
8607.099508827783
 20
5740.225035944775
 30
0.0
 10
8609.14542968948
 20
5740.198949755564
 30
0.0
 10
8611.933235791152
 20
5740.179012202791
 30
0.0
 10
8614.311339706941
 20
5740.174050456689
 30
0.0
 10
8616.168150855656
 20
5740.175781549859
 30
0.0
 10
8617.441403766463
 20
5740.179434717091
 30
0.0
 10
8618.67552069526
 20
5740.185530450497
 30
0.0
 10
8619.867870345777
 20
5740.194078053592
 30
0.0
 10
8621.01629245181
 20
5740.205053982988
 30
0.0
 10
8622.118665432543
 20
5740.218562480817
 30
0.0
 10
8623.17695768172
 20
5740.23427743844
 30
0.0
 10
8624.292053864448
 20
5740.255516362033
 30
0.0
 10
8625.554291983666
 20
5740.283716735081
 30
0.0
 10
8627.032257931714
 20
5740.320515585046
 30
0.0
 10
8628.684339550675
 20
5740.366088568921
 30
0.0
 10
8630.577040613165
 20
5740.424721216133
 30
0.0
 10
8632.447869263664
 20
5740.490473480162
 30
0.0
 10
8634.068813705735
 20
5740.556938524937
 30
0.0
 10
8635.257989259859
 20
5740.615946047263
 30
0.0
 10
8636.158821231133
 20
5740.671861195037
 30
0.0
 10
8636.750672727985
 20
5740.7222427356
 30
0.0
 10
8637.074765775318
 20
5740.765560780959
 30
0.0
 10
8637.13577344067
 20
5740.787005185096
 30
0.0
 10
8637.161916991123
 20
5740.79619473297
 30
0.0
  0
ARC
  5
12E
330
1F
100
AcDbEntity
  8
0
  6
SLD-Plná
 62
     7
370
    25
100
AcDbCircle
 10
8644.8445159963
 20
5727.9252177186
 30
0.0
 40
14.98947553379226
100
AcDbArc
 50
120.8326911034
 51
171.3140687181
  0
SPLINE
  5
12F
330
1F
100
AcDbEntity
  8
0
  6
SLD-Plná
 62
     7
370
    25
100
AcDbSpline
210
0.0
220
0.0
230
1.0
 70
     8
 71
     3
 72
    23
 73
    19
 74
     0
 42
0.00000001
 43
0.00000001
 40
0.0
 40
0.0
 40
0.0
 40
0.0
 40
0.0625481258489845
 40
0.1251798011439756
 40
0.1876865613139869
 40
0.2501935663808515
 40
0.3125905930992679
 40
0.3750941885345855
 40
0.4374359740475096
 40
0.5000079491115469
 40
0.5625863519589792
 40
0.6249230008043207
 40
0.6874114182855191
 40
0.7498026120563362
 40
0.8123052773407875
 40
0.8748118138535398
 40
0.9374428805881984
 40
1.0
 40
1.0
 40
1.0
 40
1.0
 10
8599.696780823315
 20
5730.18889976621
 30
0.0
 10
8599.754771805145
 20
5730.349280799071
 30
0.0
 10
8599.870831230986
 20
5730.670257095777
 30
0.0
 10
8600.769569813607
 20
5731.133076589436
 30
0.0
 10
8602.179396627784
 20
5731.558841862841
 30
0.0
 10
8604.07590819735
 20
5731.932700189467
 30
0.0
 10
8606.389051151953
 20
5732.239200031991
 30
0.0
 10
8609.022315639884
 20
5732.467837500978
 30
0.0
 10
8611.884160741132
 20
5732.608908065907
 30
0.0
 10
8614.862353887705
 20
5732.656516884087
 30
0.0
 10
8617.840428959971
 20
5732.608865020697
 30
0.0
 10
8620.702041870476
 20
5732.467795703421
 30
0.0
 10
8623.334860909214
 20
5732.239168149933
 30
0.0
 10
8625.647710679792
 20
5731.932716234174
 30
0.0
 10
8627.544173261804
 20
5731.558885189765
 30
0.0
 10
8628.953988751657
 20
5731.133135170488
 30
0.0
 10
8629.852936604491
 20
5730.670303608351
 30
0.0
 10
8629.96897156911
 20
5730.349304510152
 30
0.0
 10
8630.02695478111
 20
5730.188899766421
 30
0.0
  0
ARC
  5
130
330
1F
100
AcDbEntity
  8
0
  6
SLD-Plná
 62
     7
370
    25
100
AcDbCircle
 10
8584.8792196076
 20
5727.9252177222
 30
0.0
 40
14.98947553382361
100
AcDbArc
 50
8.6859312672
 51
59.1673088898
  0
ARC
  5
131
330
1F
100
AcDbEntity
  8
0
  6
SLD-Plná
 62
     7
370
    25
100
AcDbCircle
 10
8629.5361070129
 20
5730.269714198
 30
0.0
 40
0.4974560321650803
100
AcDbArc
 50
269.6285616798
 51
350.6505532369
  0
SPLINE
  5
132
330
1F
100
AcDbEntity
  8
0
  6
SLD-Plná
 62
     7
370
    25
100
AcDbSpline
210
0.0
220
0.0
230
1.0
 70
     8
 71
     3
 72
    23
 73
    19
 74
     0
 42
0.00000001
 43
0.00000001
 40
0.0
 40
0.0
 40
0.0
 40
0.0
 40
0.0628420726248089
 40
0.1254219809911963
 40
0.1878313582245746
 40
0.2501111674367589
 40
0.3123614104082493
 40
0.3746959926036884
 40
0.4371909024848037
 40
0.4999884124351379
 40
0.562788089041205
 40
0.6252882607192448
 40
0.6876290926967987
 40
0.7498847175124118
 40
0.8121676295945243
 40
0.8745780180379131
 40
0.9371579716271371
 40
1.0
 40
1.0
 40
1.0
 40
1.0
 10
8629.532882116731
 20
5729.772268619131
 30
0.0
 10
8629.477589824572
 20
5729.940327700863
 30
0.0
 10
8629.367235908368
 20
5730.275744756252
 30
0.0
 10
8628.486392455809
 20
5730.758391708399
 30
0.0
 10
8627.139959918732
 20
5731.202946130516
 30
0.0
 10
8625.31657528743
 20
5731.59338361861
 30
0.0
 10
8623.081522247116
 20
5731.912008334221
 30
0.0
 10
8620.53159533025
 20
5732.149729058109
 30
0.0
 10
8617.758860389591
 20
5732.298882228868
 30
0.0
 10
8614.862381260658
 20
5732.350931060899
 30
0.0
 10
8611.965799999467
 20
5732.298911591709
 30
0.0
 10
8609.19282192744
 20
5732.149770117586
 30
0.0
 10
8606.642593032911
 20
5731.912050795415
 30
0.0
 10
8604.407302114136
 20
5731.59341252633
 30
0.0
 10
8602.583800152199
 20
5731.202958261184
 30
0.0
 10
8601.237319855365
 20
5730.758395332503
 30
0.0
 10
8600.356488410773
 20
5730.27574466702
 30
0.0
 10
8600.246141986649
 20
5729.940327591145
 30
0.0
 10
8600.190853487715
 20
5729.772268618792
 30
0.0
  0
ARC
  5
133
330
1F
100
AcDbEntity
  8
0
  6
SLD-Plná
 62
     7
370
    25
100
AcDbCircle
 10
8600.1876285916
 20
5730.2697141977
 30
0.0
 40
0.4974560321551232
100
AcDbArc
 50
189.3494467473
 51
270.371438321
  0
LWPOLYLINE
  5
134
330
1F
100
AcDbEntity
  8
0
  6
SLD-Plná
 62
     7
370
    25
100
AcDbPolyline
 90
       23
 70
   128
 43
0.0
 10
8602.9462318767
 20
5730.3587418353
 10
8603.0503800796
 20
5730.4093240305
 10
8603.6521884633
 20
5730.6465600497
 10
8604.4113561732
 20
5730.8697710392
 10
8605.3172261586
 20
5731.0758236061
 10
8606.3570819907
 20
5731.2618252239
 10
8607.516326373
 20
5731.4251648378
 10
8608.7786860554
 20
5731.5635495175
 10
8610.1264402752
 20
5731.6750366455
 10
8611.5406695174
 20
5731.7580611869
 10
8613.0015211034
 20
5731.8114576591
 10
8614.4884878793
 20
5731.8344764928
 10
8615.9806960909
 20
5731.8267945539
 10
8617.457198406
 20
5731.78851968
 10
8618.8972679685
 20
5731.7201891664
 10
8620.2806893585
 20
5731.6227622239
 10
8621.5880423722
 20
5731.4976065131
 10
8622.800974639
 20
5731.3464789457
 10
8623.9024592486
 20
5731.1715010217
 10
8624.8770337717
 20
5730.9751290475
 10
8625.7110173181
 20
5730.7601196551
 10
8626.3927025871
 20
5730.5294911052
 10
8626.5368851453
 20
5730.4703129926
  0
ARC
  5
135
330
1F
100
AcDbEntity
  8
0
  6
SLD-Plná
 62
     7
370
    25
100
AcDbCircle
 10
8620.0168233514
 20
5749.5582756352
 30
0.0
 40
21.78597432423052
100
AcDbArc
 50
278.0035105811
 51
284.2435234907
  0
ARC
  5
136
330
1F
100
AcDbEntity
  8
0
  6
SLD-Plná
 62
     7
370
    25
100
AcDbCircle
 10
8608.757121147
 20
5744.5630592489
 30
0.0
 40
16.70896747026378
100
AcDbArc
 50
251.5475865458
 51
262.8367617094
  0
LINE
  5
137
330
1F
100
AcDbEntity
  8
0
  6
SLD-Plná
 62
     7
370
    25
100
AcDbLine
 10
8640.5421956769
 20
5743.0334121701
 30
0.0
 11
8640.5421956717
 21
5743.0334626265
 31
0.0
  0
LINE
  5
138
330
1F
100
AcDbEntity
  8
0
  6
SLD-Plná
 62
     7
370
    25
100
AcDbLine
 10
8589.1815399392
 20
5743.0334121732
 30
0.0
 11
8589.181539934
 21
5743.0334626296
 31
0.0
  0
ARC
  5
139
330
1F
100
AcDbEntity
  8
0
  6
SLD-Plná
 62
     7
370
    25
100
AcDbCircle
 10
8639.3618866802
 20
5744.6479745847
 30
0.0
 40
1.999985279557308
100
AcDbArc
 50
306.1682795884
 51
0.0000167791
  0
LINE
  5
13A
330
1F
100
AcDbEntity
  8
0
  6
SLD-Plná
 62
     7
370
    25
100
AcDbLine
 10
8641.3618678029
 20
5744.6480294792
 30
0.0
 11
8641.3618678081
 21
5744.6479790194
 31
0.0
  0
LINE
  5
13B
330
1F
100
AcDbEntity
  8
0
  6
SLD-Plná
 62
     7
370
    25
100
AcDbLine
 10
8588.3618678029
 20
5744.6480294824
 30
0.0
 11
8588.3618678081
 21
5744.647979026
 31
0.0
  0
SPLINE
  5
13C
330
1F
100
AcDbEntity
  8
0
  6
SLD-Plná
 62
     7
370
    25
100
AcDbSpline
210
0.0
220
0.0
230
1.0
 70
     8
 71
     3
 72
    59
 73
    55
 74
     0
 42
0.00000001
 43
0.00000001
 40
0.0
 40
0.0
 40
0.0
 40
0.0
 40
0.0002712454741437
 40
0.0023052042076648
 40
0.0339043762871895
 40
0.0645703849729742
 40
0.0935170880905674
 40
0.1256403886627911
 40
0.1654156667490093
 40
0.2073695321893144
 40
0.251447526733357
 40
0.3144386682930929
 40
0.3770620952995251
 40
0.4465245409526073
 40
0.4543171169685497
 40
0.462112944144498
 40
0.4699133805162383
 40
0.477719758727458
 40
0.4855333855506057
 40
0.4933555414531153
 40
0.5011874802089821
 40
0.5076500508660104
 40
0.5170147994483587
 40
0.5301365285619858
 40
0.5469983784653278
 40
0.5660593259223136
 40
0.5791061652541794
 40
0.5917206522420031
 40
0.6197680850679976
 40
0.6483076844190119
 40
0.7059481840251601
 40
0.712374578243244
 40
0.7187941605633363
 40
0.7252074773548444
 40
0.7316150447655959
 40
0.7380173490115146
 40
0.7444148466597614
 40
0.7508079649033012
 40
0.7517360556138399
 40
0.7599609533055605
 40
0.7699802772525547
 40
0.7836355672109971
 40
0.8075269748913934
 40
0.8379866506580378
 40
0.8751480883686198
 40
0.9122884748655884
 40
0.9430142273219705
 40
0.9672260787533813
 40
0.9810569067810233
 40
0.9911437245279747
 40
0.9974631842401888
 40
0.999205035093504
 40
0.9997209232453774
 40
1.0
 40
1.0
 40
1.0
 40
1.0
 10
8588.361865899089
 20
5710.02639122553
 30
0.0
 10
8588.361865808869
 20
5710.032638848425
 30
0.0
 10
8588.36186504213
 20
5710.08573483696
 30
0.0
 10
8588.361850666672
 20
5710.866620574384
 30
0.0
 10
8588.361754434389
 20
5712.347146260561
 30
0.0
 10
8588.361622235929
 20
5714.431131841397
 30
0.0
 10
8588.361621843778
 20
5716.501435729047
 30
0.0
 10
8588.361887792778
 20
5718.73835074944
 30
0.0
 10
8588.362698783865
 20
5721.199014073787
 30
0.0
 10
8588.36450757031
 20
5723.81718674892
 30
0.0
 10
8588.368148171716
 20
5726.771036700995
 30
0.0
 10
8588.37549077561
 20
5729.886110729325
 30
0.0
 10
8588.391496863835
 20
5733.082125982327
 30
0.0
 10
8588.411001042034
 20
5735.068130469707
 30
0.0
 10
8588.426980442133
 20
5736.159523596575
 30
0.0
 10
8588.431612608365
 20
5736.453277942006
 30
0.0
 10
8588.436492313325
 20
5736.740779859069
 30
0.0
 10
8588.441630349673
 20
5737.022054130004
 30
0.0
 10
8588.447028125556
 20
5737.297141290561
 30
0.0
 10
8588.452721696402
 20
5737.565993598899
 30
0.0
 10
8588.458271330272
 20
5737.813456248071
 30
0.0
 10
8588.464744183553
 20
5738.071494832532
 30
0.0
 10
8588.473190926192
 20
5738.378515988004
 30
0.0
 10
8588.485588908941
 20
5738.779256683458
 30
0.0
 10
8588.502584752063
 20
5739.251126502784
 30
0.0
 10
8588.521546969489
 20
5739.688949861986
 30
0.0
 10
8588.54030692667
 20
5740.062106954259
 30
0.0
 10
8588.564018847637
 20
5740.485134737394
 30
0.0
 10
8588.59680390857
 20
5740.979491312693
 30
0.0
 10
8588.654965297663
 20
5741.681904330017
 30
0.0
 10
8588.708810475233
 20
5742.115266407895
 30
0.0
 10
8588.751190591722
 20
5742.377122824345
 30
0.0
 10
8588.762844155359
 20
5742.445040937457
 30
0.0
 10
8588.774542726715
 20
5742.509333149102
 30
0.0
 10
8588.786285774431
 20
5742.570073575502
 30
0.0
 10
8588.798023922614
 20
5742.627391061852
 30
0.0
 10
8588.809887500747
 20
5742.681198926098
 30
0.0
 10
8588.818077779295
 20
5742.717688650487
 30
0.0
 10
8588.828078773546
 20
5742.756696197993
 30
0.0
 10
8588.841000914272
 20
5742.801850211114
 30
0.0
 10
8588.862466840395
 20
5742.869541342365
 30
0.0
 10
8588.894833133034
 20
5742.956067781213
 30
0.0
 10
8588.941045701991
 20
5743.049482155211
 30
0.0
 10
8589.001466246571
 20
5743.122946027584
 30
0.0
 10
8589.065616732041
 20
5743.144886632008
 30
0.0
 10
8589.119180836355
 20
5743.116543351331
 30
0.0
 10
8589.15317033312
 20
5743.077929700214
 30
0.0
 10
8589.170231015494
 20
5743.051951486216
 30
0.0
 10
8589.17773581261
 20
5743.039519127537
 30
0.0
 10
8589.180608590394
 20
5743.034935835283
 30
0.0
 10
8589.18155409989
 20
5743.033792324371
 30
0.0
 10
8589.18176547772
 20
5743.03370398087
 30
0.0
 10
8589.181804879136
 20
5743.033718208646
 30
0.0
 10
8589.181795730832
 20
5743.033741553134
 30
0.0
 10
8589.18179251927
 20
5743.033749748343
 30
0.0
  0
SPLINE
  5
13D
330
1F
100
AcDbEntity
  8
0
  6
SLD-Plná
 62
     7
370
    25
100
AcDbSpline
210
0.0
220
0.0
230
1.0
 70
     8
 71
     3
 72
    20
 73
    16
 74
     0
 42
0.00000001
 43
0.00000001
 40
0.0
 40
0.0
 40
0.0
 40
0.0
 40
0.045055649124031
 40
0.1373888567493269
 40
0.2293308437939658
 40
0.3208554026952389
 40
0.4128738793882817
 40
0.5053805025854858
 40
0.5863729992830942
 40
0.6674573986507522
 40
0.7484938362249635
 40
0.8295429774175691
 40
0.8945440324367044
 40
0.9595864436877396
 40
1.0
 40
1.0
 40
1.0
 40
1.0
 10
8588.36186780861
 20
5744.647978998914
 30
0.0
 10
8588.36186780866
 20
5744.645474865763
 30
0.0
 10
8588.361867808819
 20
5744.637838975539
 30
0.0
 10
8588.361867809066
 20
5744.355006750379
 30
0.0
 10
8588.361867809339
 20
5743.663990920932
 30
0.0
 10
8588.361867809577
 20
5742.498412636205
 30
0.0
 10
8588.361867809776
 20
5740.804345259891
 30
0.0
 10
8588.361867809917
 20
5738.64503862666
 30
0.0
 10
8588.36186781001
 20
5736.117103126781
 30
0.0
 10
8588.361867810057
 20
5733.317004959548
 30
0.0
 10
8588.361867810057
 20
5730.142656362411
 30
0.0
 10
8588.361867810016
 20
5726.84923462766
 30
0.0
 10
8588.361867809936
 20
5723.540604653542
 30
0.0
 10
8588.361867809848
 20
5720.740664600822
 30
0.0
 10
8588.361867809772
 20
5718.919944699149
 30
0.0
 10
8588.361867809743
 20
5718.222195980178
 30
0.0
  0
SPLINE
  5
13E
330
1F
100
AcDbEntity
  8
0
  6
SLD-Plná
 62
     7
370
    25
100
AcDbSpline
210
0.0
220
0.0
230
1.0
 70
    24
 71
     3
 72
    10
 73
     6
 74
     0
 42
0.00000001
 43
0.00000001
 40
0.0
 40
0.0
 40
0.0
 40
0.0
 40
0.1405431324186016
 40
0.5702185292497448
 40
1.0
 40
1.0
 40
1.0
 40
1.0
 10
8588.361867809735
 20
5718.050382513288
 30
0.0
 10
8588.361867809721
 20
5717.687445382647
 30
0.0
 10
8588.361867809663
 20
5716.214918954046
 30
0.0
 10
8588.361867809532
 20
5713.524908250924
 30
0.0
 10
8588.361867809399
 20
5711.192660047194
 30
0.0
 10
8588.361867809332
 20
5710.026392022629
 30
0.0
  0
SPLINE
  5
13F
330
1F
100
AcDbEntity
  8
0
  6
SLD-Plná
 62
     7
370
    25
100
AcDbSpline
210
0.0
220
0.0
230
1.0
 70
     8
 71
     3
 72
    10
 73
     6
 74
     0
 42
0.00000001
 43
0.00000001
 40
0.0
 40
0.0
 40
0.0
 40
0.0
 40
0.1811734328851211
 40
0.6572732454824841
 40
1.0
 40
1.0
 40
1.0
 40
1.0
 10
8641.36139900409
 20
5719.513836759364
 30
0.0
 10
8641.361354091618
 20
5719.758269688709
 30
0.0
 10
8641.361191155109
 20
5720.645040018196
 30
0.0
 10
8641.36069994768
 20
5721.963936825287
 30
0.0
 10
8641.359764731935
 20
5722.998581360373
 30
0.0
 10
8641.35937328951
 20
5723.431640542661
 30
0.0
  0
LWPOLYLINE
  5
140
330
1F
100
AcDbEntity
  8
0
  6
SLD-Plná
 62
     7
370
    25
100
AcDbPolyline
 90
       20
 70
   128
 43
0.0
 10
8614.8618678076
 20
5709.6475491224
 10
8617.0502204626
 20
5709.6475490662
 10
8619.2236244501
 20
5709.6475488984
 10
8621.3672332169
 20
5709.64754862
 10
8623.4664037416
 20
5709.647548233
 10
8625.5067965611
 20
5709.64754774
 10
8627.4744737233
 20
5709.6475471443
 10
8629.3559939981
 20
5709.6475464501
 10
8631.1385046942
 20
5709.6475456621
 10
8632.8098294561
 20
5709.6475447856
 10
8634.358551441
 20
5709.6475438267
 10
8635.7740913073
 20
5709.647542792
 10
8637.0467794823
 20
5709.6475416883
 10
8638.1679222155
 20
5709.6475405234
 10
8639.129860965
 20
5709.6475393052
 10
8639.9260247138
 20
5709.647538042
 10
8640.5509748563
 20
5709.6475367424
 10
8641.0004423492
 20
5709.6475354152
 10
8641.2713568738
 20
5709.6475340697
 10
8641.3618678093
 20
5709.6475327149
  0
SPLINE
  5
141
330
1F
100
AcDbEntity
  8
0
  6
SLD-Plná
 62
     7
370
    25
100
AcDbSpline
210
0.0
220
0.0
230
1.0
 70
     8
 71
     3
 72
     9
 73
     5
 74
     0
 42
0.00000001
 43
0.00000001
 40
0.0
 40
0.0
 40
0.0
 40
0.0
 40
0.5603096674286456
 40
1.0
 40
1.0
 40
1.0
 40
1.0
 10
8641.361867390846
 20
5709.647548766832
 30
0.0
 10
8641.361867157882
 20
5710.005690344461
 30
0.0
 10
8641.361866742109
 20
5710.644875420944
 30
0.0
 10
8641.361864159138
 20
5711.282929754272
 30
0.0
 10
8641.361863023432
 20
5711.563476076292
 30
0.0
  0
LINE
  5
142
330
1F
100
AcDbEntity
  8
0
  6
SLD-Plná
 62
     7
370
    25
100
AcDbLine
 10
8588.3618678093
 20
5709.6475327181
 30
0.0
 11
8588.3618678093
 21
5710.0263914473
 31
0.0
  0
LWPOLYLINE
  5
143
330
1F
100
AcDbEntity
  8
0
  6
SLD-Plná
 62
     7
370
    25
100
AcDbPolyline
 90
       20
 70
   128
 43
0.0
 10
8614.8618678076
 20
5709.6475491224
 10
8612.6735151526
 20
5709.6475490665
 10
8610.5001111652
 20
5709.6475488989
 10
8608.3565023984
 20
5709.6475486208
 10
8606.2573318738
 20
5709.647548234
 10
8604.2169390545
 20
5709.6475477412
 10
8602.2492618923
 20
5709.6475471458
 10
8600.3677416176
 20
5709.6475464519
 10
8598.5852309217
 20
5709.6475456641
 10
8596.91390616
 20
5709.6475447878
 10
8595.3651841753
 20
5709.6475438291
 10
8593.9496443093
 20
5709.6475427945
 10
8592.6769561344
 20
5709.647541691
 10
8591.5558134015
 20
5709.6475405263
 10
8590.5938746523
 20
5709.6475393081
 10
8589.7977109037
 20
5709.647538045
 10
8589.1727607615
 20
5709.6475367455
 10
8588.7232932689
 20
5709.6475354184
 10
8588.4523787445
 20
5709.6475340729
 10
8588.3618678093
 20
5709.6475327181
  0
SPLINE
  5
144
330
1F
100
AcDbEntity
  8
0
  6
SLD-Plná
 62
     7
370
    25
100
AcDbSpline
210
0.0
220
0.0
230
1.0
 70
     8
 71
     3
 72
    27
 73
    23
 74
     0
 42
0.00000001
 43
0.00000001
 40
0.0
 40
0.0
 40
0.0
 40
0.0
 40
0.0334468222257799
 40
0.0656081444623088
 40
0.0965048725053457
 40
0.1261605866982883
 40
0.1872845048058689
 40
0.2465411160232132
 40
0.3042343770177465
 40
0.3606934997392512
 40
0.4162696321690912
 40
0.4654433581609688
 40
0.5140163793208875
 40
0.5622391954280493
 40
0.6115576214093915
 40
0.6600335383105062
 40
0.7079797714097038
 40
0.7570148176074788
 40
0.8055946175762221
 40
0.8540789945918267
 40
0.9277820542135571
 40
1.0
 40
1.0
 40
1.0
 40
1.0
 10
8641.361867808744
 20
5744.632740200326
 30
0.0
 10
8641.361867808784
 20
5744.608753206879
 30
0.0
 10
8641.361867808864
 20
5744.561701139549
 30
0.0
 10
8641.361867808977
 20
5744.435182750794
 30
0.0
 10
8641.361867809082
 20
5744.268688983188
 30
0.0
 10
8641.361867809217
 20
5743.9810131246
 30
0.0
 10
8641.361867809374
 20
5743.487163754045
 30
0.0
 10
8641.361867809539
 20
5742.664046497072
 30
0.0
 10
8641.361867809683
 20
5741.62131848829
 30
0.0
 10
8641.361867809803
 20
5740.359603260368
 30
0.0
 10
8641.361867809897
 20
5738.928403839242
 30
0.0
 10
8641.361867809966
 20
5737.36922626597
 30
0.0
 10
8641.361867810016
 20
5735.716498729709
 30
0.0
 10
8641.361867810048
 20
5733.896928769418
 30
0.0
 10
8641.36186781006
 20
5731.91973623672
 30
0.0
 10
8641.361867810054
 20
5729.789193185491
 30
0.0
 10
8641.361867810025
 20
5727.515028036871
 30
0.0
 10
8641.361867809977
 20
5725.104813032829
 30
0.0
 10
8641.361867809906
 20
5722.564144339787
 30
0.0
 10
8641.361867809801
 20
5719.472876454445
 30
0.0
 10
8641.36186780965
 20
5715.811482423162
 30
0.0
 10
8641.361867809497
 20
5712.970215976625
 30
0.0
 10
8641.36186780942
 20
5711.564041275272
 30
0.0
  0
SPLINE
  5
145
330
1F
100
AcDbEntity
  8
0
  6
SLD-Plná
 62
     7
370
    25
100
AcDbSpline
210
0.0
220
0.0
230
1.0
 70
    11
 71
     3
 72
    68
 73
    64
 74
     0
 42
0.00000001
 43
0.00000001
 40
0.0
 40
0.0
 40
0.0
 40
0.0
 40
0.0295448256130248
 40
0.037477245911324
 40
0.0456291626543926
 40
0.0540031304172209
 40
0.0626015055487216
 40
0.0741230067110114
 40
0.0883688812486781
 40
0.1053407620191092
 40
0.1250390269087344
 40
0.142773074512034
 40
0.1590965306014959
 40
0.1740132284688651
 40
0.1875283072654761
 40
0.2200758967752798
 40
0.2498110802024329
 40
0.2794247646207054
 40
0.2873328771880705
 40
0.2954432777902344
 40
0.3037582566988972
 40
0.3122799389903217
 40
0.3300312718366094
 40
0.3509269575544262
 40
0.3749732204469773
 40
0.3900261531941571
 40
0.4037782321855189
 40
0.4162305196282337
 40
0.4273845394045533
 40
0.4377461327785882
 40
0.4702874623377982
 40
0.4853063758611121
 40
0.4998224531273752
 40
0.5291250486037051
 40
0.5370242664136167
 40
0.5451539565990235
 40
0.553516623530544
 40
0.5621145676309912
 40
0.5739154775550162
 40
0.5883278387623941
 40
0.6053535031487746
 40
0.624993071118597
 40
0.6428253674534545
 40
0.6592221808456686
 40
0.6741873675308582
 40
0.6877261221741734
 40
0.7201866915162832
 40
0.7498972833106186
 40
0.7794656382305214
 40
0.7873552172796
 40
0.795444199651723
 40
0.8037348670686149
 40
0.8122293384884364
 40
0.8299742635237425
 40
0.8508817953630681
 40
0.8749581511175072
 40
0.8901715925052226
 40
0.9040356337362523
 40
0.9165512909501924
 40
0.9277200499488024
 40
0.937544111656675
 40
0.9702964297209492
 40
1.0
 40
1.0
 40
1.0
 40
1.0
 10
8625.90985465786
 20
5631.558451447328
 30
0.0
 10
8625.861780332181
 20
5632.250100231586
 30
0.0
 10
8625.800798644588
 20
5633.127448160843
 30
0.0
 10
8625.552155282337
 20
5634.160640368156
 30
0.0
 10
8625.394430240036
 20
5634.706261692254
 30
0.0
 10
8625.203041330346
 20
5635.25617952702
 30
0.0
 10
8624.953897413412
 20
5635.866021772493
 30
0.0
 10
8624.608672035003
 20
5636.57886141321
 30
0.0
 10
8624.11084560897
 20
5637.425793830151
 30
0.0
 10
8623.423629375051
 20
5638.371037984747
 30
0.0
 10
8622.580459305691
 20
5639.289651875868
 30
0.0
 10
8621.647641816915
 20
5640.094759630219
 30
0.0
 10
8620.722066381983
 20
5640.736305301722
 30
0.0
 10
8619.820472482503
 20
5641.238824179041
 30
0.0
 10
8618.532447825206
 20
5641.813371441162
 30
0.0
 10
8616.821997827039
 20
5642.295822839077
 30
0.0
 10
8614.665945886769
 20
5642.461808967044
 30
0.0
 10
8613.092220478082
 20
5642.284137879453
 30
0.0
 10
8612.057902934623
 20
5642.040722067353
 30
0.0
 10
8611.514393849437
 20
5641.883479997178
 30
0.0
 10
8610.967420388137
 20
5641.694028569827
 30
0.0
 10
8610.225648260424
 20
5641.392260588881
 30
0.0
 10
8609.253427611566
 20
5640.89973115035
 30
0.0
 10
8608.053770376857
 20
5640.097010619703
 30
0.0
 10
8607.02673829074
 20
5639.17854084908
 30
0.0
 10
8606.22914987353
 20
5638.268899796346
 30
0.0
 10
8605.671171497506
 20
5637.504258549326
 30
0.0
 10
8605.223313414692
 20
5636.771764019227
 30
0.0
 10
8604.865411464254
 20
5636.075917678768
 30
0.0
 10
8604.370279700599
 20
5634.930091195068
 30
0.0
 10
8604.003734000611
 20
5633.622436039002
 30
0.0
 10
8603.827223903452
 20
5632.181852756436
 30
0.0
 10
8603.787966969603
 20
5630.804233816837
 30
0.0
 10
8603.923307017098
 20
5629.593475450291
 30
0.0
 10
8604.162755504216
 20
5628.566274623539
 30
0.0
 10
8604.319061951208
 20
5628.021628297589
 30
0.0
 10
8604.508281491931
 20
5627.471795637582
 30
0.0
 10
8604.757880799249
 20
5626.855344776085
 30
0.0
 10
8605.105979799051
 20
5626.132266988165
 30
0.0
 10
8605.608971484551
 20
5625.274788695985
 30
0.0
 10
8606.298267112417
 20
5624.326281576977
 30
0.0
 10
8607.14270078648
 20
5623.405906990677
 30
0.0
 10
8608.077419181636
 20
5622.599014648736
 30
0.0
 10
8609.007453910986
 20
5621.95499235327
 30
0.0
 10
8609.912409045637
 20
5621.451580477846
 30
0.0
 10
8611.200763396619
 20
5620.878514685504
 30
0.0
 10
8612.909650847443
 20
5620.398095057928
 30
0.0
 10
8615.062111924059
 20
5620.233493886401
 30
0.0
 10
8616.633669349607
 20
5620.411376498697
 30
0.0
 10
8617.666039614955
 20
5620.654425109345
 30
0.0
 10
8618.208123123337
 20
5620.811230376171
 30
0.0
 10
8618.753536806207
 20
5621.000028276302
 30
0.0
 10
8619.49417724264
 20
5621.301036543951
 30
0.0
 10
8620.466171830707
 20
5621.79290020238
 30
0.0
 10
8621.666856108097
 20
5622.595553262654
 30
0.0
 10
8622.697647259578
 20
5623.516816524236
 30
0.0
 10
8623.499541826819
 20
5624.431913201745
 30
0.0
 10
8624.061200805108
 20
5625.203389744656
 30
0.0
 10
8624.509977163274
 20
5625.940317388198
 30
0.0
 10
8624.86200554024
 20
5626.627362528396
 30
0.0
 10
8625.352133886941
 20
5627.766536097482
 30
0.0
 10
8625.832686777236
 20
5629.397349343492
 30
0.0
 10
8625.884982966993
 20
5630.861914714354
 30
0.0
 10
8625.90985465786
 20
5631.558451447328
 30
0.0
  0
LWPOLYLINE
  5
146
330
1F
100
AcDbEntity
  8
0
  6
SLD-Plná
 62
     7
370
    25
100
AcDbPolyline
 90
       51
 70
   128
 43
0.0
 10
8639.3618678021
 20
5589.6475264625
 10
8639.6397982332
 20
5589.6475268974
 10
8640.3155977603
 20
5589.6475281505
 10
8640.8263200812
 20
5589.6475294333
 10
8641.1686529656
 20
5589.6475307374
 10
8641.3403762536
 20
5589.6475320543
 10
8641.3403762536
 20
5589.6475333755
 10
8641.1686529656
 20
5589.6475346924
 10
8640.8263200812
 20
5589.6475359965
 10
8640.3155977603
 20
5589.6475372794
 10
8639.6397982332
 20
5589.6475385326
 10
8638.8033043192
 20
5589.6475397481
 10
8637.8115410023
 20
5589.6475409181
 10
8636.6709402482
 20
5589.6475420348
 10
8635.3888992905
 20
5589.6475430911
 10
8633.9737326567
 20
5589.6475440801
 10
8632.4346182454
 20
5589.6475449954
 10
8630.7815378044
 20
5589.6475458311
 10
8629.0252121944
 20
5589.6475465818
 10
8627.1770318612
 20
5589.6475472425
 10
8625.2489829633
 20
5589.647547809
 10
8623.2535696378
 20
5589.6475482776
 10
8621.2037329057
 20
5589.6475486453
 10
8619.1127667448
 20
5589.6475489097
 10
8616.994231873
 20
5589.6475490691
 10
8614.8618678021
 20
5589.6475491224
 10
8612.7295037311
 20
5589.6475490693
 10
8610.6109688593
 20
5589.6475489102
 10
8608.5200026984
 20
5589.6475486461
 10
8606.4701659663
 20
5589.6475482786
 10
8604.4747526408
 20
5589.6475478102
 10
8602.5467037429
 20
5589.647547244
 10
8600.6985234097
 20
5589.6475465835
 10
8598.9421977997
 20
5589.6475458331
 10
8597.2891173587
 20
5589.6475449976
 10
8595.7500029474
 20
5589.6475440824
 10
8594.3348363136
 20
5589.6475430936
 10
8593.0527953559
 20
5589.6475420374
 10
8591.9121946018
 20
5589.6475409208
 10
8590.9204312849
 20
5589.647539751
 10
8590.0839373709
 20
5589.6475385356
 10
8589.4081378438
 20
5589.6475372824
 10
8588.8974155229
 20
5589.6475359997
 10
8588.5550826385
 20
5589.6475346956
 10
8588.3833593505
 20
5589.6475333787
 10
8588.3833593505
 20
5589.6475320575
 10
8588.5550826385
 20
5589.6475307406
 10
8588.8974155229
 20
5589.6475294365
 10
8589.4081378438
 20
5589.6475281536
 10
8590.0839373709
 20
5589.6475269004
 10
8590.3618678021
 20
5589.6475264655
  0
SPLINE
  5
147
330
1F
100
AcDbEntity
  8
0
  6
SLD-Plná
 62
     7
370
    25
100
AcDbSpline
210
0.0
220
0.0
230
1.0
 70
     8
 71
     3
 72
    35
 73
    31
 74
     0
 42
0.00000001
 43
0.00000001
 40
0.0
 40
0.0
 40
0.0
 40
0.0
 40
0.0239255978760461
 40
0.0858296732890493
 40
0.1274065056198715
 40
0.1611080789812056
 40
0.2047162298645348
 40
0.2439447841948795
 40
0.2817174247614463
 40
0.3150807601295116
 40
0.3441029581687459
 40
0.3610455735988305
 40
0.3806202793235181
 40
0.4026896372745795
 40
0.4647062913396983
 40
0.5233284729296817
 40
0.5861061513337915
 40
0.6267171335287095
 40
0.6654453111699837
 40
0.709281490734812
 40
0.747874552075398
 40
0.7888567935681229
 40
0.8217545325807124
 40
0.8465647057292242
 40
0.8702408164889845
 40
0.9034771405272943
 40
0.9347933954374137
 40
0.9642440014236314
 40
0.9931782379806475
 40
1.0
 40
1.0
 40
1.0
 40
1.0
 10
8603.819295951736
 20
5631.346170900649
 30
0.0
 10
8603.822962450782
 20
5631.627082683532
 30
0.0
 10
8603.836115493685
 20
5632.634813678293
 30
0.0
 10
8604.115063758429
 20
5634.112941165051
 30
0.0
 10
8604.641494113144
 20
5635.616777189635
 30
0.0
 10
8605.245795377463
 20
5636.845238457808
 30
0.0
 10
8605.975219955802
 20
5637.966071375722
 30
0.0
 10
8606.869116984859
 20
5639.015490913645
 30
0.0
 10
8607.795164170237
 20
5639.871687631608
 30
0.0
 10
8608.71852711183
 20
5640.553327382469
 30
0.0
 10
8609.500970398722
 20
5641.021097835757
 30
0.0
 10
8610.175102718196
 20
5641.361032476993
 30
0.0
 10
8610.796642169007
 20
5641.631056753706
 30
0.0
 10
8611.929096058784
 20
5642.037403075968
 30
0.0
 10
8613.572081385439
 20
5642.391032878108
 30
0.0
 10
8615.739388520411
 20
5642.432323082595
 30
0.0
 10
8617.620219569857
 20
5642.099574664761
 30
0.0
 10
8619.18100868218
 20
5641.54954711026
 30
0.0
 10
8620.454579433352
 20
5640.913309082734
 30
0.0
 10
8621.610445914781
 20
5640.135441686899
 30
0.0
 10
8622.670219741747
 20
5639.205708555394
 30
0.0
 10
8623.525643481757
 20
5638.24527103627
 30
0.0
 10
8624.17522921707
 20
5637.321869278106
 30
0.0
 10
8624.641057540568
 20
5636.514893136567
 30
0.0
 10
8625.048684067275
 20
5635.667187911868
 30
0.0
 10
8625.407518842132
 20
5634.709764784259
 30
0.0
 10
8625.688285265576
 20
5633.650099093513
 30
0.0
 10
8625.849938624053
 20
5632.613213866925
 30
0.0
 10
8625.920259269667
 20
5631.848376975077
 30
0.0
 10
8625.905558835344
 20
5631.428942419127
 30
0.0
 10
8625.902754190849
 20
5631.348919965907
 30
0.0
  0
LWPOLYLINE
  5
148
330
1F
100
AcDbEntity
  8
0
  6
SLD-Plná
 62
     7
370
    25
100
AcDbPolyline
 90
       49
 70
   128
 43
0.0
 10
8639.3618678021
 20
5589.6475313432
 10
8639.4133253214
 20
5589.6475317587
 10
8639.4564726155
 20
5589.647533034
 10
8639.3271064281
 20
5589.6475343069
 10
8639.02613417
 20
5589.6475355688
 10
8638.5556669453
 20
5589.6475368106
 10
8637.9190047435
 20
5589.6475380237
 10
8637.1206132927
 20
5589.6475391996
 10
8636.1660927351
 20
5589.64754033
 10
8635.0621383467
 20
5589.647541407
 10
8633.8164935743
 20
5589.6475424231
 10
8632.437895721
 20
5589.6475433711
 10
8630.9360146602
 20
5589.6475442443
 10
8629.3213850084
 20
5589.6475450367
 10
8627.6053322326
 20
5589.6475457426
 10
8625.79989321
 20
5589.6475463572
 10
8623.9177317981
 20
5589.6475468761
 10
8621.9720500069
 20
5589.6475472957
 10
8619.9764953962
 20
5589.647547613
 10
8617.9450653477
 20
5589.6475478259
 10
8615.8920088838
 20
5589.6475479327
 10
8613.8317267203
 20
5589.6475479328
 10
8611.7786702564
 20
5589.6475478262
 10
8609.7472402079
 20
5589.6475476136
 10
8607.7516855972
 20
5589.6475472966
 10
8605.806003806
 20
5589.6475468772
 10
8603.9238423941
 20
5589.6475463585
 10
8602.1184033715
 20
5589.6475457442
 10
8600.4023505957
 20
5589.6475450384
 10
8598.7877209439
 20
5589.6475442462
 10
8597.2858398831
 20
5589.6475433732
 10
8595.9072420298
 20
5589.6475424254
 10
8594.6615972574
 20
5589.6475414095
 10
8593.557642869
 20
5589.6475403326
 10
8592.6031223114
 20
5589.6475392023
 10
8591.8047308605
 20
5589.6475380265
 10
8591.1680686588
 20
5589.6475368135
 10
8590.6976014341
 20
5589.6475355717
 10
8590.396629176
 20
5589.6475343099
 10
8590.2672629886
 20
5589.6475330369
 10
8590.3104102827
 20
5589.6475317617
 10
8590.5257684112
 20
5589.6475304932
 10
8590.9118267914
 20
5589.6475292402
 10
8591.4658775012
 20
5589.6475280117
 10
8592.184034273
 20
5589.6475268161
 10
8593.061259753
 20
5589.647525662
 10
8594.0914008347
 20
5589.6475245573
 10
8595.2672318187
 20
5589.6475235098
 10
8595.911867802
 20
5589.6475230064
  0
LWPOLYLINE
  5
149
330
1F
100
AcDbEntity
  8
0
  6
SLD-Plná
 62
     7
370
    25
100
AcDbPolyline
 90
       29
 70
   128
 43
0.0
 10
8603.9400527827
 20
5589.6475293741
 10
8604.7188760515
 20
5589.6475293197
 10
8605.4586458696
 20
5589.6475291594
 10
8606.1222670892
 20
5589.6475289012
 10
8606.6764629713
 20
5589.6475285581
 10
8607.0934438203
 20
5589.6475281472
 10
8607.3523004753
 20
5589.6475276892
 10
8607.4400527827
 20
5589.647527207
 10
8607.3523004753
 20
5589.6475267249
 10
8607.0934438203
 20
5589.6475262669
 10
8606.6764629713
 20
5589.6475258561
 10
8606.1222670892
 20
5589.647525513
 10
8605.4586458696
 20
5589.6475252549
 10
8604.7188760515
 20
5589.6475250947
 10
8603.9400527827
 20
5589.6475250404
 10
8603.1612295138
 20
5589.6475250948
 10
8602.4214596958
 20
5589.6475252551
 10
8601.7578384762
 20
5589.6475255133
 10
8601.203642594
 20
5589.6475258564
 10
8600.786661745
 20
5589.6475262673
 10
8600.52780509
 20
5589.6475267253
 10
8600.4400527827
 20
5589.6475272075
 10
8600.52780509
 20
5589.6475276896
 10
8600.786661745
 20
5589.6475281476
 10
8601.203642594
 20
5589.6475285584
 10
8601.7578384762
 20
5589.6475289015
 10
8602.4214596958
 20
5589.6475291596
 10
8603.1612295138
 20
5589.6475293198
 10
8603.9400527827
 20
5589.6475293741
  0
LWPOLYLINE
  5
14A
330
1F
100
AcDbEntity
  8
0
  6
SLD-Plná
 62
     7
370
    25
100
AcDbPolyline
 90
       29
 70
   128
 43
0.0
 10
8625.9400527827
 20
5589.6475293727
 10
8626.7188760515
 20
5589.6475293184
 10
8627.4586458696
 20
5589.6475291581
 10
8628.1222670892
 20
5589.6475288999
 10
8628.6764629713
 20
5589.6475285567
 10
8629.0934438203
 20
5589.6475281459
 10
8629.3523004753
 20
5589.6475276879
 10
8629.4400527827
 20
5589.6475272057
 10
8629.3523004753
 20
5589.6475267235
 10
8629.0934438203
 20
5589.6475262656
 10
8628.6764629713
 20
5589.6475258548
 10
8628.1222670892
 20
5589.6475255117
 10
8627.4586458696
 20
5589.6475252536
 10
8626.7188760515
 20
5589.6475250934
 10
8625.9400527827
 20
5589.6475250391
 10
8625.1612295138
 20
5589.6475250935
 10
8624.4214596958
 20
5589.6475252538
 10
8623.7578384762
 20
5589.647525512
 10
8623.203642594
 20
5589.6475258551
 10
8622.786661745
 20
5589.647526266
 10
8622.52780509
 20
5589.647526724
 10
8622.4400527827
 20
5589.6475272061
 10
8622.52780509
 20
5589.6475276883
 10
8622.786661745
 20
5589.6475281463
 10
8623.203642594
 20
5589.6475285571
 10
8623.7578384762
 20
5589.6475289001
 10
8624.4214596958
 20
5589.6475291582
 10
8625.1612295138
 20
5589.6475293185
 10
8625.9400527827
 20
5589.6475293727
  0
LWPOLYLINE
  5
14B
330
1F
100
AcDbEntity
  8
0
  6
SLD-Plná
 62
     7
370
    25
100
AcDbPolyline
 90
       18
 70
   128
 43
0.0
 10
8614.8618678021
 20
5589.6475209847
 10
8613.0329290007
 20
5589.6475210396
 10
8611.2210665082
 20
5589.6475212035
 10
8609.4431971964
 20
5589.6475214749
 10
8607.7159205521
 20
5589.6475218512
 10
8606.0553636918
 20
5589.6475223291
 10
8604.4770307877
 20
5589.6475229038
 10
8602.9956583087
 20
5589.6475235702
 10
8601.6250774306
 20
5589.647524322
 10
8600.3780848977
 20
5589.6475251522
 10
8599.2663235434
 20
5589.647526053
 10
8598.3001735838
 20
5589.647527016
 10
8597.4886557008
 20
5589.6475280323
 10
8596.8393468183
 20
5589.6475290923
 10
8596.3583093582
 20
5589.6475301861
 10
8596.0500346379
 20
5589.6475313035
 10
8595.9174009352
 20
5589.6475324342
 10
8595.911867802
 20
5589.6475327176
  0
LWPOLYLINE
  5
14C
330
1F
100
AcDbEntity
  8
0
  6
SLD-Plná
 62
     7
370
    25
100
AcDbPolyline
 90
       18
 70
   128
 43
0.0
 10
8633.8118678021
 20
5589.6475327153
 10
8633.8063346689
 20
5589.6475324319
 10
8633.6737009662
 20
5589.6475313012
 10
8633.3654262459
 20
5589.6475301838
 10
8632.8843887858
 20
5589.6475290901
 10
8632.2350799033
 20
5589.6475280302
 10
8631.4235620203
 20
5589.647527014
 10
8630.4574120607
 20
5589.6475260511
 10
8629.3456507064
 20
5589.6475251505
 10
8628.0986581735
 20
5589.6475243204
 10
8626.7280772954
 20
5589.6475235688
 10
8625.2467048164
 20
5589.6475229026
 10
8623.6683719123
 20
5589.647522328
 10
8622.007815052
 20
5589.6475218504
 10
8620.2805384077
 20
5589.6475214742
 10
8618.5026690959
 20
5589.6475212031
 10
8616.6908066034
 20
5589.6475210394
 10
8614.8618678021
 20
5589.6475209847
  0
LWPOLYLINE
  5
14D
330
1F
100
AcDbEntity
  8
0
  6
SLD-Plná
 62
     7
370
    25
100
AcDbPolyline
 90
       30
 70
   128
 43
0.0
 10
8628.5618678021
 20
5589.6475356873
 10
8628.4757250776
 20
5589.6475347377
 10
8628.2183801989
 20
5589.6475338
 10
8627.7930694273
 20
5589.6475328861
 10
8627.2051412923
 20
5589.6475320074
 10
8626.4619893315
 20
5589.647531175
 10
8625.5729591119
 20
5589.6475303993
 10
8624.5492307043
 20
5589.6475296902
 10
8623.4036780875
 20
5589.6475290565
 10
8622.1507072503
 20
5589.6475285062
 10
8620.806075028
 20
5589.6475280462
 10
8619.3866909508
 20
5589.6475276823
 10
8617.9104045973
 20
5589.647527419
 10
8616.3957811247
 20
5589.6475272598
 10
8614.8618678021
 20
5589.6475272066
 10
8613.3279544794
 20
5589.64752726
 10
8611.8133310068
 20
5589.6475274194
 10
8610.3370446533
 20
5589.6475276828
 10
8608.9176605761
 20
5589.6475280469
 10
8607.5730283538
 20
5589.647528507
 10
8606.3200575166
 20
5589.6475290575
 10
8605.1745048998
 20
5589.6475296914
 10
8604.1507764922
 20
5589.6475304006
 10
8603.2617462726
 20
5589.6475311764
 10
8602.5185943118
 20
5589.6475320089
 10
8601.9306661768
 20
5589.6475328876
 10
8601.5053554052
 20
5589.6475338016
 10
8601.2480105265
 20
5589.6475347393
 10
8601.161867802
 20
5589.647535689
 10
8601.1618678021
 20
5589.647535689
  0
LINE
  5
14E
330
1F
100
AcDbEntity
  8
0
  6
SLD-Plná
 62
     8
370
    25
100
AcDbLine
 10
8614.8618678098
 20
5730.1976011098
 30
0.0
 11
8614.8618678098
 21
5731.835437368
 31
0.0
  0
LINE
  5
14F
330
1F
100
AcDbEntity
  8
0
  6
SLD-Plná
 62
     8
370
    25
100
AcDbLine
 10
8617.4096943657
 20
5725.1365058988
 30
0.0
 11
8617.3780113778
 21
5724.9257757601
 31
0.0
  0
ARC
  5
150
330
1F
100
AcDbEntity
  8
0
  6
SLD-Plná
 62
     8
370
    25
100
AcDbCircle
 10
8617.1067500726
 20
5731.8514491979
 30
0.0
 40
6.830834434980058
100
AcDbArc
 50
268.2110897438
 51
295.7083388503
  0
LINE
  5
151
330
1F
100
AcDbEntity
  8
0
  6
SLD-Plná
 62
     8
370
    25
100
AcDbLine
 10
8612.7875869709
 20
5726.9590874576
 30
0.0
 11
8612.7921244928
 21
5726.832630774
 31
0.0
  0
ARC
  5
152
330
1F
100
AcDbEntity
  8
0
  6
SLD-Plná
 62
     8
370
    25
100
AcDbCircle
 10
8617.1039144046
 20
5731.8343639166
 30
0.0
 40
6.812342831244551
100
AcDbArc
 50
268.2013165414
 51
295.7344697916
  0
LINE
  5
153
330
1F
100
AcDbEntity
  8
0
  6
SLD-Plná
 62
     8
370
    25
100
AcDbLine
 10
8616.8518216578
 20
5725.3940923132
 30
0.0
 11
8616.8518216578
 21
5725.1399014252
 31
0.0
  0
ARC
  5
154
330
1F
100
AcDbEntity
  8
0
  6
SLD-Plná
 62
     8
370
    25
100
AcDbCircle
 10
8616.5444309385
 20
5729.4060415947
 30
0.0
 40
4.134541819144877
100
AcDbArc
 50
266.3790428117
 51
298.8413724034
  0
LINE
  5
155
330
1F
100
AcDbEntity
  8
0
  6
SLD-Plná
 62
     8
370
    25
100
AcDbLine
 10
8613.3914135529
 20
5726.759861225
 30
0.0
 11
8613.4026144238
 21
5726.5706879846
 31
0.0
  0
ARC
  5
156
330
1F
100
AcDbEntity
  8
0
  6
SLD-Plná
 62
     8
370
    25
100
AcDbCircle
 10
8612.9937950219
 20
5723.4231614274
 30
0.0
 40
3.080942940334653
100
AcDbArc
 50
81.6647458375
 51
126.7959094829
  0
ARC
  5
157
330
1F
100
AcDbEntity
  8
0
  6
SLD-Plná
 62
     8
370
    25
100
AcDbCircle
 10
8616.5369664294
 20
5729.3990048566
 30
0.0
 40
4.125088788430929
100
AcDbArc
 50
266.3978644071
 51
298.7975635023
  0
ARC
  5
158
330
1F
100
AcDbEntity
  8
0
  6
SLD-Plná
 62
     8
370
    25
100
AcDbCircle
 10
8613.0005876622
 20
5723.4357892461
 30
0.0
 40
3.065975806878687
100
AcDbArc
 50
81.6478948969
 51
126.8284470872
  0
LINE
  5
159
330
1F
100
AcDbEntity
  8
0
  6
SLD-Plná
 62
     8
370
    25
100
AcDbLine
 10
8616.2395281668
 20
5725.643286849
 30
0.0
 11
8616.2395281668
 21
5725.3965894208
 31
0.0
  0
LWPOLYLINE
  5
15A
330
1F
100
AcDbEntity
  8
0
  6
SLD-Plná
 62
     8
370
    25
100
AcDbPolyline
 90
        9
 70
   128
 43
0.0
 10
8615.7071912148
 20
5725.5212769575
 10
8616.2479070083
 20
5725.5769870278
 10
8616.676334149
 20
5725.6568935334
 10
8616.9577640179
 20
5725.7545229245
 10
8617.0693968409
 20
5725.8619658485
 10
8617.0021887904
 20
5725.9705179186
 10
8616.761584663
 20
5726.0713848917
 10
8616.3670767743
 20
5726.1563951255
 10
8616.1471809806
 20
5726.1876135712
  0
LINE
  5
15B
330
1F
100
AcDbEntity
  8
0
  6
SLD-Plná
 62
     8
370
    25
100
AcDbLine
 10
8613.9725576754
 20
5726.4993202357
 30
0.0
 11
8613.9784431328
 21
5726.3352977827
 31
0.0
  0
LWPOLYLINE
  5
15C
330
1F
100
AcDbEntity
  8
0
  6
SLD-Plná
 62
     8
370
    25
100
AcDbPolyline
 90
       11
 70
   128
 43
0.0
 10
8613.1182179505
 20
5726.1111459521
 10
8613.0474014707
 20
5726.0944197374
 10
8612.7659716018
 20
5725.9967903462
 10
8612.6543387788
 20
5725.8893474222
 10
8612.7215468293
 20
5725.7807953521
 10
8612.9621509566
 20
5725.679928379
 10
8613.3566588454
 20
5725.5949181452
 10
8613.8731098126
 20
5725.5326516743
 10
8614.4696640724
 20
5725.4981734253
 10
8615.0979923465
 20
5725.4942766211
 10
8615.7071912148
 20
5725.5212769575
  0
ARC
  5
15D
330
1F
100
AcDbEntity
  8
0
  6
SLD-Plná
 62
     8
370
    25
100
AcDbCircle
 10
8614.9284509661
 20
5720.7010897613
 30
0.0
 40
5.601673553799926
100
AcDbArc
 50
67.6155396962
 51
99.333529495
  0
LWPOLYLINE
  5
15E
330
1F
100
AcDbEntity
  8
0
  6
SLD-Plná
 62
     8
370
    25
100
AcDbPolyline
 90
       10
 70
   128
 43
0.0
 10
8614.0199642588
 20
5726.2286026293
 10
8613.4814359937
 20
5726.1731179406
 10
8613.0547421045
 20
5726.093534706
 10
8612.7744507926
 20
5725.9963002858
 10
8612.6632695931
 20
5725.8892920346
 10
8612.7302057455
 20
5725.7811791245
 10
8612.9698364809
 20
5725.6807202204
 10
8613.3627483422
 20
5725.5960539053
 10
8613.8771099472
 20
5725.5340393406
 10
8614.1130678625
 20
5725.516439928
  0
LINE
  5
15F
330
1F
100
AcDbEntity
  8
0
  6
SLD-Plná
 62
     8
370
    25
100
AcDbLine
 10
8609.4602027926
 20
5726.4896715648
 30
0.0
 11
8609.3296287758
 21
5726.4926566456
 31
0.0
  0
LINE
  5
160
330
1F
100
AcDbEntity
  8
0
  6
SLD-Plná
 62
     8
370
    25
100
AcDbLine
 10
8620.2629997388
 20
5726.4903834393
 30
0.0
 11
8620.3916358402
 21
5726.4933242171
 31
0.0
  0
LINE
  5
161
330
1F
100
AcDbEntity
  8
0
  6
SLD-Plná
 62
     8
370
    25
100
AcDbLine
 10
8611.0155361497
 20
5726.4541147525
 30
0.0
 11
8610.7663338075
 21
5726.4598118212
 31
0.0
  0
LINE
  5
162
330
1F
100
AcDbEntity
  8
0
  6
SLD-Plná
 62
     8
370
    25
100
AcDbLine
 10
8618.7443041354
 20
5726.3859448725
 30
0.0
 11
8619.3223513651
 21
5726.3727300098
 31
0.0
  0
LINE
  5
163
330
1F
100
AcDbEntity
  8
0
  6
SLD-Plná
 62
     8
370
    25
100
AcDbLine
 10
8618.7271421765
 20
5726.2778180591
 30
0.0
 11
8619.6885211913
 21
5726.2558397655
 31
0.0
  0
LINE
  5
164
330
1F
100
AcDbEntity
  8
0
  6
SLD-Plná
 62
     8
370
    25
100
AcDbLine
 10
8620.3077868571
 20
5726.350201756
 30
0.0
 11
8620.8756406676
 21
5726.3372199271
 31
0.0
  0
LINE
  5
165
330
1F
100
AcDbEntity
  8
0
  6
SLD-Plná
 62
     8
370
    25
100
AcDbLine
 10
8609.4155908162
 20
5726.3539613319
 30
0.0
 11
8608.8583337999
 21
5726.3412217587
 31
0.0
  0
LINE
  5
166
330
1F
100
AcDbEntity
  8
0
  6
SLD-Plná
 62
     8
370
    25
100
AcDbLine
 10
8620.297477269
 20
5726.2419182889
 30
0.0
 11
8621.1252262231
 21
5726.222994941
 31
0.0
  0
LINE
  5
167
330
1F
100
AcDbEntity
  8
0
  6
SLD-Plná
 62
     8
370
    25
100
AcDbLine
 10
8609.4261895631
 20
5726.242640778
 30
0.0
 11
8608.5999012017
 21
5726.2237508211
 31
0.0
  0
LINE
  5
168
330
1F
100
AcDbEntity
  8
0
  6
SLD-Plná
 62
     8
370
    25
100
AcDbLine
 10
8612.520419185
 20
5726.3076977122
 30
0.0
 11
8611.6096037509
 21
5726.2421850986
 31
0.0
  0
LINE
  5
169
330
1F
100
AcDbEntity
  8
0
  6
SLD-Plná
 62
     8
370
    25
100
AcDbLine
 10
8612.5308272557
 20
5726.1983798641
 30
0.0
 11
8611.540018623
 21
5726.1271135452
 31
0.0
  0
LINE
  5
16A
330
1F
100
AcDbEntity
  8
0
  6
SLD-Plná
 62
     8
370
    25
100
AcDbLine
 10
8617.1901383492
 20
5726.1692858977
 30
0.0
 11
8617.7836171008
 21
5726.0902078611
 31
0.0
  0
LINE
  5
16B
330
1F
100
AcDbEntity
  8
0
  6
SLD-Plná
 62
     8
370
    25
100
AcDbLine
 10
8611.0091046495
 20
5726.1989927413
 30
0.0
 11
8610.0166448239
 21
5726.1276076565
 31
0.0
  0
LINE
  5
16C
330
1F
100
AcDbEntity
  8
0
  6
SLD-Plná
 62
     8
370
    25
100
AcDbLine
 10
8617.1794390757
 20
5726.0569094934
 30
0.0
 11
8617.7114012218
 21
5725.9860282329
 31
0.0
  0
LINE
  5
16D
330
1F
100
AcDbEntity
  8
0
  6
SLD-Plná
 62
     8
370
    25
100
AcDbLine
 10
8611.0263772818
 20
5726.0901686435
 30
0.0
 11
8610.0618068339
 21
5726.0207895698
 31
0.0
  0
LINE
  5
16E
330
1F
100
AcDbEntity
  8
0
  6
SLD-Plná
 62
     8
370
    25
100
AcDbLine
 10
8609.4410833164
 20
5726.0862089962
 30
0.0
 11
8608.6305844596
 21
5726.0279118961
 31
0.0
  0
LINE
  5
16F
330
1F
100
AcDbEntity
  8
0
  6
SLD-Plná
 62
     8
370
    25
100
AcDbLine
 10
8620.2830040757
 20
5726.089903725
 30
0.0
 11
8621.0917808202
 21
5726.0317304922
 31
0.0
  0
LINE
  5
170
330
1F
100
AcDbEntity
  8
0
  6
SLD-Plná
 62
     8
370
    25
100
AcDbLine
 10
8609.4514913871
 20
5725.9768911481
 30
0.0
 11
8608.6759852489
 21
5725.9211109844
 31
0.0
  0
LINE
  5
171
330
1F
100
AcDbEntity
  8
0
  6
SLD-Plná
 62
     8
370
    25
100
AcDbLine
 10
8620.2723177083
 20
5725.9776628771
 30
0.0
 11
8621.0493388245
 21
5725.9217737449
 31
0.0
  0
LINE
  5
172
330
1F
100
AcDbEntity
  8
0
  6
SLD-Plná
 62
     8
370
    25
100
AcDbLine
 10
8618.6784401964
 20
5725.9709772175
 30
0.0
 11
8619.0533934928
 21
5725.9210165905
 31
0.0
  0
LINE
  5
173
330
1F
100
AcDbEntity
  8
0
  6
SLD-Plná
 62
     8
370
    25
100
AcDbLine
 10
8618.6348352362
 20
5725.8629853292
 30
0.0
 11
8618.9807704618
 21
5725.8168912131
 31
0.0
  0
LINE
  5
174
330
1F
100
AcDbEntity
  8
0
  6
SLD-Plná
 62
     8
370
    25
100
AcDbLine
 10
8620.1573162584
 20
5725.7739244755
 30
0.0
 11
8620.2436305118
 21
5725.7624235386
 31
0.0
  0
LINE
  5
175
330
1F
100
AcDbEntity
  8
0
  6
SLD-Plná
 62
     8
370
    25
100
AcDbLine
 10
8609.5627271321
 20
5725.7770373095
 30
0.0
 11
8609.4823257145
 21
5725.766324228
 31
0.0
  0
LINE
  5
176
330
1F
100
AcDbEntity
  8
0
  6
SLD-Plná
 62
     8
370
    25
100
AcDbLine
 10
8620.013996408
 20
5725.6792190911
 30
0.0
 11
8620.1708024348
 21
5725.6583254825
 31
0.0
  0
LINE
  5
177
330
1F
100
AcDbEntity
  8
0
  6
SLD-Plná
 62
     8
370
    25
100
AcDbLine
 10
8609.67891149
 20
5725.6760163053
 30
0.0
 11
8609.5504110248
 21
5725.6588942694
 31
0.0
  0
SPLINE
  5
178
330
1F
100
AcDbEntity
  8
0
  6
SLD-Plná
 62
     8
370
    25
100
AcDbSpline
210
0.0
220
0.0
230
1.0
 70
     8
 71
     3
 72
    13
 73
     9
 74
     0
 42
0.00000001
 43
0.00000001
 40
0.0
 40
0.0
 40
0.0
 40
0.0
 40
0.1925787589738616
 40
0.3841369133421443
 40
0.5749560946376507
 40
0.765874603049555
 40
0.9190244309370668
 40
0.9999999999999999
 40
0.9999999999999999
 40
0.9999999999999999
 40
0.9999999999999999
 10
8600.190853487715
 20
5729.772268618792
 30
0.0
 10
8600.243791940457
 20
5729.598234466564
 30
0.0
 10
8600.349388289407
 20
5729.251088486349
 30
0.0
 10
8601.164997833985
 20
5728.747789959257
 30
0.0
 10
8602.438453783716
 20
5728.276966201122
 30
0.0
 10
8604.098334041782
 20
5727.88690079669
 30
0.0
 10
8605.67772420745
 20
5727.614101388345
 30
0.0
 10
8606.70228143886
 20
5727.499485016942
 30
0.0
 10
8607.056639000797
 20
5727.459843329116
 30
0.0
  0
SPLINE
  5
179
330
1F
100
AcDbEntity
  8
0
  6
SLD-Plná
 62
     8
370
    25
100
AcDbSpline
210
0.0
220
0.0
230
1.0
 70
     8
 71
     3
 72
    13
 73
     9
 74
     0
 42
0.00000001
 43
0.00000001
 40
0.0
 40
0.0
 40
0.0
 40
0.0
 40
0.081769557071018
 40
0.2343507658165413
 40
0.4247622968466327
 40
0.6156888584446094
 40
0.8074905156920262
 40
1.0
 40
1.0
 40
1.0
 40
1.0
 10
8622.635293152682
 20
5727.456475685891
 30
0.0
 10
8622.994471406824
 20
5727.496455736233
 30
0.0
 10
8624.023872836135
 20
5727.611038176821
 30
0.0
 10
8625.609870819426
 20
5727.883573947789
 30
0.0
 10
8627.271793157368
 20
5728.273720356745
 30
0.0
 10
8628.549502345026
 20
5728.745316458565
 30
0.0
 10
8629.371819595037
 20
5729.249808347666
 30
0.0
 10
8629.479128728584
 20
5729.597901488482
 30
0.0
 10
8629.532882116731
 20
5729.772268619131
 30
0.0
  0
ARC
  5
17A
330
1F
100
AcDbEntity
  8
0
  6
SLD-Plná
 62
     8
370
    25
100
AcDbCircle
 10
8603.2530454258
 20
5729.3786620374
 30
0.0
 40
1.026981481937534
100
AcDbArc
 50
107.3827062161
 51
164.8263113096
  0
LWPOLYLINE
  5
17B
330
1F
100
AcDbEntity
  8
0
  6
SLD-Plná
 62
     8
370
    25
100
AcDbPolyline
 90
       10
 70
   128
 43
0.0
 10
8626.5368851453
 20
5730.4703129926
 10
8626.9125202117
 20
5730.286480917
 10
8627.263173092
 20
5730.0345004208
 10
8627.4397388301
 20
5729.7770868706
 10
8627.4397388301
 20
5729.5178537882
 10
8627.263173092
 20
5729.260440238
 10
8626.9125202117
 20
5729.0084597419
 10
8626.3927025871
 20
5728.7654495536
 10
8625.7110173181
 20
5728.5348210037
 10
8625.3771258028
 20
5728.4420298778
  0
ARC
  5
17C
330
1F
100
AcDbEntity
  8
0
  6
SLD-Plná
 62
     8
370
    25
100
AcDbCircle
 10
8603.721111688
 20
5730.2856921956
 30
0.0
 40
1.592708336942602
100
AcDbArc
 50
203.6228741789
 51
260.8722424109
  0
LWPOLYLINE
  5
17D
330
1F
100
AcDbEntity
  8
0
  6
SLD-Plná
 62
     8
370
    25
100
AcDbPolyline
 90
        8
 70
   128
 43
0.0
 10
8602.7618678098
 20
5730.1398742059
 10
8602.8500904333
 20
5729.88660941
 10
8603.113471819
 20
5729.6370377851
 10
8603.5481712734
 20
5729.3947986476
 10
8604.1478498994
 20
5729.1634243894
 10
8604.9037630325
 20
5728.9462889683
 10
8605.804887757
 20
5728.7465587077
 10
8605.815968039
 20
5728.7443898972
  0
LWPOLYLINE
  5
17E
330
1F
100
AcDbEntity
  8
0
  6
SLD-Plná
 62
     8
370
    25
100
AcDbPolyline
 90
        8
 70
   128
 43
0.0
 10
8623.9077675807
 20
5728.7443898972
 10
8623.9188478627
 20
5728.7465587077
 10
8624.8199725872
 20
5728.9462889683
 10
8625.5758857203
 20
5729.1634243894
 10
8626.1755643463
 20
5729.3947986476
 10
8626.6102638007
 20
5729.6370377851
 10
8626.8736451864
 20
5729.88660941
 10
8626.961529569
 20
5730.1241637817
  0
LINE
  5
17F
330
1F
100
AcDbEntity
  8
0
  6
SLD-Plná
 62
     8
370
    25
100
AcDbLine
 10
8630.0269547811
 20
5730.1888997664
 30
0.0
 11
8629.7803026731
 21
5729.7250382165
 31
0.0
  0
LINE
  5
180
330
1F
100
AcDbEntity
  8
0
  6
SLD-Plná
 62
     8
370
    25
100
AcDbLine
 10
8599.8852821567
 20
5729.8324061481
 30
0.0
 11
8599.6967808233
 21
5730.1888997662
 31
0.0
  0
SPLINE
  5
181
330
1F
100
AcDbEntity
  8
0
  6
SLD-Plná
 62
     8
370
    25
100
AcDbSpline
210
0.0
220
0.0
230
1.0
 70
     8
 71
     3
 72
    12
 73
     8
 74
     0
 42
0.00000001
 43
0.00000001
 40
0.0
 40
0.0
 40
0.0
 40
0.0
 40
0.1882625849523558
 40
0.3910316633150378
 40
0.5940015914308833
 40
0.7970092261351671
 40
1.0
 40
1.0
 40
1.0
 40
1.0
 10
8614.861870157354
 20
5724.664494833166
 30
0.0
 10
8614.861870176353
 20
5723.837970130472
 30
0.0
 10
8614.861870215818
 20
5722.121233215663
 30
0.0
 10
8614.861870266359
 20
5719.237777207692
 30
0.0
 10
8614.861870306857
 20
5716.136956724396
 30
0.0
 10
8614.86187033464
 20
5712.91991948464
 30
0.0
 10
8614.861870338358
 20
5710.738309042888
 30
0.0
 10
8614.861870340217
 20
5709.647549122416
 30
0.0
  0
SPLINE
  5
182
330
1F
100
AcDbEntity
  8
0
  6
SLD-Plná
 62
     8
370
    25
100
AcDbSpline
210
0.0
220
0.0
230
1.0
 70
     8
 71
     3
 72
    11
 73
     7
 74
     0
 42
0.00000001
 43
0.00000001
 40
0.0
 40
0.0
 40
0.0
 40
0.0
 40
0.3508524194915301
 40
0.6502261743952903
 40
0.898356269353341
 40
1.0
 40
1.0
 40
1.0
 40
1.0
 10
8641.361866876705
 20
5711.563911055354
 30
0.0
 10
8641.361864446808
 20
5712.513817237214
 30
0.0
 10
8641.361859943536
 20
5714.274255040551
 30
0.0
 10
8641.361766264927
 20
5716.661609616905
 30
0.0
 10
8641.361646877785
 20
5718.361361231094
 30
0.0
 10
8641.361454816733
 20
5719.254338849833
 30
0.0
 10
8641.36139900409
 20
5719.513836759364
 30
0.0
  0
SPLINE
  5
183
330
1F
100
AcDbEntity
  8
0
  6
SLD-Plná
 62
     8
370
    25
100
AcDbSpline
210
0.0
220
0.0
230
1.0
 70
     8
 71
     3
 72
    36
 73
    32
 74
     0
 42
0.00000001
 43
0.00000001
 40
0.0
 40
0.0
 40
0.0
 40
0.0
 40
0.0202519678587116
 40
0.0737091372778385
 40
0.1317858326079179
 40
0.182872503119143
 40
0.2340717946919234
 40
0.3200941808778889
 40
0.3297374336442868
 40
0.3393727255834912
 40
0.3489987263469572
 40
0.3586140495481189
 40
0.368217254757949
 40
0.3778068495593032
 40
0.3873812916613517
 40
0.3936015921381573
 40
0.4036849704686303
 40
0.4271374993374749
 40
0.459611185462927
 40
0.500624254147029
 40
0.5439712697520912
 40
0.5660827480086649
 40
0.5920885056117055
 40
0.6221593557593211
 40
0.6560690545850165
 40
0.6935354451960714
 40
0.7656606293931367
 40
0.8312984733350873
 40
0.8915889605867426
 40
0.9475563077074214
 40
1.0
 40
1.0
 40
1.0
 40
1.0
 10
8641.35937328951
 20
5723.431640542661
 30
0.0
 10
8641.35912184455
 20
5723.764396679586
 30
0.0
 10
8641.358206684545
 20
5724.975497148825
 30
0.0
 10
8641.354988791525
 20
5727.014094805372
 30
0.0
 10
8641.34922274424
 20
5729.394536795924
 30
0.0
 10
8641.340357380705
 20
5731.561368790476
 30
0.0
 10
8641.325188984016
 20
5733.907484587953
 30
0.0
 10
8641.307220204164
 20
5735.52394096358
 30
0.0
 10
8641.290193035162
 20
5736.569831018189
 30
0.0
 10
8641.285280454855
 20
5736.850747610339
 30
0.0
 10
8641.280128260614
 20
5737.125172383582
 30
0.0
 10
8641.274726767399
 20
5737.393052418982
 30
0.0
 10
8641.269082743149
 20
5737.654367437322
 30
0.0
 10
8641.263142637092
 20
5737.908942104562
 30
0.0
 10
8641.25778249596
 20
5738.128343387025
 30
0.0
 10
8641.251721465445
 20
5738.346296939686
 30
0.0
 10
8641.241721369086
 20
5738.672821402545
 30
0.0
 10
8641.223837964015
 20
5739.189371992794
 30
0.0
 10
8641.194609148464
 20
5739.884564046891
 30
0.0
 10
8641.154808995181
 20
5740.620717208786
 30
0.0
 10
8641.11347921776
 20
5741.187464309356
 30
0.0
 10
8641.075291788231
 20
5741.608629033614
 30
0.0
 10
8641.041135921569
 20
5741.928680478673
 30
0.0
 10
8640.999568686662
 20
5742.2447065401
 30
0.0
 10
8640.949983749937
 20
5742.536847501755
 30
0.0
 10
8640.874858927918
 20
5742.853795614677
 30
0.0
 10
8640.779407987706
 20
5743.080325276953
 30
0.0
 10
8640.677979946531
 20
5743.153731285356
 30
0.0
 10
8640.601335884548
 20
5743.119204375847
 30
0.0
 10
8640.551175467188
 20
5743.048195649259
 30
0.0
 10
8640.545120433218
 20
5743.038229900982
 30
0.0
 10
8640.542191318802
 20
5743.03340898386
 30
0.0
  0
SPLINE
  5
184
330
1F
100
AcDbEntity
  8
0
  6
SLD-Plná
 62
     7
370
    25
100
AcDbSpline
210
0.0
220
0.0
230
1.0
 70
     8
 71
     3
 72
    14
 73
    10
 74
     0
 42
0.00000001
 43
0.00000001
 40
0.0
 40
0.0
 40
0.0
 40
0.0
 40
0.0179296227077695
 40
0.2387646716832039
 40
0.4720452136245398
 40
0.653889763093141
 40
0.8051566409149289
 40
0.9328263225140379
 40
1.0
 40
1.0
 40
1.0
 40
1.0
 10
8892.800318392103
 20
5620.480841723479
 30
0.0
 10
8892.805131452327
 20
5620.480137415643
 30
0.0
 10
8892.86922587099
 20
5620.470758309802
 30
0.0
 10
8892.998185173936
 20
5620.511537726229
 30
0.0
 10
8893.145055147415
 20
5620.603903503068
 30
0.0
 10
8893.239284282674
 20
5620.729199326565
 30
0.0
 10
8893.28479736965
 20
5620.846268847949
 30
0.0
 10
8893.300812397938
 20
5620.939852695788
 30
0.0
 10
8893.2972378425
 20
5620.992609459485
 30
0.0
 10
8893.29600548829
 20
5621.010797740812
 30
0.0
  0
SPLINE
  5
185
330
1F
100
AcDbEntity
  8
0
  6
SLD-Plná
 62
     7
370
    25
100
AcDbSpline
210
0.0
220
0.0
230
1.0
 70
     8
 71
     3
 72
    12
 73
     8
 74
     0
 42
0.00000001
 43
0.00000001
 40
0.0
 40
0.0
 40
0.0
 40
0.0
 40
0.1596770649505424
 40
0.3703391812348408
 40
0.590180500829137
 40
0.8190145666401398
 40
1.0
 40
1.0
 40
1.0
 40
1.0
 10
8893.298164827926
 20
5641.766335516386
 30
0.0
 10
8893.29586104661
 20
5641.808535250709
 30
0.0
 10
8893.290517884232
 20
5641.906409137998
 30
0.0
 10
8893.22456965122
 20
5642.052122303667
 30
0.0
 10
8893.104579098437
 20
5642.180331691487
 30
0.0
 10
8892.95275421
 20
5642.261038603113
 30
0.0
 10
8892.844006079556
 20
5642.265831696522
 30
0.0
 10
8892.795980479126
 20
5642.267948433499
 30
0.0
  0
LINE
  5
186
330
1F
100
AcDbEntity
  8
0
  6
SLD-Plná
 62
     7
370
    25
100
AcDbLine
 10
8893.299523331
 20
5621.010545763
 30
0.0
 11
8893.2995104805
 21
5641.7676147643
 31
0.0
  0
ARC
  5
187
330
1F
100
AcDbEntity
  8
0
  6
SLD-Plná
 62
     7
370
    25
100
AcDbCircle
 10
8998.0522170731
 20
5731.3905800522
 30
0.0
 40
8.775000000072055
100
AcDbArc
 50
340.008189992
 51
351.3922007463
  0
ARC
  5
188
330
1F
100
AcDbEntity
  8
0
  6
SLD-Plná
 62
     7
370
    25
100
AcDbCircle
 10
8998.0522170731
 20
5731.3905800522
 30
0.0
 40
8.775000000071762
100
AcDbArc
 50
208.6077992537
 51
219.991810008
  0
LINE
  5
189
330
1F
100
AcDbEntity
  8
0
  6
SLD-Plná
 62
     7
370
    25
100
AcDbLine
 10
8991.329370893
 20
5725.7510796989
 30
0.0
 11
8991.9966438948
 21
5724.6992913546
 31
0.0
  0
ARC
  5
18A
330
1F
100
AcDbEntity
  8
0
  6
SLD-Plná
 62
     7
370
    25
100
AcDbCircle
 10
8992.081084393
 20
5724.7528618904
 30
0.0
 40
0.0999999999385986
100
AcDbArc
 50
212.3917597758
 51
280.0000001879
  0
LINE
  5
18B
330
1F
100
AcDbEntity
  8
0
  6
SLD-Plná
 62
     7
370
    25
100
AcDbLine
 10
9006.0311500228
 20
5727.1739534459
 30
0.0
 11
9006.2984487385
 21
5728.3905319994
 31
0.0
  0
ARC
  5
18C
330
1F
100
AcDbEntity
  8
0
  6
SLD-Plná
 62
     7
370
    25
100
AcDbCircle
 10
9005.9334797074
 20
5727.1954129318
 30
0.0
 40
0.0999999999390582
100
AcDbArc
 50
279.9999998142
 51
347.6082402235
  0
LINE
  5
18D
330
1F
100
AcDbEntity
  8
0
  6
SLD-Plná
 62
     7
370
    25
100
AcDbLine
 10
8892.8599753166
 20
5642.380601532
 30
0.0
 11
8892.8599336722
 21
5709.6475491224
 31
0.0
  0
LINE
  5
18E
330
1F
100
AcDbEntity
  8
0
  6
SLD-Plná
 62
     7
370
    25
100
AcDbLine
 10
8892.8600079632
 20
5589.6475491224
 30
0.0
 11
8892.8599889773
 21
5620.3148164083
 31
0.0
  0
LINE
  5
18F
330
1F
100
AcDbEntity
  8
0
  6
SLD-Plná
 62
     7
370
    25
100
AcDbLine
 10
8839.8599105974
 20
5746.9196667897
 30
0.0
 11
8839.8600079632
 21
5589.6475163106
 31
0.0
  0
ARC
  5
190
330
1F
100
AcDbEntity
  8
0
  6
SLD-Plná
 62
     7
370
    25
100
AcDbCircle
 10
8841.8599105974
 20
5746.9196680279
 30
0.0
 40
2.000000000000383
100
AcDbArc
 50
98.0681859714
 51
180.0000354713
  0
ARC
  5
191
330
1F
100
AcDbEntity
  8
0
  6
SLD-Plná
 62
     7
370
    25
100
AcDbCircle
 10
8999.3610359215
 20
5778.1615039452
 30
0.0
 40
43.51388888888795
100
AcDbArc
 50
299.1932005152
 51
306.166201891
  0
LINE
  5
192
330
1F
100
AcDbEntity
  8
0
  6
SLD-Plná
 62
     7
370
    25
100
AcDbLine
 10
8917.8599181949
 20
5734.6475645997
 30
0.0
 11
8970.0743894547
 21
5734.6475969252
 31
0.0
  0
ARC
  5
193
330
1F
100
AcDbEntity
  8
0
  6
SLD-Plná
 62
     7
370
    25
100
AcDbCircle
 10
8999.3611622635
 20
5574.0851150564
 30
0.0
 40
176.5625000000021
100
AcDbArc
 50
81.9324098154
 51
90.0000354713
  0
LINE
  5
194
330
1F
100
AcDbEntity
  8
0
  6
SLD-Plná
 62
     7
370
    25
100
AcDbLine
 10
8999.3610529551
 20
5750.6476150563
 30
0.0
 11
8866.3599082895
 21
5750.6475327165
 31
0.0
  0
ARC
  5
195
330
1F
100
AcDbEntity
  8
0
  6
SLD-Plná
 62
     7
370
    25
100
AcDbCircle
 10
8866.3600175978
 20
5574.0850327165
 30
0.0
 40
176.5625000000011
100
AcDbArc
 50
90.0000354713
 51
98.0681859714
  0
SPLINE
  5
196
330
1F
100
AcDbEntity
  8
0
  6
SLD-Plná
 62
     7
370
    25
100
AcDbSpline
210
0.0
220
0.0
230
1.0
 70
     8
 71
     3
 72
    15
 73
    11
 74
     0
 42
0.00000001
 43
0.00000001
 40
0.0
 40
0.0
 40
0.0
 40
0.0
 40
0.1328973548710268
 40
0.2661457146630448
 40
0.3983010300719264
 40
0.5279763816397561
 40
0.6539213272704985
 40
0.7750819398345716
 40
0.8906355789273968
 40
1.0
 40
1.0
 40
1.0
 40
1.0
 10
8970.073564801001
 20
5734.64759721857
 30
0.0
 10
8970.767327983518
 20
5734.619761802036
 30
0.0
 10
8972.156686697217
 20
5734.564017450815
 30
0.0
 10
8974.195915418017
 20
5734.116547374453
 30
0.0
 10
8976.14019070985
 20
5733.418145360305
 30
0.0
 10
8977.936224372326
 20
5732.4736060843
 30
0.0
 10
8979.544681823609
 20
5731.33401295553
 30
0.0
 10
8980.934728692622
 20
5730.044942054082
 30
0.0
 10
8982.112592969834
 20
5728.668421082834
 30
0.0
 10
8982.736389022297
 20
5727.673308972008
 30
0.0
 10
8983.03970434564
 20
5727.189444493439
 30
0.0
  0
SPLINE
  5
197
330
1F
100
AcDbEntity
  8
0
  6
SLD-Plná
 62
     7
370
    25
100
AcDbSpline
210
0.0
220
0.0
230
1.0
 70
     8
 71
     3
 72
    15
 73
    11
 74
     0
 42
0.00000001
 43
0.00000001
 40
0.0
 40
0.0
 40
0.0
 40
0.0
 40
0.1307171155223652
 40
0.2625298917226548
 40
0.3630797154531185
 40
0.4366879835731607
 40
0.5306718132891975
 40
0.6567498324320297
 40
0.8138831444135891
 40
1.0
 40
1.0
 40
1.0
 40
1.0
 10
9013.983734313928
 20
5732.634968965473
 30
0.0
 10
9014.154131148754
 20
5733.047170989011
 30
0.0
 10
9014.4963530714
 20
5733.875030081333
 30
0.0
 10
9015.11593740254
 20
5734.950110821276
 30
0.0
 10
9015.697375978314
 20
5735.816570031977
 30
0.0
 10
9016.253005434297
 20
5736.54296801603
 30
0.0
 10
9016.905426502402
 20
5737.303333992353
 30
0.0
 10
9017.816182654977
 20
5738.212549895195
 30
0.0
 10
9019.04764769935
 20
5739.241853172991
 30
0.0
 10
9020.049536459626
 20
5739.849505541425
 30
0.0
 10
9020.59277985272
 20
5740.178986365584
 30
0.0
  0
SPLINE
  5
198
330
1F
100
AcDbEntity
  8
0
  6
SLD-Plná
 62
     7
370
    25
100
AcDbSpline
210
0.0
220
0.0
230
1.0
 70
     8
 71
     3
 72
    23
 73
    19
 74
     0
 42
0.00000001
 43
0.00000001
 40
0.0
 40
0.0
 40
0.0
 40
0.0
 40
0.3290489093574987
 40
0.5810700847516554
 40
0.7515935220111375
 40
0.8539544635951846
 40
0.8840732267026069
 40
0.8947940842023602
 40
0.9030760187239572
 40
0.9094061642214719
 40
0.912065837813663
 40
0.9145318884341105
 40
0.9169294714080497
 40
0.9193761025440601
 40
0.9247499902406224
 40
0.9385271276459305
 40
0.9564644037058799
 40
1.0
 40
1.0
 40
1.0
 40
1.0
 10
9013.529808428575
 20
5732.337144085147
 30
0.0
 10
9013.5817852957
 20
5732.349128246857
 30
0.0
 10
9013.673571658537
 20
5732.370291173286
 30
0.0
 10
9013.754772330029
 20
5732.398267649418
 30
0.0
 10
9013.806971604377
 20
5732.426533647928
 30
0.0
 10
9013.840729823438
 20
5732.452998332495
 30
0.0
 10
9013.866593510114
 20
5732.479305500585
 30
0.0
 10
9013.879280997746
 20
5732.49354290377
 30
0.0
 10
9013.887567105792
 20
5732.503306313019
 30
0.0
 10
9013.894940131344
 20
5732.512416670232
 30
0.0
 10
9013.900752101888
 20
5732.519890794571
 30
0.0
 10
9013.904843615366
 20
5732.525280352742
 30
0.0
 10
9013.908889361403
 20
5732.530740310688
 30
0.0
 10
9013.914348382852
 20
5732.538289744658
 30
0.0
 10
9013.924565251176
 20
5732.553000167512
 30
0.0
 10
9013.936838821655
 20
5732.572368447396
 30
0.0
 10
9013.954887974929
 20
5732.603908422549
 30
0.0
 10
9013.964140454214
 20
5732.625399771769
 30
0.0
 10
9013.970693136518
 20
5732.640620122918
 30
0.0
  0
SPLINE
  5
199
330
1F
100
AcDbEntity
  8
0
  6
SLD-Plná
 62
     7
370
    25
100
AcDbSpline
210
0.0
220
0.0
230
1.0
 70
     8
 71
     3
 72
    22
 73
    18
 74
     0
 42
0.00000001
 43
0.00000001
 40
0.0
 40
0.0
 40
0.0
 40
0.0
 40
0.5425934339120617
 40
0.8109325985882617
 40
0.8455227056402763
 40
0.8509406617718159
 40
0.8551756812222409
 40
0.8569294246797671
 40
0.858512247372497
 40
0.8600104201633757
 40
0.8615286461385935
 40
0.8631714314720821
 40
0.8650255653370356
 40
0.8695962850551994
 40
0.8830944270888178
 40
0.9306686428215674
 40
1.0
 40
1.0
 40
1.0
 40
1.0
 10
8982.993852447435
 20
5727.267727718158
 30
0.0
 10
8983.034471818573
 20
5727.231005564115
 30
0.0
 10
8983.095179468413
 20
5727.176122497083
 30
0.0
 10
8983.253749686592
 20
5727.133836841765
 30
0.0
 10
8983.360480908295
 20
5727.103364736781
 30
0.0
 10
8983.3842292201
 20
5727.095395998556
 30
0.0
 10
8983.391627532099
 20
5727.092762602731
 30
0.0
 10
8983.397292291884
 20
5727.090629267248
 30
0.0
 10
8983.40116604971
 20
5727.089114402982
 30
0.0
 10
8983.404912068905
 20
5727.087588277268
 30
0.0
 10
8983.408475963683
 20
5727.086070191545
 30
0.0
 10
8983.41181916983
 20
5727.084576702689
 30
0.0
 10
8983.416302540107
 20
5727.082469559477
 30
0.0
 10
8983.424203450813
 20
5727.078381372056
 30
0.0
 10
8983.43667723734
 20
5727.070026997805
 30
0.0
 10
8983.442419267958
 20
5727.060800212252
 30
0.0
 10
8983.439044515786
 20
5727.057272487997
 30
0.0
 10
8983.43704310437
 20
5727.055180355824
 30
0.0
  0
LINE
  5
19A
330
1F
100
AcDbEntity
  8
0
  6
SLD-Plná
 62
     7
370
    25
100
AcDbLine
 10
8890.3893496165
 20
5631.3745635539
 30
0.0
 11
8890.8291575948
 21
5631.3745638146
 31
0.0
  0
LWPOLYLINE
  5
19B
330
1F
100
AcDbEntity
  8
0
  6
SLD-Plná
 62
     7
370
    25
100
AcDbPolyline
 90
        9
 70
   128
 43
0.0
 10
8890.8291575991
 20
5631.3749939765
 10
8890.7947926462
 20
5631.3749971492
 10
8890.75267144
 20
5631.3750002573
 10
8890.703582795
 20
5631.3750032426
 10
8890.648446007
 20
5631.3750060492
 10
8890.5882936366
 20
5631.3750086244
 10
8890.5242521728
 20
5631.3750109202
 10
8890.4575209365
 20
5631.3750128934
 10
8890.3893496207
 20
5631.3750145072
  0
LINE
  5
19C
330
1F
100
AcDbEntity
  8
0
  6
SLD-Plná
 62
     7
370
    25
100
AcDbLine
 10
8890.8291575991
 20
5631.3749939765
 30
0.0
 11
8890.8291575948
 21
5631.3745638146
 31
0.0
  0
ARC
  5
19D
330
1F
100
AcDbEntity
  8
0
  6
SLD-Plná
 62
     7
370
    25
100
AcDbCircle
 10
8998.0522170731
 20
5731.3905800522
 30
0.0
 40
9.42500000014324
100
AcDbArc
 50
200.9136454696
 51
207.2717777808
  0
ARC
  5
19E
330
1F
100
AcDbEntity
  8
0
  6
SLD-Plná
 62
     7
370
    25
100
AcDbCircle
 10
8998.0522170731
 20
5731.3905800522
 30
0.0
 40
9.425000000139606
100
AcDbArc
 50
352.7282222192
 51
359.0863545304
  0
LINE
  5
19F
330
1F
100
AcDbEntity
  8
0
  6
SLD-Plná
 62
     7
370
    25
100
AcDbLine
 10
8989.6748714009
 20
5727.0719339118
 30
0.0
 11
9007.4014109551
 21
5730.1976011098
 31
0.0
  0
LINE
  5
1A0
330
1F
100
AcDbEntity
  8
0
  6
SLD-Plná
 62
     7
370
    25
100
AcDbLine
 10
9007.4017017477
 20
5730.1959519428
 30
0.0
 11
9007.4014109551
 21
5730.1976011098
 31
0.0
  0
LINE
  5
1A1
330
1F
100
AcDbEntity
  8
0
  6
SLD-Plná
 62
     7
370
    25
100
AcDbLine
 10
9007.4017017477
 20
5730.1959519428
 30
0.0
 11
8989.6751621935
 21
5727.0702847448
 31
0.0
  0
LINE
  5
1A2
330
1F
100
AcDbEntity
  8
0
  6
SLD-Plná
 62
     7
370
    25
100
AcDbLine
 10
8989.6751621935
 20
5727.0702847448
 30
0.0
 11
8989.6748714009
 21
5727.0719339118
 31
0.0
  0
LINE
  5
1A3
330
1F
100
AcDbEntity
  8
0
  6
SLD-Plná
 62
     7
370
    25
100
AcDbLine
 10
9006.2984487387
 20
5728.3905319994
 30
0.0
 11
9005.7287221367
 21
5728.290073828
 31
0.0
  0
LINE
  5
1A4
330
1F
100
AcDbEntity
  8
0
  6
SLD-Plná
 62
     7
370
    25
100
AcDbLine
 10
9005.7287221367
 20
5728.290073828
 30
0.0
 11
8995.949700771
 21
5726.5657685163
 31
0.0
  0
ARC
  5
1A5
330
1F
100
AcDbEntity
  8
0
  6
SLD-Plná
 62
     7
370
    25
100
AcDbCircle
 10
9012.6858805864
 20
5733.44775985
 30
0.0
 40
18.09589786469613
100
AcDbArc
 50
197.2536193181
 51
202.352682108
  0
LINE
  5
1A6
330
1F
100
AcDbEntity
  8
0
  6
SLD-Plná
 62
     7
370
    25
100
AcDbLine
 10
8995.949700771
 20
5726.5657685163
 30
0.0
 11
8991.3293708927
 21
5725.7510796989
 31
0.0
  0
LINE
  5
1A7
330
1F
100
AcDbEntity
  8
0
  6
SLD-Plná
 62
     7
370
    25
100
AcDbLine
 10
9005.7287221367
 20
5728.290073828
 30
0.0
 11
9005.4969934386
 21
5727.0797672281
 31
0.0
  0
ARC
  5
1A8
330
1F
100
AcDbEntity
  8
0
  6
SLD-Plná
 62
     7
370
    25
100
AcDbCircle
 10
9005.4055213463
 20
5727.094900021
 30
0.0
 40
0.0927153983451239
100
AcDbArc
 50
281.256236871
 51
350.6062880934
  0
LINE
  5
1A9
330
1F
100
AcDbEntity
  8
0
  6
SLD-Plná
 62
     7
370
    25
100
AcDbLine
 10
9005.4236191216
 20
5727.0039680925
 30
0.0
 11
8992.0984492112
 21
5724.6543811147
 31
0.0
  0
LINE
  5
1AA
330
1F
100
AcDbEntity
  8
0
  6
SLD-Plná
 62
     7
370
    25
100
AcDbLine
 10
9005.950844525
 20
5727.096932156
 30
0.0
 11
9005.4236191216
 21
5727.0039680925
 31
0.0
  0
LINE
  5
1AB
330
1F
100
AcDbEntity
  8
0
  6
SLD-Plná
 62
     7
370
    25
100
AcDbLine
 10
8866.3599336705
 20
5709.6475327181
 30
0.0
 11
8866.359933436
 21
5710.0263914473
 31
0.0
  0
SPLINE
  5
1AC
330
1F
100
AcDbEntity
  8
0
  6
SLD-Plná
 62
     7
370
    25
100
AcDbSpline
210
0.0
220
0.0
230
1.0
 70
     8
 71
     3
 72
    59
 73
    55
 74
     0
 42
0.00000001
 43
0.00000001
 40
0.0
 40
0.0
 40
0.0
 40
0.0
 40
0.0002712454741437
 40
0.0023052042076648
 40
0.0339043762871895
 40
0.0645703849729742
 40
0.0935170880905674
 40
0.1256403886627911
 40
0.1654156667490093
 40
0.2073695321893144
 40
0.251447526733357
 40
0.3144386682930929
 40
0.3770620952995251
 40
0.4465245409526073
 40
0.4543171169685497
 40
0.462112944144498
 40
0.4699133805162383
 40
0.477719758727458
 40
0.4855333855506057
 40
0.4933555414531153
 40
0.5011874802089821
 40
0.5076500508660104
 40
0.5170147994483587
 40
0.5301365285619858
 40
0.5469983784653278
 40
0.5660593259223136
 40
0.5791061652541794
 40
0.5917206522420031
 40
0.6197680850679976
 40
0.6483076844190119
 40
0.7059481840251601
 40
0.712374578243244
 40
0.7187941605633363
 40
0.7252074773548444
 40
0.7316150447655959
 40
0.7380173490115146
 40
0.7444148466597614
 40
0.7508079649033012
 40
0.7517360556138399
 40
0.7599609533055605
 40
0.7699802772525547
 40
0.7836355672109971
 40
0.8075269748913934
 40
0.8379866506580378
 40
0.8751480883686198
 40
0.9122884748655884
 40
0.9430142273219705
 40
0.9672260787533813
 40
0.9810569067810233
 40
0.9911437245279747
 40
0.9974631842401888
 40
0.999205035093504
 40
0.9997209232453774
 40
1.0
 40
1.0
 40
1.0
 40
1.0
 10
8866.361331528467
 20
5710.02639122553
 30
0.0
 10
8866.361400227097
 20
5710.032638848425
 30
0.0
 10
8866.361984068615
 20
5710.08573483696
 30
0.0
 10
8866.373015280897
 20
5710.866620574384
 30
0.0
 10
8866.457603504177
 20
5712.347146260561
 30
0.0
 10
8866.738792426668
 20
5714.431131841397
 30
0.0
 10
8867.169943561445
 20
5716.501435729047
 30
0.0
 10
8867.803674566567
 20
5718.73835074944
 30
0.0
 10
8868.720733110571
 20
5721.199014073787
 30
0.0
 10
8869.972029082795
 20
5723.81718674892
 30
0.0
 10
8871.730067461742
 20
5726.771036700995
 30
0.0
 10
8874.111871294195
 20
5729.886110729325
 30
0.0
 10
8877.285668160215
 20
5733.082125982327
 30
0.0
 10
8879.836473837962
 20
5735.068130469707
 30
0.0
 10
8881.463278803181
 20
5736.159523596575
 30
0.0
 10
8881.914905602964
 20
5736.453277942006
 30
0.0
 10
8882.37089858316
 20
5736.740779859069
 30
0.0
 10
8882.8312397414
 20
5737.022054130004
 30
0.0
 10
8883.295882943305
 20
5737.297141290561
 30
0.0
 10
8883.76483453447
 20
5737.565993598899
 30
0.0
 10
8884.210126581758
 20
5737.813456248071
 30
0.0
 10
8884.69011669512
 20
5738.071494832532
 30
0.0
 10
8885.282035428663
 20
5738.378515988004
 30
0.0
 10
8886.09500042889
 20
5738.779256683458
 30
0.0
 10
8887.121499516252
 20
5739.251126502784
 30
0.0
 10
8888.161127996893
 20
5739.688949861986
 30
0.0
 10
8889.121226202336
 20
5740.062106954259
 30
0.0
 10
8890.283642619279
 20
5740.485134737394
 30
0.0
 10
8891.799389500358
 20
5740.979491312693
 30
0.0
 10
8894.335088190124
 20
5741.681904330017
 30
0.0
 10
8896.426254477747
 20
5742.115266407895
 30
0.0
 10
8898.028023307763
 20
5742.377122824345
 30
0.0
 10
8898.466275219802
 20
5742.445040937457
 30
0.0
 10
8898.904628978848
 20
5742.509333149102
 30
0.0
 10
8899.343086678831
 20
5742.570073575502
 30
0.0
 10
8899.78163777365
 20
5742.627391061852
 30
0.0
 10
8900.22029226713
 20
5742.681198926098
 30
0.0
 10
8900.534079720957
 20
5742.717688650487
 30
0.0
 10
8900.88990490021
 20
5742.756696197993
 30
0.0
 10
8901.329033884975
 20
5742.801850211114
 30
0.0
 10
8902.060396975638
 20
5742.869541342365
 30
0.0
 10
8903.152192660844
 20
5742.956067781213
 30
0.0
 10
8904.715363068326
 20
5743.049482155211
 30
0.0
 10
8906.821391119296
 20
5743.122946027584
 30
0.0
 10
8909.233831738762
 20
5743.144886632008
 30
0.0
 10
8911.65241548966
 20
5743.116543351331
 30
0.0
 10
8913.772763217072
 20
5743.077929700214
 30
0.0
 10
8915.356515802134
 20
5743.051951486216
 30
0.0
 10
8916.465064210926
 20
5743.039519127537
 30
0.0
 10
8917.161541897125
 20
5743.034935835283
 30
0.0
 10
8917.579572918274
 20
5743.033792324371
 30
0.0
 10
8917.777144085663
 20
5743.03370398087
 30
0.0
 10
8917.835578311378
 20
5743.033718208646
 30
0.0
 10
8917.853889896414
 20
5743.033741553134
 30
0.0
 10
8917.860318277948
 20
5743.033749748343
 30
0.0
  0
SPLINE
  5
1AD
330
1F
100
AcDbEntity
  8
0
  6
SLD-Plná
 62
     7
370
    25
100
AcDbSpline
210
0.0
220
0.0
230
1.0
 70
     8
 71
     3
 72
    13
 73
     9
 74
     0
 42
0.00000001
 43
0.00000001
 40
0.0
 40
0.0
 40
0.0
 40
0.0
 40
0.1666666666666687
 40
0.3333333333333357
 40
0.5000000000000017
 40
0.6666666666666675
 40
0.8333333333333345
 40
1.0
 40
1.0
 40
1.0
 40
1.0
 10
8917.859918194925
 20
5734.647564599696
 30
0.0
 10
8917.859918166125
 20
5734.693927838897
 30
0.0
 10
8917.859918108523
 20
5734.786654317301
 30
0.0
 10
8917.859917645019
 20
5735.534866501817
 30
0.0
 10
8917.859916912303
 20
5736.717944910684
 30
0.0
 10
8917.859915885498
 20
5738.376072259883
 30
0.0
 10
8917.859914605106
 20
5740.443827536446
 30
0.0
 10
8917.859913536151
 20
5742.170217278038
 30
0.0
 10
8917.859913001674
 20
5743.033412148834
 30
0.0
  0
SPLINE
  5
1AE
330
1F
100
AcDbEntity
  8
0
  6
SLD-Plná
 62
     7
370
    25
100
AcDbSpline
210
0.0
220
0.0
230
1.0
 70
     8
 71
     3
 72
    19
 73
    15
 74
     0
 42
0.00000001
 43
0.00000001
 40
0.0
 40
0.0
 40
0.0
 40
0.0
 40
0.0833356413570069
 40
0.1666745318269434
 40
0.2500119845643253
 40
0.3334419727054292
 40
0.4167645471690616
 40
0.5000133639293297
 40
0.583405565964764
 40
0.6667577565084319
 40
0.7500004669363253
 40
0.8333256321348232
 40
0.916666277004324
 40
1.0
 40
1.0
 40
1.0
 40
1.0
 10
8917.859815218786
 20
5734.647564564495
 30
0.0
 10
8916.769003923722
 20
5734.606203030123
 30
0.0
 10
8914.587338804744
 20
5734.523478348763
 30
0.0
 10
8911.370495463212
 20
5733.860706086583
 30
0.0
 10
8908.264097152021
 20
5732.811414707056
 30
0.0
 10
8905.32250488845
 20
5731.35750500326
 30
0.0
 10
8902.594938388325
 20
5729.537365350192
 30
0.0
 10
8900.129634049696
 20
5727.375014645117
 30
0.0
 10
8897.971759567108
 20
5724.905573439143
 30
0.0
 10
8896.150158902197
 20
5722.179599981603
 30
0.0
 10
8894.69386965043
 20
5719.241354097845
 30
0.0
 10
8893.64963680355
 20
5716.136002287739
 30
0.0
 10
8892.983449552923
 20
5712.920158089149
 30
0.0
 10
8892.90110449254
 20
5710.738388575523
 30
0.0
 10
8892.859933672213
 20
5709.647549122416
 30
0.0
  0
LINE
  5
1AF
330
1F
100
AcDbEntity
  8
0
  6
SLD-Plná
 62
     7
370
    25
100
AcDbLine
 10
8892.8599336722
 20
5709.6475491224
 30
0.0
 11
8866.3599336705
 21
5709.6475327181
 31
0.0
  0
SPLINE
  5
1B0
330
1F
100
AcDbEntity
  8
0
  6
SLD-Plná
 62
     7
370
    25
100
AcDbSpline
210
0.0
220
0.0
230
1.0
 70
     8
 71
     3
 72
    19
 73
    15
 74
     0
 42
0.00000001
 43
0.00000001
 40
0.0
 40
0.0
 40
0.0
 40
0.0
 40
0.0832177451002586
 40
0.1664654425870093
 40
0.2497986528660295
 40
0.3331904101545605
 40
0.4165790883965782
 40
0.4999513913777293
 40
0.583346023597014
 40
0.6667726893089165
 40
0.7502574069733838
 40
0.8337739496926427
 40
0.9171087183892813
 40
1.0
 40
1.0
 40
1.0
 40
1.0
 10
9025.859708172275
 20
5744.64655335382
 30
0.0
 10
9025.81648722169
 20
5744.646553327132
 30
0.0
 10
9025.730029764092
 20
5744.646553273747
 30
0.0
 10
9025.02794550017
 20
5744.646552839298
 30
0.0
 10
9023.913719405671
 20
5744.64655214969
 30
0.0
 10
9022.375200093447
 20
5744.646551197395
 30
0.0
 10
9020.448171359056
 20
5744.646550004563
 30
0.0
 10
9018.154066957937
 20
5744.646548584461
 30
0.0
 10
9015.538142316838
 20
5744.646546965103
 30
0.0
 10
9012.64563264403
 20
5744.646545174493
 30
0.0
 10
9009.520942691244
 20
5744.646543240117
 30
0.0
 10
9006.222485606999
 20
5744.646541198137
 30
0.0
 10
9002.817283613602
 20
5744.646539090049
 30
0.0
 10
9000.511081353005
 20
5744.646537662305
 30
0.0
 10
8999.36105666866
 20
5744.646536950337
 30
0.0
  0
LINE
  5
1B1
330
1F
100
AcDbEntity
  8
0
  6
SLD-Plná
 62
     7
370
    25
100
AcDbLine
 10
8999.3610552615
 20
5746.9197655371
 30
0.0
 11
8999.3610566679
 21
5744.6480294824
 31
0.0
  0
SPLINE
  5
1B2
330
1F
100
AcDbEntity
  8
0
  6
SLD-Plná
 62
     7
370
    25
100
AcDbSpline
210
0.0
220
0.0
230
1.0
 70
     8
 71
     3
 72
    19
 73
    15
 74
     0
 42
0.00000001
 43
0.00000001
 40
0.0
 40
0.0
 40
0.0
 40
0.0
 40
0.0828912816107271
 40
0.166226050307376
 40
0.2497425930266385
 40
0.3332273106911022
 40
0.4166539764030051
 40
0.5000486086222877
 40
0.5834209116034396
 40
0.6668095898454628
 40
0.7502013471339914
 40
0.8335345574130006
 40
0.9167822548997407
 40
1.0
 40
1.0
 40
1.0
 40
1.0
 10
8999.361055261135
 20
5746.920069706063
 30
0.0
 10
9000.511079945498
 20
5746.920070418031
 30
0.0
 10
9002.817282206137
 20
5746.920071845776
 30
0.0
 10
9006.222484199592
 20
5746.920073953864
 30
0.0
 10
9009.520941283889
 20
5746.920075995843
 30
0.0
 10
9012.645631236715
 20
5746.920077930219
 30
0.0
 10
9015.538140909555
 20
5746.92007972083
 30
0.0
 10
9018.15406555067
 20
5746.920081340188
 30
0.0
 10
9020.44816995179
 20
5746.920082760289
 30
0.0
 10
9022.375198686166
 20
5746.92008395312
 30
0.0
 10
9023.913717998357
 20
5746.920084905416
 30
0.0
 10
9025.027944092802
 20
5746.920085595025
 30
0.0
 10
9025.730028356656
 20
5746.920086029472
 30
0.0
 10
9025.816485814195
 20
5746.920086082859
 30
0.0
 10
9025.85970676475
 20
5746.920086109545
 30
0.0
  0
LINE
  5
1B3
330
1F
100
AcDbEntity
  8
0
  6
SLD-Plná
 62
     7
370
    25
100
AcDbLine
 10
9025.8597067652
 20
5746.9199730901
 30
0.0
 11
9025.8597081723
 21
5744.6470601096
 31
0.0
  0
LINE
  5
1B4
330
1F
100
AcDbEntity
  8
0
  6
SLD-Plná
 62
     7
370
    25
100
AcDbLine
 10
8999.3610566678
 20
5744.6480294824
 30
0.0
 11
8917.8603175893
 21
5744.647979026
 31
0.0
  0
SPLINE
  5
1B5
330
1F
100
AcDbEntity
  8
0
  6
SLD-Plná
 62
     7
370
    25
100
AcDbSpline
210
0.0
220
0.0
230
1.0
 70
     8
 71
     3
 72
    23
 73
    19
 74
     0
 42
0.00000001
 43
0.00000001
 40
0.0
 40
0.0
 40
0.0
 40
0.0
 40
0.0712654019050846
 40
0.1425317824399332
 40
0.2139033859406961
 40
0.2849725842626279
 40
0.3557191195177757
 40
0.4268474427092772
 40
0.4983530927546953
 40
0.5609585681790635
 40
0.6236350824105538
 40
0.6862745231969305
 40
0.7489237836098356
 40
0.7991682151125707
 40
0.849444614101992
 40
0.8996700401032158
 40
0.9498288287042279
 40
1.0
 40
1.0
 40
1.0
 40
1.0
 10
8917.860317554305
 20
5744.647989440887
 30
0.0
 10
8916.201853912666
 20
5744.658829953666
 30
0.0
 10
8912.884903855058
 20
5744.680511128088
 30
0.0
 10
8907.905658774556
 20
5744.67424098724
 30
0.0
 10
8902.937577595254
 20
5744.360808144657
 30
0.0
 10
8898.019293604419
 20
5743.662447459872
 30
0.0
 10
8893.192827665262
 20
5742.498827490164
 30
0.0
 10
8888.512981204252
 20
5740.804234422845
 30
0.0
 10
8884.23852775483
 20
5738.645058109349
 30
0.0
 10
8880.409107560754
 20
5736.117117831774
 30
0.0
 10
8877.037496827514
 20
5733.316926762373
 30
0.0
 10
8874.011994099885
 20
5730.142954235142
 30
0.0
 10
8871.576657355261
 20
5726.848214231709
 30
0.0
 10
8869.692814276437
 20
5723.543585094942
 30
0.0
 10
8868.276326133835
 20
5720.325983828468
 30
0.0
 10
8867.224405480147
 20
5716.975729912568
 30
0.0
 10
8866.52559027997
 20
5713.529530394707
 30
0.0
 10
8866.4160382605
 20
5711.194200888553
 30
0.0
 10
8866.361255490325
 20
5710.026392022629
 30
0.0
  0
LINE
  5
1B6
330
1F
100
AcDbEntity
  8
0
  6
SLD-Plná
 62
     7
370
    25
100
AcDbLine
 10
8866.359933436
 20
5710.0263914473
 30
0.0
 11
8866.3599105957
 21
5746.9196831972
 31
0.0
  0
LINE
  5
1B7
330
1F
100
AcDbEntity
  8
0
  6
SLD-Plná
 62
     7
370
    25
100
AcDbLine
 10
8866.3599105957
 20
5746.9196831972
 30
0.0
 11
8999.3610552614
 21
5746.9197655371
 31
0.0
  0
LINE
  5
1B8
330
1F
100
AcDbEntity
  8
0
  6
SLD-Plná
 62
     7
370
    25
100
AcDbLine
 10
8999.3610566677
 20
5744.6480294824
 30
0.0
 11
8999.3610576674
 21
5743.0334626296
 31
0.0
  0
LINE
  5
1B9
330
1F
100
AcDbEntity
  8
0
  6
SLD-Plná
 62
     7
370
    25
100
AcDbLine
 10
8917.8603185889
 20
5743.0334121732
 30
0.0
 11
8999.3610576674
 21
5743.0334626296
 31
0.0
  0
SPLINE
  5
1BA
330
1F
100
AcDbEntity
  8
0
  6
SLD-Plná
 62
     7
370
    25
100
AcDbSpline
210
0.0
220
0.0
230
1.0
 70
    24
 71
     3
 72
    11
 73
     7
 74
     0
 42
0.00000001
 43
0.00000001
 40
0.0
 40
0.0
 40
0.0
 40
0.0
 40
0.250000000000006
 40
0.4999999999999988
 40
0.7499999999999765
 40
0.9999999999999999
 40
0.9999999999999999
 40
0.9999999999999999
 40
0.9999999999999999
 10
8917.860317589271
 20
5744.647979002995
 30
0.0
 10
8917.860317686269
 20
5744.491303818767
 30
0.0
 10
8917.860317880264
 20
5744.177953450308
 30
0.0
 10
8917.860318154302
 20
5743.735323699354
 30
0.0
 10
8917.860318401239
 20
5743.336480974831
 30
0.0
 10
8917.860318526338
 20
5743.134435091
 30
0.0
 10
8917.86031858889
 20
5743.033412149085
 30
0.0
  0
SPLINE
  5
1BB
330
1F
100
AcDbEntity
  8
0
  6
SLD-Plná
 62
     7
370
    25
100
AcDbSpline
210
0.0
220
0.0
230
1.0
 70
     8
 71
     3
 72
    39
 73
    35
 74
     0
 42
0.00000001
 43
0.00000001
 40
0.0
 40
0.0
 40
0.0
 40
0.0
 40
0.0056502230704631
 40
0.0648754444475408
 40
0.0806910961193085
 40
0.0969113091915987
 40
0.113540664041731
 40
0.1305834106681293
 40
0.1660847891089314
 40
0.2078746452775862
 40
0.2559654273291436
 40
0.2860702012483219
 40
0.3135733619882908
 40
0.3384770338863656
 40
0.3607842645965444
 40
0.3815066999655737
 40
0.4465869993240512
 40
0.4766237372624283
 40
0.505654839150268
 40
0.5642579052023181
 40
0.5800557680041887
 40
0.5963145588441657
 40
0.6130392862818792
 40
0.6302345509961382
 40
0.653835515091983
 40
0.6826591923831034
 40
0.7167092865265063
 40
0.7559869982875327
 40
0.7916502978343438
 40
0.8244427355910355
 40
0.8543720237492075
 40
0.881448551262465
 40
0.9463673360431325
 40
1.0
 40
1.0
 40
1.0
 40
1.0
 10
8892.852197199158
 20
5642.380601527143
 30
0.0
 10
8892.854783316527
 20
5642.386167475453
 30
0.0
 10
8892.884476925356
 20
5642.450075283306
 30
0.0
 10
8892.803560442559
 20
5642.277704615744
 30
0.0
 10
8892.703234739807
 20
5642.041543225648
 30
0.0
 10
8892.637739898233
 20
5641.883251945605
 30
0.0
 10
8892.561677226246
 20
5641.694090540026
 30
0.0
 10
8892.44377955111
 20
5641.392222936067
 30
0.0
 10
8892.256184473723
 20
5640.899746531692
 30
0.0
 10
8891.975671696524
 20
5640.097005405385
 30
0.0
 10
8891.681368280708
 20
5639.178541733732
 30
0.0
 10
8891.419430823982
 20
5638.268899624891
 30
0.0
 10
8891.225281733026
 20
5637.504258589018
 30
0.0
 10
8891.057962366081
 20
5636.77176401022
 30
0.0
 10
8890.91569658676
 20
5636.075917680812
 30
0.0
 10
8890.711090934527
 20
5634.930091193174
 30
0.0
 10
8890.545902178685
 20
5633.622436039303
 30
0.0
 10
8890.456036960653
 20
5632.181852756396
 30
0.0
 10
8890.432542918783
 20
5630.804233816794
 30
0.0
 10
8890.504302530111
 20
5629.593475450693
 30
0.0
 10
8890.61471703559
 20
5628.566274623179
 30
0.0
 10
8890.684379454633
 20
5628.021628299046
 30
0.0
 10
8890.766058275702
 20
5627.471795631891
 30
0.0
 10
8890.86993642927
 20
5626.855344801426
 30
0.0
 10
8891.01261251446
 20
5626.132266840833
 30
0.0
 10
8891.20614684862
 20
5625.274789427867
 30
0.0
 10
8891.446786718287
 20
5624.326278100341
 30
0.0
 10
8891.716861697596
 20
5623.4059215044
 30
0.0
 10
8891.98013459729
 20
5622.598967867964
 30
0.0
 10
8892.201449860542
 20
5621.95514596722
 30
0.0
 10
8892.386898137787
 20
5621.451081871814
 30
0.0
 10
8892.606822802714
 20
5620.881160082854
 30
0.0
 10
8892.811620369073
 20
5620.392345867373
 30
0.0
 10
8892.839470606434
 20
5620.33896562145
 30
0.0
 10
8892.852070051125
 20
5620.314816403353
 30
0.0
  0
LINE
  5
1BC
330
1F
100
AcDbEntity
  8
0
  6
SLD-Plná
 62
     7
370
    25
100
AcDbLine
 10
8892.8600079632
 20
5589.6475491224
 30
0.0
 11
8839.8600079632
 21
5589.6475163106
 31
0.0
  0
LINE
  5
1BD
330
1F
100
AcDbEntity
  8
0
  6
SLD-Plná
 62
     7
370
    25
100
AcDbLine
 10
8999.3610540355
 20
5748.8999691945
 30
0.0
 11
8999.3610552613
 21
5746.9197655371
 31
0.0
  0
LINE
  5
1BE
330
1F
100
AcDbEntity
  8
0
  6
SLD-Plná
 62
     7
370
    25
100
AcDbLine
 10
8866.3599093698
 20
5748.8998868546
 30
0.0
 11
8866.3599105957
 21
5746.9196831972
 31
0.0
  0
LINE
  5
1BF
330
1F
100
AcDbEntity
  8
0
  6
SLD-Plná
 62
     7
370
    25
100
AcDbLine
 10
8999.3610540355
 20
5748.8999691945
 30
0.0
 11
8866.3599093698
 21
5748.8998868546
 31
0.0
  0
SPLINE
  5
1C0
330
1F
100
AcDbEntity
  8
0
  6
SLD-Plná
 62
     7
370
    25
100
AcDbSpline
210
0.0
220
0.0
230
1.0
 70
     8
 71
     3
 72
    19
 73
    15
 74
     0
 42
0.00000001
 43
0.00000001
 40
0.0
 40
0.0
 40
0.0
 40
0.0
 40
0.0833354356337388
 40
0.1666704890341623
 40
0.2500051602003351
 40
0.3333394491313196
 40
0.4166733558261795
 40
0.5000068802839772
 40
0.5833400225037768
 40
0.6666727824846402
 40
0.7500051602256316
 40
0.8333371557258127
 40
0.9166687689842484
 40
1.0
 40
1.0
 40
1.0
 40
1.0
 10
8999.361057667353
 20
5743.033462629591
 30
0.0
 10
9000.481567484252
 20
5743.033434620655
 30
0.0
 10
9002.722581978627
 20
5743.033378602912
 30
0.0
 10
9006.026559927364
 20
5743.033294540836
 30
0.0
 10
9009.216461433043
 20
5743.033210408509
 30
0.0
 10
9012.237702336115
 20
5743.033126172135
 30
0.0
 10
9015.038605327492
 20
5743.033041799722
 30
0.0
 10
9017.57119307261
 20
5743.032957261573
 30
0.0
 10
9019.79234116953
 20
5743.03287253099
 30
0.0
 10
9021.663278676513
 20
5743.032787583973
 30
0.0
 10
9023.15486851087
 20
5743.032702402486
 30
0.0
 10
9024.230875065854
 20
5743.032616964101
 30
0.0
 10
9024.91289014736
 20
5743.032531282188
 30
0.0
 10
9024.997611496421
 20
5743.032473932005
 30
0.0
 10
9025.039972073795
 20
5743.032445256979
 30
0.0
  0
SPLINE
  5
1C1
330
1F
100
AcDbEntity
  8
0
  6
SLD-Plná
 62
     7
370
    25
100
AcDbSpline
210
0.0
220
0.0
230
1.0
 70
     8
 71
     3
 72
    11
 73
     7
 74
     0
 42
0.00000001
 43
0.00000001
 40
0.0
 40
0.0
 40
0.0
 40
0.0
 40
0.2465199612333604
 40
0.5000002565128949
 40
0.7534804115863135
 40
1.0
 40
1.0
 40
1.0
 40
1.0
 10
9025.859704915614
 20
5744.647055165085
 30
0.0
 10
9025.849379908068
 20
5744.492570133021
 30
0.0
 10
9025.828438372966
 20
5744.179238282435
 30
0.0
 10
9025.65785147069
 20
5743.734141571365
 30
0.0
 10
9025.399193208154
 20
5743.333758395008
 30
0.0
 10
9025.158597832351
 20
5743.13194396552
 30
0.0
 10
9025.039974825459
 20
5743.032441494286
 30
0.0
  0
SPLINE
  5
1C2
330
1F
100
AcDbEntity
  8
0
  6
SLD-Plná
 62
     7
370
    25
100
AcDbSpline
210
0.0
220
0.0
230
1.0
 70
     8
 71
     3
 72
    19
 73
    15
 74
     0
 42
0.00000001
 43
0.00000001
 40
0.0
 40
0.0
 40
0.0
 40
0.0
 40
0.0833312310240255
 40
0.1666628442862247
 40
0.2499948397865618
 40
0.3333272175250027
 40
0.4166599775015108
 40
0.4999931197160511
 40
0.5833266441685883
 40
0.666660550859088
 40
0.7499948397875138
 40
0.8333295109538315
 40
0.916664564358006
 40
1.0
 40
1.0
 40
1.0
 40
1.0
 10
9024.140391842768
 20
5748.900177873365
 30
0.0
 10
9024.099515228845
 20
5748.900172477713
 30
0.0
 10
9024.017761813502
 20
5748.900161686382
 30
0.0
 10
9023.359638893793
 20
5748.900145167826
 30
0.0
 10
9022.321326700865
 20
5748.900128413818
 30
0.0
 10
9020.881989827014
 20
5748.900111411455
 30
0.0
 10
9019.076594483251
 20
5748.900094182382
 30
0.0
 10
9016.933257030021
 20
5748.900076744002
 30
0.0
 10
9014.489390196133
 20
5748.900059119475
 30
0.0
 10
9011.786607661355
 20
5748.900041334561
 30
0.0
 10
9008.871206031481
 20
5748.900023417921
 30
0.0
 10
9005.793052270335
 20
5748.900005400424
 30
0.0
 10
9002.604818360238
 20
5748.899987314679
 30
0.0
 10
9000.442310463564
 20
5748.899975234553
 30
0.0
 10
8999.361054035506
 20
5748.899969194476
 30
0.0
  0
SPLINE
  5
1C3
330
1F
100
AcDbEntity
  8
0
  6
SLD-Plná
 62
     7
370
    25
100
AcDbSpline
210
0.0
220
0.0
230
1.0
 70
     8
 71
     3
 72
    11
 73
     7
 74
     0
 42
0.00000001
 43
0.00000001
 40
0.0
 40
0.0
 40
0.0
 40
0.0
 40
0.2418392384619534
 40
0.5000003165226522
 40
0.7581612024098859
 40
0.9999999999999999
 40
0.9999999999999999
 40
0.9999999999999999
 40
0.9999999999999999
 10
9025.859702984328
 20
5746.919974048949
 30
0.0
 10
9025.836425118574
 20
5747.150628899533
 30
0.0
 10
9025.788298353378
 20
5747.627505600903
 30
0.0
 10
9025.401031817288
 20
5748.258231692404
 30
0.0
 10
9024.83089911315
 20
5748.73018406586
 30
0.0
 10
9024.36549689721
 20
5748.844760671507
 30
0.0
 10
9024.140392130108
 20
5748.900178843673
 30
0.0
  0
LINE
  5
1C4
330
1F
100
AcDbEntity
  8
0
  6
SLD-Plná
 62
     7
370
    25
100
AcDbLine
 10
8999.3610576674
 20
5743.0334626296
 30
0.0
 11
8999.3610590526
 21
5740.7961947357
 31
0.0
  0
ARC
  5
1C5
330
1F
100
AcDbEntity
  8
0
  6
SLD-Plná
 62
     7
370
    25
100
AcDbCircle
 10
9289.5352964185
 20
5725.4118132086
 30
0.0
 40
290.5817737330414
100
AcDbArc
 50
176.965148812
 51
179.0580302922
  0
SPLINE
  5
1C6
330
1F
100
AcDbEntity
  8
0
  6
SLD-Plná
 62
     7
370
    25
100
AcDbSpline
210
0.0
220
0.0
230
1.0
 70
    24
 71
     3
 72
    15
 73
    11
 74
     0
 42
0.00000001
 43
0.00000001
 40
0.0
 40
0.0
 40
0.0
 40
0.0
 40
0.0293468686127093
 40
0.1681033522100879
 40
0.3065060861145731
 40
0.4447196517999834
 40
0.5829937978813315
 40
0.7215509539314143
 40
0.8604845611614705
 40
1.0
 40
1.0
 40
1.0
 40
1.0
 10
9013.364594433155
 20
5732.293260216571
 30
0.0
 10
9013.347334748967
 20
5732.290216868571
 30
0.0
 10
9013.248468637968
 20
5732.272784105724
 30
0.0
 10
9012.520633338623
 20
5732.144447104937
 30
0.0
 10
9011.21071610578
 20
5731.913473354292
 30
0.0
 10
9009.39339962018
 20
5731.593031425395
 30
0.0
 10
9007.181765072357
 20
5731.203060583146
 30
0.0
 10
9004.659787792889
 20
5730.758367944042
 30
0.0
 10
9001.922734241978
 20
5730.275751555372
 30
0.0
 10
9000.020463451841
 20
5729.940329890458
 30
0.0
 10
8999.06734061726
 20
5729.772268618792
 30
0.0
  0
ARC
  5
1C7
330
1F
100
AcDbEntity
  8
0
  6
SLD-Plná
 62
     7
370
    25
100
AcDbCircle
 10
9044.3597434267
 20
5738.0914728044
 30
0.0
 40
46.05009131945633
100
AcDbArc
 50
189.8813360698
 51
190.4079455655
  0
SPLINE
  5
1C8
330
1F
100
AcDbEntity
  8
0
  6
SLD-Plná
 62
     7
370
    25
100
AcDbSpline
210
0.0
220
0.0
230
1.0
 70
    24
 71
     3
 72
    17
 73
    13
 74
     0
 42
0.00000001
 43
0.00000001
 40
0.0
 40
0.0
 40
0.0
 40
0.0
 40
0.1212262653989053
 40
0.2418100711338139
 40
0.3619287012370985
 40
0.4821098566959203
 40
0.5785160324352087
 40
0.6748358766187477
 40
0.7711149928905825
 40
0.867500329814765
 40
0.9644348651024501
 40
1.0
 40
1.0
 40
1.0
 40
1.0
 10
8999.06734061726
 20
5729.772268618792
 30
0.0
 10
8998.080425226213
 20
5729.598248807674
 30
0.0
 10
8996.11182477377
 20
5729.251131433673
 30
0.0
 10
8993.25626673161
 20
5728.747619505862
 30
0.0
 10
8990.59067010408
 20
5728.277602900743
 30
0.0
 10
8988.362525829465
 20
5727.884720948217
 30
0.0
 10
8986.601650032999
 20
5727.574231035624
 30
0.0
 10
8985.277341316543
 20
5727.340719678125
 30
0.0
 10
8984.278573554519
 20
5727.164609974218
 30
0.0
 10
8983.675763567799
 20
5727.058318309319
 30
0.0
 10
8983.43765941848
 20
5727.016334123575
 30
0.0
 10
8983.55681199694
 20
5727.037343937979
 30
0.0
 10
8983.588794548446
 20
5727.042983324721
 30
0.0
  0
SPLINE
  5
1C9
330
1F
100
AcDbEntity
  8
0
  6
SLD-Plná
 62
     8
370
    25
100
AcDbSpline
210
0.0
220
0.0
230
1.0
 70
     8
 71
     3
 72
    13
 73
     9
 74
     0
 42
0.00000001
 43
0.00000001
 40
0.0
 40
0.0
 40
0.0
 40
0.0
 40
0.0267446620829618
 40
0.2471652475999034
 40
0.4517063315857938
 40
0.6616399178517107
 40
0.8756904506987846
 40
1.0
 40
1.0
 40
1.0
 40
1.0
 10
8892.801915616401
 20
5620.492696869806
 30
0.0
 10
8892.803971757672
 20
5620.487791406301
 30
0.0
 10
8892.822973929584
 20
5620.442456748563
 30
0.0
 10
8892.74592057136
 20
5620.625591558946
 30
0.0
 10
8892.573028400995
 20
5621.043850655043
 30
0.0
 10
8892.302853864405
 20
5621.732887100874
 30
0.0
 10
8892.016089820403
 20
5622.494624159839
 30
0.0
 10
8891.818770340462
 20
5623.105205181768
 30
0.0
 10
8891.746277464046
 20
5623.329525530569
 30
0.0
  0
SPLINE
  5
1CA
330
1F
100
AcDbEntity
  8
0
  6
SLD-Plná
 62
     8
370
    25
100
AcDbSpline
210
0.0
220
0.0
230
1.0
 70
     8
 71
     3
 72
    17
 73
    13
 74
     0
 42
0.00000001
 43
0.00000001
 40
0.0
 40
0.0
 40
0.0
 40
0.0
 40
0.0975622149266945
 40
0.1951591104728788
 40
0.2923807953717872
 40
0.3896441449638576
 40
0.4936756103593588
 40
0.5977105344657583
 40
0.7091401681988683
 40
0.8205266694815643
 40
0.9275726768381223
 40
1.0
 40
1.0
 40
1.0
 40
1.0
 10
8890.829157594795
 20
5631.374563814579
 30
0.0
 10
8890.842214811608
 20
5630.830627338774
 30
0.0
 10
8890.868333886707
 20
5629.742561033068
 30
0.0
 10
8891.059582338725
 20
5628.162512738126
 30
0.0
 10
8891.340340995503
 20
5626.67945710768
 30
0.0
 10
8891.693101180459
 20
5625.289368972101
 30
0.0
 10
8892.085682398243
 20
5624.029735278266
 30
0.0
 10
8892.4901082256
 20
5622.907250477488
 30
0.0
 10
8892.85525152312
 20
5621.994241607781
 30
0.0
 10
8893.1317756927
 20
5621.352394626239
 30
0.0
 10
8893.283334395875
 20
5621.012097478027
 30
0.0
 10
8893.28426898709
 20
5621.010843280453
 30
0.0
 10
8893.284646145858
 20
5621.010337143007
 30
0.0
  0
SPLINE
  5
1CB
330
1F
100
AcDbEntity
  8
0
  6
SLD-Plná
 62
     8
370
    25
100
AcDbSpline
210
0.0
220
0.0
230
1.0
 70
     8
 71
     3
 72
    18
 73
    14
 74
     0
 42
0.00000001
 43
0.00000001
 40
0.0
 40
0.0
 40
0.0
 40
0.0
 40
0.0042274046201058
 40
0.1083091513192572
 40
0.2079105280800364
 40
0.3075395509040819
 40
0.4110652462840344
 40
0.5146098806723296
 40
0.62492769305919
 40
0.7351982020996694
 40
0.8439152959877487
 40
0.9525586001754276
 40
1.0
 40
1.0
 40
1.0
 40
1.0
 10
8893.296204280041
 20
5641.766121017848
 30
0.0
 10
8893.297021849587
 20
5641.767955589933
 30
0.0
 10
8893.317968570249
 20
5641.81495864818
 30
0.0
 10
8893.246342773373
 20
5641.654539481418
 30
0.0
 10
8893.07532558871
 20
5641.269700176234
 30
0.0
 10
8892.799815233464
 20
5640.619720952999
 30
0.0
 10
8892.450045457763
 20
5639.7367201787
 30
0.0
 10
8892.046788301992
 20
5638.606687683086
 30
0.0
 10
8891.630716919426
 20
5637.245362163344
 30
0.0
 10
8891.250451118973
 20
5635.678972015746
 30
0.0
 10
8890.970043433263
 20
5633.969580097817
 30
0.0
 10
8890.842226850082
 20
5632.509655788268
 30
0.0
 10
8890.832204007129
 20
5631.639480662293
 30
0.0
 10
8890.829157599072
 20
5631.374993976489
 30
0.0
  0
LINE
  5
1CC
330
1F
100
AcDbEntity
  8
0
  6
SLD-Plná
 62
     8
370
    25
100
AcDbLine
 10
8991.9966438948
 20
5724.6992913546
 30
0.0
 11
9005.4969934386
 21
5727.0797672281
 31
0.0
  0
LINE
  5
1CD
330
1F
100
AcDbEntity
  8
0
  6
SLD-Plná
 62
     8
370
    25
100
AcDbLine
 10
9005.4969934386
 20
5727.0797672281
 30
0.0
 11
9006.0311500228
 21
5727.1739534459
 31
0.0
  0
LINE
  5
1CE
330
1F
100
AcDbEntity
  8
0
  6
SLD-Plná
 62
     8
370
    25
100
AcDbLine
 10
8866.3599105957
 20
5746.9196831972
 30
0.0
 11
8839.8599105974
 21
5746.9196667897
 31
0.0
  0
LINE
  5
1CF
330
1F
100
AcDbEntity
  8
0
  6
SLD-Plná
 62
     8
370
    25
100
AcDbLine
 10
8841.579207617
 20
5748.8998715116
 30
0.0
 11
8866.3599093698
 21
5748.8998868546
 31
0.0
  0
SPLINE
  5
1D0
330
1F
100
AcDbEntity
  8
0
  6
SLD-Plná
 62
     8
370
    25
100
AcDbSpline
210
0.0
220
0.0
230
1.0
 70
     8
 71
     3
 72
    24
 73
    20
 74
     0
 42
0.00000001
 43
0.00000001
 40
0.0
 40
0.0
 40
0.0
 40
0.0
 40
0.045753538495075
 40
0.106847415245083
 40
0.1831086760061853
 40
0.2501480407906125
 40
0.3254884811645071
 40
0.3802851104808315
 40
0.4386763118510723
 40
0.500606346737224
 40
0.5570975083173015
 40
0.6075852117356558
 40
0.6521296399790308
 40
0.6907829429637742
 40
0.7235892357580064
 40
0.7506394668026023
 40
0.8294920908153759
 40
0.912688573654024
 40
1.0
 40
1.0
 40
1.0
 40
1.0
 10
8999.361059052642
 20
5740.796194735668
 30
0.0
 10
8999.87997920795
 20
5740.787015541161
 30
0.0
 10
9001.091804110176
 20
5740.765579533381
 30
0.0
 10
9003.149233803897
 20
5740.722252262002
 30
0.0
 10
9005.397485414747
 20
5740.671836325479
 30
0.0
 10
9007.714205749284
 20
5740.615857780504
 30
0.0
 10
9009.70199066741
 20
5740.564293958144
 30
0.0
 10
9011.489019291255
 20
5740.514288199841
 30
0.0
 10
9013.045586903598
 20
5740.467419703384
 30
0.0
 10
9014.491685730452
 20
5740.419484381096
 30
0.0
 10
9015.742999355312
 20
5740.374047673998
 30
0.0
 10
9016.752932045942
 20
5740.334659388711
 30
0.0
 10
9017.55059023464
 20
5740.301188686496
 30
0.0
 10
9018.169442312877
 20
5740.273670933156
 30
0.0
 10
9018.640314218193
 20
5740.251900296118
 30
0.0
 10
9019.241027879865
 20
5740.225025131947
 30
0.0
 10
9019.903566059009
 20
5740.19908653314
 30
0.0
 10
9020.473440094713
 20
5740.178502102201
 30
0.0
 10
9020.547141730012
 20
5740.1761840979
 30
0.0
 10
9020.5848818849
 20
5740.174997125033
 30
0.0
  0
SPLINE
  5
1D1
330
1F
100
AcDbEntity
  8
0
  6
SLD-Plná
 62
     8
370
    25
100
AcDbSpline
210
0.0
220
0.0
230
1.0
 70
     8
 71
     3
 72
    22
 73
    18
 74
     0
 42
0.00000001
 43
0.00000001
 40
0.0
 40
0.0
 40
0.0
 40
0.0
 40
0.061893389479838
 40
0.1248767509215234
 40
0.1874720293971613
 40
0.2502975491487442
 40
0.3110593379841413
 40
0.3724122712084331
 40
0.4140273814644306
 40
0.4564513442527495
 40
0.4998841809528333
 40
0.5815069637999836
 40
0.6644074830327196
 40
0.7496578281953329
 40
0.833376235273592
 40
0.9165268767593335
 40
1.0
 40
1.0
 40
1.0
 40
1.0
 10
8970.07438945448
 20
5734.647959845063
 30
0.0
 10
8970.107555437948
 20
5734.662640933348
 30
0.0
 10
8970.17447147359
 20
5734.692261650849
 30
0.0
 10
8970.71774335404
 20
5734.929769652916
 30
0.0
 10
8971.55724441697
 20
5735.293075112801
 30
0.0
 10
8972.702023308357
 20
5735.764074642967
 30
0.0
 10
8974.101932642257
 20
5736.308697769223
 30
0.0
 10
8975.547612213757
 20
5736.83323782984
 30
0.0
 10
8976.965754559713
 20
5737.310579024977
 30
0.0
 10
8978.294554745247
 20
5737.729560224801
 30
0.0
 10
8980.13928862152
 20
5738.271121604357
 30
0.0
 10
8982.584918231409
 20
5738.914149104481
 30
0.0
 10
8985.717645584777
 20
5739.590407785754
 30
0.0
 10
8989.024936567588
 20
5740.142095173634
 30
0.0
 10
8992.434395826112
 20
5740.544245847675
 30
0.0
 10
8995.88643334143
 20
5740.78612808253
 30
0.0
 10
8998.201357056489
 20
5740.792834857883
 30
0.0
 10
8999.361059052642
 20
5740.796194735669
 30
0.0
  0
LINE
  5
1D2
330
1F
100
AcDbEntity
  8
0
  6
SLD-Plná
 62
     8
370
    25
100
AcDbLine
 10
8999.3610529551
 20
5750.6476150563
 30
0.0
 11
8999.3610540355
 21
5748.8999691945
 31
0.0
  0
LINE
  5
1D3
330
1F
100
AcDbEntity
  8
0
  6
SLD-Plná
 62
     8
370
    25
100
AcDbLine
 10
8866.3599093698
 20
5748.8998868546
 30
0.0
 11
8866.3599082895
 21
5750.6475327165
 31
0.0
  0
SPLINE
  5
1D4
330
1F
100
AcDbEntity
  8
0
  6
SLD-Plná
 62
     8
370
    25
100
AcDbSpline
210
0.0
220
0.0
230
1.0
 70
     8
 71
     3
 72
    17
 73
    13
 74
     0
 42
0.00000001
 43
0.00000001
 40
0.0
 40
0.0
 40
0.0
 40
0.0
 40
0.0006772556578641
 40
0.0638447315441635
 40
0.1267361770870789
 40
0.2518046624314118
 40
0.3772734448166552
 40
0.5017020317760651
 40
0.6268608471602728
 40
0.7510611313058962
 40
0.875817225332889
 40
1.0
 40
1.0
 40
1.0
 40
1.0
 10
8982.995609295105
 20
5727.268076659597
 30
0.0
 10
8982.995022462264
 20
5727.267960102783
 30
0.0
 10
8982.939701868208
 20
5727.256972319411
 30
0.0
 10
8983.076165805533
 20
5727.284144423895
 30
0.0
 10
8983.370110137519
 20
5727.342603663644
 30
0.0
 10
8984.202054319772
 20
5727.507306298051
 30
0.0
 10
8985.757277763732
 20
5727.812267563943
 30
0.0
 10
8987.821226834341
 20
5728.209342580868
 30
0.0
 10
8990.276042765045
 20
5728.669370377929
 30
0.0
 10
8993.026996369965
 20
5729.16831163999
 30
0.0
 10
8995.96206331991
 20
5729.683443546345
 30
0.0
 10
8997.984101627595
 20
5730.020673245523
 30
0.0
 10
8998.99279235094
 20
5730.18889976621
 30
0.0
  0
SPLINE
  5
1D5
330
1F
100
AcDbEntity
  8
0
  6
SLD-Plná
 62
     8
370
    25
100
AcDbSpline
210
0.0
220
0.0
230
1.0
 70
     8
 71
     3
 72
    15
 73
    11
 74
     0
 42
0.00000001
 43
0.00000001
 40
0.0
 40
0.0
 40
0.0
 40
0.0
 40
0.1250962266996692
 40
0.2503595522579599
 40
0.3753730476162151
 40
0.5003870327680789
 40
0.625181061267001
 40
0.7501882271571338
 40
0.8748717732671492
 40
1.0
 40
1.0
 40
1.0
 40
1.0
 10
8998.99279235094
 20
5730.18889976621
 30
0.0
 10
8999.973047067928
 20
5730.349281286603
 30
0.0
 10
9001.93486588947
 20
5730.670258559025
 30
0.0
 10
9004.765370961952
 20
5731.133070732193
 30
0.0
 10
9007.36856896744
 20
5731.558863777653
 30
0.0
 10
9009.652293600104
 20
5731.932618429468
 30
0.0
 10
9011.525501132197
 20
5732.239504795495
 30
0.0
 10
9012.911019376355
 20
5732.466699123106
 30
0.0
 10
9013.803384639408
 20
5732.613144561307
 30
0.0
 10
9013.914833357021
 20
5732.63144677783
 30
0.0
 10
9013.970656908681
 20
5732.640614175639
 30
0.0
  0
LINE
  5
1D6
330
1F
100
AcDbEntity
  8
0
  6
SLD-Plná
 62
     7
370
    25
100
AcDbLine
 10
8641.3618676756
 20
5367.8348268595
 30
0.0
 11
8641.3618676828
 21
5367.8349011505
 31
0.0
  0
LINE
  5
1D7
330
1F
100
AcDbEntity
  8
0
  6
SLD-Plná
 62
     7
370
    25
100
AcDbLine
 10
8588.3618679381
 20
5367.8401027715
 30
0.0
 11
8588.3618679285
 21
5367.8400054057
 31
0.0
  0
LINE
  5
1D8
330
1F
100
AcDbEntity
  8
0
  6
SLD-Plná
 62
     7
370
    25
100
AcDbLine
 10
8590.0811660488
 20
5234.8363700603
 30
0.0
 11
8590.0811660573
 21
5367.837514726
 31
0.0
  0
LWPOLYLINE
  5
1D9
330
1F
100
AcDbEntity
  8
0
  6
SLD-Plná
 62
     7
370
    25
100
AcDbPolyline
 90
       10
 70
   128
 43
0.0
 10
8590.0811660573
 20
5367.837514726
 10
8595.562781123
 20
5367.8375151526
 10
8601.0632925858
 20
5367.8375154729
 10
8606.5773147064
 20
5367.8375156865
 10
8612.0994485169
 20
5367.8375157931
 10
8617.6242871067
 20
5367.8375157928
 10
8623.1464209171
 20
5367.8375156854
 10
8628.6604430377
 20
5367.8375154711
 10
8634.1609545004
 20
5367.8375151502
 10
8639.6425695661
 20
5367.8375147228
  0
LINE
  5
1DA
330
1F
100
AcDbEntity
  8
0
  6
SLD-Plná
 62
     7
370
    25
100
AcDbLine
 10
8639.6425695576
 20
5234.8363700571
 30
0.0
 11
8639.6425695661
 21
5367.8375147228
 31
0.0
  0
LWPOLYLINE
  5
1DB
330
1F
100
AcDbEntity
  8
0
  6
SLD-Plná
 62
     7
370
    25
100
AcDbPolyline
 90
       10
 70
   128
 43
0.0
 10
8639.6425695576
 20
5234.8363700571
 10
8634.1609544919
 20
5234.8363704845
 10
8628.6604430292
 20
5234.8363708055
 10
8623.1464209086
 20
5234.8363710198
 10
8617.6242870982
 20
5234.8363711271
 10
8612.0994485084
 20
5234.8363711275
 10
8606.5773146979
 20
5234.8363710208
 10
8601.0632925773
 20
5234.8363708072
 10
8595.5627811145
 20
5234.836370487
 10
8590.0811660488
 20
5234.8363700603
  0
SPLINE
  5
1DC
330
1F
100
AcDbEntity
  8
0
  6
SLD-Plná
 62
     7
370
    25
100
AcDbSpline
210
0.0
220
0.0
230
1.0
 70
     8
 71
     3
 72
    30
 73
    26
 74
     0
 42
0.00000001
 43
0.00000001
 40
0.0
 40
0.0
 40
0.0
 40
0.0
 40
0.0832521489899776
 40
0.1665046940986994
 40
0.2497577421645553
 40
0.3330114000258957
 40
0.4162657745210238
 40
0.499520972488186
 40
0.5695816982362516
 40
0.6396371154298937
 40
0.6553701490178885
 40
0.6711025469337324
 40
0.6868342417070621
 40
0.7025651658674632
 40
0.718295251944465
 40
0.7340244324675336
 40
0.749752639966072
 40
0.7650162518767712
 40
0.7834400827472427
 40
0.8078437804781184
 40
0.8382281241771314
 40
0.8745942786831579
 40
0.9283859598524205
 40
0.9701907147016972
 40
1.0
 40
1.0
 40
1.0
 40
1.0
 10
8614.86186780056
 20
5210.057032253047
 30
0.0
 10
8615.942198677329
 20
5210.09784879951
 30
0.0
 10
8618.102865571147
 20
5210.179482086645
 30
0.0
 10
8621.28853472005
 20
5210.836525596512
 30
0.0
 10
8624.364454455274
 20
5211.873139830417
 30
0.0
 10
8627.278137082196
 20
5213.310165958305
 30
0.0
 10
8629.97964368041
 20
5215.11271421577
 30
0.0
 10
8632.294367369292
 20
5217.139810149589
 30
0.0
 10
8634.231384084918
 20
5219.300768885736
 30
0.0
 10
8635.408143066268
 20
5220.949658742503
 30
0.0
 10
8636.098536119598
 20
5222.070616168794
 30
0.0
 10
8636.406469417529
 20
5222.599615163982
 30
0.0
 10
8636.701124021973
 20
5223.136076314532
 30
0.0
 10
8636.98233978299
 20
5223.679674089652
 30
0.0
 10
8637.24989776933
 20
5224.230082545794
 30
0.0
 10
8637.50379066198
 20
5224.786894319822
 30
0.0
 10
8637.740922502544
 20
5225.344470415599
 30
0.0
 10
8637.978985113572
 20
5225.939449241234
 30
0.0
 10
8638.241212022831
 20
5226.645729001108
 30
0.0
 10
8638.541994341058
 20
5227.54643034446
 30
0.0
 10
8638.868264272514
 20
5228.682995390314
 30
0.0
 10
8639.221251860907
 20
5230.20660656565
 30
0.0
 10
8639.486730537821
 20
5231.899084781079
 30
0.0
 10
8639.623664047822
 20
5233.521071040783
 30
0.0
 10
8639.63701304744
 20
5234.449791097525
 30
0.0
 10
8639.64256955755
 20
5234.836370057134
 30
0.0
  0
SPLINE
  5
1DD
330
1F
100
AcDbEntity
  8
0
  6
SLD-Plná
 62
     7
370
    25
100
AcDbSpline
210
0.0
220
0.0
230
1.0
 70
     8
 71
     3
 72
    19
 73
    15
 74
     0
 42
0.00000001
 43
0.00000001
 40
0.0
 40
0.0
 40
0.0
 40
0.0
 40
0.0833312310240255
 40
0.1666628442862247
 40
0.2499948397865618
 40
0.3333272175250027
 40
0.4166599775015108
 40
0.4999931197160511
 40
0.5833266441685883
 40
0.666660550859088
 40
0.7499948397875138
 40
0.8333295109538315
 40
0.916664564358006
 40
1.0
 40
1.0
 40
1.0
 40
1.0
 10
8614.86186780056
 20
5210.057032253047
 30
0.0
 10
8613.780663071295
 20
5210.097908866968
 30
0.0
 10
8611.618248653303
 20
5210.179662282312
 30
0.0
 10
8608.430100423579
 20
5210.837785202021
 30
0.0
 10
8605.351973031627
 20
5211.876097394949
 30
0.0
 10
8602.436537817204
 20
5213.315434268799
 30
0.0
 10
8599.733666484362
 20
5215.120829612564
 30
0.0
 10
8597.289661287617
 20
5217.264167065792
 30
0.0
 10
8595.146143464339
 20
5219.708033899681
 30
0.0
 10
8593.340534658093
 20
5222.41081643446
 30
0.0
 10
8591.900961358873
 20
5225.326218064332
 30
0.0
 10
8590.862400943763
 20
5228.404371825477
 30
0.0
 10
8590.204028570952
 20
5231.592605735575
 30
0.0
 10
8590.122120285452
 20
5233.755113632251
 30
0.0
 10
8590.08116604878
 20
5234.836370060309
 30
0.0
  0
ARC
  5
1DE
330
1F
100
AcDbEntity
  8
0
  6
SLD-Plná
 62
     7
370
    25
100
AcDbCircle
 10
8614.8618678117
 20
5367.8375147244
 30
0.0
 40
24.78070175438552
100
AcDbArc
 50
359.999999995
 51
179.9999999949
  0
LWPOLYLINE
  5
1DF
330
1F
100
AcDbEntity
  8
0
  6
SLD-Plná
 62
     7
370
    25
100
AcDbPolyline
 90
        9
 70
   128
 43
0.0
 10
8590.0811660488
 20
5234.8363700603
 10
8589.7335636944
 20
5234.8363700099
 10
8589.4059826982
 20
5234.836369922
 10
8589.1088616622
 20
5234.8363697995
 10
8588.8516685598
 20
5234.8363696462
 10
8588.6425990327
 20
5234.8363694671
 10
8588.4883152302
 20
5234.8363692678
 10
8588.3937335158
 20
5234.8363690546
 10
8588.361867803
 20
5234.8363688345
  0
LINE
  5
1E0
330
1F
100
AcDbEntity
  8
0
  6
SLD-Plná
 62
     7
370
    25
100
AcDbLine
 10
8588.3618678116
 20
5367.8375135002
 30
0.0
 11
8588.361867803
 21
5234.8363688344
 31
0.0
  0
LWPOLYLINE
  5
1E1
330
1F
100
AcDbEntity
  8
0
  6
SLD-Plná
 62
     7
370
    25
100
AcDbPolyline
 90
        9
 70
   128
 43
0.0
 10
8590.0811660573
 20
5367.837514726
 10
8589.7335637029
 20
5367.8375146756
 10
8589.4059827068
 20
5367.8375145877
 10
8589.1088616707
 20
5367.8375144652
 10
8588.8516685684
 20
5367.8375143119
 10
8588.6425990412
 20
5367.8375141327
 10
8588.4883152387
 20
5367.8375139334
 10
8588.3937335243
 20
5367.8375137203
 10
8588.3618678116
 20
5367.8375135002
  0
LWPOLYLINE
  5
1E2
330
1F
100
AcDbEntity
  8
0
  6
SLD-Plná
 62
     7
370
    25
100
AcDbPolyline
 90
        9
 70
   128
 43
0.0
 10
8639.6425695661
 20
5367.8375147228
 10
8639.9901719204
 20
5367.8375146724
 10
8640.3177529166
 20
5367.8375145844
 10
8640.6148739526
 20
5367.8375144619
 10
8640.8720670549
 20
5367.8375143086
 10
8641.081136582
 20
5367.8375141294
 10
8641.2354203845
 20
5367.83751393
 10
8641.3300020989
 20
5367.8375137169
 10
8641.3618678116
 20
5367.8375134968
  0
LINE
  5
1E3
330
1F
100
AcDbEntity
  8
0
  6
SLD-Plná
 62
     7
370
    25
100
AcDbLine
 10
8641.3618678116
 20
5367.8375134968
 30
0.0
 11
8641.361867803
 21
5234.8363688311
 31
0.0
  0
LWPOLYLINE
  5
1E4
330
1F
100
AcDbEntity
  8
0
  6
SLD-Plná
 62
     7
370
    25
100
AcDbPolyline
 90
        9
 70
   128
 43
0.0
 10
8639.6425695576
 20
5234.8363700571
 10
8639.9901719119
 20
5234.8363700067
 10
8640.3177529081
 20
5234.8363699188
 10
8640.6148739441
 20
5234.8363697962
 10
8640.8720670464
 20
5234.8363696429
 10
8641.0811365735
 20
5234.8363694637
 10
8641.2354203759
 20
5234.8363692644
 10
8641.3300020904
 20
5234.8363690512
 10
8641.361867803
 20
5234.8363688311
  0
SPLINE
  5
1E5
330
1F
100
AcDbEntity
  8
0
  6
SLD-Plná
 62
     7
370
    25
100
AcDbSpline
210
0.0
220
0.0
230
1.0
 70
     8
 71
     3
 72
    19
 73
    15
 74
     0
 42
0.00000001
 43
0.00000001
 40
0.0
 40
0.0
 40
0.0
 40
0.0
 40
0.0828912814781491
 40
0.1662260499759206
 40
0.2497425926110722
 40
0.3332273103319847
 40
0.4166539760615249
 40
0.5000486082977059
 40
0.5834209112511175
 40
0.6668095893882926
 40
0.7502013467159983
 40
0.833534557240712
 40
0.9167822549190399
 40
1.0
 40
1.0
 40
1.0
 40
1.0
 10
8641.361867803045
 20
5234.836368831298
 30
0.0
 10
8641.317288002996
 20
5233.686344551507
 30
0.0
 10
8641.227889890934
 20
5231.380143103089
 30
0.0
 10
8640.52367331163
 20
5227.974942266631
 30
0.0
 10
8639.419482854333
 20
5224.676486220517
 30
0.0
 10
8637.880367458345
 20
5221.55179711431
 30
0.0
 10
8635.945384985711
 20
5218.659288057928
 30
0.0
 10
8633.652387380336
 20
5216.04336376382
 30
0.0
 10
8631.037605889274
 20
5213.749259379586
 30
0.0
 10
8628.142259631195
 20
5211.82223032437
 30
0.0
 10
8625.02296285806
 20
5210.283710353408
 30
0.0
 10
8621.733041414187
 20
5209.169483219096
 30
0.0
 10
8618.326099869386
 20
5208.467397540125
 30
0.0
 10
8616.016478158332
 20
5208.380938881605
 30
0.0
 10
8614.861875091185
 20
5208.337717330721
 30
0.0
  0
SPLINE
  5
1E6
330
1F
100
AcDbEntity
  8
0
  6
SLD-Plná
 62
     7
370
    25
100
AcDbSpline
210
0.0
220
0.0
230
1.0
 70
     8
 71
     3
 72
    11
 73
     7
 74
     0
 42
0.00000001
 43
0.00000001
 40
0.0
 40
0.0
 40
0.0
 40
0.0
 40
0.2418392384619534
 40
0.5000003165226522
 40
0.7581612024098859
 40
0.9999999999999999
 40
0.9999999999999999
 40
0.9999999999999999
 40
0.9999999999999999
 10
8614.86196532176
 20
5208.337721111488
 30
0.0
 10
8614.861960201586
 20
5208.36099897724
 30
0.0
 10
8614.861949615675
 20
5208.409125742436
 30
0.0
 10
8614.861906219323
 20
5208.796392278527
 30
0.0
 10
8614.861848281458
 20
5209.366524982662
 30
0.0
 10
8614.861804513816
 20
5209.831927198605
 30
0.0
 10
8614.861783344373
 20
5210.057031965704
 30
0.0
  0
SPLINE
  5
1E7
330
1F
100
AcDbEntity
  8
0
  6
SLD-Plná
 62
     7
370
    25
100
AcDbSpline
210
0.0
220
0.0
230
1.0
 70
     8
 71
     3
 72
    19
 73
    15
 74
     0
 42
0.00000001
 43
0.00000001
 40
0.0
 40
0.0
 40
0.0
 40
0.0
 40
0.0828912816107271
 40
0.166226050307376
 40
0.2497425930266385
 40
0.3332273106911022
 40
0.4166539764030051
 40
0.5000486086222877
 40
0.5834209116034396
 40
0.6668095898454628
 40
0.7502013471339914
 40
0.8335345574130006
 40
0.9167822548997407
 40
1.0
 40
1.0
 40
1.0
 40
1.0
 10
8588.361867803047
 20
5234.83636883468
 30
0.0
 10
8588.40644763428
 20
5233.686344150315
 30
0.0
 10
8588.495845808917
 20
5231.380141889677
 30
0.0
 10
8589.200062876645
 20
5227.974939896222
 30
0.0
 10
8590.304254093666
 20
5224.676482811925
 30
0.0
 10
8591.84337054594
 20
5221.551792859099
 30
0.0
 10
8593.778354294278
 20
5218.659283186258
 30
0.0
 10
8596.071353360816
 20
5216.043358545144
 30
0.0
 10
8598.686136467635
 20
5213.749254144024
 30
0.0
 10
8601.581484408804
 20
5211.822225409649
 30
0.0
 10
8604.700782868107
 20
5210.283706097456
 30
0.0
 10
8607.99070594741
 20
5209.169480003012
 30
0.0
 10
8611.397649030014
 20
5208.467395739157
 30
0.0
 10
8613.707271594125
 20
5208.38093828162
 30
0.0
 10
8614.861875089186
 20
5208.337717331064
 30
0.0
  0
ARC
  5
1E8
330
1F
100
AcDbEntity
  8
0
  6
SLD-Plná
 62
     7
370
    25
100
AcDbCircle
 10
8614.8618678116
 20
5367.8375134985
 30
0.0
 40
26.50000000000182
100
AcDbArc
 50
359.999999995
 51
179.999999995
  0
LINE
  5
1E9
330
1F
100
AcDbEntity
  8
0
  6
SLD-Plná
 62
     7
370
    25
100
AcDbLine
 10
8614.8618750907
 20
5208.3377173306
 30
0.0
 11
8614.8618750906
 21
5208.3377159235
 31
0.0
  0
LINE
  5
1EA
330
1F
100
AcDbEntity
  8
0
  6
SLD-Plná
 62
     7
370
    25
100
AcDbLine
 10
8588.3618678093
 20
5367.8374904253
 30
0.0
 11
8588.3618678093
 21
5367.8374906598
 31
0.0
  0
SPLINE
  5
1EB
330
1F
100
AcDbEntity
  8
0
  6
SLD-Plná
 62
     7
370
    25
100
AcDbSpline
210
0.0
220
0.0
230
1.0
 70
     8
 71
     3
 72
    12
 73
     8
 74
     0
 42
0.00000001
 43
0.00000001
 40
0.0
 40
0.0
 40
0.0
 40
0.0
 40
0.0029371024645159
 40
0.0249612310801485
 40
0.3671236449763968
 40
0.6991815713703109
 40
1.0
 40
1.0
 40
1.0
 40
1.0
 10
8588.361865899089
 20
5367.836092567346
 30
0.0
 10
8588.361865808887
 20
5367.836023857871
 30
0.0
 10
8588.361865042296
 20
5367.835439924173
 30
0.0
 10
8588.36185061346
 20
5367.824441922358
 30
0.0
 10
8588.361757764349
 20
5367.737748695739
 30
0.0
 10
8588.361613019459
 20
5367.469011006237
 30
0.0
 10
8588.36164315102
 20
5367.176232572758
 30
0.0
 10
8588.361657473137
 20
5367.037069294503
 30
0.0
  0
SPLINE
  5
1EC
330
1F
100
AcDbEntity
  8
0
  6
SLD-Plná
 62
     7
370
    25
100
AcDbSpline
210
0.0
220
0.0
230
1.0
 70
     8
 71
     3
 72
     9
 73
     5
 74
     0
 42
0.00000001
 43
0.00000001
 40
0.0
 40
0.0
 40
0.0
 40
0.0
 40
0.5603096674286456
 40
1.0
 40
1.0
 40
1.0
 40
1.0
 10
8641.361867390846
 20
5367.832781064194
 30
0.0
 10
8641.361867157882
 20
5367.830423064688
 30
0.0
 10
8641.361866742109
 20
5367.826214678426
 30
0.0
 10
8641.361864159138
 20
5367.78857234973
 30
0.0
 10
8641.361863023432
 20
5367.772021381707
 30
0.0
  0
ENDSEC
  0
SECTION
  2
OBJECTS
  0
DICTIONARY
  5
C
330
0
100
AcDbDictionary
281
     1
  3
ACAD_GROUP
350
D
  3
ACAD_LAYOUT
350
1A
  3
ACAD_MLINESTYLE
350
17
  3
ACAD_PLOTSETTINGS
350
19
  3
ACAD_PLOTSTYLENAME
350
E
  3
ACAD_SCALELIST
350
47
  3
DWGPROPS
350
1ED
  0
DICTIONARY
  5
D
102
{ACAD_REACTORS
330
C
102
}
330
C
100
AcDbDictionary
281
     1
  0
DICTIONARY
  5
1A
102
{ACAD_REACTORS
330
C
102
}
330
C
100
AcDbDictionary
281
     1
  3
Layout1
350
1E
  3
Layout2
350
26
  3
Model
350
22
  0
DICTIONARY
  5
17
102
{ACAD_REACTORS
330
C
102
}
330
C
100
AcDbDictionary
281
     1
  3
Standard
350
18
  0
DICTIONARY
  5
19
102
{ACAD_REACTORS
330
C
102
}
330
C
100
AcDbDictionary
281
     1
  0
ACDBDICTIONARYWDFLT
  5
E
102
{ACAD_REACTORS
330
C
102
}
330
C
100
AcDbDictionary
281
     1
  3
Normal
350
F
100
AcDbDictionaryWithDefault
340
F
  0
DICTIONARY
  5
47
102
{ACAD_REACTORS
330
C
102
}
330
C
100
AcDbDictionary
281
     1
  3
A0
350
48
  3
A1
350
49
  3
A2
350
4A
  3
A3
350
4B
  3
A4
350
4C
  3
A5
350
4D
  3
A6
350
4E
  3
A7
350
4F
  3
A8
350
50
  3
A9
350
51
  3
B0
350
52
  3
B1
350
53
  3
B2
350
54
  3
B3
350
55
  3
B4
350
56
  3
B5
350
57
  3
B6
350
58
  3
B7
350
59
  3
B8
350
5A
  3
B9
350
5B
  3
C0
350
5C
  3
C1
350
5D
  3
C2
350
5E
  3
C3
350
5F
  3
C4
350
60
  3
C5
350
61
  3
C6
350
62
  3
C7
350
63
  3
C8
350
64
  3
C9
350
65
  3
D0
350
66
  3
D1
350
67
  3
D2
350
68
  0
XRECORD
  5
1ED
102
{ACAD_REACTORS
330
C
102
}
330
C
100
AcDbXrecord
280
     1
  1
DWGPROPS COOKIE
  2

  3

  4

  6

  7

  8
radek.stransky
  9

300
=
301
=
302
=
303
=
304
=
305
=
306
=
307
=
308
=
309
=
 40
0.0
 41
2460811.443769884
 42
2460811.443771586
  1

 90
        0
  0
LAYOUT
  5
1E
102
{ACAD_REACTORS
330
1A
102
}
330
1A
100
AcDbPlotSettings
  1

  2
none_device
  4

  6

 40
0.0
 41
0.0
 42
0.0
 43
0.0
 44
0.0
 45
0.0
 46
0.0
 47
0.0
 48
0.0
 49
0.0
140
0.0
141
0.0
142
1.0
143
1.0
 70
   688
 72
     1
 73
     0
 74
     5
  7

 75
    16
147
1.0
148
0.0
149
0.0
100
AcDbLayout
  1
Layout1
 70
     1
 71
     1
 10
0.0
 20
0.0
 11
420.0
 21
297.0
 12
0.0
 22
0.0
 32
0.0
 14
1.0000000000E+20
 24
1.0000000000E+20
 34
1.0000000000E+20
 15
-1.0000000000E+20
 25
-1.0000000000E+20
 35
-1.0000000000E+20
146
0.0
 13
0.0
 23
0.0
 33
0.0
 16
1.0
 26
0.0
 36
0.0
 17
0.0
 27
1.0
 37
0.0
 76
     0
330
1B
  0
LAYOUT
  5
26
102
{ACAD_REACTORS
330
1A
102
}
330
1A
100
AcDbPlotSettings
  1

  2
none_device
  4

  6

 40
0.0
 41
0.0
 42
0.0
 43
0.0
 44
0.0
 45
0.0
 46
0.0
 47
0.0
 48
0.0
 49
0.0
140
0.0
141
0.0
142
1.0
143
1.0
 70
   688
 72
     1
 73
     0
 74
     5
  7

 75
    16
147
1.0
148
0.0
149
0.0
100
AcDbLayout
  1
Layout2
 70
     1
 71
     2
 10
0.0
 20
0.0
 11
0.0
 21
0.0
 12
0.0
 22
0.0
 32
0.0
 14
0.0
 24
0.0
 34
0.0
 15
0.0
 25
0.0
 35
0.0
146
0.0
 13
0.0
 23
0.0
 33
0.0
 16
1.0
 26
0.0
 36
0.0
 17
0.0
 27
1.0
 37
0.0
 76
     0
330
23
  0
LAYOUT
  5
22
102
{ACAD_REACTORS
330
1A
102
}
330
1A
100
AcDbPlotSettings
  1

  2
none_device
  4
Letter_(8.50_x_11.00_Inches)
  6

 40
6.35
 41
6.35
 42
6.35000508
 43
6.35000508
 44
215.9
 45
279.4
 46
0.0
 47
0.0
 48
0.0
 49
0.0
140
0.0
141
0.0
142
1.0
143
1.0
 70
  1712
 72
     1
 73
     0
 74
     0
  7

 75
     0
147
1.0
148
0.0
149
0.0
100
AcDbLayout
  1
Model
 70
     1
 71
     0
 10
0.0
 20
0.0
 11
20000.0
 21
10000.0
 12
0.0
 22
0.0
 32
0.0
 14
0.0
 24
0.0
 34
0.0
 15
20000.0
 25
10000.0
 35
0.0
146
0.0
 13
0.0
 23
0.0
 33
0.0
 16
1.0
 26
0.0
 36
0.0
 17
0.0
 27
1.0
 37
0.0
 76
     0
330
1F
331
29
  0
MLINESTYLE
  5
18
102
{ACAD_REACTORS
330
17
102
}
330
17
100
AcDbMlineStyle
  2
Standard
 70
     0
  3

 62
   256
 51
90.0
 52
90.0
 71
     2
 49
0.5
 62
   256
  6
BYLAYER
 49
-0.5
 62
   256
  6
BYLAYER
  0
ACDBPLACEHOLDER
  5
F
102
{ACAD_REACTORS
330
E
102
}
330
E
  0
SCALE
  5
48
102
{ACAD_REACTORS
330
47
102
}
330
47
100
AcDbScale
 70
     0
300
1:1
140
1.0
141
1.0
290
     1
  0
SCALE
  5
49
102
{ACAD_REACTORS
330
47
102
}
330
47
100
AcDbScale
 70
     0
300
1:2
140
1.0
141
2.0
290
     0
  0
SCALE
  5
4A
102
{ACAD_REACTORS
330
47
102
}
330
47
100
AcDbScale
 70
     0
300
1:4
140
1.0
141
4.0
290
     0
  0
SCALE
  5
4B
102
{ACAD_REACTORS
330
47
102
}
330
47
100
AcDbScale
 70
     0
300
1:5
140
1.0
141
5.0
290
     0
  0
SCALE
  5
4C
102
{ACAD_REACTORS
330
47
102
}
330
47
100
AcDbScale
 70
     0
300
1:8
140
1.0
141
8.0
290
     0
  0
SCALE
  5
4D
102
{ACAD_REACTORS
330
47
102
}
330
47
100
AcDbScale
 70
     0
300
1:10
140
1.0
141
10.0
290
     0
  0
SCALE
  5
4E
102
{ACAD_REACTORS
330
47
102
}
330
47
100
AcDbScale
 70
     0
300
1:16
140
1.0
141
16.0
290
     0
  0
SCALE
  5
4F
102
{ACAD_REACTORS
330
47
102
}
330
47
100
AcDbScale
 70
     0
300
1:20
140
1.0
141
20.0
290
     0
  0
SCALE
  5
50
102
{ACAD_REACTORS
330
47
102
}
330
47
100
AcDbScale
 70
     0
300
1:30
140
1.0
141
30.0
290
     0
  0
SCALE
  5
51
102
{ACAD_REACTORS
330
47
102
}
330
47
100
AcDbScale
 70
     0
300
1:40
140
1.0
141
40.0
290
     0
  0
SCALE
  5
52
102
{ACAD_REACTORS
330
47
102
}
330
47
100
AcDbScale
 70
     0
300
1:50
140
1.0
141
50.0
290
     0
  0
SCALE
  5
53
102
{ACAD_REACTORS
330
47
102
}
330
47
100
AcDbScale
 70
     0
300
1:100
140
1.0
141
100.0
290
     0
  0
SCALE
  5
54
102
{ACAD_REACTORS
330
47
102
}
330
47
100
AcDbScale
 70
     0
300
2:1
140
2.0
141
1.0
290
     0
  0
SCALE
  5
55
102
{ACAD_REACTORS
330
47
102
}
330
47
100
AcDbScale
 70
     0
300
4:1
140
4.0
141
1.0
290
     0
  0
SCALE
  5
56
102
{ACAD_REACTORS
330
47
102
}
330
47
100
AcDbScale
 70
     0
300
8:1
140
8.0
141
1.0
290
     0
  0
SCALE
  5
57
102
{ACAD_REACTORS
330
47
102
}
330
47
100
AcDbScale
 70
     0
300
10:1
140
10.0
141
1.0
290
     0
  0
SCALE
  5
58
102
{ACAD_REACTORS
330
47
102
}
330
47
100
AcDbScale
 70
     0
300
100:1
140
100.0
141
1.0
290
     0
  0
SCALE
  5
59
102
{ACAD_REACTORS
330
47
102
}
330
47
100
AcDbScale
 70
     0
300
1/128" = 1'-0"
140
0.0078125
141
12.0
290
     0
  0
SCALE
  5
5A
102
{ACAD_REACTORS
330
47
102
}
330
47
100
AcDbScale
 70
     0
300
1/64" = 1'-0"
140
0.015625
141
12.0
290
     0
  0
SCALE
  5
5B
102
{ACAD_REACTORS
330
47
102
}
330
47
100
AcDbScale
 70
     0
300
1/32" = 1'-0"
140
0.03125
141
12.0
290
     0
  0
SCALE
  5
5C
102
{ACAD_REACTORS
330
47
102
}
330
47
100
AcDbScale
 70
     0
300
1/16" = 1'-0"
140
0.0625
141
12.0
290
     0
  0
SCALE
  5
5D
102
{ACAD_REACTORS
330
47
102
}
330
47
100
AcDbScale
 70
     0
300
3/32" = 1'-0"
140
0.09375
141
12.0
290
     0
  0
SCALE
  5
5E
102
{ACAD_REACTORS
330
47
102
}
330
47
100
AcDbScale
 70
     0
300
1/8" = 1'-0"
140
0.125
141
12.0
290
     0
  0
SCALE
  5
5F
102
{ACAD_REACTORS
330
47
102
}
330
47
100
AcDbScale
 70
     0
300
3/16" = 1'-0"
140
0.1875
141
12.0
290
     0
  0
SCALE
  5
60
102
{ACAD_REACTORS
330
47
102
}
330
47
100
AcDbScale
 70
     0
300
1/4" = 1'-0"
140
0.25
141
12.0
290
     0
  0
SCALE
  5
61
102
{ACAD_REACTORS
330
47
102
}
330
47
100
AcDbScale
 70
     0
300
3/8" = 1'-0"
140
0.375
141
12.0
290
     0
  0
SCALE
  5
62
102
{ACAD_REACTORS
330
47
102
}
330
47
100
AcDbScale
 70
     0
300
1/2" = 1'-0"
140
0.5
141
12.0
290
     0
  0
SCALE
  5
63
102
{ACAD_REACTORS
330
47
102
}
330
47
100
AcDbScale
 70
     0
300
3/4" = 1'-0"
140
0.75
141
12.0
290
     0
  0
SCALE
  5
64
102
{ACAD_REACTORS
330
47
102
}
330
47
100
AcDbScale
 70
     0
300
1" = 1'-0"
140
1.0
141
12.0
290
     0
  0
SCALE
  5
65
102
{ACAD_REACTORS
330
47
102
}
330
47
100
AcDbScale
 70
     0
300
1-1/2" = 1'-0"
140
1.5
141
12.0
290
     0
  0
SCALE
  5
66
102
{ACAD_REACTORS
330
47
102
}
330
47
100
AcDbScale
 70
     0
300
3" = 1'-0"
140
3.0
141
12.0
290
     0
  0
SCALE
  5
67
102
{ACAD_REACTORS
330
47
102
}
330
47
100
AcDbScale
 70
     0
300
6" = 1'-0"
140
6.0
141
12.0
290
     0
  0
SCALE
  5
68
102
{ACAD_REACTORS
330
47
102
}
330
47
100
AcDbScale
 70
     0
300
1'-0" = 1'-0"
140
12.0
141
12.0
290
     0
  0
ENDSEC
  0
EOF
