  0
SECTION
  2
HEADER
  9
$ACADVER
  1
AC1015
  9
$ACADMAINTVER
 70
     6
  9
$DWGCODEPAGE
  3
ANSI_1250
  9
$INSBASE
 10
0.0
 20
0.0
 30
0.0
  9
$EXTMIN
 10
0.0
 20
0.0
 30
0.0
  9
$EXTMAX
 10
20000.0
 20
10000.0
 30
0.0
  9
$LIMMIN
 10
0.0
 20
0.0
  9
$LIMMAX
 10
20000.0
 20
10000.0
  9
$ORTHOMODE
 70
     0
  9
$REGENMODE
 70
     1
  9
$FILLMODE
 70
     1
  9
$QTEXTMODE
 70
     0
  9
$MIRRTEXT
 70
     1
  9
$LTSCALE
 40
1.0
  9
$ATTMODE
 70
     1
  9
$TEXTSIZE
 40
2.0
  9
$TRACEWID
 40
1.0
  9
$TEXTSTYLE
  7
Standard
  9
$CLAYER
  8
0
  9
$CELTYPE
  6
ByLayer
  9
$CECOLOR
 62
   256
  9
$CELTSCALE
 40
1.0
  9
$DISPSILH
 70
     0
  9
$DIMSCALE
 40
1.0
  9
$DIMASZ
 40
2.0
  9
$DIMEXO
 40
1.0
  9
$DIMDLI
 40
3.75
  9
$DIMRND
 40
0.0
  9
$DIMDLE
 40
0.0
  9
$DIMEXE
 40
1.0
  9
$DIMTP
 40
0.0
  9
$DIMTM
 40
0.0
  9
$DIMTXT
 40
2.0
  9
$DIMCEN
 40
2.5
  9
$DIMTSZ
 40
0.0
  9
$DIMTOL
 70
     0
  9
$DIMLIM
 70
     0
  9
$DIMTIH
 70
     1
  9
$DIMTOH
 70
     1
  9
$DIMSE1
 70
     0
  9
$DIMSE2
 70
     0
  9
$DIMTAD
 70
     1
  9
$DIMZIN
 70
     0
  9
$DIMBLK
  1

  9
$DIMASO
 70
     1
  9
$DIMSHO
 70
     1
  9
$DIMPOST
  1

  9
$DIMAPOST
  1

  9
$DIMALT
 70
     0
  9
$DIMALTD
 70
     3
  9
$DIMALTF
 40
0.0393700787
  9
$DIMLFAC
 40
1.0
  9
$DIMTOFL
 70
     1
  9
$DIMTVP
 40
0.0
  9
$DIMTIX
 70
     0
  9
$DIMSOXD
 70
     0
  9
$DIMSAH
 70
     0
  9
$DIMBLK1
  1

  9
$DIMBLK2
  1

  9
$DIMSTYLE
  2
ISO-25
  9
$DIMCLRD
 70
     0
  9
$DIMCLRE
 70
     0
  9
$DIMCLRT
 70
     0
  9
$DIMTFAC
 40
1.0
  9
$DIMGAP
 40
1.524
  9
$DIMJUST
 70
     0
  9
$DIMSD1
 70
     0
  9
$DIMSD2
 70
     0
  9
$DIMTOLJ
 70
     0
  9
$DIMTZIN
 70
     0
  9
$DIMALTZ
 70
     0
  9
$DIMALTTZ
 70
     0
  9
$DIMUPT
 70
     0
  9
$DIMDEC
 70
     2
  9
$DIMTDEC
 70
     0
  9
$DIMALTU
 70
     2
  9
$DIMALTTD
 70
     3
  9
$DIMTXSTY
  7
Standard
  9
$DIMAUNIT
 70
     0
  9
$DIMADEC
 70
     2
  9
$DIMALTRND
 40
0.0
  9
$DIMAZIN
 70
     0
  9
$DIMDSEP
 70
    44
  9
$DIMATFIT
 70
     3
  9
$DIMFRAC
 70
     0
  9
$DIMLDRBLK
  1

  9
$DIMLUNIT
 70
     2
  9
$DIMLWD
 70
    -2
  9
$DIMLWE
 70
    -2
  9
$DIMTMOVE
 70
     0
  9
$LUNITS
 70
     2
  9
$LUPREC
 70
     3
  9
$SKETCHINC
 40
1.0
  9
$FILLETRAD
 40
10.0
  9
$AUNITS
 70
     0
  9
$AUPREC
 70
     2
  9
$MENU
  1
.
  9
$ELEVATION
 40
0.0
  9
$PELEVATION
 40
0.0
  9
$THICKNESS
 40
0.0
  9
$LIMCHECK
 70
     0
  9
$CHAMFERA
 40
0.0
  9
$CHAMFERB
 40
0.0
  9
$CHAMFERC
 40
0.0
  9
$CHAMFERD
 40
0.0
  9
$SKPOLY
 70
     0
  9
$TDCREATE
 40
2459947.289810521
  9
$TDUCREATE
 40
2459947.248143854
  9
$TDUPDATE
 40
2459947.289811007
  9
$TDUUPDATE
 40
2459947.24814434
  9
$TDINDWG
 40
0.0000000116
  9
$TDUSRTIMER
 40
0.0000000116
  9
$USRTIMER
 70
     1
  9
$ANGBASE
 50
0.0
  9
$ANGDIR
 70
     0
  9
$PDMODE
 70
     0
  9
$PDSIZE
 40
-1.0
  9
$PLINEWID
 40
0.0
  9
$SPLFRAME
 70
     0
  9
$SPLINETYPE
 70
     6
  9
$SPLINESEGS
 70
     8
  9
$HANDSEED
  5
258
  9
$SURFTAB1
 70
     6
  9
$SURFTAB2
 70
     6
  9
$SURFTYPE
 70
     6
  9
$SURFU
 70
     6
  9
$SURFV
 70
     6
  9
$UCSBASE
  2

  9
$UCSNAME
  2

  9
$UCSORG
 10
0.0
 20
0.0
 30
0.0
  9
$UCSXDIR
 10
1.0
 20
0.0
 30
0.0
  9
$UCSYDIR
 10
0.0
 20
1.0
 30
0.0
  9
$UCSORTHOREF
  2

  9
$UCSORTHOVIEW
 70
     0
  9
$UCSORGTOP
 10
0.0
 20
0.0
 30
0.0
  9
$UCSORGBOTTOM
 10
0.0
 20
0.0
 30
0.0
  9
$UCSORGLEFT
 10
0.0
 20
0.0
 30
0.0
  9
$UCSORGRIGHT
 10
0.0
 20
0.0
 30
0.0
  9
$UCSORGFRONT
 10
0.0
 20
0.0
 30
0.0
  9
$UCSORGBACK
 10
0.0
 20
0.0
 30
0.0
  9
$PUCSBASE
  2

  9
$PUCSNAME
  2

  9
$PUCSORG
 10
0.0
 20
0.0
 30
0.0
  9
$PUCSXDIR
 10
1.0
 20
0.0
 30
0.0
  9
$PUCSYDIR
 10
0.0
 20
1.0
 30
0.0
  9
$PUCSORTHOREF
  2

  9
$PUCSORTHOVIEW
 70
     0
  9
$PUCSORGTOP
 10
0.0
 20
0.0
 30
0.0
  9
$PUCSORGBOTTOM
 10
0.0
 20
0.0
 30
0.0
  9
$PUCSORGLEFT
 10
0.0
 20
0.0
 30
0.0
  9
$PUCSORGRIGHT
 10
0.0
 20
0.0
 30
0.0
  9
$PUCSORGFRONT
 10
0.0
 20
0.0
 30
0.0
  9
$PUCSORGBACK
 10
0.0
 20
0.0
 30
0.0
  9
$USERI1
 70
     0
  9
$USERI2
 70
     0
  9
$USERI3
 70
     0
  9
$USERI4
 70
     0
  9
$USERI5
 70
     0
  9
$USERR1
 40
0.0
  9
$USERR2
 40
0.0
  9
$USERR3
 40
0.0
  9
$USERR4
 40
0.0
  9
$USERR5
 40
0.0
  9
$WORLDVIEW
 70
     1
  9
$SHADEDGE
 70
     3
  9
$SHADEDIF
 70
    70
  9
$TILEMODE
 70
     1
  9
$MAXACTVP
 70
    64
  9
$PINSBASE
 10
0.0
 20
0.0
 30
0.0
  9
$PLIMCHECK
 70
     0
  9
$PEXTMIN
 10
1.0000000000E+20
 20
1.0000000000E+20
 30
1.0000000000E+20
  9
$PEXTMAX
 10
-1.0000000000E+20
 20
-1.0000000000E+20
 30
-1.0000000000E+20
  9
$PLIMMIN
 10
0.0
 20
0.0
  9
$PLIMMAX
 10
420.0
 20
297.0
  9
$UNITMODE
 70
     0
  9
$VISRETAIN
 70
     1
  9
$PLINEGEN
 70
     0
  9
$PSLTSCALE
 70
     1
  9
$TREEDEPTH
 70
  3020
  9
$CMLSTYLE
  2
Standard
  9
$CMLJUST
 70
     0
  9
$CMLSCALE
 40
20.0
  9
$PROXYGRAPHICS
 70
     1
  9
$MEASUREMENT
 70
     1
  9
$CELWEIGHT
370
    -1
  9
$ENDCAPS
280
     0
  9
$JOINSTYLE
280
     0
  9
$LWDISPLAY
290
     1
  9
$INSUNITS
 70
     4
  9
$HYPERLINKBASE
  1

  9
$STYLESHEET
  1

  9
$XEDIT
290
     1
  9
$CEPSNTYPE
380
     0
  9
$PSTYLEMODE
290
     1
  9
$FINGERPRINTGUID
  2
{484a0b76-d64e-4c1d-ba14-b66689b48e3e}
  9
$VERSIONGUID
  2
{FAEB1C32-E019-11D5-929B-00C0DF256EC4}
  9
$EXTNAMES
290
     1
  9
$PSVPSCALE
 40
0.0
  9
$OLESTARTUP
290
     0
  0
ENDSEC
  0
SECTION
  2
CLASSES
  0
CLASS
  1
ACDBDICTIONARYWDFLT
  2
AcDbDictionaryWithDefault
  3
ObjectDBX Classes
 90
        0
280
     0
281
     0
  0
CLASS
  1
VISUALSTYLE
  2
AcDbVisualStyle
  3
ObjectDBX Classes
 90
     4095
280
     0
281
     0
  0
CLASS
  1
MATERIAL
  2
AcDbMaterial
  3
ObjectDBX Classes
 90
     1153
280
     0
281
     0
  0
CLASS
  1
SCALE
  2
AcDbScale
  3
ObjectDBX Classes
 90
     1153
280
     0
281
     0
  0
CLASS
  1
TABLESTYLE
  2
AcDbTableStyle
  3
ObjectDBX Classes
 90
     4095
280
     0
281
     0
  0
CLASS
  1
MLEADERSTYLE
  2
AcDbMLeaderStyle
  3
ACDB_MLEADERSTYLE_CLASS
 90
     4095
280
     0
281
     0
  0
CLASS
  1
SUN
  2
AcDbSun
  3
SCENEOE
 90
     1153
280
     0
281
     0
  0
CLASS
  1
ACDBPLACEHOLDER
  2
AcDbPlaceHolder
  3
ObjectDBX Classes
 90
        0
280
     0
281
     0
  0
CLASS
  1
LAYOUT
  2
AcDbLayout
  3
ObjectDBX Classes
 90
        0
280
     0
281
     0
  0
ENDSEC
  0
SECTION
  2
TABLES
  0
TABLE
  2
VPORT
  5
8
330
0
100
AcDbSymbolTable
 70
     1
  0
VPORT
  5
29
330
8
100
AcDbSymbolTableRecord
100
AcDbViewportTableRecord
  2
*Active
 70
     0
 10
0.0
 20
0.0
 11
1.0
 21
1.0
 12
10000.0
 22
5000.0
 13
0.0
 23
0.0
 14
10.0
 24
10.0
 15
10.0
 25
10.0
 16
0.0
 26
0.0
 36
1.0
 17
0.0
 27
0.0
 37
0.0
 40
10000.0
 41
2.0
 42
50.0
 43
0.0
 44
0.0
 50
0.0
 51
0.0
 71
     0
 72
  2000
 73
     1
 74
     3
 75
     0
 76
     0
 77
     0
 78
     0
281
     0
 65
     1
110
0.0
120
0.0
130
0.0
111
1.0
121
0.0
131
0.0
112
0.0
122
1.0
132
0.0
 79
     0
146
0.0
  0
ENDTAB
  0
TABLE
  2
LTYPE
  5
5
330
0
100
AcDbSymbolTable
 70
     6
  0
LTYPE
  5
14
330
5
100
AcDbSymbolTableRecord
100
AcDbLinetypeTableRecord
  2
ByBlock
 70
     0
  3

 72
    65
 73
     0
 40
0.0
  0
LTYPE
  5
15
330
5
100
AcDbSymbolTableRecord
100
AcDbLinetypeTableRecord
  2
ByLayer
 70
     0
  3

 72
    65
 73
     0
 40
0.0
  0
LTYPE
  5
16
330
5
100
AcDbSymbolTableRecord
100
AcDbLinetypeTableRecord
  2
Continuous
 70
     0
  3
Solid line
 72
    65
 73
     0
 40
0.0
  0
LTYPE
  5
6E
330
5
100
AcDbSymbolTableRecord
100
AcDbLinetypeTableRecord
  2
HIDDEN
 70
     0
  3
Hidden __ __ __ __ __ __ __ __ __ __ __ __ __ __
 72
    65
 73
     2
 40
1.905
 49
1.27
 74
     0
 49
-0.635
 74
     0
  0
LTYPE
  5
6F
330
5
100
AcDbSymbolTableRecord
100
AcDbLinetypeTableRecord
  2
PHANTOM
 70
     0
  3
Phantom ______  __  __  ______  __  __  ______
 72
    65
 73
     6
 40
12.7
 49
6.35
 74
     0
 49
-1.27
 74
     0
 49
1.27
 74
     0
 49
-1.27
 74
     0
 49
1.27
 74
     0
 49
-1.27
 74
     0
  0
LTYPE
  5
70
330
5
100
AcDbSymbolTableRecord
100
AcDbLinetypeTableRecord
  2
CENTER
 70
     0
  3
Center ____ _ ____ _ ____ _ ____ _ ____ _ ____
 72
    65
 73
     4
 40
10.16
 49
6.35
 74
     0
 49
-1.27
 74
     0
 49
1.27
 74
     0
 49
-1.27
 74
     0
  0
LTYPE
  5
71
330
5
100
AcDbSymbolTableRecord
100
AcDbLinetypeTableRecord
  2
CENTERX2
 70
     0
  3
Center (2x) ________  __  ________  __  _____
 72
    65
 73
     4
 40
20.32
 49
12.7
 74
     0
 49
-2.54
 74
     0
 49
2.54
 74
     0
 49
-2.54
 74
     0
  0
LTYPE
  5
72
330
5
100
AcDbSymbolTableRecord
100
AcDbLinetypeTableRecord
  2
DOT2
 70
     0
  3
Dot (.5x) ........................................
 72
    65
 73
     2
 40
0.635
 49
0.0
 74
     0
 49
-0.635
 74
     0
  0
ENDTAB
  0
TABLE
  2
LAYER
  5
2
330
0
100
AcDbSymbolTable
 70
    13
  0
LAYER
  5
10
330
2
100
AcDbSymbolTableRecord
100
AcDbLayerTableRecord
  2
0
 70
     0
 62
     7
  6
Continuous
370
    -3
390
F
  0
LAYER
  5
73
330
2
100
AcDbSymbolTableRecord
100
AcDbLayerTableRecord
  2
FORMAT
 70
     0
 62
     7
  6
Continuous
370
    -3
390
F
  0
LAYER
  5
74
330
2
100
AcDbSymbolTableRecord
100
AcDbLayerTableRecord
  2
OSA
 70
     0
 62
     7
  6
CENTER
370
    -3
390
F
  0
LAYER
  5
75
330
2
100
AcDbSymbolTableRecord
100
AcDbLayerTableRecord
  2
0_35
 70
     0
 62
     7
  6
Continuous
370
    35
390
F
  0
LAYER
  5
76
330
2
100
AcDbSymbolTableRecord
100
AcDbLayerTableRecord
  2
0_5
 70
     0
 62
     7
  6
Continuous
370
    50
390
F
  0
LAYER
  5
77
330
2
100
AcDbSymbolTableRecord
100
AcDbLayerTableRecord
  2
0_25
 70
     0
 62
     7
  6
Continuous
370
    25
390
F
  0
LAYER
  5
78
330
2
100
AcDbSymbolTableRecord
100
AcDbLayerTableRecord
  2
0_18
 70
     0
 62
     7
  6
Continuous
370
    -3
390
F
  0
LAYER
  5
79
330
2
100
AcDbSymbolTableRecord
100
AcDbLayerTableRecord
  2
SLD-0
 70
     0
 62
   179
  6
Continuous
370
    -3
390
F
  0
LAYER
  5
7A
330
2
100
AcDbSymbolTableRecord
100
AcDbLayerTableRecord
  2
KOTY
 70
     0
 62
     7
  6
Continuous
370
    -3
390
F
  0
LAYER
  5
7B
330
2
100
AcDbSymbolTableRecord
100
AcDbLayerTableRecord
  2
SILNA
 70
     0
 62
   179
  6
Continuous
370
    -3
390
F
  0
LAYER
  5
7C
330
2
100
AcDbSymbolTableRecord
100
AcDbLayerTableRecord
  2
0_18_1
 70
     0
 62
   179
  6
Continuous
370
    -3
390
F
  0
LAYER
  5
7D
330
2
100
AcDbSymbolTableRecord
100
AcDbLayerTableRecord
  2
0_35_1
 70
     0
 62
   179
  6
Continuous
370
    35
390
F
  0
LAYER
  5
7E
330
2
100
AcDbSymbolTableRecord
100
AcDbLayerTableRecord
  2
0_5_1
 70
     0
 62
   179
  6
Continuous
370
    50
390
F
  0
ENDTAB
  0
TABLE
  2
STYLE
  5
3
330
0
100
AcDbSymbolTable
 70
     1
  0
STYLE
  5
11
330
3
100
AcDbSymbolTableRecord
100
AcDbTextStyleTableRecord
  2
Standard
 70
     0
 40
0.0
 41
1.0
 50
0.0
 71
     0
 42
2.0
  3
txt
  4

  0
ENDTAB
  0
TABLE
  2
VIEW
  5
6
330
0
100
AcDbSymbolTable
 70
     0
  0
ENDTAB
  0
TABLE
  2
UCS
  5
7
330
0
100
AcDbSymbolTable
 70
     0
  0
ENDTAB
  0
TABLE
  2
APPID
  5
9
330
0
100
AcDbSymbolTable
 70
     1
  0
APPID
  5
12
330
9
100
AcDbSymbolTableRecord
100
AcDbRegAppTableRecord
  2
ACAD
 70
     0
  0
ENDTAB
  0
TABLE
  2
DIMSTYLE
  5
A
330
0
100
AcDbSymbolTable
 70
     1
100
AcDbDimStyleTable
  0
DIMSTYLE
105
27
330
A
100
AcDbSymbolTableRecord
100
AcDbDimStyleTableRecord
  2
ISO-25
 70
     0
 41
2.5
 42
0.625
 43
3.75
 44
1.25
 73
     0
 74
     0
 77
     1
 78
     8
140
2.5
141
2.5
143
0.0393700787
147
0.625
171
     3
172
     1
178
     0
271
     2
272
     2
274
     3
278
    44
283
     0
284
     8
340
11
  0
ENDTAB
  0
TABLE
  2
BLOCK_RECORD
  5
1
330
0
100
AcDbSymbolTable
 70
     1
  0
BLOCK_RECORD
  5
1F
330
1
100
AcDbSymbolTableRecord
100
AcDbBlockTableRecord
  2
*Model_Space
340
22
  0
BLOCK_RECORD
  5
1B
330
1
100
AcDbSymbolTableRecord
100
AcDbBlockTableRecord
  2
*Paper_Space
340
1E
  0
BLOCK_RECORD
  5
23
330
1
100
AcDbSymbolTableRecord
100
AcDbBlockTableRecord
  2
*Paper_Space0
340
26
  0
ENDTAB
  0
ENDSEC
  0
SECTION
  2
BLOCKS
  0
BLOCK
  5
20
330
1F
100
AcDbEntity
  8
0
100
AcDbBlockBegin
  2
*Model_Space
 70
     0
 10
0.0
 20
0.0
 30
0.0
  3
*Model_Space
  1

  0
ENDBLK
  5
21
330
1F
100
AcDbEntity
  8
0
100
AcDbBlockEnd
  0
BLOCK
  5
1C
330
1B
100
AcDbEntity
 67
     1
  8
0
100
AcDbBlockBegin
  2
*Paper_Space
 70
     0
 10
0.0
 20
0.0
 30
0.0
  3
*Paper_Space
  1

  0
ENDBLK
  5
1D
330
1B
100
AcDbEntity
 67
     1
  8
0
100
AcDbBlockEnd
  0
BLOCK
  5
24
330
23
100
AcDbEntity
  8
0
100
AcDbBlockBegin
  2
*Paper_Space0
 70
     0
 10
0.0
 20
0.0
 30
0.0
  3
*Paper_Space0
  1

  0
ENDBLK
  5
25
330
23
100
AcDbEntity
  8
0
100
AcDbBlockEnd
  0
ENDSEC
  0
SECTION
  2
ENTITIES
  0
LINE
  5
7F
330
1F
100
AcDbEntity
  8
0
  6
Continuous
 62
     7
370
    25
100
AcDbLine
 10
8503.1719976547
 20
6125.6376345961
 30
0.0
 11
8505.4531524721
 21
6123.7948824955
 31
0.0
  0
LINE
  5
80
330
1F
100
AcDbEntity
  8
0
  6
Continuous
 62
     7
370
    25
100
AcDbLine
 10
8505.4531524721
 20
6123.7948824955
 30
0.0
 11
8505.453160536
 21
6125.5466867954
 31
0.0
  0
LINE
  5
81
330
1F
100
AcDbEntity
  8
0
  6
Continuous
 62
     7
370
    25
100
AcDbLine
 10
8507.4797500085
 20
6123.4551948666
 30
0.0
 11
8508.8099245085
 21
6123.4551887435
 31
0.0
  0
LINE
  5
82
330
1F
100
AcDbEntity
  8
0
  6
Continuous
 62
     7
370
    25
100
AcDbLine
 10
8506.8387322167
 20
6120.4156380173
 30
0.0
 11
8506.8388181368
 21
6122.7227296169
 31
0.0
  0
LINE
  5
83
330
1F
100
AcDbEntity
  8
0
  6
Continuous
 62
     7
370
    25
100
AcDbLine
 10
8506.8388181368
 20
6122.7227296169
 30
0.0
 11
8506.2442242368
 21
6122.722732354
 31
0.0
  0
LINE
  5
84
330
1F
100
AcDbEntity
  8
0
  6
Continuous
 62
     7
370
    25
100
AcDbLine
 10
8506.2442242368
 20
6122.722732354
 30
0.0
 11
8506.2442136168
 21
6120.415640754
 31
0.0
  0
LINE
  5
85
330
1F
100
AcDbEntity
  8
0
  6
Continuous
 62
     7
370
    25
100
AcDbLine
 10
8506.2442136168
 20
6120.415640754
 30
0.0
 11
8505.4531369168
 21
6120.4156443955
 31
0.0
  0
LINE
  5
86
330
1F
100
AcDbEntity
  8
0
  6
Continuous
 62
     7
370
    25
100
AcDbLine
 10
8505.4531369168
 20
6120.4156443955
 30
0.0
 11
8505.4531475368
 21
6122.7227359955
 31
0.0
  0
LINE
  5
87
330
1F
100
AcDbEntity
  8
0
  6
Continuous
 62
     7
370
    25
100
AcDbLine
 10
8505.4531475368
 20
6122.7227359955
 30
0.0
 11
8503.9037550535
 21
6123.8994562277
 31
0.0
  0
LINE
  5
88
330
1F
100
AcDbEntity
  8
0
  6
Continuous
 62
     7
370
    25
100
AcDbLine
 10
8503.9037550535
 20
6123.8994562277
 30
0.0
 11
8503.9040151168
 21
6120.4156515264
 31
0.0
  0
LINE
  5
89
330
1F
100
AcDbEntity
  8
0
  6
Continuous
 62
     7
370
    25
100
AcDbLine
 10
8503.9040151168
 20
6120.4156515264
 30
0.0
 11
8503.1718983168
 21
6120.4156548965
 31
0.0
  0
LINE
  5
8A
330
1F
100
AcDbEntity
  8
0
  6
Continuous
 62
     7
370
    25
100
AcDbLine
 10
8503.1718983168
 20
6120.4156548965
 30
0.0
 11
8503.1719976547
 21
6125.6376345961
 31
0.0
  0
LINE
  5
8B
330
1F
100
AcDbEntity
  8
0
  6
Continuous
 62
     7
370
    25
100
AcDbLine
 10
8505.453160536
 20
6125.5466867954
 30
0.0
 11
8506.2442372365
 21
6125.5467835539
 31
0.0
  0
LINE
  5
8C
330
1F
100
AcDbEntity
  8
0
  6
Continuous
 62
     7
370
    25
100
AcDbLine
 10
8506.2442372365
 20
6125.5467835539
 30
0.0
 11
8506.2442276085
 21
6123.455200554
 31
0.0
  0
LINE
  5
8D
330
1F
100
AcDbEntity
  8
0
  6
Continuous
 62
     7
370
    25
100
AcDbLine
 10
8506.2442276085
 20
6123.455200554
 30
0.0
 11
8506.8387462085
 21
6123.4551978173
 31
0.0
  0
LINE
  5
8E
330
1F
100
AcDbEntity
  8
0
  6
Continuous
 62
     7
370
    25
100
AcDbLine
 10
8506.8387462085
 20
6123.4551978173
 30
0.0
 11
8506.8387558365
 21
6125.5467808172
 31
0.0
  0
LINE
  5
8F
330
1F
100
AcDbEntity
  8
0
  6
Continuous
 62
     7
370
    25
100
AcDbLine
 10
8506.8387558365
 20
6125.5467808172
 30
0.0
 11
8508.7998188365
 21
6125.5467717901
 31
0.0
  0
LINE
  5
90
330
1F
100
AcDbEntity
  8
0
  6
Continuous
 62
     7
370
    25
100
AcDbLine
 10
8508.7998188365
 20
6125.5467717901
 30
0.0
 11
8508.7998160114
 21
6124.9330516901
 31
0.0
  0
LINE
  5
91
330
1F
100
AcDbEntity
  8
0
  6
Continuous
 62
     7
370
    25
100
AcDbLine
 10
8508.7998160114
 20
6124.9330516901
 30
0.0
 11
8507.4797568114
 21
6124.9330577666
 31
0.0
  0
LINE
  5
92
330
1F
100
AcDbEntity
  8
0
  6
Continuous
 62
     7
370
    25
100
AcDbLine
 10
8507.4797568114
 20
6124.9330577666
 30
0.0
 11
8507.4797500085
 21
6123.4551948666
 31
0.0
  0
LINE
  5
93
330
1F
100
AcDbEntity
  8
0
  6
Continuous
 62
     7
370
    25
100
AcDbLine
 10
8508.8099245085
 20
6123.4551887435
 30
0.0
 11
8509.0516341367
 21
6122.7227194309
 31
0.0
  0
LINE
  5
94
330
1F
100
AcDbEntity
  8
0
  6
Continuous
 62
     7
370
    25
100
AcDbLine
 10
8509.0516341367
 20
6122.7227194309
 30
0.0
 11
8507.4794956368
 21
6122.7227266678
 31
0.0
  0
LINE
  5
95
330
1F
100
AcDbEntity
  8
0
  6
Continuous
 62
     7
370
    25
100
AcDbLine
 10
8507.4794956368
 20
6122.7227266678
 30
0.0
 11
8507.4797390563
 21
6121.0759407666
 31
0.0
  0
LINE
  5
96
330
1F
100
AcDbEntity
  8
0
  6
Continuous
 62
     7
370
    25
100
AcDbLine
 10
8507.4797390563
 20
6121.0759407666
 30
0.0
 11
8508.7997982563
 21
6121.0759346901
 31
0.0
  0
LINE
  5
97
330
1F
100
AcDbEntity
  8
0
  6
Continuous
 62
     7
370
    25
100
AcDbLine
 10
8508.7997982563
 20
6121.0759346901
 30
0.0
 11
8508.7997952167
 21
6120.4156289901
 31
0.0
  0
LINE
  5
98
330
1F
100
AcDbEntity
  8
0
  6
Continuous
 62
     7
370
    25
100
AcDbLine
 10
8508.7997952167
 20
6120.4156289901
 30
0.0
 11
8506.8387322167
 21
6120.4156380173
 31
0.0
  0
ARC
  5
99
330
1F
100
AcDbEntity
  8
0
  6
Continuous
 62
     7
370
    25
100
AcDbCircle
 10
8518.2980363197
 20
6125.4316939862
 30
0.0
 40
0.0594939243399568
100
AcDbArc
 50
90.8230906249
 51
180.7725308457
  0
ARC
  5
9A
330
1F
100
AcDbEntity
  8
0
  6
Continuous
 62
     7
370
    25
100
AcDbCircle
 10
8518.2976557392
 20
6125.4314405637
 30
0.0
 40
0.0597430888885502
100
AcDbArc
 50
359.47322364
 51
90.4546440715
  0
ARC
  5
9B
330
1F
100
AcDbEntity
  8
0
  6
Continuous
 62
     7
370
    25
100
AcDbCircle
 10
8518.2976097241
 20
6125.4303885285
 30
0.0
 40
0.0597886929992109
100
AcDbArc
 50
269.5892686069
 51
0.481808701
  0
ARC
  5
9C
330
1F
100
AcDbEntity
  8
0
  6
Continuous
 62
     7
370
    25
100
AcDbCircle
 10
8518.297946545
 20
6125.4300018494
 30
0.0
 40
0.0594054089857255
100
AcDbArc
 50
179.1415814463
 51
269.2617421033
  0
LINE
  5
9D
330
1F
100
AcDbEntity
  8
0
  6
Continuous
 62
     7
370
    25
100
AcDbLine
 10
8513.4182694545
 20
6125.6375874304
 30
0.0
 11
8513.6887721545
 21
6125.6375861852
 31
0.0
  0
LINE
  5
9E
330
1F
100
AcDbEntity
  8
0
  6
Continuous
 62
     7
370
    25
100
AcDbLine
 10
8512.994748341
 20
6123.7229362799
 30
0.0
 11
8512.9947471084
 21
6123.4551694799
 31
0.0
  0
LINE
  5
9F
330
1F
100
AcDbEntity
  8
0
  6
Continuous
 62
     7
370
    25
100
AcDbLine
 10
8512.9947471084
 20
6123.4551694799
 30
0.0
 11
8514.1128015084
 21
6123.4551643333
 31
0.0
  0
LINE
  5
A0
330
1F
100
AcDbEntity
  8
0
  6
Continuous
 62
     7
370
    25
100
AcDbLine
 10
8514.1128015084
 20
6123.4551643333
 30
0.0
 11
8514.1128027711
 21
6123.7294822333
 31
0.0
  0
LWPOLYLINE
  5
A1
330
1F
100
AcDbEntity
  8
0
  6
Continuous
 62
     7
370
    25
100
AcDbPolyline
 90
        7
 70
   128
 43
0.0
 10
8514.1128027711
 20
6123.7294822333
 10
8514.1061792023
 20
6124.1741162138
 10
8514.0598016672
 20
6124.5595645772
 10
8514.009282054
 20
6124.7129163973
 10
8513.9339162191
 20
6124.8308585067
 10
8513.8287349194
 20
6124.9065198034
 10
8513.6887689113
 20
6124.9330291852
  0
LINE
  5
A2
330
1F
100
AcDbEntity
  8
0
  6
Continuous
 62
     7
370
    25
100
AcDbLine
 10
8513.6887689113
 20
6124.9330291852
 30
0.0
 11
8513.4182662113
 21
6124.9330304304
 31
0.0
  0
LWPOLYLINE
  5
A3
330
1F
100
AcDbEntity
  8
0
  6
Continuous
 62
     7
370
    25
100
AcDbPolyline
 90
        7
 70
   128
 43
0.0
 10
8513.4182662113
 20
6124.9330304304
 10
8513.2784739408
 20
6124.9059669989
 10
8513.173422686
 20
6124.8294360137
 10
8513.0981494443
 20
6124.7104286321
 10
8513.047691213
 20
6124.5559360112
 10
8513.0013677715
 20
6124.1684596807
 10
8512.994748341
 20
6123.7229362799
  0
ARC
  5
A4
330
1F
100
AcDbEntity
  8
0
  6
Continuous
 62
     7
370
    25
100
AcDbCircle
 10
8513.6103677718
 20
6124.4343664563
 30
0.0
 40
1.205771522001138
100
AcDbArc
 50
355.5585110277
 51
86.2717547801
  0
LINE
  5
A5
330
1F
100
AcDbEntity
  8
0
  6
Continuous
 62
     7
370
    25
100
AcDbLine
 10
8514.8125182861
 20
6124.3409903123
 30
0.0
 11
8514.8125002167
 21
6120.4156013124
 31
0.0
  0
LINE
  5
A6
330
1F
100
AcDbEntity
  8
0
  6
Continuous
 62
     7
370
    25
100
AcDbLine
 10
8514.8125002167
 20
6120.4156013124
 30
0.0
 11
8514.1127875167
 21
6120.4156045333
 31
0.0
  0
LINE
  5
A7
330
1F
100
AcDbEntity
  8
0
  6
Continuous
 62
     7
370
    25
100
AcDbLine
 10
8514.1127875167
 20
6120.4156045333
 30
0.0
 11
8514.1127981367
 21
6122.7226961333
 31
0.0
  0
LINE
  5
A8
330
1F
100
AcDbEntity
  8
0
  6
Continuous
 62
     7
370
    25
100
AcDbLine
 10
8514.1127981367
 20
6122.7226961333
 30
0.0
 11
8512.9949947367
 21
6122.7227012788
 31
0.0
  0
LINE
  5
A9
330
1F
100
AcDbEntity
  8
0
  6
Continuous
 62
     7
370
    25
100
AcDbLine
 10
8512.9949947367
 20
6122.7227012788
 30
0.0
 11
8512.9947331167
 21
6120.4156096799
 31
0.0
  0
LINE
  5
AA
330
1F
100
AcDbEntity
  8
0
  6
Continuous
 62
     7
370
    25
100
AcDbLine
 10
8512.9947331167
 20
6120.4156096799
 30
0.0
 11
8512.3087501167
 21
6120.4156128377
 31
0.0
  0
LINE
  5
AB
330
1F
100
AcDbEntity
  8
0
  6
Continuous
 62
     7
370
    25
100
AcDbLine
 10
8512.3087501167
 20
6120.4156128377
 30
0.0
 11
8512.3087607367
 21
6122.7227044376
 31
0.0
  0
LINE
  5
AC
330
1F
100
AcDbEntity
  8
0
  6
Continuous
 62
     7
370
    25
100
AcDbLine
 10
8512.3087607367
 20
6122.7227044376
 30
0.0
 11
8512.0083137367
 21
6122.7227058207
 31
0.0
  0
LINE
  5
AD
330
1F
100
AcDbEntity
  8
0
  6
Continuous
 62
     7
370
    25
100
AcDbLine
 10
8512.0083137367
 20
6122.7227058207
 30
0.0
 11
8511.7661523076
 21
6123.4549994354
 31
0.0
  0
LINE
  5
AE
330
1F
100
AcDbEntity
  8
0
  6
Continuous
 62
     7
370
    25
100
AcDbLine
 10
8511.7661523076
 20
6123.4549994354
 30
0.0
 11
8512.3087641076
 21
6123.4549969376
 31
0.0
  0
LINE
  5
AF
330
1F
100
AcDbEntity
  8
0
  6
Continuous
 62
     7
370
    25
100
AcDbLine
 10
8512.3087641076
 20
6123.4549969376
 30
0.0
 11
8512.3087682296
 21
6124.3504645376
 31
0.0
  0
ARC
  5
B0
330
1F
100
AcDbEntity
  8
0
  6
Continuous
 62
     7
370
    25
100
AcDbCircle
 10
8513.4844325728
 20
6124.4587977251
 30
0.0
 40
1.18064504717387
100
AcDbArc
 50
93.2125272827
 51
185.2647301473
  0
LINE
  5
B1
330
1F
100
AcDbEntity
  8
0
  6
Continuous
 62
     7
370
    25
100
AcDbLine
 10
8520.8273450975
 20
6127.2544702248
 30
0.0
 11
8520.9118065975
 21
6127.254469836
 31
0.0
  0
LWPOLYLINE
  5
B2
330
1F
100
AcDbEntity
  8
0
  6
Continuous
 62
     7
370
    25
100
AcDbPolyline
 90
        3
 70
   128
 43
0.0
 10
8521.1136346113
 20
6127.018503807
 10
8521.1375490986
 20
6127.0752266287
 10
8521.1432029053
 20
6127.1258312709
  0
LWPOLYLINE
  5
B3
330
1F
100
AcDbEntity
  8
0
  6
Continuous
 62
     7
370
    25
100
AcDbPolyline
 90
        3
 70
   128
 43
0.0
 10
8521.0288715767
 20
6126.9458145972
 10
8521.0826612869
 20
6126.9815362005
 10
8521.1136346113
 20
6127.018503807
  0
LINE
  5
B4
330
1F
100
AcDbEntity
  8
0
  6
Continuous
 62
     7
370
    25
100
AcDbLine
 10
8521.2109957846
 20
6126.6434089588
 30
0.0
 11
8521.0288715767
 21
6126.9458145972
 31
0.0
  0
LINE
  5
B5
330
1F
100
AcDbEntity
  8
0
  6
Continuous
 62
     7
370
    25
100
AcDbLine
 10
8521.1180504846
 20
6126.6434093867
 30
0.0
 11
8521.2109957846
 21
6126.6434089588
 31
0.0
  0
LINE
  5
B6
330
1F
100
AcDbEntity
  8
0
  6
Continuous
 62
     7
370
    25
100
AcDbLine
 10
8520.9564579609
 20
6126.9206647305
 30
0.0
 11
8521.1180504846
 21
6126.6434093867
 31
0.0
  0
LINE
  5
B7
330
1F
100
AcDbEntity
  8
0
  6
Continuous
 62
     7
370
    25
100
AcDbLine
 10
8520.8273435609
 20
6126.9206653248
 30
0.0
 11
8520.9564579609
 21
6126.9206647305
 31
0.0
  0
LINE
  5
B8
330
1F
100
AcDbEntity
  8
0
  6
Continuous
 62
     7
370
    25
100
AcDbLine
 10
8520.8273422846
 20
6126.6434107248
 30
0.0
 11
8520.8273435609
 21
6126.9206653248
 31
0.0
  0
LINE
  5
B9
330
1F
100
AcDbEntity
  8
0
  6
Continuous
 62
     7
370
    25
100
AcDbLine
 10
8520.7497079846
 20
6126.6434110822
 30
0.0
 11
8520.8273422846
 21
6126.6434107248
 31
0.0
  0
LINE
  5
BA
330
1F
100
AcDbEntity
  8
0
  6
Continuous
 62
     7
370
    25
100
AcDbLine
 10
8520.749711102
 20
6127.3206341822
 30
0.0
 11
8520.7497079846
 21
6126.6434110822
 31
0.0
  0
LWPOLYLINE
  5
BB
330
1F
100
AcDbEntity
  8
0
  6
Continuous
 62
     7
370
    25
100
AcDbPolyline
 90
        3
 70
   128
 43
0.0
 10
8521.0827376823
 20
6127.2728924492
 10
8520.9991025229
 20
6127.3113823678
 10
8520.911806902
 20
6127.320633436
  0
ARC
  5
BC
330
1F
100
AcDbEntity
  8
0
  6
Continuous
 62
     7
370
    25
100
AcDbCircle
 10
8520.962928636
 20
6127.1376711922
 30
0.0
 40
0.1806626578115191
100
AcDbArc
 50
356.2423664481
 51
48.4583418314
  0
LINE
  5
BD
330
1F
100
AcDbEntity
  8
0
  6
Continuous
 62
     7
370
    25
100
AcDbLine
 10
8520.8273438434
 20
6126.9820348248
 30
0.0
 11
8520.8273450975
 21
6127.2544702248
 31
0.0
  0
LINE
  5
BE
330
1F
100
AcDbEntity
  8
0
  6
Continuous
 62
     7
370
    25
100
AcDbLine
 10
8520.9134117434
 20
6126.9820344287
 30
0.0
 11
8520.8273438434
 21
6126.9820348248
 31
0.0
  0
LWPOLYLINE
  5
BF
330
1F
100
AcDbEntity
  8
0
  6
Continuous
 62
     7
370
    25
100
AcDbPolyline
 90
        3
 70
   128
 43
0.0
 10
8521.0234001076
 20
6127.0177010224
 10
8520.969298656
 20
6126.9889257157
 10
8520.9134117434
 20
6126.9820344287
  0
ARC
  5
C0
330
1F
100
AcDbEntity
  8
0
  6
Continuous
 62
     7
370
    25
100
AcDbCircle
 10
8520.9336515251
 20
6127.1266634045
 30
0.0
 40
0.1296598812803375
100
AcDbArc
 50
358.0237877674
 51
99.6993789414
  0
LWPOLYLINE
  5
C1
330
1F
100
AcDbEntity
  8
0
  6
Continuous
 62
     7
370
    25
100
AcDbPolyline
 90
        3
 70
   128
 43
0.0
 10
8521.0632342886
 20
6127.122192139
 10
8521.050814865
 20
6127.0555897855
 10
8521.0234001076
 20
6127.0177010224
  0
LINE
  5
C2
330
1F
100
AcDbEntity
  8
0
  6
Continuous
 62
     7
370
    25
100
AcDbLine
 10
8520.911806902
 20
6127.320633436
 30
0.0
 11
8520.749711102
 21
6127.3206341822
 31
0.0
  0
LINE
  5
C3
330
1F
100
AcDbEntity
  8
0
  6
Continuous
 62
     7
370
    25
100
AcDbLine
 10
8509.3941366364
 20
6125.5467690543
 30
0.0
 11
8510.1389791364
 21
6125.5467656256
 31
0.0
  0
LINE
  5
C4
330
1F
100
AcDbEntity
  8
0
  6
Continuous
 62
     7
370
    25
100
AcDbLine
 10
8510.1389791364
 20
6125.5467656256
 30
0.0
 11
8510.1389585562
 21
6121.0759285257
 31
0.0
  0
LINE
  5
C5
330
1F
100
AcDbEntity
  8
0
  6
Continuous
 62
     7
370
    25
100
AcDbLine
 10
8510.1389585562
 20
6121.0759285257
 30
0.0
 11
8511.7141341562
 21
6121.0759212748
 31
0.0
  0
LINE
  5
C6
330
1F
100
AcDbEntity
  8
0
  6
Continuous
 62
     7
370
    25
100
AcDbLine
 10
8511.7141341562
 20
6121.0759212748
 30
0.0
 11
8511.7141311167
 21
6120.4156155748
 31
0.0
  0
LINE
  5
C7
330
1F
100
AcDbEntity
  8
0
  6
Continuous
 62
     7
370
    25
100
AcDbLine
 10
8511.7141311167
 20
6120.4156155748
 30
0.0
 11
8509.3941130167
 21
6120.4156262543
 31
0.0
  0
LINE
  5
C8
330
1F
100
AcDbEntity
  8
0
  6
Continuous
 62
     7
370
    25
100
AcDbLine
 10
8509.3941130167
 20
6120.4156262543
 30
0.0
 11
8509.3941366364
 21
6125.5467690543
 31
0.0
  0
LINE
  5
C9
330
1F
100
AcDbEntity
  8
0
  6
Continuous
 62
     7
370
    25
100
AcDbLine
 10
8497.3445476007
 20
6123.8662791211
 30
0.0
 11
8498.2888799818
 21
6122.7976924741
 31
0.0
  0
ARC
  5
CA
330
1F
100
AcDbEntity
  8
0
  6
Continuous
 62
     7
370
    25
100
AcDbCircle
 10
8498.5990586762
 20
6125.1819248581
 30
0.0
 40
1.817889365174187
100
AcDbArc
 50
173.6408345362
 51
226.3626007876
  0
ARC
  5
CB
330
1F
100
AcDbEntity
  8
0
  6
Continuous
 62
     7
370
    25
100
AcDbCircle
 10
8498.3370897705
 20
6125.2703101051
 30
0.0
 40
1.548860216171565
100
AcDbArc
 50
85.6559822412
 51
175.817446765
  0
ARC
  5
CC
330
1F
100
AcDbEntity
  8
0
  6
Continuous
 62
     7
370
    25
100
AcDbCircle
 10
8498.3769263411
 20
6125.2780573112
 30
0.0
 40
0.7823380528086693
100
AcDbArc
 50
80.5811964857
 51
176.1186964062
  0
ARC
  5
CD
330
1F
100
AcDbEntity
  8
0
  6
Continuous
 62
     7
370
    25
100
AcDbCircle
 10
8499.4607631124
 20
6125.4210264106
 30
0.0
 40
1.86655212813328
100
AcDbArc
 50
182.7641110662
 51
232.906736526
  0
LINE
  5
CE
330
1F
100
AcDbEntity
  8
0
  6
Continuous
 62
     7
370
    25
100
AcDbLine
 10
8499.0276498633
 20
6123.1412578734
 30
0.0
 11
8498.335019004
 21
6123.9321620617
 31
0.0
  0
ARC
  5
CF
330
1F
100
AcDbEntity
  8
0
  6
Continuous
 62
     7
370
    25
100
AcDbCircle
 10
8497.7268891391
 20
6121.9048780979
 30
0.0
 40
1.794606756534681
100
AcDbArc
 50
350.8116097974
 51
43.546408761
  0
ARC
  5
D0
330
1F
100
AcDbEntity
  8
0
  6
Continuous
 62
     7
370
    25
100
AcDbCircle
 10
8498.2149065818
 20
6121.6951122295
 30
0.0
 40
1.285857566032985
100
AcDbArc
 50
264.2705514309
 51
356.5759191929
  0
LINE
  5
D1
330
1F
100
AcDbEntity
  8
0
  6
Continuous
 62
     7
370
    25
100
AcDbLine
 10
8496.5243892169
 20
6120.4156854964
 30
0.0
 11
8498.0865379168
 21
6120.4156783055
 31
0.0
  0
LINE
  5
D2
330
1F
100
AcDbEntity
  8
0
  6
Continuous
 62
     7
370
    25
100
AcDbLine
 10
8496.5243927972
 20
6121.1934842964
 30
0.0
 11
8496.5243892169
 21
6120.4156854964
 31
0.0
  0
LINE
  5
D3
330
1F
100
AcDbEntity
  8
0
  6
Continuous
 62
     7
370
    25
100
AcDbLine
 10
8498.0212061972
 20
6121.1934774062
 30
0.0
 11
8496.5243927972
 21
6121.1934842964
 31
0.0
  0
ARC
  5
D4
330
1F
100
AcDbEntity
  8
0
  6
Continuous
 62
     7
370
    25
100
AcDbCircle
 10
8498.0976302737
 20
6121.7907162064
 30
0.0
 40
0.602108647866579
100
AcDbArc
 50
262.7079264762
 51
358.0374831719
  0
ARC
  5
D5
330
1F
100
AcDbEntity
  8
0
  6
Continuous
 62
     7
370
    25
100
AcDbCircle
 10
8497.5880830228
 20
6121.9219441825
 30
0.0
 40
1.121628926106509
100
AcDbArc
 50
352.2193299875
 51
51.3322807628
  0
LINE
  5
D6
330
1F
100
AcDbEntity
  8
0
  6
Continuous
 62
     7
370
    25
100
AcDbLine
 10
8514.8125547732
 20
6126.8147208122
 30
0.0
 11
8498.454407873
 21
6126.8147208122
 31
0.0
  0
LINE
  5
D7
330
1F
100
AcDbEntity
  8
0
  6
Continuous
 62
     7
370
    25
100
AcDbLine
 10
8514.8125512519
 20
6126.0497732122
 30
0.0
 11
8514.8125547732
 21
6126.8147208122
 31
0.0
  0
LINE
  5
D8
330
1F
100
AcDbEntity
  8
0
  6
Continuous
 62
     7
370
    25
100
AcDbLine
 10
8498.5049557521
 20
6126.0498482795
 30
0.0
 11
8514.8125512519
 21
6126.0497732122
 31
0.0
  0
LINE
  5
D9
330
1F
100
AcDbEntity
  8
0
  6
Continuous
 62
     7
370
    25
100
AcDbLine
 10
8500.0735292168
 20
6120.415669159
 30
0.0
 11
8500.0735398368
 21
6122.7227607589
 31
0.0
  0
LINE
  5
DA
330
1F
100
AcDbEntity
  8
0
  6
Continuous
 62
     7
370
    25
100
AcDbLine
 10
8500.0735398368
 20
6122.7227607589
 30
0.0
 11
8499.7730175368
 21
6122.7227621423
 31
0.0
  0
LINE
  5
DB
330
1F
100
AcDbEntity
  8
0
  6
Continuous
 62
     7
370
    25
100
AcDbLine
 10
8499.7730175368
 20
6122.7227621423
 30
0.0
 11
8499.5308310077
 21
6123.4550557571
 31
0.0
  0
LINE
  5
DC
330
1F
100
AcDbEntity
  8
0
  6
Continuous
 62
     7
370
    25
100
AcDbLine
 10
8499.5308310077
 20
6123.4550557571
 30
0.0
 11
8500.0735432077
 21
6123.4550532589
 31
0.0
  0
LINE
  5
DD
330
1F
100
AcDbEntity
  8
0
  6
Continuous
 62
     7
370
    25
100
AcDbLine
 10
8500.0735432077
 20
6123.4550532589
 30
0.0
 11
8500.0735473298
 21
6124.3505208589
 31
0.0
  0
LINE
  5
DE
330
1F
100
AcDbEntity
  8
0
  6
Continuous
 62
     7
370
    25
100
AcDbLine
 10
8501.4535731115
 20
6124.9330855064
 30
0.0
 11
8501.1830453115
 21
6124.9330867517
 31
0.0
  0
LINE
  5
DF
330
1F
100
AcDbEntity
  8
0
  6
Continuous
 62
     7
370
    25
100
AcDbLine
 10
8502.5772040168
 20
6120.415657634
 30
0.0
 11
8501.8775917168
 21
6120.4156608545
 31
0.0
  0
LINE
  5
E0
330
1F
100
AcDbEntity
  8
0
  6
Continuous
 62
     7
370
    25
100
AcDbLine
 10
8500.7595122168
 20
6120.4156660012
 30
0.0
 11
8500.0735292168
 21
6120.415669159
 31
0.0
  0
LINE
  5
E1
330
1F
100
AcDbEntity
  8
0
  6
Continuous
 62
     7
370
    25
100
AcDbLine
 10
8500.7597738368
 20
6122.7227576001
 30
0.0
 11
8500.7595122168
 21
6120.4156660012
 31
0.0
  0
LINE
  5
E2
330
1F
100
AcDbEntity
  8
0
  6
Continuous
 62
     7
370
    25
100
AcDbLine
 10
8500.7595274411
 20
6123.7229926012
 30
0.0
 11
8500.7595262085
 21
6123.4552258012
 31
0.0
  0
LINE
  5
E3
330
1F
100
AcDbEntity
  8
0
  6
Continuous
 62
     7
370
    25
100
AcDbLine
 10
8500.7595262085
 20
6123.4552258012
 30
0.0
 11
8501.8776057085
 21
6123.4552206544
 31
0.0
  0
LINE
  5
E4
330
1F
100
AcDbEntity
  8
0
  6
Continuous
 62
     7
370
    25
100
AcDbLine
 10
8501.8776057085
 20
6123.4552206544
 30
0.0
 11
8501.8776069713
 21
6123.7295385544
 31
0.0
  0
ARC
  5
E5
330
1F
100
AcDbEntity
  8
0
  6
Continuous
 62
     7
370
    25
100
AcDbCircle
 10
8501.2491686898
 20
6124.4588910979
 30
0.0
 40
1.180605645825719
100
AcDbArc
 50
93.2105453204
 51
185.2667121097
  0
LWPOLYLINE
  5
E6
330
1F
100
AcDbEntity
  8
0
  6
Continuous
 62
     7
370
    25
100
AcDbPolyline
 90
        7
 70
   128
 43
0.0
 10
8501.1830453115
 20
6124.9330867517
 10
8501.043253041
 20
6124.9060233202
 10
8500.9382017861
 20
6124.829492335
 10
8500.8629285444
 20
6124.7104849534
 10
8500.8124703131
 20
6124.5559923325
 10
8500.7661468717
 20
6124.168516002
 10
8500.7595274411
 20
6123.7229926012
  0
ARC
  5
E7
330
1F
100
AcDbEntity
  8
0
  6
Continuous
 62
     7
370
    25
100
AcDbCircle
 10
8501.3751552321
 20
6124.4345013534
 30
0.0
 40
1.205694201028095
100
AcDbArc
 50
355.5544803805
 51
86.2707181689
  0
LINE
  5
E8
330
1F
100
AcDbEntity
  8
0
  6
Continuous
 62
     7
370
    25
100
AcDbLine
 10
8502.5772220862
 20
6124.341046634
 30
0.0
 11
8502.5772040168
 21
6120.415657634
 31
0.0
  0
LINE
  5
E9
330
1F
100
AcDbEntity
  8
0
  6
Continuous
 62
     7
370
    25
100
AcDbLine
 10
8501.8775917168
 20
6120.4156608545
 30
0.0
 11
8501.8776023368
 21
6122.7227524545
 31
0.0
  0
LINE
  5
EA
330
1F
100
AcDbEntity
  8
0
  6
Continuous
 62
     7
370
    25
100
AcDbLine
 10
8501.8776023368
 20
6122.7227524545
 30
0.0
 11
8500.7597738368
 21
6122.7227576001
 31
0.0
  0
LINE
  5
EB
330
1F
100
AcDbEntity
  8
0
  6
Continuous
 62
     7
370
    25
100
AcDbLine
 10
8501.1830485547
 20
6125.6376437517
 30
0.0
 11
8501.4535763547
 21
6125.6376425064
 31
0.0
  0
LWPOLYLINE
  5
EC
330
1F
100
AcDbEntity
  8
0
  6
Continuous
 62
     7
370
    25
100
AcDbPolyline
 90
        7
 70
   128
 43
0.0
 10
8501.8776069713
 20
6123.7295385544
 10
8501.8709834024
 20
6124.1741725349
 10
8501.8246058673
 20
6124.5596208984
 10
8501.7740862541
 20
6124.7129727185
 10
8501.6987204193
 20
6124.8309148279
 10
8501.5935391195
 20
6124.9065761246
 10
8501.4535731115
 20
6124.9330855064
  0
ARC
  5
ED
330
1F
100
AcDbEntity
  8
0
  6
Continuous
 62
     7
370
    25
100
AcDbCircle
 10
8519.2223590395
 20
6123.3018440787
 30
0.0
 40
1.825213189490742
100
AcDbArc
 50
79.0569130698
 51
117.7984122188
  0
ARC
  5
EE
330
1F
100
AcDbEntity
  8
0
  6
Continuous
 62
     7
370
    25
100
AcDbCircle
 10
8516.0995009105
 20
6123.0905189904
 30
0.0
 40
2.079674403130753
100
AcDbArc
 50
58.4724375443
 51
96.7078262235
  0
LWPOLYLINE
  5
EF
330
1F
100
AcDbEntity
  8
0
  6
Continuous
 62
     7
370
    25
100
AcDbPolyline
 90
       11
 70
   128
 43
0.0
 10
8517.6571027508
 20
6124.6591950181
 10
8517.6680138891
 20
6124.6574018989
 10
8517.6774701927
 20
6124.6523344865
 10
8517.6920183048
 20
6124.6342478105
 10
8517.7007471042
 20
6124.6086770473
 10
8517.7036566084
 20
6124.5793642538
 10
8517.7007468344
 20
6124.5500514871
 10
8517.6920177995
 20
6124.5244808043
 10
8517.6774695209
 20
6124.5063942622
 10
8517.6680131706
 20
6124.5013269369
 10
8517.6571020159
 20
6124.4995339181
  0
LINE
  5
F0
330
1F
100
AcDbEntity
  8
0
  6
Continuous
 62
     7
370
    25
100
AcDbLine
 10
8517.5595139508
 20
6124.6591954673
 30
0.0
 11
8517.6571027508
 21
6124.6591950181
 31
0.0
  0
ARC
  5
F1
330
1F
100
AcDbEntity
  8
0
  6
Continuous
 62
     7
370
    25
100
AcDbCircle
 10
8517.5543424051
 20
6124.7159724911
 30
0.0
 40
0.0570120629091016
100
AcDbArc
 50
183.5848161426
 51
275.2044355231
  0
ARC
  5
F2
330
1F
100
AcDbEntity
  8
0
  6
Continuous
 62
     7
370
    25
100
AcDbCircle
 10
8517.5631659079
 20
6124.6985496577
 30
0.0
 40
0.0671691340967536
100
AcDbArc
 50
93.1162652975
 51
168.0934280519
  0
LINE
  5
F3
330
1F
100
AcDbEntity
  8
0
  6
Continuous
 62
     7
370
    25
100
AcDbLine
 10
8517.9676404407
 20
6124.7656175886
 30
0.0
 11
8517.5595144407
 21
6124.7656194673
 31
0.0
  0
ARC
  5
F4
330
1F
100
AcDbEntity
  8
0
  6
Continuous
 62
     7
370
    25
100
AcDbCircle
 10
8517.9684911507
 20
6124.7037136293
 30
0.0
 40
0.0619098044462421
100
AcDbArc
 50
8.0705601123
 51
90.7873328474
  0
ARC
  5
F5
330
1F
100
AcDbEntity
  8
0
  6
Continuous
 62
     7
370
    25
100
AcDbCircle
 10
8517.9693566903
 20
6124.7200867392
 30
0.0
 40
0.0609173454724773
100
AcDbArc
 50
268.3851077389
 51
352.7559443195
  0
LINE
  5
F6
330
1F
100
AcDbEntity
  8
0
  6
Continuous
 62
     7
370
    25
100
AcDbLine
 10
8517.8656335508
 20
6124.6591940582
 30
0.0
 11
8517.9676399508
 21
6124.6591935886
 31
0.0
  0
LWPOLYLINE
  5
F7
330
1F
100
AcDbEntity
  8
0
  6
Continuous
 62
     7
370
    25
100
AcDbPolyline
 90
       12
 70
   128
 43
0.0
 10
8517.8478368956
 20
6124.4951154401
 10
8517.839179175
 20
6124.4969581607
 10
8517.8315192317
 20
6124.5021657719
 10
8517.8249223995
 20
6124.5102575741
 10
8517.819454012
 20
6124.5207528676
 10
8517.8121639066
 20
6124.5470311305
 10
8517.8101715857
 20
6124.5771549635
 10
8517.8139997195
 20
6124.6072787697
 10
8517.8241709781
 20
6124.6335569522
 10
8517.8412080319
 20
6124.652143914
 10
8517.8524645663
 20
6124.6573514381
 10
8517.8656335508
 20
6124.6591940582
  0
ARC
  5
F8
330
1F
100
AcDbEntity
  8
0
  6
Continuous
 62
     7
370
    25
100
AcDbCircle
 10
8517.9195362308
 20
6125.0728810145
 30
0.0
 40
0.5821974352515842
100
AcDbArc
 50
262.9258961861
 51
310.8565108224
  0
LWPOLYLINE
  5
F9
330
1F
100
AcDbEntity
  8
0
  6
Continuous
 62
     7
370
    25
100
AcDbPolyline
 90
        3
 70
   128
 43
0.0
 10
8518.3623469651
 20
6126.7260763717
 10
8518.2226297848
 20
6126.7699080983
 10
8518.109540112
 20
6126.8014277355
  0
LWPOLYLINE
  5
FA
330
1F
100
AcDbEntity
  8
0
  6
Continuous
 62
     7
370
    25
100
AcDbPolyline
 90
        3
 70
   128
 43
0.0
 10
8519.1562627825
 20
6127.3381111172
 10
8518.6658819309
 20
6127.0197123871
 10
8518.3623469651
 20
6126.7260763717
  0
ARC
  5
FB
330
1F
100
AcDbEntity
  8
0
  6
Continuous
 62
     7
370
    25
100
AcDbCircle
 10
8517.7482053592
 20
6124.8909503647
 30
0.0
 40
1.879881360045718
100
AcDbArc
 50
19.53708326
 51
91.2892991904
  0
ARC
  5
FC
330
1F
100
AcDbEntity
  8
0
  6
Continuous
 62
     7
370
    25
100
AcDbCircle
 10
8517.6683026037
 20
6124.8979293684
 30
0.0
 40
1.872803993544458
100
AcDbArc
 50
88.8494735704
 51
164.3115672374
  0
ARC
  5
FD
330
1F
100
AcDbEntity
  8
0
  6
Continuous
 62
     7
370
    25
100
AcDbCircle
 10
8517.7879969249
 20
6126.8307748268
 30
0.0
 40
0.9445107684016777
100
AcDbArc
 50
220.2588337525
 51
316.1155852903
  0
ARC
  5
FE
330
1F
100
AcDbEntity
  8
0
  6
Continuous
 62
     7
370
    25
100
AcDbCircle
 10
8517.5167480144
 20
6123.4818588001
 30
0.0
 40
2.857425010680086
100
AcDbArc
 50
45.4913030423
 51
70.5389809194
  0
ARC
  5
FF
330
1F
100
AcDbEntity
  8
0
  6
Continuous
 62
     7
370
    25
100
AcDbCircle
 10
8515.1626391366
 20
6124.0427639261
 30
0.0
 40
3.467987224360155
100
AcDbArc
 50
52.4577644144
 51
74.9191376857
  0
LWPOLYLINE
  5
100
330
1F
100
AcDbEntity
  8
0
  6
Continuous
 62
     7
370
    25
100
AcDbPolyline
 90
        3
 70
   128
 43
0.0
 10
8516.9874442035
 20
6126.7126793007
 10
8516.5256951301
 20
6127.1463543653
 10
8516.0649470273
 20
6127.3913122472
  0
LWPOLYLINE
  5
101
330
1F
100
AcDbEntity
  8
0
  6
Continuous
 62
     7
370
    25
100
AcDbPolyline
 90
        3
 70
   128
 43
0.0
 10
8517.2758435711
 20
6126.7925461731
 10
8517.1064152051
 20
6126.7543732634
 10
8516.9874442035
 20
6126.7126793007
  0
LWPOLYLINE
  5
102
330
1F
100
AcDbEntity
  8
0
  6
Continuous
 62
     7
370
    25
100
AcDbPolyline
 90
        3
 70
   128
 43
0.0
 10
8519.1593853222
 20
6124.0881380028
 10
8519.3316404733
 20
6123.8526716376
 10
8519.4520995433
 20
6123.6582489553
  0
LWPOLYLINE
  5
103
330
1F
100
AcDbEntity
  8
0
  6
Continuous
 62
     7
370
    25
100
AcDbPolyline
 90
        3
 70
   128
 43
0.0
 10
8518.6323603988
 20
6124.0396221288
 10
8518.9292865236
 20
6124.0361673939
 10
8519.1593853222
 20
6124.0881380028
  0
LWPOLYLINE
  5
104
330
1F
100
AcDbEntity
  8
0
  6
Continuous
 62
     7
370
    25
100
AcDbPolyline
 90
        3
 70
   128
 43
0.0
 10
8518.4943835757
 20
6123.5783851639
 10
8518.5674373942
 20
6123.8413935479
 10
8518.6323603988
 20
6124.0396221288
  0
ARC
  5
105
330
1F
100
AcDbEntity
  8
0
  6
Continuous
 62
     7
370
    25
100
AcDbCircle
 10
8518.8687611206
 20
6124.8712325898
 30
0.0
 40
1.345961742651105
100
AcDbArc
 50
253.8502540376
 51
295.6834610473
  0
ARC
  5
106
330
1F
100
AcDbEntity
  8
0
  6
Continuous
 62
     7
370
    25
100
AcDbCircle
 10
8518.9764684166
 20
6124.8571306053
 30
0.0
 40
1.966073750104685
100
AcDbArc
 50
252.2025539549
 51
292.3867340401
  0
LWPOLYLINE
  5
107
330
1F
100
AcDbEntity
  8
0
  6
Continuous
 62
     7
370
    25
100
AcDbPolyline
 90
        3
 70
   128
 43
0.0
 10
8518.3111482888
 20
6122.4298602074
 10
8518.3427526662
 20
6122.7452523681
 10
8518.3755323449
 20
6122.985147211
  0
ARC
  5
108
330
1F
100
AcDbEntity
  8
0
  6
Continuous
 62
     7
370
    25
100
AcDbCircle
 10
8519.0313634787
 20
6124.3161360882
 30
0.0
 40
2.019095495138961
100
AcDbArc
 50
249.1022142821
 51
293.754984027
  0
LWPOLYLINE
  5
109
330
1F
100
AcDbEntity
  8
0
  6
Continuous
 62
     7
370
    25
100
AcDbPolyline
 90
        3
 70
   128
 43
0.0
 10
8518.5785986929
 20
6124.5814309763
 10
8518.6552057636
 20
6124.5139182613
 10
8518.7054786835
 20
6124.4707644922
  0
LWPOLYLINE
  5
10A
330
1F
100
AcDbEntity
  8
0
  6
Continuous
 62
     7
370
    25
100
AcDbPolyline
 90
        3
 70
   128
 43
0.0
 10
8518.7054786835
 20
6124.4707644922
 10
8518.7536180444
 20
6124.551610267
 10
8518.7926014262
 20
6124.6103953912
  0
ARC
  5
10B
330
1F
100
AcDbEntity
  8
0
  6
Continuous
 62
     7
370
    25
100
AcDbCircle
 10
8516.8069768272
 20
6122.1685329623
 30
0.0
 40
3.147284094214881
100
AcDbArc
 50
355.3441955275
 51
50.883373948
  0
ARC
  5
10C
330
1F
100
AcDbEntity
  8
0
  6
Continuous
 62
     7
370
    25
100
AcDbCircle
 10
8517.716207948
 20
6122.0206075984
 30
0.0
 40
2.230262024432183
100
AcDbArc
 50
271.2170777085
 51
357.2362396158
  0
ARC
  5
10D
330
1F
100
AcDbEntity
  8
0
  6
Continuous
 62
     7
370
    25
100
AcDbCircle
 10
8517.6967303997
 20
6121.560519656
 30
0.0
 40
1.770933091507953
100
AcDbArc
 50
164.0600690826
 51
272.1633169516
  0
ARC
  5
10E
330
1F
100
AcDbEntity
  8
0
  6
Continuous
 62
     7
370
    25
100
AcDbCircle
 10
8542.5839861485
 20
6112.2921249175
 30
0.0
 40
28.32292878300928
100
AcDbArc
 50
155.4191314799
 51
159.8541185599
  0
LWPOLYLINE
  5
10F
330
1F
100
AcDbEntity
  8
0
  6
Continuous
 62
     7
370
    25
100
AcDbPolyline
 90
        7
 70
   128
 43
0.0
 10
8516.8278211562
 20
6124.0738166355
 10
8516.8798527777
 20
6124.3311023282
 10
8516.8454003874
 20
6124.5456224311
 10
8516.7403928936
 20
6124.7210121549
 10
8516.5807592044
 20
6124.8609067102
 10
8516.1613288722
 20
6125.0487511582
 10
8515.714540656
 20
6125.1382374601
  0
ARC
  5
110
330
1F
100
AcDbEntity
  8
0
  6
Continuous
 62
     7
370
    25
100
AcDbCircle
 10
8518.3563476435
 20
6124.5620144393
 30
0.0
 40
2.703918846599067
100
AcDbArc
 50
150.3151029672
 51
167.6955291562
  0
ARC
  5
111
330
1F
100
AcDbEntity
  8
0
  6
Continuous
 62
     7
370
    25
100
AcDbCircle
 10
8518.5345182346
 20
6127.4648899086
 30
0.0
 40
2.971939021919829
100
AcDbArc
 50
178.3401274891
 51
211.7486148246
  0
ARC
  5
112
330
1F
100
AcDbEntity
  8
0
  6
Continuous
 62
     7
370
    25
100
AcDbCircle
 10
8515.0667668341
 20
6123.8930182798
 30
0.0
 40
3.691574220570943
100
AcDbArc
 50
52.208417554
 51
82.2617913543
  0
ARC
  5
113
330
1F
100
AcDbEntity
  8
0
  6
Continuous
 62
     7
370
    25
100
AcDbCircle
 10
8517.6920421916
 20
6125.1397403967
 30
0.0
 40
1.709534413396571
100
AcDbArc
 50
78.4539419227
 51
102.2632732355
  0
ARC
  5
114
330
1F
100
AcDbEntity
  8
0
  6
Continuous
 62
     7
370
    25
100
AcDbCircle
 10
8520.0606802468
 20
6124.4477735692
 30
0.0
 40
3.115896552994729
100
AcDbArc
 50
92.8500697099
 51
130.5690086428
  0
ARC
  5
115
330
1F
100
AcDbEntity
  8
0
  6
Continuous
 62
     7
370
    25
100
AcDbCircle
 10
8516.9828770065
 20
6127.5354803397
 30
0.0
 40
2.922974103164816
100
AcDbArc
 50
326.1064097857
 51
0.4770294924
  0
ARC
  5
116
330
1F
100
AcDbEntity
  8
0
  6
Continuous
 62
     7
370
    25
100
AcDbCircle
 10
8518.43561325
 20
6125.0912158412
 30
0.0
 40
1.269181742868102
100
AcDbArc
 50
357.000009001
 51
39.9085478034
  0
LWPOLYLINE
  5
117
330
1F
100
AcDbEntity
  8
0
  6
Continuous
 62
     7
370
    25
100
AcDbPolyline
 90
        3
 70
   128
 43
0.0
 10
8518.1359638471
 20
6119.9225467138
 10
8518.1506036613
 20
6119.923995269
 10
8518.1636993606
 20
6119.9254832861
  0
ARC
  5
118
330
1F
100
AcDbEntity
  8
0
  6
Continuous
 62
     7
370
    25
100
AcDbCircle
 10
8517.6091954423
 20
6122.0938952665
 30
0.0
 40
2.238187908139213
100
AcDbArc
 50
284.3442200711
 51
352.2062584299
  0
ARC
  5
119
330
1F
100
AcDbEntity
  8
0
  6
Continuous
 62
     7
370
    25
100
AcDbCircle
 10
8519.0357349344
 20
6124.0788308217
 30
0.0
 40
2.421289703447824
100
AcDbArc
 50
251.8653247736
 51
289.0670526534
  0
ARC
  5
11A
330
1F
100
AcDbEntity
  8
0
  6
Continuous
 62
     7
370
    25
100
AcDbCircle
 10
8567.6856620667
 20
6123.3373893988
 30
0.0
 40
49.42816779529596
100
AcDbArc
 50
181.8081189137
 51
183.3125493898
  0
ARC
  5
11B
330
1F
100
AcDbEntity
  8
0
  6
Continuous
 62
     7
370
    25
100
AcDbCircle
 10
8524.4956699226
 20
6121.9376538176
 30
0.0
 40
6.325525079496862
100
AcDbArc
 50
156.8988347166
 51
193.3109045603
  0
LWPOLYLINE
  5
11C
330
1F
100
AcDbEntity
  8
0
  6
Continuous
 62
     7
370
    25
100
AcDbPolyline
 90
        9
 70
   128
 43
0.0
 10
8516.8543800183
 20
6124.7390167132
 10
8516.9769150934
 20
6124.5796194661
 10
8517.085349912
 20
6124.3492517078
 10
8517.1789536983
 20
6124.0441129126
 10
8517.2692383374
 20
6123.5833243709
 10
8517.3367108155
 20
6123.0071757899
 10
8517.3856325647
 20
6122.1622445723
 10
8517.3985102386
 20
6121.1345063844
 10
8517.3733254052
 20
6119.9134640243
  0
LWPOLYLINE
  5
11D
330
1F
100
AcDbEntity
  8
0
  6
Continuous
 62
     7
370
    25
100
AcDbPolyline
 90
        3
 70
   128
 43
0.0
 10
8517.3733254052
 20
6119.9134640243
 10
8517.5530839518
 20
6119.8854152473
 10
8517.6838624422
 20
6119.8780464949
  0
ARC
  5
11E
330
1F
100
AcDbEntity
  8
0
  6
Continuous
 62
     7
370
    25
100
AcDbCircle
 10
8527.6957531395
 20
6120.5768018379
 30
0.0
 40
10.0362450331155
100
AcDbArc
 50
173.7473084562
 51
183.9923444957
  0
LWPOLYLINE
  5
11F
330
1F
100
AcDbEntity
  8
0
  6
Continuous
 62
     7
370
    25
100
AcDbPolyline
 90
        3
 70
   128
 43
0.0
 10
8517.7192114904
 20
6121.6698851322
 10
8517.7359421981
 20
6120.6676811228
 10
8517.7591373219
 20
6119.8736285484
  0
LWPOLYLINE
  5
120
330
1F
100
AcDbEntity
  8
0
  6
Continuous
 62
     7
370
    25
100
AcDbPolyline
 90
        3
 70
   128
 43
0.0
 10
8517.7591373219
 20
6119.8736285484
 10
8517.9590937431
 20
6119.886824885
 10
8518.0784345852
 20
6119.9091184786
  0
LWPOLYLINE
  5
121
330
1F
100
AcDbEntity
  8
0
  6
Continuous
 62
     7
370
    25
100
AcDbPolyline
 90
        7
 70
   128
 43
0.0
 10
8518.0784345852
 20
6119.9091184786
 10
8518.0130830563
 20
6121.26446735
 10
8518.008654216
 20
6122.4160205533
 10
8518.0769123993
 20
6123.3584091371
 10
8518.1891995395
 20
6123.9486244772
 10
8518.3593288558
 20
6124.4037939197
 10
8518.5930067368
 20
6124.7213132099
  0
ARC
  5
122
330
1F
100
AcDbEntity
  8
0
  6
Continuous
 62
     7
370
    25
100
AcDbCircle
 10
8517.112613646
 20
6126.6351239871
 30
0.0
 40
2.419552726067352
100
AcDbArc
 50
285.1726559889
 51
307.7230838467
  0
ARC
  5
123
330
1F
100
AcDbEntity
  8
0
  6
Continuous
 62
     7
370
    25
100
AcDbCircle
 10
8520.2993654611
 20
6130.6087304974
 30
0.0
 40
6.805987408874529
100
AcDbArc
 50
239.5909613414
 51
247.9644226042
  0
ARC
  5
124
330
1F
100
AcDbEntity
  8
0
  6
Continuous
 62
     7
370
    25
100
AcDbCircle
 10
8515.4834676022
 20
6124.467266649
 30
0.0
 40
1.496756176865002
100
AcDbArc
 50
330.9777393375
 51
357.3295410656
  0
LWPOLYLINE
  5
125
330
1F
100
AcDbEntity
  8
0
  6
Continuous
 62
     7
370
    25
100
AcDbPolyline
 90
       12
 70
   128
 43
0.0
 10
8516.7922780247
 20
6123.7411162991
 10
8516.7071811682
 20
6123.5757280349
 10
8516.5695706055
 20
6123.3157889739
 10
8516.4069009233
 20
6122.9803395469
 10
8516.2203563765
 20
6122.513947284
 10
8516.0820843363
 20
6122.0002871057
 10
8516.0369743309
 20
6121.5987569049
 10
8516.0649055197
 20
6121.2015406917
 10
8516.1854195352
 20
6120.8221910691
 10
8516.4180580098
 20
6120.4742606397
 10
8516.7823625763
 20
6120.1713020063
 10
8517.2978748669
 20
6119.9268677717
  0
ARC
  5
126
330
1F
100
AcDbEntity
  8
0
  6
Continuous
 62
     7
370
    25
100
AcDbCircle
 10
8517.2933205166
 20
6125.4265522878
 30
0.0
 40
0.1507271671473421
100
AcDbArc
 50
89.9476712826
 51
178.3387177791
  0
ARC
  5
127
330
1F
100
AcDbEntity
  8
0
  6
Continuous
 62
     7
370
    25
100
AcDbCircle
 10
8517.2971175322
 20
6125.4345812873
 30
0.0
 40
0.1545041687060741
100
AcDbArc
 50
181.3571291521
 51
268.6423433595
  0
ARC
  5
128
330
1F
100
AcDbEntity
  8
0
  6
Continuous
 62
     7
370
    25
100
AcDbCircle
 10
8518.2969426545
 20
6125.4320335069
 30
0.0
 40
0.1496632210123333
100
AcDbArc
 50
359.5721731278
 51
90.4368367577
  0
ARC
  5
129
330
1F
100
AcDbEntity
  8
0
  6
Continuous
 62
     7
370
    25
100
AcDbCircle
 10
8518.29810851
 20
6125.4330295651
 30
0.0
 40
0.1486807109217954
100
AcDbArc
 50
90.8890303458
 51
180.8139924792
  0
ARC
  5
12A
330
1F
100
AcDbEntity
  8
0
  6
Continuous
 62
     7
370
    25
100
AcDbCircle
 10
8518.2977659103
 20
6125.4284465392
 30
0.0
 40
0.1483436854429786
100
AcDbArc
 50
179.0456373011
 51
269.2407517605
  0
LWPOLYLINE
  5
12B
330
1F
100
AcDbEntity
  8
0
  6
Continuous
 62
     7
370
    25
100
AcDbPolyline
 90
        3
 70
   128
 43
0.0
 10
8515.7589276027
 20
6127.3425192558
 10
8516.3712775598
 20
6127.0009974227
 10
8516.796683795
 20
6126.6239516788
  0
LWPOLYLINE
  5
12C
330
1F
100
AcDbEntity
  8
0
  6
Continuous
 62
     7
370
    25
100
AcDbPolyline
 90
        3
 70
   128
 43
0.0
 10
8516.796683795
 20
6126.6239516788
 10
8516.8772633125
 20
6126.6631187904
 10
8516.9430673016
 20
6126.690541305
  0
ARC
  5
12D
330
1F
100
AcDbEntity
  8
0
  6
Continuous
 62
     7
370
    25
100
AcDbCircle
 10
8515.1947677297
 20
6125.2392494872
 30
0.0
 40
2.272179423630391
100
AcDbArc
 50
39.6966154027
 51
78.6080281896
  0
ARC
  5
12E
330
1F
100
AcDbEntity
  8
0
  6
Continuous
 62
     7
370
    25
100
AcDbCircle
 10
8518.3534167591
 20
6127.3840714485
 30
0.0
 40
2.711106559798938
100
AcDbArc
 50
178.2542334719
 51
211.7188073879
  0
ARC
  5
12F
330
1F
100
AcDbEntity
  8
0
  6
Continuous
 62
     7
370
    25
100
AcDbCircle
 10
8519.6664775734
 20
6122.8509187096
 30
0.0
 40
2.245073155762982
100
AcDbArc
 50
92.4924030954
 51
127.4798366239
  0
LWPOLYLINE
  5
130
330
1F
100
AcDbEntity
  8
0
  6
Continuous
 62
     7
370
    25
100
AcDbPolyline
 90
        8
 70
   128
 43
0.0
 10
8519.6623688037
 20
6125.0834259874
 10
8519.6687481955
 20
6125.1838073219
 10
8519.6336187361
 20
6125.2868945054
 10
8519.5637001586
 20
6125.3910038026
 10
8519.2124070455
 20
6125.6926270212
 10
8518.9274611484
 20
6125.8679512519
 10
8518.6646323674
 20
6126.0069542863
 10
8518.4776785655
 20
6126.0961662408
  0
LWPOLYLINE
  5
131
330
1F
100
AcDbEntity
  8
0
  6
Continuous
 62
     7
370
    25
100
AcDbPolyline
 90
        3
 70
   128
 43
0.0
 10
8518.4155588628
 20
6126.7038375268
 10
8518.4879909505
 20
6126.6724432636
 10
8518.5530814767
 20
6126.6416892937
  0
LINE
  5
132
330
1F
100
AcDbEntity
  8
0
  6
Continuous
 62
     7
370
    25
100
AcDbLine
 10
8516.0472449327
 20
6125.9587047286
 30
0.0
 11
8516.1004572801
 21
6126.0341550837
 31
0.0
  0
ARC
  5
133
330
1F
100
AcDbEntity
  8
0
  6
Continuous
 62
     7
370
    25
100
AcDbCircle
 10
8518.296937291
 20
6125.4297802798
 30
0.0
 40
0.1496687212468509
100
AcDbArc
 50
269.5647011579
 51
0.4347713541
  0
ARC
  5
134
330
1F
100
AcDbEntity
  8
0
  6
Continuous
 62
     7
370
    25
100
AcDbCircle
 10
8517.2898202488
 20
6125.4345328766
 30
0.0
 40
0.1544552008292938
100
AcDbArc
 50
271.3491213706
 51
358.6598885155
  0
ARC
  5
135
330
1F
100
AcDbEntity
  8
0
  6
Continuous
 62
     7
370
    25
100
AcDbCircle
 10
8501.4600927869
 20
6121.042530076
 30
0.0
 40
15.87702880243764
100
AcDbArc
 50
355.9705644592
 51
12.1992271898
  0
LWPOLYLINE
  5
136
330
1F
100
AcDbEntity
  8
0
  6
Continuous
 62
     7
370
    25
100
AcDbPolyline
 90
        3
 70
   128
 43
0.0
 10
8518.5411994901
 20
6124.5373806484
 10
8518.3478208218
 20
6124.2152396536
 10
8518.2558850025
 20
6123.9317942618
  0
ARC
  5
137
330
1F
100
AcDbEntity
  8
0
  6
Continuous
 62
     7
370
    25
100
AcDbCircle
 10
8519.6218338609
 20
6123.5831778399
 30
0.0
 40
1.443900599100415
100
AcDbArc
 50
86.7753164465
 51
136.2622475471
  0
LWPOLYLINE
  5
138
330
1F
100
AcDbEntity
  8
0
  6
Continuous
 62
     7
370
    25
100
AcDbPolyline
 90
        3
 70
   128
 43
0.0
 10
8519.7252599938
 20
6123.0392314979
 10
8519.8066164162
 20
6122.7221075453
 10
8519.8447082648
 20
6122.4681055481
  0
LWPOLYLINE
  5
139
330
1F
100
AcDbEntity
  8
0
  6
Continuous
 62
     7
370
    25
100
AcDbPolyline
 90
        3
 70
   128
 43
0.0
 10
8518.109540112
 20
6126.8014277355
 10
8518.6912381266
 20
6127.1803748628
 10
8519.1562627825
 20
6127.3381111172
  0
LWPOLYLINE
  5
13A
330
1F
100
AcDbEntity
  8
0
  6
Continuous
 62
     7
370
    25
100
AcDbPolyline
 90
       13
 70
   128
 43
0.0
 10
8518.4776785655
 20
6126.0961662408
 10
8518.1972437531
 20
6125.9122978739
 10
8517.9309593358
 20
6125.8296961762
 10
8517.6861510718
 20
6125.8248675141
 10
8517.4701447193
 20
6125.8743182537
 10
8517.216163871
 20
6125.9988759178
 10
8517.068194714
 20
6126.1134105462
 10
8517.0416909054
 20
6126.1421407802
 10
8517.0406682247
 20
6126.1440623872
 10
8517.0405340075
 20
6126.1446730192
 10
8517.0405455802
 20
6126.1448232697
 10
8517.0405854191
 20
6126.1449465193
 10
8517.0406535905
 20
6126.1450425558
  0
ARC
  5
13B
330
1F
100
AcDbEntity
  8
0
  6
Continuous
 62
     7
370
    25
100
AcDbCircle
 10
8517.8797488566
 20
6123.7583903908
 30
0.0
 40
2.529859565687209
100
AcDbArc
 50
109.3705710408
 51
146.0361685548
  0
ARC
  5
13C
330
1F
100
AcDbEntity
  8
0
  6
Continuous
 62
     7
370
    25
100
AcDbCircle
 10
8517.6962128385
 20
6121.9494280012
 30
0.0
 40
3.748256548457777
100
AcDbArc
 50
88.9705286949
 51
120.7188351444
  0
ARC
  5
13D
330
1F
100
AcDbEntity
  8
0
  6
Continuous
 62
     7
370
    25
100
AcDbCircle
 10
8517.8788133981
 20
6122.809166239
 30
0.0
 40
2.890212325783611
100
AcDbArc
 50
51.8951954755
 51
92.2854646184
  0
LWPOLYLINE
  5
13E
330
1F
100
AcDbEntity
  8
0
  6
Continuous
 62
     7
370
    25
100
AcDbPolyline
 90
        3
 70
   128
 43
0.0
 10
8518.5530814767
 20
6126.6416892937
 10
8519.1596239615
 20
6127.1051412486
 10
8519.7018864801
 20
6127.3158700056
  0
LWPOLYLINE
  5
13F
330
1F
100
AcDbEntity
  8
0
  6
Continuous
 62
     7
370
    25
100
AcDbPolyline
 90
        3
 70
   128
 43
0.0
 10
8519.7018864801
 20
6127.3158700056
 10
8519.5527933561
 20
6126.6400118383
 10
8519.2804770678
 20
6126.1183760454
  0
LWPOLYLINE
  5
140
330
1F
100
AcDbEntity
  8
0
  6
Continuous
 62
     7
370
    25
100
AcDbPolyline
 90
        3
 70
   128
 43
0.0
 10
8519.2804770678
 20
6126.1183760454
 10
8519.3347001868
 20
6126.0442709895
 10
8519.3691045551
 20
6125.9852703374
  0
ARC
  5
141
330
1F
100
AcDbEntity
  8
0
  6
Continuous
 62
     7
370
    25
100
AcDbCircle
 10
8516.893815965
 20
6127.620287452
 30
0.0
 40
2.966535785942759
100
AcDbArc
 50
326.5538037269
 51
357.2884665349
  0
ARC
  5
142
330
1F
100
AcDbEntity
  8
0
  6
Continuous
 62
     7
370
    25
100
AcDbCircle
 10
8520.251375504
 20
6125.0208508297
 30
0.0
 40
2.490515401040483
100
AcDbArc
 50
99.1104861741
 51
137.4869281272
  0
LWPOLYLINE
  5
143
330
1F
100
AcDbEntity
  8
0
  6
Continuous
 62
     7
370
    25
100
AcDbPolyline
 90
        3
 70
   128
 43
0.0
 10
8516.1004572801
 20
6126.0341550837
 10
8515.8220810202
 20
6126.7493920569
 10
8515.7589276027
 20
6127.3425192558
  0
ARC
  5
144
330
1F
100
AcDbEntity
  8
0
  6
Continuous
 62
     7
370
    25
100
AcDbCircle
 10
8517.2932087737
 20
6125.4261808093
 30
0.0
 40
0.1510987886106177
100
AcDbArc
 50
1.7975951336
 51
89.9054276912
  0
ARC
  5
145
330
1F
100
AcDbEntity
  8
0
  6
Continuous
 62
     7
370
    25
100
AcDbCircle
 10
8535.1790633077
 20
6121.4191854824
 30
0.0
 40
17.10868688211268
100
AcDbArc
 50
171.5549059639
 51
185.018551775
  0
LWPOLYLINE
  5
146
330
1F
100
AcDbEntity
  8
0
  6
Continuous
 62
     7
370
    25
100
AcDbPolyline
 90
        3
 70
   128
 43
0.0
 10
8518.6773664475
 20
6124.4195104216
 10
8518.6063481005
 20
6124.4800955269
 10
8518.5411994901
 20
6124.5373806484
  0
ARC
  5
147
330
1F
100
AcDbEntity
  8
0
  6
Continuous
 62
     7
370
    25
100
AcDbCircle
 10
8518.7833139287
 20
6122.3995815926
 30
0.0
 40
4.188509353714163
100
AcDbArc
 50
114.1870689891
 51
134.1611640219
  0
LWPOLYLINE
  5
148
330
1F
100
AcDbEntity
  8
0
  6
Continuous
 62
     7
370
    25
100
AcDbPolyline
 90
        8
 70
   128
 43
0.0
 10
8517.18698069
 20
6124.8632099822
 10
8517.3406741202
 20
6125.0767094335
 10
8517.4924309062
 20
6125.2214385214
 10
8517.6424090236
 20
6125.3022326231
 10
8517.7907664482
 20
6125.3239271153
 10
8517.9863283147
 20
6125.2692778211
 10
8518.1796642566
 20
6125.129620415
 10
8518.3711487349
 20
6124.9164165312
  0
LWPOLYLINE
  5
149
330
1F
100
AcDbEntity
  8
0
  6
Continuous
 62
     7
370
    25
100
AcDbPolyline
 90
        3
 70
   128
 43
0.0
 10
8516.7612596306
 20
6124.8720471419
 10
8516.2582366904
 20
6125.0840580395
 10
8515.8565816375
 20
6125.1559574063
  0
ARC
  5
14A
330
1F
100
AcDbEntity
  8
0
  6
Continuous
 62
     7
370
    25
100
AcDbCircle
 10
8518.019449645
 20
6126.6343741176
 30
0.0
 40
2.165372596522492
100
AcDbArc
 50
234.4755633335
 51
260.366959335
  0
CIRCLE
  5
14B
330
1F
100
AcDbEntity
  8
0
  6
Continuous
 62
     7
370
    25
100
AcDbCircle
 10
8520.9372818433
 20
6126.9820092188
 30
0.0
 40
0.5050370999996477
  0
CIRCLE
  5
14C
330
1F
100
AcDbEntity
  8
0
  6
Continuous
 62
     7
370
    25
100
AcDbCircle
 10
8520.9372818433
 20
6126.9820092188
 30
0.0
 40
0.5814415000011407
  0
ARC
  5
14D
330
1F
100
AcDbEntity
  8
0
  6
Continuous
 62
     7
370
    25
100
AcDbCircle
 10
8517.2933482452
 20
6125.4275914134
 30
0.0
 40
0.0605328776923092
100
AcDbArc
 50
1.8927288611
 51
89.8963354502
  0
ARC
  5
14E
330
1F
100
AcDbEntity
  8
0
  6
Continuous
 62
     7
370
    25
100
AcDbCircle
 10
8517.2920599493
 20
6125.4310913642
 30
0.0
 40
0.0618063683488496
100
AcDbArc
 50
271.2954088186
 51
358.6087296378
  0
ARC
  5
14F
330
1F
100
AcDbEntity
  8
0
  6
Continuous
 62
     7
370
    25
100
AcDbCircle
 10
8517.2948619129
 20
6125.4310210847
 30
0.0
 40
0.0617362753096792
100
AcDbArc
 50
181.3270915813
 51
268.6962293263
  0
ARC
  5
150
330
1F
100
AcDbEntity
  8
0
  6
Continuous
 62
     7
370
    25
100
AcDbCircle
 10
8517.2934026329
 20
6125.4278382897
 30
0.0
 40
0.0602859275210526
100
AcDbArc
 50
89.9476009158
 51
178.3337319962
  0
ARC
  5
151
330
1F
100
AcDbEntity
  8
0
  6
Continuous
 62
     7
370
    25
100
AcDbCircle
 10
8509.0215593452
 20
6099.3147208122
 30
0.0
 40
7.499999999999907
100
AcDbArc
 50
282.8395884069
 51
347.1604115931
  0
ARC
  5
152
330
1F
100
AcDbEntity
  8
0
  6
Continuous
 62
     7
370
    25
100
AcDbCircle
 10
8516.0415308551
 20
6097.7147208122
 30
0.0
 40
0.2999999999996583
100
AcDbArc
 50
347.1604115929
 51
90.0
  0
ARC
  5
153
330
1F
100
AcDbEntity
  8
0
  6
Continuous
 62
     7
370
    25
100
AcDbCircle
 10
8516.0415308551
 20
6097.7147208122
 30
0.0
 40
0.2999999999992724
100
AcDbArc
 50
90.0
 51
167.1604115933
  0
ARC
  5
154
330
1F
100
AcDbEntity
  8
0
  6
Continuous
 62
     7
370
    25
100
AcDbCircle
 10
8509.0215593452
 20
6099.3147208122
 30
0.0
 40
6.90000000000031
100
AcDbArc
 50
282.8395884069
 51
347.1604115931
  0
ARC
  5
155
330
1F
100
AcDbEntity
  8
0
  6
Continuous
 62
     7
370
    25
100
AcDbCircle
 10
8510.6215593452
 20
6092.2947493023
 30
0.0
 40
0.2999999999996583
100
AcDbArc
 50
102.8395884071
 51
180.0
  0
ARC
  5
156
330
1F
100
AcDbEntity
  8
0
  6
Continuous
 62
     7
370
    25
100
AcDbCircle
 10
8510.6215593452
 20
6092.2947493023
 30
0.0
 40
0.3000000000001408
100
AcDbArc
 50
180.0
 51
282.8395884067
  0
ARC
  5
157
330
1F
100
AcDbEntity
  8
0
  6
Continuous
 62
     7
370
    25
100
AcDbCircle
 10
8509.0215593452
 20
6099.3147208122
 30
0.0
 40
7.500000000000997
100
AcDbArc
 50
192.8395884069
 51
257.1604115931
  0
ARC
  5
158
330
1F
100
AcDbEntity
  8
0
  6
Continuous
 62
     7
370
    25
100
AcDbCircle
 10
8507.4215593452
 20
6092.2947493023
 30
0.0
 40
0.300000000000545
100
AcDbArc
 50
257.160411593
 51
0.0
  0
ARC
  5
159
330
1F
100
AcDbEntity
  8
0
  6
Continuous
 62
     7
370
    25
100
AcDbCircle
 10
8507.4215593452
 20
6092.2947493023
 30
0.0
 40
0.2999999999996583
100
AcDbArc
 50
0.0
 51
77.1604115929
  0
ARC
  5
15A
330
1F
100
AcDbEntity
  8
0
  6
Continuous
 62
     7
370
    25
100
AcDbCircle
 10
8509.0215593452
 20
6099.3147208122
 30
0.0
 40
6.90000000000031
100
AcDbArc
 50
192.8395884069
 51
257.1604115931
  0
ARC
  5
15B
330
1F
100
AcDbEntity
  8
0
  6
Continuous
 62
     7
370
    25
100
AcDbCircle
 10
8502.0015878353
 20
6097.7147208122
 30
0.0
 40
0.2999999999992724
100
AcDbArc
 50
12.8395884067
 51
90.0
  0
ARC
  5
15C
330
1F
100
AcDbEntity
  8
0
  6
Continuous
 62
     7
370
    25
100
AcDbCircle
 10
8502.0015878353
 20
6097.7147208122
 30
0.0
 40
0.3000000000014318
100
AcDbArc
 50
90.0
 51
192.839588407
  0
ARC
  5
15D
330
1F
100
AcDbEntity
  8
0
  6
Continuous
 62
     7
370
    25
100
AcDbCircle
 10
8510.6215593452
 20
6106.3346923221
 30
0.0
 40
0.3000000000001408
100
AcDbArc
 50
77.1604115933
 51
180.0
  0
ARC
  5
15E
330
1F
100
AcDbEntity
  8
0
  6
Continuous
 62
     7
370
    25
100
AcDbCircle
 10
8510.6215593452
 20
6106.3346923221
 30
0.0
 40
0.2999999999996583
100
AcDbArc
 50
180.0
 51
257.1604115929
  0
ARC
  5
15F
330
1F
100
AcDbEntity
  8
0
  6
Continuous
 62
     7
370
    25
100
AcDbCircle
 10
8509.0215593452
 20
6099.3147208122
 30
0.0
 40
6.900000000000109
100
AcDbArc
 50
12.8395884069
 51
77.1604115931
  0
ARC
  5
160
330
1F
100
AcDbEntity
  8
0
  6
Continuous
 62
     7
370
    25
100
AcDbCircle
 10
8516.0415308551
 20
6100.9147208122
 30
0.0
 40
0.3000000000001819
100
AcDbArc
 50
192.8395884071
 51
270.0
  0
ARC
  5
161
330
1F
100
AcDbEntity
  8
0
  6
Continuous
 62
     7
370
    25
100
AcDbCircle
 10
8516.0415308551
 20
6100.9147208122
 30
0.0
 40
0.3000000000001819
100
AcDbArc
 50
270.0
 51
12.8395884067
  0
ARC
  5
162
330
1F
100
AcDbEntity
  8
0
  6
Continuous
 62
     7
370
    25
100
AcDbCircle
 10
8509.0215593452
 20
6099.3147208122
 30
0.0
 40
7.499999999999907
100
AcDbArc
 50
12.8395884069
 51
77.1604115931
  0
ARC
  5
163
330
1F
100
AcDbEntity
  8
0
  6
Continuous
 62
     7
370
    25
100
AcDbCircle
 10
8502.0015878353
 20
6100.9147208122
 30
0.0
 40
0.3000000000010276
100
AcDbArc
 50
167.1604115933
 51
270.0
  0
ARC
  5
164
330
1F
100
AcDbEntity
  8
0
  6
Continuous
 62
     7
370
    25
100
AcDbCircle
 10
8502.0015878353
 20
6100.9147208122
 30
0.0
 40
0.3000000000001819
100
AcDbArc
 50
270.0
 51
347.1604115929
  0
ARC
  5
165
330
1F
100
AcDbEntity
  8
0
  6
Continuous
 62
     7
370
    25
100
AcDbCircle
 10
8509.0215593452
 20
6099.3147208122
 30
0.0
 40
6.900000000000109
100
AcDbArc
 50
102.8395884069
 51
167.1604115931
  0
ARC
  5
166
330
1F
100
AcDbEntity
  8
0
  6
Continuous
 62
     7
370
    25
100
AcDbCircle
 10
8507.4215593452
 20
6106.3346923221
 30
0.0
 40
0.2999999999996583
100
AcDbArc
 50
282.8395884071
 51
0.0
  0
ARC
  5
167
330
1F
100
AcDbEntity
  8
0
  6
Continuous
 62
     7
370
    25
100
AcDbCircle
 10
8507.4215593452
 20
6106.3346923221
 30
0.0
 40
0.300000000000545
100
AcDbArc
 50
0.0
 51
102.839588407
  0
ARC
  5
168
330
1F
100
AcDbEntity
  8
0
  6
Continuous
 62
     7
370
    25
100
AcDbCircle
 10
8509.0215593452
 20
6099.3147208122
 30
0.0
 40
7.500000000000794
100
AcDbArc
 50
102.8395884069
 51
167.1604115931
  0
ARC
  5
169
330
1F
100
AcDbEntity
  8
0
  6
Continuous
 62
     7
370
    25
100
AcDbCircle
 10
8509.0215593452
 20
6099.3147208122
 30
0.0
 40
11.20000000000049
100
AcDbArc
 50
8.4408894414
 51
81.5591105586
  0
ARC
  5
16A
330
1F
100
AcDbEntity
  8
0
  6
Continuous
 62
     7
370
    25
100
AcDbCircle
 10
8510.6215593452
 20
6110.0966501386
 30
0.0
 40
0.2999999999997979
100
AcDbArc
 50
81.5591105584
 51
180.0
  0
ARC
  5
16B
330
1F
100
AcDbEntity
  8
0
  6
Continuous
 62
     7
370
    25
100
AcDbCircle
 10
8510.6215593452
 20
6110.0966501386
 30
0.0
 40
0.2999999999995309
100
AcDbArc
 50
180.0
 51
261.5591105588
  0
ARC
  5
16C
330
1F
100
AcDbEntity
  8
0
  6
Continuous
 62
     7
370
    25
100
AcDbCircle
 10
8509.0215593452
 20
6099.3147208122
 30
0.0
 40
10.60000000000116
100
AcDbArc
 50
8.4408894413
 51
81.5591105586
  0
ARC
  5
16D
330
1F
100
AcDbEntity
  8
0
  6
Continuous
 62
     7
370
    25
100
AcDbCircle
 10
8519.8034886717
 20
6100.9147208122
 30
0.0
 40
0.3000000000001819
100
AcDbArc
 50
188.4408894414
 51
270.0
  0
ARC
  5
16E
330
1F
100
AcDbEntity
  8
0
  6
Continuous
 62
     7
370
    25
100
AcDbCircle
 10
8519.8034886717
 20
6100.9147208122
 30
0.0
 40
0.300000000000564
100
AcDbArc
 50
270.0
 51
8.4408894414
  0
ARC
  5
16F
330
1F
100
AcDbEntity
  8
0
  6
Continuous
 62
     7
370
    25
100
AcDbCircle
 10
8498.2396300188
 20
6100.9147208122
 30
0.0
 40
0.300000000000564
100
AcDbArc
 50
171.5591105586
 51
270.0
  0
ARC
  5
170
330
1F
100
AcDbEntity
  8
0
  6
Continuous
 62
     7
370
    25
100
AcDbCircle
 10
8498.2396300188
 20
6100.9147208122
 30
0.0
 40
0.3000000000001819
100
AcDbArc
 50
270.0
 51
351.5591105586
  0
ARC
  5
171
330
1F
100
AcDbEntity
  8
0
  6
Continuous
 62
     7
370
    25
100
AcDbCircle
 10
8509.0215593452
 20
6099.3147208122
 30
0.0
 40
10.60000000000116
100
AcDbArc
 50
98.4408894414
 51
171.5591105587
  0
ARC
  5
172
330
1F
100
AcDbEntity
  8
0
  6
Continuous
 62
     7
370
    25
100
AcDbCircle
 10
8507.4215593452
 20
6110.0966501386
 30
0.0
 40
0.2999999999995309
100
AcDbArc
 50
278.4408894412
 51
0.0
  0
ARC
  5
173
330
1F
100
AcDbEntity
  8
0
  6
Continuous
 62
     7
370
    25
100
AcDbCircle
 10
8507.4215593452
 20
6110.0966501386
 30
0.0
 40
0.2999999999997979
100
AcDbArc
 50
0.0
 51
98.4408894416
  0
ARC
  5
174
330
1F
100
AcDbEntity
  8
0
  6
Continuous
 62
     7
370
    25
100
AcDbCircle
 10
8509.0215593452
 20
6099.3147208122
 30
0.0
 40
11.20000000000049
100
AcDbArc
 50
98.4408894414
 51
171.5591105586
  0
ARC
  5
175
330
1F
100
AcDbEntity
  8
0
  6
Continuous
 62
     7
370
    25
100
AcDbCircle
 10
8519.8034886717
 20
6097.7147208122
 30
0.0
 40
0.300000000000564
100
AcDbArc
 50
351.5591105586
 51
90.0
  0
ARC
  5
176
330
1F
100
AcDbEntity
  8
0
  6
Continuous
 62
     7
370
    25
100
AcDbCircle
 10
8519.8034886717
 20
6097.7147208122
 30
0.0
 40
0.2999999999992724
100
AcDbArc
 50
90.0
 51
171.5591105587
  0
ARC
  5
177
330
1F
100
AcDbEntity
  8
0
  6
Continuous
 62
     7
370
    25
100
AcDbCircle
 10
8509.0215593452
 20
6099.3147208122
 30
0.0
 40
10.60000000000116
100
AcDbArc
 50
278.4408894414
 51
351.5591105587
  0
ARC
  5
178
330
1F
100
AcDbEntity
  8
0
  6
Continuous
 62
     7
370
    25
100
AcDbCircle
 10
8510.6215593452
 20
6088.5327914858
 30
0.0
 40
0.2999999999995309
100
AcDbArc
 50
98.4408894412
 51
180.0
  0
ARC
  5
179
330
1F
100
AcDbEntity
  8
0
  6
Continuous
 62
     7
370
    25
100
AcDbCircle
 10
8510.6215593452
 20
6088.5327914858
 30
0.0
 40
0.3000000000006975
100
AcDbArc
 50
180.0
 51
278.4408894416
  0
ARC
  5
17A
330
1F
100
AcDbEntity
  8
0
  6
Continuous
 62
     7
370
    25
100
AcDbCircle
 10
8509.0215593452
 20
6099.3147208122
 30
0.0
 40
11.20000000000062
100
AcDbArc
 50
278.4408894414
 51
351.5591105587
  0
ARC
  5
17B
330
1F
100
AcDbEntity
  8
0
  6
Continuous
 62
     7
370
    25
100
AcDbCircle
 10
8507.4215593452
 20
6088.5327914858
 30
0.0
 40
0.3000000000006975
100
AcDbArc
 50
261.5591105584
 51
0.0
  0
ARC
  5
17C
330
1F
100
AcDbEntity
  8
0
  6
Continuous
 62
     7
370
    25
100
AcDbCircle
 10
8507.4215593452
 20
6088.5327914858
 30
0.0
 40
0.2999999999995309
100
AcDbArc
 50
0.0
 51
81.5591105588
  0
ARC
  5
17D
330
1F
100
AcDbEntity
  8
0
  6
Continuous
 62
     7
370
    25
100
AcDbCircle
 10
8509.0215593452
 20
6099.3147208122
 30
0.0
 40
10.60000000000116
100
AcDbArc
 50
188.4408894413
 51
261.5591105586
  0
ARC
  5
17E
330
1F
100
AcDbEntity
  8
0
  6
Continuous
 62
     7
370
    25
100
AcDbCircle
 10
8498.2396300188
 20
6097.7147208122
 30
0.0
 40
0.2999999999992724
100
AcDbArc
 50
8.4408894413
 51
90.0
  0
ARC
  5
17F
330
1F
100
AcDbEntity
  8
0
  6
Continuous
 62
     7
370
    25
100
AcDbCircle
 10
8498.2396300188
 20
6097.7147208122
 30
0.0
 40
0.300000000000564
100
AcDbArc
 50
90.0
 51
188.4408894414
  0
ARC
  5
180
330
1F
100
AcDbEntity
  8
0
  6
Continuous
 62
     7
370
    25
100
AcDbCircle
 10
8509.0215593452
 20
6099.3147208122
 30
0.0
 40
11.20000000000062
100
AcDbArc
 50
188.4408894413
 51
261.5591105586
  0
ARC
  5
181
330
1F
100
AcDbEntity
  8
0
  6
Continuous
 62
     7
370
    25
100
AcDbCircle
 10
8509.0215593452
 20
6087.1147208122
 30
0.0
 40
0.3000000000001819
100
AcDbArc
 50
180.0
 51
270.0
  0
ARC
  5
182
330
1F
100
AcDbEntity
  8
0
  6
Continuous
 62
     7
370
    25
100
AcDbCircle
 10
8509.0215593452
 20
6087.1147208122
 30
0.0
 40
0.3000000000001819
100
AcDbArc
 50
270.0
 51
0.0
  0
LINE
  5
183
330
1F
100
AcDbEntity
  8
0
  6
Continuous
 62
     7
370
    25
100
AcDbLine
 10
8509.3215593452
 20
6095.2147208122
 30
0.0
 11
8509.3215593452
 21
6087.1147208122
 31
0.0
  0
ARC
  5
184
330
1F
100
AcDbEntity
  8
0
  6
Continuous
 62
     7
370
    25
100
AcDbCircle
 10
8509.0215593452
 20
6095.2147208122
 30
0.0
 40
0.3000000000001819
100
AcDbArc
 50
0.0
 51
90.0
  0
ARC
  5
185
330
1F
100
AcDbEntity
  8
0
  6
Continuous
 62
     7
370
    25
100
AcDbCircle
 10
8509.0215593452
 20
6095.2147208122
 30
0.0
 40
0.3000000000001819
100
AcDbArc
 50
90.0
 51
180.0
  0
LINE
  5
186
330
1F
100
AcDbEntity
  8
0
  6
Continuous
 62
     7
370
    25
100
AcDbLine
 10
8508.7215593452
 20
6095.2147208122
 30
0.0
 11
8508.7215593452
 21
6087.1147208122
 31
0.0
  0
LINE
  5
187
330
1F
100
AcDbEntity
  8
0
  6
Continuous
 62
     7
370
    25
100
AcDbLine
 10
8508.7215593452
 20
6111.5147208122
 30
0.0
 11
8508.7215593452
 21
6103.4147208122
 31
0.0
  0
ARC
  5
188
330
1F
100
AcDbEntity
  8
0
  6
Continuous
 62
     7
370
    25
100
AcDbCircle
 10
8509.0215593452
 20
6103.4147208122
 30
0.0
 40
0.3000000000001819
100
AcDbArc
 50
180.0
 51
270.0
  0
ARC
  5
189
330
1F
100
AcDbEntity
  8
0
  6
Continuous
 62
     7
370
    25
100
AcDbCircle
 10
8509.0215593452
 20
6103.4147208122
 30
0.0
 40
0.3000000000001819
100
AcDbArc
 50
270.0
 51
0.0
  0
LINE
  5
18A
330
1F
100
AcDbEntity
  8
0
  6
Continuous
 62
     7
370
    25
100
AcDbLine
 10
8509.3215593452
 20
6111.5147208122
 30
0.0
 11
8509.3215593452
 21
6103.4147208122
 31
0.0
  0
ARC
  5
18B
330
1F
100
AcDbEntity
  8
0
  6
Continuous
 62
     7
370
    25
100
AcDbCircle
 10
8509.0215593452
 20
6111.5147208122
 30
0.0
 40
0.3000000000001819
100
AcDbArc
 50
0.0
 51
90.0
  0
ARC
  5
18C
330
1F
100
AcDbEntity
  8
0
  6
Continuous
 62
     7
370
    25
100
AcDbCircle
 10
8509.0215593452
 20
6111.5147208122
 30
0.0
 40
0.3000000000001819
100
AcDbArc
 50
90.0
 51
180.0
  0
ARC
  5
18D
330
1F
100
AcDbEntity
  8
0
  6
Continuous
 62
     7
370
    25
100
AcDbCircle
 10
8504.9215593452
 20
6099.3147208122
 30
0.0
 40
0.3000000000001819
100
AcDbArc
 50
270.0
 51
0.0
  0
ARC
  5
18E
330
1F
100
AcDbEntity
  8
0
  6
Continuous
 62
     7
370
    25
100
AcDbCircle
 10
8504.9215593452
 20
6099.3147208122
 30
0.0
 40
0.3000000000001819
100
AcDbArc
 50
0.0
 51
90.0
  0
LINE
  5
18F
330
1F
100
AcDbEntity
  8
0
  6
Continuous
 62
     7
370
    25
100
AcDbLine
 10
8496.8215593452
 20
6099.6147208122
 30
0.0
 11
8504.9215593452
 21
6099.6147208122
 31
0.0
  0
ARC
  5
190
330
1F
100
AcDbEntity
  8
0
  6
Continuous
 62
     7
370
    25
100
AcDbCircle
 10
8496.8215593452
 20
6099.3147208122
 30
0.0
 40
0.3000000000001819
100
AcDbArc
 50
90.0
 51
180.0
  0
ARC
  5
191
330
1F
100
AcDbEntity
  8
0
  6
Continuous
 62
     7
370
    25
100
AcDbCircle
 10
8496.8215593452
 20
6099.3147208122
 30
0.0
 40
0.3000000000001819
100
AcDbArc
 50
180.0
 51
270.0
  0
LINE
  5
192
330
1F
100
AcDbEntity
  8
0
  6
Continuous
 62
     7
370
    25
100
AcDbLine
 10
8496.8215593452
 20
6099.0147208122
 30
0.0
 11
8504.9215593452
 21
6099.0147208122
 31
0.0
  0
ARC
  5
193
330
1F
100
AcDbEntity
  8
0
  6
Continuous
 62
     7
370
    25
100
AcDbCircle
 10
8521.2215593452
 20
6099.3147208122
 30
0.0
 40
0.3000000000010914
100
AcDbArc
 50
270.0
 51
0.0
  0
ARC
  5
194
330
1F
100
AcDbEntity
  8
0
  6
Continuous
 62
     7
370
    25
100
AcDbCircle
 10
8521.2215593452
 20
6099.3147208122
 30
0.0
 40
0.3000000000010914
100
AcDbArc
 50
0.0
 51
90.0
  0
LINE
  5
195
330
1F
100
AcDbEntity
  8
0
  6
Continuous
 62
     7
370
    25
100
AcDbLine
 10
8513.1215593452
 20
6099.6147208122
 30
0.0
 11
8521.2215593452
 21
6099.6147208122
 31
0.0
  0
ARC
  5
196
330
1F
100
AcDbEntity
  8
0
  6
Continuous
 62
     7
370
    25
100
AcDbCircle
 10
8513.1215593452
 20
6099.3147208122
 30
0.0
 40
0.3000000000001819
100
AcDbArc
 50
90.0
 51
180.0
  0
ARC
  5
197
330
1F
100
AcDbEntity
  8
0
  6
Continuous
 62
     7
370
    25
100
AcDbCircle
 10
8513.1215593452
 20
6099.3147208122
 30
0.0
 40
0.3000000000001819
100
AcDbArc
 50
180.0
 51
270.0
  0
LINE
  5
198
330
1F
100
AcDbEntity
  8
0
  6
Continuous
 62
     7
370
    25
100
AcDbLine
 10
8513.1215593452
 20
6099.0147208122
 30
0.0
 11
8521.2215593452
 21
6099.0147208122
 31
0.0
  0
ARC
  5
199
330
1F
100
AcDbEntity
  8
0
  6
Continuous
 62
     7
370
    25
100
AcDbCircle
 10
8480.5215593452
 20
6137.8147208122
 30
0.0
 40
0.9000000000014552
100
AcDbArc
 50
90.0
 51
180.0
  0
LINE
  5
19A
330
1F
100
AcDbEntity
  8
0
  6
Continuous
 62
     7
370
    25
100
AcDbLine
 10
8537.5215593452
 20
6138.7147208122
 30
0.0
 11
8480.5215593452
 21
6138.7147208122
 31
0.0
  0
ARC
  5
19B
330
1F
100
AcDbEntity
  8
0
  6
Continuous
 62
     7
370
    25
100
AcDbCircle
 10
8537.5215593452
 20
6137.8147208122
 30
0.0
 40
0.9000000000014552
100
AcDbArc
 50
0.0
 51
90.0
  0
LINE
  5
19C
330
1F
100
AcDbEntity
  8
0
  6
Continuous
 62
     7
370
    25
100
AcDbLine
 10
8538.4215593452
 20
6080.8147208122
 30
0.0
 11
8538.4215593452
 21
6137.8147208122
 31
0.0
  0
ARC
  5
19D
330
1F
100
AcDbEntity
  8
0
  6
Continuous
 62
     7
370
    25
100
AcDbCircle
 10
8537.5215593452
 20
6080.8147208122
 30
0.0
 40
0.9000000000014552
100
AcDbArc
 50
270.0
 51
0.0
  0
LINE
  5
19E
330
1F
100
AcDbEntity
  8
0
  6
Continuous
 62
     7
370
    25
100
AcDbLine
 10
8480.5215593452
 20
6079.9147208122
 30
0.0
 11
8537.5215593452
 21
6079.9147208122
 31
0.0
  0
ARC
  5
19F
330
1F
100
AcDbEntity
  8
0
  6
Continuous
 62
     7
370
    25
100
AcDbCircle
 10
8480.5215593452
 20
6080.8147208122
 30
0.0
 40
0.9000000000014552
100
AcDbArc
 50
180.0
 51
270.0
  0
LINE
  5
1A0
330
1F
100
AcDbEntity
  8
0
  6
Continuous
 62
     7
370
    25
100
AcDbLine
 10
8479.6215593452
 20
6137.8147208122
 30
0.0
 11
8479.6215593452
 21
6080.8147208122
 31
0.0
  0
LINE
  5
1A1
330
1F
100
AcDbEntity
  8
0
  6
Continuous
 62
     7
370
    25
100
AcDbLine
 10
8539.4215593452
 20
6137.8147208122
 30
0.0
 11
8539.4215593452
 21
6080.8147208122
 31
0.0
  0
LINE
  5
1A2
330
1F
100
AcDbEntity
  8
0
  6
Continuous
 62
     7
370
    25
100
AcDbLine
 10
8539.4215593452
 20
6080.8147208122
 30
0.0
 11
8538.4215593452
 21
6080.8147208122
 31
0.0
  0
LINE
  5
1A3
330
1F
100
AcDbEntity
  8
0
  6
Continuous
 62
     7
370
    25
100
AcDbLine
 10
8539.4215593452
 20
6137.8147208122
 30
0.0
 11
8538.4215593452
 21
6137.8147208122
 31
0.0
  0
LINE
  5
1A4
330
1F
100
AcDbEntity
  8
0
  6
Continuous
 62
     7
370
    25
100
AcDbLine
 10
8479.6215593452
 20
6137.8147208122
 30
0.0
 11
8478.6215593452
 21
6137.8147208122
 31
0.0
  0
ARC
  5
1A5
330
1F
100
AcDbEntity
  8
0
  6
Continuous
 62
     7
370
    25
100
AcDbCircle
 10
8480.5215593452
 20
6137.8147208122
 30
0.0
 40
1.900000000000546
100
AcDbArc
 50
90.0
 51
180.0
  0
LINE
  5
1A6
330
1F
100
AcDbEntity
  8
0
  6
Continuous
 62
     7
370
    25
100
AcDbLine
 10
8480.5215593452
 20
6138.7147208122
 30
0.0
 11
8480.5215593452
 21
6139.7147208122
 31
0.0
  0
LINE
  5
1A7
330
1F
100
AcDbEntity
  8
0
  6
Continuous
 62
     7
370
    25
100
AcDbLine
 10
8537.5215593452
 20
6138.7147208122
 30
0.0
 11
8537.5215593452
 21
6139.7147208122
 31
0.0
  0
ARC
  5
1A8
330
1F
100
AcDbEntity
  8
0
  6
Continuous
 62
     7
370
    25
100
AcDbCircle
 10
8537.5215593452
 20
6137.8147208122
 30
0.0
 40
1.900000000000546
100
AcDbArc
 50
0.0
 51
90.0
  0
LINE
  5
1A9
330
1F
100
AcDbEntity
  8
0
  6
Continuous
 62
     7
370
    25
100
AcDbLine
 10
8479.6215593452
 20
6080.8147208122
 30
0.0
 11
8478.6215593452
 21
6080.8147208122
 31
0.0
  0
LINE
  5
1AA
330
1F
100
AcDbEntity
  8
0
  6
Continuous
 62
     7
370
    25
100
AcDbLine
 10
8478.6215593452
 20
6080.8147208122
 30
0.0
 11
8478.6215593452
 21
6137.8147208122
 31
0.0
  0
LINE
  5
1AB
330
1F
100
AcDbEntity
  8
0
  6
Continuous
 62
     7
370
    25
100
AcDbLine
 10
8480.5215593452
 20
6139.7147208122
 30
0.0
 11
8537.5215593452
 21
6139.7147208122
 31
0.0
  0
LINE
  5
1AC
330
1F
100
AcDbEntity
  8
0
  6
Continuous
 62
     7
370
    25
100
AcDbLine
 10
8537.5215593452
 20
6078.9147208122
 30
0.0
 11
8480.5215593452
 21
6078.9147208122
 31
0.0
  0
LINE
  5
1AD
330
1F
100
AcDbEntity
  8
0
  6
Continuous
 62
     7
370
    25
100
AcDbLine
 10
8480.5215593452
 20
6078.9147208122
 30
0.0
 11
8480.5215593452
 21
6079.9147208122
 31
0.0
  0
LINE
  5
1AE
330
1F
100
AcDbEntity
  8
0
  6
Continuous
 62
     7
370
    25
100
AcDbLine
 10
8537.5215593452
 20
6078.9147208122
 30
0.0
 11
8537.5215593452
 21
6079.9147208122
 31
0.0
  0
ARC
  5
1AF
330
1F
100
AcDbEntity
  8
0
  6
Continuous
 62
     7
370
    25
100
AcDbCircle
 10
8480.5215593452
 20
6080.8147208122
 30
0.0
 40
1.900000000000546
100
AcDbArc
 50
180.0
 51
270.0
  0
ARC
  5
1B0
330
1F
100
AcDbEntity
  8
0
  6
Continuous
 62
     7
370
    25
100
AcDbCircle
 10
8537.5215593452
 20
6080.8147208122
 30
0.0
 40
1.900000000000546
100
AcDbArc
 50
270.0
 51
0.0
  0
ARC
  5
1B1
330
1F
100
AcDbEntity
  8
0
  6
Continuous
 62
     7
370
    25
100
AcDbCircle
 10
8537.5215593452
 20
6080.8147208122
 30
0.0
 40
4.0
100
AcDbArc
 50
270.0
 51
0.0
  0
LINE
  5
1B2
330
1F
100
AcDbEntity
  8
0
  6
Continuous
 62
     7
370
    25
100
AcDbLine
 10
8537.5215593452
 20
6076.8147208122
 30
0.0
 11
8537.5215593452
 21
6077.4147208122
 31
0.0
  0
ARC
  5
1B3
330
1F
100
AcDbEntity
  8
0
  6
Continuous
 62
     7
370
    25
100
AcDbCircle
 10
8537.5215593452
 20
6080.8147208122
 30
0.0
 40
3.400000000000546
100
AcDbArc
 50
270.0
 51
0.0
  0
LINE
  5
1B4
330
1F
100
AcDbEntity
  8
0
  6
Continuous
 62
     7
370
    25
100
AcDbLine
 10
8541.5215593452
 20
6080.8147208122
 30
0.0
 11
8540.9215593452
 21
6080.8147208122
 31
0.0
  0
LINE
  5
1B5
330
1F
100
AcDbEntity
  8
0
  6
Continuous
 62
     7
370
    25
100
AcDbLine
 10
8480.5215593452
 20
6077.4147208122
 30
0.0
 11
8537.5215593452
 21
6077.4147208122
 31
0.0
  0
LINE
  5
1B6
330
1F
100
AcDbEntity
  8
0
  6
Continuous
 62
     7
370
    25
100
AcDbLine
 10
8537.5215593452
 20
6076.8147208122
 30
0.0
 11
8480.5215593452
 21
6076.8147208122
 31
0.0
  0
LINE
  5
1B7
330
1F
100
AcDbEntity
  8
0
  6
Continuous
 62
     7
370
    25
100
AcDbLine
 10
8480.5215593452
 20
6077.4147208122
 30
0.0
 11
8480.5215593452
 21
6076.8147208122
 31
0.0
  0
ARC
  5
1B8
330
1F
100
AcDbEntity
  8
0
  6
Continuous
 62
     7
370
    25
100
AcDbCircle
 10
8537.5215593452
 20
6137.8147208122
 30
0.0
 40
2.0
100
AcDbArc
 50
0.0
 51
90.0
  0
LINE
  5
1B9
330
1F
100
AcDbEntity
  8
0
  6
Continuous
 62
     7
370
    25
100
AcDbLine
 10
8537.5215593452
 20
6139.8147208122
 30
0.0
 11
8480.5215593452
 21
6139.8147208122
 31
0.0
  0
ARC
  5
1BA
330
1F
100
AcDbEntity
  8
0
  6
Continuous
 62
     7
370
    25
100
AcDbCircle
 10
8480.5215593452
 20
6137.8147208122
 30
0.0
 40
2.0
100
AcDbArc
 50
90.0
 51
180.0
  0
LINE
  5
1BB
330
1F
100
AcDbEntity
  8
0
  6
Continuous
 62
     7
370
    25
100
AcDbLine
 10
8478.5215593452
 20
6137.8147208122
 30
0.0
 11
8478.5215593452
 21
6080.8147208122
 31
0.0
  0
ARC
  5
1BC
330
1F
100
AcDbEntity
  8
0
  6
Continuous
 62
     7
370
    25
100
AcDbCircle
 10
8480.5215593452
 20
6080.8147208122
 30
0.0
 40
2.0
100
AcDbArc
 50
180.0
 51
270.0
  0
LINE
  5
1BD
330
1F
100
AcDbEntity
  8
0
  6
Continuous
 62
     7
370
    25
100
AcDbLine
 10
8480.5215593452
 20
6078.8147208122
 30
0.0
 11
8537.5215593452
 21
6078.8147208122
 31
0.0
  0
ARC
  5
1BE
330
1F
100
AcDbEntity
  8
0
  6
Continuous
 62
     7
370
    25
100
AcDbCircle
 10
8537.5215593452
 20
6080.8147208122
 30
0.0
 40
2.0
100
AcDbArc
 50
270.0
 51
0.0
  0
LINE
  5
1BF
330
1F
100
AcDbEntity
  8
0
  6
Continuous
 62
     7
370
    25
100
AcDbLine
 10
8477.1215593452
 20
6137.8147208122
 30
0.0
 11
8477.1215593452
 21
6080.8147208122
 31
0.0
  0
ARC
  5
1C0
330
1F
100
AcDbEntity
  8
0
  6
Continuous
 62
     7
370
    25
100
AcDbCircle
 10
8480.5215593452
 20
6137.8147208122
 30
0.0
 40
3.400000000000546
100
AcDbArc
 50
90.0
 51
180.0
  0
LINE
  5
1C1
330
1F
100
AcDbEntity
  8
0
  6
Continuous
 62
     7
370
    25
100
AcDbLine
 10
8537.5215593452
 20
6141.2147208122
 30
0.0
 11
8480.5215593452
 21
6141.2147208122
 31
0.0
  0
ARC
  5
1C2
330
1F
100
AcDbEntity
  8
0
  6
Continuous
 62
     7
370
    25
100
AcDbCircle
 10
8537.5215593452
 20
6137.8147208122
 30
0.0
 40
3.400000000000546
100
AcDbArc
 50
0.0
 51
90.0
  0
LINE
  5
1C3
330
1F
100
AcDbEntity
  8
0
  6
Continuous
 62
     7
370
    25
100
AcDbLine
 10
8540.9215593452
 20
6080.8147208122
 30
0.0
 11
8540.9215593452
 21
6137.8147208122
 31
0.0
  0
ARC
  5
1C4
330
1F
100
AcDbEntity
  8
0
  6
Continuous
 62
     7
370
    25
100
AcDbCircle
 10
8480.5215593452
 20
6080.8147208122
 30
0.0
 40
3.400000000000546
100
AcDbArc
 50
180.0
 51
270.0
  0
LINE
  5
1C5
330
1F
100
AcDbEntity
  8
0
  6
Continuous
 62
     7
370
    25
100
AcDbLine
 10
8539.5215593452
 20
6080.8147208122
 30
0.0
 11
8539.5215593452
 21
6137.8147208122
 31
0.0
  0
ARC
  5
1C6
330
1F
100
AcDbEntity
  8
0
  6
Continuous
 62
     7
370
    25
100
AcDbCircle
 10
8480.5215593452
 20
6080.8147208122
 30
0.0
 40
4.0
100
AcDbArc
 50
180.0
 51
270.0
  0
LINE
  5
1C7
330
1F
100
AcDbEntity
  8
0
  6
Continuous
 62
     7
370
    25
100
AcDbLine
 10
8477.1215593452
 20
6080.8147208122
 30
0.0
 11
8476.5215593452
 21
6080.8147208122
 31
0.0
  0
LINE
  5
1C8
330
1F
100
AcDbEntity
  8
0
  6
Continuous
 62
     7
370
    25
100
AcDbLine
 10
8480.5215593452
 20
6141.2147208122
 30
0.0
 11
8480.5215593452
 21
6141.8147208122
 31
0.0
  0
LINE
  5
1C9
330
1F
100
AcDbEntity
  8
0
  6
Continuous
 62
     7
370
    25
100
AcDbLine
 10
8480.5215593452
 20
6141.8147208122
 30
0.0
 11
8537.5215593452
 21
6141.8147208122
 31
0.0
  0
LINE
  5
1CA
330
1F
100
AcDbEntity
  8
0
  6
Continuous
 62
     7
370
    25
100
AcDbLine
 10
8537.5215593452
 20
6141.8147208122
 30
0.0
 11
8537.5215593452
 21
6141.2147208122
 31
0.0
  0
ARC
  5
1CB
330
1F
100
AcDbEntity
  8
0
  6
Continuous
 62
     7
370
    25
100
AcDbCircle
 10
8537.5215593452
 20
6137.8147208122
 30
0.0
 40
4.0
100
AcDbArc
 50
0.0
 51
90.0
  0
LINE
  5
1CC
330
1F
100
AcDbEntity
  8
0
  6
Continuous
 62
     7
370
    25
100
AcDbLine
 10
8541.5215593452
 20
6137.8147208122
 30
0.0
 11
8540.9215593452
 21
6137.8147208122
 31
0.0
  0
LINE
  5
1CD
330
1F
100
AcDbEntity
  8
0
  6
Continuous
 62
     7
370
    25
100
AcDbLine
 10
8476.5215593452
 20
6080.8147208122
 30
0.0
 11
8476.5215593452
 21
6137.8147208122
 31
0.0
  0
LINE
  5
1CE
330
1F
100
AcDbEntity
  8
0
  6
Continuous
 62
     7
370
    25
100
AcDbLine
 10
8477.1215593452
 20
6137.8147208122
 30
0.0
 11
8476.5215593452
 21
6137.8147208122
 31
0.0
  0
LINE
  5
1CF
330
1F
100
AcDbEntity
  8
0
  6
Continuous
 62
     7
370
    25
100
AcDbLine
 10
8541.5215593452
 20
6137.8147208122
 30
0.0
 11
8541.5215593452
 21
6080.8147208122
 31
0.0
  0
ARC
  5
1D0
330
1F
100
AcDbEntity
  8
0
  6
Continuous
 62
     7
370
    25
100
AcDbCircle
 10
8480.5215593452
 20
6137.8147208122
 30
0.0
 40
4.0
100
AcDbArc
 50
90.0
 51
180.0
  0
LWPOLYLINE
  5
1D1
330
1F
100
AcDbEntity
  8
0
  6
Continuous
 62
     7
370
    25
100
AcDbPolyline
 90
        3
 70
   128
 43
0.0
 10
8517.0215593452
 20
6139.8147208122
 10
8517.4117399893
 20
6139.776291373
 10
8517.6460591451
 20
6139.7147208122
  0
LWPOLYLINE
  5
1D2
330
1F
100
AcDbEntity
  8
0
  6
Continuous
 62
     7
370
    25
100
AcDbPolyline
 90
        3
 70
   128
 43
0.0
 10
8500.3970595454
 20
6139.7147208122
 10
8500.6313787012
 20
6139.776291373
 10
8501.0215593452
 20
6139.8147208122
  0
LWPOLYLINE
  5
1D3
330
1F
100
AcDbEntity
  8
0
  6
Continuous
 62
     7
370
    25
100
AcDbPolyline
 90
        3
 70
   128
 43
0.0
 10
8504.4215593452
 20
6139.8147208122
 10
8504.0313787012
 20
6139.776291373
 10
8503.7970595454
 20
6139.7147208122
  0
LWPOLYLINE
  5
1D4
330
1F
100
AcDbEntity
  8
0
  6
Continuous
 62
     7
370
    25
100
AcDbPolyline
 90
        3
 70
   128
 43
0.0
 10
8514.2460591451
 20
6139.7147208122
 10
8514.0117399893
 20
6139.776291373
 10
8513.6215593452
 20
6139.8147208122
  0
LINE
  5
1D5
330
1F
100
AcDbEntity
  8
0
  6
Continuous
 62
     7
370
    25
100
AcDbLine
 10
8504.9856694509
 20
6139.7147208122
 30
0.0
 11
8504.9856694509
 21
6139.8147208122
 31
0.0
  0
LINE
  5
1D6
330
1F
100
AcDbEntity
  8
0
  6
Continuous
 62
     7
370
    25
100
AcDbLine
 10
8513.0574492396
 20
6139.8147208122
 30
0.0
 11
8513.0574492396
 21
6139.7147208122
 31
0.0
  0
LINE
  5
1D7
330
1F
100
AcDbEntity
  8
0
  6
Continuous
 62
     8
370
    25
100
AcDbLine
 10
8505.4215593452
 20
6139.8147208122
 30
0.0
 11
8505.4215593452
 21
6139.7147208122
 31
0.0
  0
LINE
  5
1D8
330
1F
100
AcDbEntity
  8
0
  6
Continuous
 62
     8
370
    25
100
AcDbLine
 10
8512.6215593452
 20
6139.7147208122
 30
0.0
 11
8512.6215593452
 21
6139.8147208122
 31
0.0
  0
LINE
  5
1D9
330
1F
100
AcDbEntity
  8
0
  6
Continuous
 62
     7
370
    25
100
AcDbLine
 10
8588.2757579451
 20
6120.4156783055
 30
0.0
 11
8588.2788829451
 21
6120.4156783055
 31
0.0
  0
LINE
  5
1DA
330
1F
100
AcDbEntity
  8
0
  6
Continuous
 62
     7
370
    25
100
AcDbLine
 10
8588.2757579451
 20
6120.415640754
 30
0.0
 11
8588.2757579451
 21
6120.4156443955
 31
0.0
  0
LINE
  5
1DB
330
1F
100
AcDbEntity
  8
0
  6
Continuous
 62
     7
370
    25
100
AcDbLine
 10
8588.2757579451
 20
6120.4156289901
 30
0.0
 11
8588.2757579451
 21
6120.4156380173
 31
0.0
  0
LINE
  5
1DC
330
1F
100
AcDbEntity
  8
0
  6
Continuous
 62
     7
370
    25
100
AcDbLine
 10
8588.2757579451
 20
6120.4156096799
 30
0.0
 11
8588.2757579451
 21
6120.4156128377
 31
0.0
  0
LINE
  5
1DD
330
1F
100
AcDbEntity
  8
0
  6
Continuous
 62
     7
370
    25
100
AcDbLine
 10
8588.2757579451
 20
6120.4156155748
 30
0.0
 11
8588.2757579451
 21
6120.4156262543
 31
0.0
  0
LINE
  5
1DE
330
1F
100
AcDbEntity
  8
0
  6
Continuous
 62
     7
370
    25
100
AcDbLine
 10
8588.2757579451
 20
6120.4156854964
 30
0.0
 11
8588.2507579451
 21
6120.4156854964
 31
0.0
  0
LINE
  5
1DF
330
1F
100
AcDbEntity
  8
0
  6
Continuous
 62
     7
370
    25
100
AcDbLine
 10
8588.2757579451
 20
6120.4156854964
 30
0.0
 11
8588.2757579451
 21
6120.4156783055
 31
0.0
  0
LINE
  5
1E0
330
1F
100
AcDbEntity
  8
0
  6
Continuous
 62
     7
370
    25
100
AcDbLine
 10
8588.2757579451
 20
6120.4156783055
 30
0.0
 11
8588.2507579451
 21
6120.4156783055
 31
0.0
  0
LINE
  5
1E1
330
1F
100
AcDbEntity
  8
0
  6
Continuous
 62
     7
370
    25
100
AcDbLine
 10
8588.2757579451
 20
6121.1934842964
 30
0.0
 11
8588.2507579451
 21
6121.1934842964
 31
0.0
  0
LINE
  5
1E2
330
1F
100
AcDbEntity
  8
0
  6
Continuous
 62
     7
370
    25
100
AcDbLine
 10
8588.2757579451
 20
6121.1934842964
 30
0.0
 11
8588.2757579451
 21
6120.4156854964
 31
0.0
  0
LINE
  5
1E3
330
1F
100
AcDbEntity
  8
0
  6
Continuous
 62
     7
370
    25
100
AcDbLine
 10
8588.2757579451
 20
6125.3832754629
 30
0.0
 11
8588.2507579451
 21
6125.3832754629
 31
0.0
  0
LINE
  5
1E4
330
1F
100
AcDbEntity
  8
0
  6
Continuous
 62
     7
370
    25
100
AcDbLine
 10
8588.2757579451
 20
6123.8662791211
 30
0.0
 11
8588.2507579451
 21
6123.8662791211
 31
0.0
  0
LINE
  5
1E5
330
1F
100
AcDbEntity
  8
0
  6
Continuous
 62
     7
370
    25
100
AcDbLine
 10
8588.2757579451
 20
6126.8147208122
 30
0.0
 11
8588.2507579451
 21
6126.8147208122
 31
0.0
  0
LINE
  5
1E6
330
1F
100
AcDbEntity
  8
0
  6
Continuous
 62
     7
370
    25
100
AcDbLine
 10
8588.2757579451
 20
6122.7976924741
 30
0.0
 11
8588.2507579451
 21
6122.7976924741
 31
0.0
  0
LINE
  5
1E7
330
1F
100
AcDbEntity
  8
0
  6
Continuous
 62
     7
370
    25
100
AcDbLine
 10
8588.2757579451
 20
6123.8662791211
 30
0.0
 11
8588.2757579451
 21
6122.7976924741
 31
0.0
  0
LINE
  5
1E8
330
1F
100
AcDbEntity
  8
0
  6
Continuous
 62
     7
370
    25
100
AcDbLine
 10
8588.2757579451
 20
6121.7700965844
 30
0.0
 11
8588.2507579451
 21
6121.7700965844
 31
0.0
  0
LINE
  5
1E9
330
1F
100
AcDbEntity
  8
0
  6
Continuous
 62
     7
370
    25
100
AcDbLine
 10
8588.2757579451
 20
6121.1934774062
 30
0.0
 11
8588.2507579451
 21
6121.1934774062
 31
0.0
  0
LINE
  5
1EA
330
1F
100
AcDbEntity
  8
0
  6
Continuous
 62
     7
370
    25
100
AcDbLine
 10
8588.2757579451
 20
6122.7227621423
 30
0.0
 11
8588.2757579451
 21
6122.7976924741
 31
0.0
  0
LINE
  5
1EB
330
1F
100
AcDbEntity
  8
0
  6
Continuous
 62
     7
370
    25
100
AcDbLine
 10
8588.2757579451
 20
6120.4156660012
 30
0.0
 11
8588.2757579451
 21
6120.415669159
 31
0.0
  0
LINE
  5
1EC
330
1F
100
AcDbEntity
  8
0
  6
Continuous
 62
     7
370
    25
100
AcDbLine
 10
8588.2757579451
 20
6127.5509756539
 30
0.0
 11
8588.2507579451
 21
6127.5509756539
 31
0.0
  0
LINE
  5
1ED
330
1F
100
AcDbEntity
  8
0
  6
Continuous
 62
     7
370
    25
100
AcDbLine
 10
8588.2757579451
 20
6127.5598159671
 30
0.0
 11
8588.2507579451
 21
6127.5598159671
 31
0.0
  0
LINE
  5
1EE
330
1F
100
AcDbEntity
  8
0
  6
Continuous
 62
     7
370
    25
100
AcDbLine
 10
8588.2507579451
 20
6138.7147208122
 30
0.0
 11
8588.2507579451
 21
6137.8147208122
 31
0.0
  0
LINE
  5
1EF
330
1F
100
AcDbEntity
  8
0
  6
Continuous
 62
     7
370
    25
100
AcDbLine
 10
8588.2507579451
 20
6137.8147208122
 30
0.0
 11
8587.2507579451
 21
6137.8147208122
 31
0.0
  0
LINE
  5
1F0
330
1F
100
AcDbEntity
  8
0
  6
Continuous
 62
     7
370
    25
100
AcDbLine
 10
8588.2507579451
 20
6138.7147208122
 30
0.0
 11
8587.2507579451
 21
6139.7147208122
 31
0.0
  0
LINE
  5
1F1
330
1F
100
AcDbEntity
  8
0
  6
Continuous
 62
     7
370
    25
100
AcDbLine
 10
8588.2507579451
 20
6137.8147208122
 30
0.0
 11
8588.2507579451
 21
6080.8147208122
 31
0.0
  0
LINE
  5
1F2
330
1F
100
AcDbEntity
  8
0
  6
Continuous
 62
     7
370
    25
100
AcDbLine
 10
8588.2507579451
 20
6080.8147208122
 30
0.0
 11
8587.2507579451
 21
6080.8147208122
 31
0.0
  0
LINE
  5
1F3
330
1F
100
AcDbEntity
  8
0
  6
Continuous
 62
     7
370
    25
100
AcDbLine
 10
8588.2507579451
 20
6080.8147208122
 30
0.0
 11
8588.2507579451
 21
6079.9147208122
 31
0.0
  0
LINE
  5
1F4
330
1F
100
AcDbEntity
  8
0
  6
Continuous
 62
     7
370
    25
100
AcDbLine
 10
8587.2507579451
 20
6078.9147208122
 30
0.0
 11
8588.2507579451
 21
6079.9147208122
 31
0.0
  0
LINE
  5
1F5
330
1F
100
AcDbEntity
  8
0
  6
Continuous
 62
     7
370
    25
100
AcDbLine
 10
8570.8507579451
 20
6141.8147208122
 30
0.0
 11
8570.8507579451
 21
6137.8147208122
 31
0.0
  0
LINE
  5
1F6
330
1F
100
AcDbEntity
  8
0
  6
Continuous
 62
     7
370
    25
100
AcDbLine
 10
8570.8507579451
 20
6137.8147208122
 30
0.0
 11
8570.2507579451
 21
6137.8147208122
 31
0.0
  0
LINE
  5
1F7
330
1F
100
AcDbEntity
  8
0
  6
Continuous
 62
     7
370
    25
100
AcDbLine
 10
8570.2507579451
 20
6137.8147208122
 30
0.0
 11
8570.2507579451
 21
6141.2147208122
 31
0.0
  0
LINE
  5
1F8
330
1F
100
AcDbEntity
  8
0
  6
Continuous
 62
     7
370
    25
100
AcDbLine
 10
8570.8507579451
 20
6141.8147208122
 30
0.0
 11
8570.2507579451
 21
6141.2147208122
 31
0.0
  0
LINE
  5
1F9
330
1F
100
AcDbEntity
  8
0
  6
Continuous
 62
     7
370
    25
100
AcDbLine
 10
8586.6507579451
 20
6137.8147208122
 30
0.0
 11
8586.6507579451
 21
6141.8147208122
 31
0.0
  0
LINE
  5
1FA
330
1F
100
AcDbEntity
  8
0
  6
Continuous
 62
     7
370
    25
100
AcDbLine
 10
8586.6507579451
 20
6137.8147208122
 30
0.0
 11
8570.8507579451
 21
6137.8147208122
 31
0.0
  0
LINE
  5
1FB
330
1F
100
AcDbEntity
  8
0
  6
Continuous
 62
     7
370
    25
100
AcDbLine
 10
8570.8507579451
 20
6141.8147208122
 30
0.0
 11
8586.6507579451
 21
6141.8147208122
 31
0.0
  0
LINE
  5
1FC
330
1F
100
AcDbEntity
  8
0
  6
Continuous
 62
     7
370
    25
100
AcDbLine
 10
8570.8507579451
 20
6137.8147208122
 30
0.0
 11
8570.8507579451
 21
6080.8147208122
 31
0.0
  0
LINE
  5
1FD
330
1F
100
AcDbEntity
  8
0
  6
Continuous
 62
     7
370
    25
100
AcDbLine
 10
8570.8507579451
 20
6080.8147208122
 30
0.0
 11
8570.2507579451
 21
6080.8147208122
 31
0.0
  0
LINE
  5
1FE
330
1F
100
AcDbEntity
  8
0
  6
Continuous
 62
     7
370
    25
100
AcDbLine
 10
8570.2507579451
 20
6080.8147208122
 30
0.0
 11
8570.2507579451
 21
6137.8147208122
 31
0.0
  0
LINE
  5
1FF
330
1F
100
AcDbEntity
  8
0
  6
Continuous
 62
     7
370
    25
100
AcDbLine
 10
8586.6507579451
 20
6080.8147208122
 30
0.0
 11
8586.6507579451
 21
6137.8147208122
 31
0.0
  0
LINE
  5
200
330
1F
100
AcDbEntity
  8
0
  6
Continuous
 62
     7
370
    25
100
AcDbLine
 10
8570.8507579451
 20
6080.8147208122
 30
0.0
 11
8586.6507579451
 21
6080.8147208122
 31
0.0
  0
LINE
  5
201
330
1F
100
AcDbEntity
  8
0
  6
Continuous
 62
     7
370
    25
100
AcDbLine
 10
8587.2507579451
 20
6141.2147208122
 30
0.0
 11
8587.2507579451
 21
6137.8147208122
 31
0.0
  0
LINE
  5
202
330
1F
100
AcDbEntity
  8
0
  6
Continuous
 62
     7
370
    25
100
AcDbLine
 10
8587.2507579451
 20
6137.8147208122
 30
0.0
 11
8586.6507579451
 21
6137.8147208122
 31
0.0
  0
LINE
  5
203
330
1F
100
AcDbEntity
  8
0
  6
Continuous
 62
     7
370
    25
100
AcDbLine
 10
8587.2507579451
 20
6141.2147208122
 30
0.0
 11
8586.6507579451
 21
6141.8147208122
 31
0.0
  0
LINE
  5
204
330
1F
100
AcDbEntity
  8
0
  6
Continuous
 62
     7
370
    25
100
AcDbLine
 10
8587.2507579451
 20
6137.8147208122
 30
0.0
 11
8587.2507579451
 21
6080.8147208122
 31
0.0
  0
LINE
  5
205
330
1F
100
AcDbEntity
  8
0
  6
Continuous
 62
     7
370
    25
100
AcDbLine
 10
8587.2507579451
 20
6080.8147208122
 30
0.0
 11
8586.6507579451
 21
6080.8147208122
 31
0.0
  0
LINE
  5
206
330
1F
100
AcDbEntity
  8
0
  6
Continuous
 62
     7
370
    25
100
AcDbLine
 10
8586.6507579451
 20
6076.8147208122
 30
0.0
 11
8586.6507579451
 21
6080.8147208122
 31
0.0
  0
LINE
  5
207
330
1F
100
AcDbEntity
  8
0
  6
Continuous
 62
     7
370
    25
100
AcDbLine
 10
8586.6507579451
 20
6076.8147208122
 30
0.0
 11
8570.8507579451
 21
6076.8147208122
 31
0.0
  0
LINE
  5
208
330
1F
100
AcDbEntity
  8
0
  6
Continuous
 62
     7
370
    25
100
AcDbLine
 10
8570.8507579451
 20
6080.8147208122
 30
0.0
 11
8570.8507579451
 21
6076.8147208122
 31
0.0
  0
LINE
  5
209
330
1F
100
AcDbEntity
  8
0
  6
Continuous
 62
     7
370
    25
100
AcDbLine
 10
8570.8507579451
 20
6076.8147208122
 30
0.0
 11
8570.2507579451
 21
6077.4147208122
 31
0.0
  0
LINE
  5
20A
330
1F
100
AcDbEntity
  8
0
  6
Continuous
 62
     7
370
    25
100
AcDbLine
 10
8570.2507579451
 20
6077.4147208122
 30
0.0
 11
8570.2507579451
 21
6080.8147208122
 31
0.0
  0
LINE
  5
20B
330
1F
100
AcDbEntity
  8
0
  6
Continuous
 62
     7
370
    25
100
AcDbLine
 10
8587.2507579451
 20
6080.8147208122
 30
0.0
 11
8587.2507579451
 21
6077.4147208122
 31
0.0
  0
LINE
  5
20C
330
1F
100
AcDbEntity
  8
0
  6
Continuous
 62
     7
370
    25
100
AcDbLine
 10
8587.2507579451
 20
6077.4147208122
 30
0.0
 11
8586.6507579451
 21
6076.8147208122
 31
0.0
  0
LINE
  5
20D
330
1F
100
AcDbEntity
  8
0
  6
Continuous
 62
     7
370
    25
100
AcDbLine
 10
8519.9569304193
 20
6031.1157888753
 30
0.0
 11
8519.9569304193
 21
6031.1439138753
 31
0.0
  0
LINE
  5
20E
330
1F
100
AcDbEntity
  8
0
  6
Continuous
 62
     7
370
    25
100
AcDbLine
 10
8505.0215593452
 20
6045.1439138753
 30
0.0
 11
8505.0215593452
 21
6041.9273987363
 31
0.0
  0
LINE
  5
20F
330
1F
100
AcDbEntity
  8
0
  6
Continuous
 62
     7
370
    25
100
AcDbLine
 10
8513.0215593452
 20
6041.9273987363
 30
0.0
 11
8513.0215593452
 21
6045.1439138753
 31
0.0
  0
LINE
  5
210
330
1F
100
AcDbEntity
  8
0
  6
Continuous
 62
     7
370
    25
100
AcDbLine
 10
8520.911806902
 20
6031.1189138753
 30
0.0
 11
8520.911806902
 21
6031.1439138753
 31
0.0
  0
LINE
  5
211
330
1F
100
AcDbEntity
  8
0
  6
Continuous
 62
     7
370
    25
100
AcDbLine
 10
8520.749711102
 20
6031.1189138753
 30
0.0
 11
8520.749711102
 21
6031.1439138753
 31
0.0
  0
LINE
  5
212
330
1F
100
AcDbEntity
  8
0
  6
Continuous
 62
     7
370
    25
100
AcDbLine
 10
8520.7497079846
 20
6031.1189138753
 30
0.0
 11
8520.7497079846
 21
6031.1439138753
 31
0.0
  0
LINE
  5
213
330
1F
100
AcDbEntity
  8
0
  6
Continuous
 62
     7
370
    25
100
AcDbLine
 10
8521.0827376823
 20
6031.1189138753
 30
0.0
 11
8521.0827376823
 21
6031.1439138753
 31
0.0
  0
LINE
  5
214
330
1F
100
AcDbEntity
  8
0
  6
Continuous
 62
     7
370
    25
100
AcDbLine
 10
8521.1432029053
 20
6031.1189138753
 30
0.0
 11
8521.1432029053
 21
6031.1439138753
 31
0.0
  0
LINE
  5
215
330
1F
100
AcDbEntity
  8
0
  6
Continuous
 62
     7
370
    25
100
AcDbLine
 10
8521.2109957846
 20
6031.1189138753
 30
0.0
 11
8521.2109957846
 21
6031.1439138753
 31
0.0
  0
LINE
  5
216
330
1F
100
AcDbEntity
  8
0
  6
Continuous
 62
     7
370
    25
100
AcDbLine
 10
8514.8125547732
 20
6031.1189138753
 30
0.0
 11
8514.8125547732
 21
6031.1439138753
 31
0.0
  0
LINE
  5
217
330
1F
100
AcDbEntity
  8
0
  6
Continuous
 62
     7
370
    25
100
AcDbLine
 10
8498.454407873
 20
6031.1189138753
 30
0.0
 11
8498.454407873
 21
6031.1439138753
 31
0.0
  0
LINE
  5
218
330
1F
100
AcDbEntity
  8
0
  6
Continuous
 62
     7
370
    25
100
AcDbLine
 10
8514.8125547732
 20
6031.1189138753
 30
0.0
 11
8498.454407873
 21
6031.1189138753
 31
0.0
  0
LINE
  5
219
330
1F
100
AcDbEntity
  8
0
  6
Continuous
 62
     7
370
    25
100
AcDbLine
 10
8496.7923545837
 20
6031.1189138753
 30
0.0
 11
8496.7923545837
 21
6031.1439138753
 31
0.0
  0
LINE
  5
21A
330
1F
100
AcDbEntity
  8
0
  6
Continuous
 62
     7
370
    25
100
AcDbLine
 10
8496.5243927972
 20
6031.1189138753
 30
0.0
 11
8496.5243927972
 21
6031.1439138753
 31
0.0
  0
LINE
  5
21B
330
1F
100
AcDbEntity
  8
0
  6
Continuous
 62
     7
370
    25
100
AcDbLine
 10
8496.5243892169
 20
6031.1189138753
 30
0.0
 11
8496.5243892169
 21
6031.1439138753
 31
0.0
  0
LINE
  5
21C
330
1F
100
AcDbEntity
  8
0
  6
Continuous
 62
     7
370
    25
100
AcDbLine
 10
8496.5243927972
 20
6031.1189138753
 30
0.0
 11
8496.5243892169
 21
6031.1189138753
 31
0.0
  0
LINE
  5
21D
330
1F
100
AcDbEntity
  8
0
  6
Continuous
 62
     7
370
    25
100
AcDbLine
 10
8496.7603781812
 20
6031.1189138753
 30
0.0
 11
8496.5243927972
 21
6031.1189138753
 31
0.0
  0
LINE
  5
21E
330
1F
100
AcDbEntity
  8
0
  6
Continuous
 62
     7
370
    25
100
AcDbLine
 10
8519.905749803
 20
6031.1189138753
 30
0.0
 11
8519.905749803
 21
6031.1439138753
 31
0.0
  0
LINE
  5
21F
330
1F
100
AcDbEntity
  8
0
  6
Continuous
 62
     7
370
    25
100
AcDbLine
 10
8518.034215073
 20
6031.1189138753
 30
0.0
 11
8518.034215073
 21
6031.1439138753
 31
0.0
  0
LINE
  5
220
330
1F
100
AcDbEntity
  8
0
  6
Continuous
 62
     7
370
    25
100
AcDbLine
 10
8515.5638262623
 20
6031.1189138753
 30
0.0
 11
8515.5638262623
 21
6031.1439138753
 31
0.0
  0
LINE
  5
221
330
1F
100
AcDbEntity
  8
0
  6
Continuous
 62
     7
370
    25
100
AcDbLine
 10
8517.3289301527
 20
6031.1189138753
 30
0.0
 11
8517.3289301527
 21
6031.1439138753
 31
0.0
  0
LINE
  5
222
330
1F
100
AcDbEntity
  8
0
  6
Continuous
 62
     7
370
    25
100
AcDbLine
 10
8520.9372845198
 20
6031.1189138753
 30
0.0
 11
8520.3558403433
 21
6031.1189138753
 31
0.0
  0
LINE
  5
223
330
1F
100
AcDbEntity
  8
0
  6
Continuous
 62
     7
370
    25
100
AcDbLine
 10
8521.5178239403
 20
6031.1189138753
 30
0.0
 11
8520.9372845198
 21
6031.1189138753
 31
0.0
  0
LINE
  5
224
330
1F
100
AcDbEntity
  8
0
  6
Continuous
 62
     7
370
    25
100
AcDbLine
 10
8538.4215593452
 20
6031.1439138753
 30
0.0
 11
8537.5215593452
 21
6031.1439138753
 31
0.0
  0
LINE
  5
225
330
1F
100
AcDbEntity
  8
0
  6
Continuous
 62
     7
370
    25
100
AcDbLine
 10
8537.5215593452
 20
6031.1439138753
 30
0.0
 11
8537.5215593452
 21
6032.1439138753
 31
0.0
  0
LINE
  5
226
330
1F
100
AcDbEntity
  8
0
  6
Continuous
 62
     7
370
    25
100
AcDbLine
 10
8539.4215593452
 20
6032.1439138753
 30
0.0
 11
8538.4215593452
 21
6031.1439138753
 31
0.0
  0
LINE
  5
227
330
1F
100
AcDbEntity
  8
0
  6
Continuous
 62
     7
370
    25
100
AcDbLine
 10
8537.5215593452
 20
6031.1439138753
 30
0.0
 11
8480.5215593452
 21
6031.1439138753
 31
0.0
  0
LINE
  5
228
330
1F
100
AcDbEntity
  8
0
  6
Continuous
 62
     7
370
    25
100
AcDbLine
 10
8480.5215593452
 20
6031.1439138753
 30
0.0
 11
8480.5215593452
 21
6032.1439138753
 31
0.0
  0
LINE
  5
229
330
1F
100
AcDbEntity
  8
0
  6
Continuous
 62
     7
370
    25
100
AcDbLine
 10
8480.5215593452
 20
6031.1439138753
 30
0.0
 11
8479.6215593452
 21
6031.1439138753
 31
0.0
  0
LINE
  5
22A
330
1F
100
AcDbEntity
  8
0
  6
Continuous
 62
     7
370
    25
100
AcDbLine
 10
8479.6215593452
 20
6031.1439138753
 30
0.0
 11
8478.6215593452
 21
6032.1439138753
 31
0.0
  0
LINE
  5
22B
330
1F
100
AcDbEntity
  8
0
  6
Continuous
 62
     7
370
    25
100
AcDbLine
 10
8508.5226577517
 20
6040.6039113753
 30
0.0
 11
8509.5204609387
 21
6040.6039113753
 31
0.0
  0
LINE
  5
22C
330
1F
100
AcDbEntity
  8
0
  6
Continuous
 62
     7
370
    25
100
AcDbLine
 10
8537.5215593452
 20
6049.1439138753
 30
0.0
 11
8540.9215593452
 21
6049.1439138753
 31
0.0
  0
LINE
  5
22D
330
1F
100
AcDbEntity
  8
0
  6
Continuous
 62
     7
370
    25
100
AcDbLine
 10
8540.9215593452
 20
6049.1439138753
 30
0.0
 11
8541.5215593452
 21
6048.5439138753
 31
0.0
  0
LINE
  5
22E
330
1F
100
AcDbEntity
  8
0
  6
Continuous
 62
     7
370
    25
100
AcDbLine
 10
8541.5215593452
 20
6048.5439138753
 30
0.0
 11
8537.5215593452
 21
6048.5439138753
 31
0.0
  0
LINE
  5
22F
330
1F
100
AcDbEntity
  8
0
  6
Continuous
 62
     7
370
    25
100
AcDbLine
 10
8537.5215593452
 20
6049.1439138753
 30
0.0
 11
8537.5215593452
 21
6048.5439138753
 31
0.0
  0
LINE
  5
230
330
1F
100
AcDbEntity
  8
0
  6
Continuous
 62
     7
370
    25
100
AcDbLine
 10
8537.5215593452
 20
6032.7439138753
 30
0.0
 11
8541.5215593452
 21
6032.7439138753
 31
0.0
  0
LINE
  5
231
330
1F
100
AcDbEntity
  8
0
  6
Continuous
 62
     7
370
    25
100
AcDbLine
 10
8537.5215593452
 20
6032.7439138753
 30
0.0
 11
8537.5215593452
 21
6048.5439138753
 31
0.0
  0
LINE
  5
232
330
1F
100
AcDbEntity
  8
0
  6
Continuous
 62
     7
370
    25
100
AcDbLine
 10
8541.5215593452
 20
6048.5439138753
 30
0.0
 11
8541.5215593452
 21
6032.7439138753
 31
0.0
  0
LINE
  5
233
330
1F
100
AcDbEntity
  8
0
  6
Continuous
 62
     7
370
    25
100
AcDbLine
 10
8537.5215593452
 20
6048.5439138753
 30
0.0
 11
8480.5215593452
 21
6048.5439138753
 31
0.0
  0
LINE
  5
234
330
1F
100
AcDbEntity
  8
0
  6
Continuous
 62
     7
370
    25
100
AcDbLine
 10
8480.5215593452
 20
6048.5439138753
 30
0.0
 11
8480.5215593452
 21
6049.1439138753
 31
0.0
  0
LINE
  5
235
330
1F
100
AcDbEntity
  8
0
  6
Continuous
 62
     7
370
    25
100
AcDbLine
 10
8480.5215593452
 20
6049.1439138753
 30
0.0
 11
8537.5215593452
 21
6049.1439138753
 31
0.0
  0
LINE
  5
236
330
1F
100
AcDbEntity
  8
0
  6
Continuous
 62
     7
370
    25
100
AcDbLine
 10
8480.5215593452
 20
6032.7439138753
 30
0.0
 11
8537.5215593452
 21
6032.7439138753
 31
0.0
  0
LINE
  5
237
330
1F
100
AcDbEntity
  8
0
  6
Continuous
 62
     7
370
    25
100
AcDbLine
 10
8480.5215593452
 20
6048.5439138753
 30
0.0
 11
8480.5215593452
 21
6032.7439138753
 31
0.0
  0
CIRCLE
  5
238
330
1F
100
AcDbEntity
  8
0
  6
Continuous
 62
     7
370
    25
100
AcDbCircle
 10
8509.0215593452
 20
6040.0439138753
 30
0.0
 40
0.75
  0
ARC
  5
239
330
1F
100
AcDbEntity
  8
0
  6
Continuous
 62
     7
370
    25
100
AcDbCircle
 10
8505.4215593452
 20
6044.2439138753
 30
0.0
 40
1.0
100
AcDbArc
 50
90.0
 51
180.0
  0
LINE
  5
23A
330
1F
100
AcDbEntity
  8
0
  6
Continuous
 62
     7
370
    25
100
AcDbLine
 10
8504.4215593452
 20
6044.2439138753
 30
0.0
 11
8504.4215593452
 21
6042.8439138753
 31
0.0
  0
ARC
  5
23B
330
1F
100
AcDbEntity
  8
0
  6
Continuous
 62
     7
370
    25
100
AcDbCircle
 10
8505.4215593452
 20
6042.8439138753
 30
0.0
 40
1.0
100
AcDbArc
 50
180.0
 51
270.0
  0
LINE
  5
23C
330
1F
100
AcDbEntity
  8
0
  6
Continuous
 62
     7
370
    25
100
AcDbLine
 10
8505.4215593452
 20
6041.8439138753
 30
0.0
 11
8512.6215593452
 21
6041.8439138753
 31
0.0
  0
ARC
  5
23D
330
1F
100
AcDbEntity
  8
0
  6
Continuous
 62
     7
370
    25
100
AcDbCircle
 10
8512.6215593452
 20
6042.8439138753
 30
0.0
 40
1.0
100
AcDbArc
 50
270.0
 51
0.0
  0
LINE
  5
23E
330
1F
100
AcDbEntity
  8
0
  6
Continuous
 62
     7
370
    25
100
AcDbLine
 10
8513.6215593452
 20
6042.8439138753
 30
0.0
 11
8513.6215593452
 21
6044.2439138753
 31
0.0
  0
ARC
  5
23F
330
1F
100
AcDbEntity
  8
0
  6
Continuous
 62
     7
370
    25
100
AcDbCircle
 10
8512.6215593452
 20
6044.2439138753
 30
0.0
 40
1.0
100
AcDbArc
 50
0.0
 51
90.0
  0
LINE
  5
240
330
1F
100
AcDbEntity
  8
0
  6
Continuous
 62
     7
370
    25
100
AcDbLine
 10
8512.6215593452
 20
6045.2439138753
 30
0.0
 11
8505.4215593452
 21
6045.2439138753
 31
0.0
  0
ARC
  5
241
330
1F
100
AcDbEntity
  8
0
  6
Continuous
 62
     7
370
    25
100
AcDbCircle
 10
8484.2715593452
 20
6043.1439138753
 30
0.0
 40
1.000000000000909
100
AcDbArc
 50
90.0
 51
270.0
  0
LINE
  5
242
330
1F
100
AcDbEntity
  8
0
  6
Continuous
 62
     7
370
    25
100
AcDbLine
 10
8484.2715593452
 20
6042.1439138753
 30
0.0
 11
8494.2715593452
 21
6042.1439138753
 31
0.0
  0
ARC
  5
243
330
1F
100
AcDbEntity
  8
0
  6
Continuous
 62
     7
370
    25
100
AcDbCircle
 10
8494.2715593452
 20
6043.1439138753
 30
0.0
 40
1.000000000000909
100
AcDbArc
 50
270.0
 51
90.0
  0
LINE
  5
244
330
1F
100
AcDbEntity
  8
0
  6
Continuous
 62
     7
370
    25
100
AcDbLine
 10
8494.2715593452
 20
6044.1439138753
 30
0.0
 11
8484.2715593452
 21
6044.1439138753
 31
0.0
  0
LINE
  5
245
330
1F
100
AcDbEntity
  8
0
  6
Continuous
 62
     7
370
    25
100
AcDbLine
 10
8541.5215593452
 20
6032.7439138753
 30
0.0
 11
8540.9215593452
 21
6032.1439138753
 31
0.0
  0
LINE
  5
246
330
1F
100
AcDbEntity
  8
0
  6
Continuous
 62
     7
370
    25
100
AcDbLine
 10
8540.9215593452
 20
6032.1439138753
 30
0.0
 11
8537.5215593452
 21
6032.1439138753
 31
0.0
  0
LINE
  5
247
330
1F
100
AcDbEntity
  8
0
  6
Continuous
 62
     7
370
    25
100
AcDbLine
 10
8537.5215593452
 20
6032.7439138753
 30
0.0
 11
8537.5215593452
 21
6032.1439138753
 31
0.0
  0
LINE
  5
248
330
1F
100
AcDbEntity
  8
0
  6
Continuous
 62
     7
370
    25
100
AcDbLine
 10
8537.5215593452
 20
6032.1439138753
 30
0.0
 11
8480.5215593452
 21
6032.1439138753
 31
0.0
  0
LINE
  5
249
330
1F
100
AcDbEntity
  8
0
  6
Continuous
 62
     7
370
    25
100
AcDbLine
 10
8480.5215593452
 20
6032.1439138753
 30
0.0
 11
8480.5215593452
 21
6032.7439138753
 31
0.0
  0
LINE
  5
24A
330
1F
100
AcDbEntity
  8
0
  6
Continuous
 62
     7
370
    25
100
AcDbLine
 10
8480.5215593452
 20
6048.5439138753
 30
0.0
 11
8476.5215593452
 21
6048.5439138753
 31
0.0
  0
LINE
  5
24B
330
1F
100
AcDbEntity
  8
0
  6
Continuous
 62
     7
370
    25
100
AcDbLine
 10
8476.5215593452
 20
6048.5439138753
 30
0.0
 11
8477.1215593452
 21
6049.1439138753
 31
0.0
  0
LINE
  5
24C
330
1F
100
AcDbEntity
  8
0
  6
Continuous
 62
     7
370
    25
100
AcDbLine
 10
8477.1215593452
 20
6049.1439138753
 30
0.0
 11
8480.5215593452
 21
6049.1439138753
 31
0.0
  0
LINE
  5
24D
330
1F
100
AcDbEntity
  8
0
  6
Continuous
 62
     7
370
    25
100
AcDbLine
 10
8476.5215593452
 20
6032.7439138753
 30
0.0
 11
8480.5215593452
 21
6032.7439138753
 31
0.0
  0
LINE
  5
24E
330
1F
100
AcDbEntity
  8
0
  6
Continuous
 62
     7
370
    25
100
AcDbLine
 10
8476.5215593452
 20
6032.7439138753
 30
0.0
 11
8476.5215593452
 21
6048.5439138753
 31
0.0
  0
LINE
  5
24F
330
1F
100
AcDbEntity
  8
0
  6
Continuous
 62
     7
370
    25
100
AcDbLine
 10
8480.5215593452
 20
6032.1439138753
 30
0.0
 11
8477.1215593452
 21
6032.1439138753
 31
0.0
  0
LINE
  5
250
330
1F
100
AcDbEntity
  8
0
  6
Continuous
 62
     7
370
    25
100
AcDbLine
 10
8477.1215593452
 20
6032.1439138753
 30
0.0
 11
8476.5215593452
 21
6032.7439138753
 31
0.0
  0
LINE
  5
251
330
1F
100
AcDbEntity
  8
0
  6
Continuous
 62
     7
370
    25
100
AcDbLine
 10
8513.0574492396
 20
6045.1439138753
 30
0.0
 11
8504.9856694509
 21
6045.1439138753
 31
0.0
  0
LINE
  5
252
330
1F
100
AcDbEntity
  8
0
  6
Continuous
 62
     7
370
    25
100
AcDbLine
 10
8509.0215593452
 20
6041.8939138753
 30
0.0
 11
8505.1093094453
 21
6041.8939138753
 31
0.0
  0
LINE
  5
253
330
1F
100
AcDbEntity
  8
0
  6
Continuous
 62
     7
370
    25
100
AcDbLine
 10
8512.9338092452
 20
6041.8939138753
 30
0.0
 11
8509.0215593452
 21
6041.8939138753
 31
0.0
  0
LINE
  5
254
330
1F
100
AcDbEntity
  8
0
  6
Continuous
 62
     7
370
    25
100
AcDbLine
 10
8511.1866228547
 20
6041.8439138753
 30
0.0
 11
8511.1866228547
 21
6041.8939138753
 31
0.0
  0
LINE
  5
255
330
1F
100
AcDbEntity
  8
0
  6
Continuous
 62
     7
370
    25
100
AcDbLine
 10
8506.8564958358
 20
6041.8939138753
 30
0.0
 11
8506.8564958358
 21
6041.8439138753
 31
0.0
  0
LINE
  5
256
330
1F
100
AcDbEntity
  8
0
  6
Continuous
 62
     8
370
    25
100
AcDbLine
 10
8485.8715593452
 20
6044.1439138753
 30
0.0
 11
8485.8715593452
 21
6042.1439138753
 31
0.0
  0
ENDSEC
  0
SECTION
  2
OBJECTS
  0
DICTIONARY
  5
C
330
0
100
AcDbDictionary
281
     1
  3
ACAD_GROUP
350
D
  3
ACAD_LAYOUT
350
1A
  3
ACAD_MLINESTYLE
350
17
  3
ACAD_PLOTSETTINGS
350
19
  3
ACAD_PLOTSTYLENAME
350
E
  3
ACAD_SCALELIST
350
47
  3
DWGPROPS
350
257
  0
DICTIONARY
  5
D
102
{ACAD_REACTORS
330
C
102
}
330
C
100
AcDbDictionary
281
     1
  0
DICTIONARY
  5
1A
102
{ACAD_REACTORS
330
C
102
}
330
C
100
AcDbDictionary
281
     1
  3
Layout1
350
1E
  3
Layout2
350
26
  3
Model
350
22
  0
DICTIONARY
  5
17
102
{ACAD_REACTORS
330
C
102
}
330
C
100
AcDbDictionary
281
     1
  3
Standard
350
18
  0
DICTIONARY
  5
19
102
{ACAD_REACTORS
330
C
102
}
330
C
100
AcDbDictionary
281
     1
  0
ACDBDICTIONARYWDFLT
  5
E
102
{ACAD_REACTORS
330
C
102
}
330
C
100
AcDbDictionary
281
     1
  3
Normal
350
F
100
AcDbDictionaryWithDefault
340
F
  0
DICTIONARY
  5
47
102
{ACAD_REACTORS
330
C
102
}
330
C
100
AcDbDictionary
281
     1
  3
A0
350
48
  3
A1
350
49
  3
A2
350
4A
  3
A3
350
4B
  3
A4
350
4C
  3
A5
350
4D
  3
A6
350
4E
  3
A7
350
4F
  3
A8
350
50
  3
A9
350
51
  3
B0
350
52
  3
B1
350
53
  3
B2
350
54
  3
B3
350
55
  3
B4
350
56
  3
B5
350
57
  3
B6
350
58
  3
B7
350
59
  3
B8
350
5A
  3
B9
350
5B
  3
C0
350
5C
  3
C1
350
5D
  3
C2
350
5E
  3
C3
350
5F
  3
C4
350
60
  3
C5
350
61
  3
C6
350
62
  3
C7
350
63
  3
C8
350
64
  3
C9
350
65
  3
D0
350
66
  3
D1
350
67
  3
D2
350
68
  0
XRECORD
  5
257
102
{ACAD_REACTORS
330
C
102
}
330
C
100
AcDbXrecord
280
     1
  1
DWGPROPS COOKIE
  2

  3

  4

  6

  7

  8
radek.stransky
  9

300
=
301
=
302
=
303
=
304
=
305
=
306
=
307
=
308
=
309
=
 40
0.0
 41
2459947.248143854
 42
2459947.24814434
  1

 90
        0
  0
LAYOUT
  5
1E
102
{ACAD_REACTORS
330
1A
102
}
330
1A
100
AcDbPlotSettings
  1

  2
none_device
  4

  6

 40
0.0
 41
0.0
 42
0.0
 43
0.0
 44
0.0
 45
0.0
 46
0.0
 47
0.0
 48
0.0
 49
0.0
140
0.0
141
0.0
142
1.0
143
1.0
 70
   688
 72
     1
 73
     0
 74
     5
  7

 75
    16
147
1.0
148
0.0
149
0.0
100
AcDbLayout
  1
Layout1
 70
     1
 71
     1
 10
0.0
 20
0.0
 11
420.0
 21
297.0
 12
0.0
 22
0.0
 32
0.0
 14
1.0000000000E+20
 24
1.0000000000E+20
 34
1.0000000000E+20
 15
-1.0000000000E+20
 25
-1.0000000000E+20
 35
-1.0000000000E+20
146
0.0
 13
0.0
 23
0.0
 33
0.0
 16
1.0
 26
0.0
 36
0.0
 17
0.0
 27
1.0
 37
0.0
 76
     0
330
1B
  0
LAYOUT
  5
26
102
{ACAD_REACTORS
330
1A
102
}
330
1A
100
AcDbPlotSettings
  1

  2
none_device
  4

  6

 40
0.0
 41
0.0
 42
0.0
 43
0.0
 44
0.0
 45
0.0
 46
0.0
 47
0.0
 48
0.0
 49
0.0
140
0.0
141
0.0
142
1.0
143
1.0
 70
   688
 72
     1
 73
     0
 74
     5
  7

 75
    16
147
1.0
148
0.0
149
0.0
100
AcDbLayout
  1
Layout2
 70
     1
 71
     2
 10
0.0
 20
0.0
 11
0.0
 21
0.0
 12
0.0
 22
0.0
 32
0.0
 14
0.0
 24
0.0
 34
0.0
 15
0.0
 25
0.0
 35
0.0
146
0.0
 13
0.0
 23
0.0
 33
0.0
 16
1.0
 26
0.0
 36
0.0
 17
0.0
 27
1.0
 37
0.0
 76
     0
330
23
  0
LAYOUT
  5
22
102
{ACAD_REACTORS
330
1A
102
}
330
1A
100
AcDbPlotSettings
  1

  2
none_device
  4
Letter_(8.50_x_11.00_Inches)
  6

 40
6.35
 41
6.35
 42
6.35000508
 43
6.35000508
 44
215.9
 45
279.4
 46
0.0
 47
0.0
 48
0.0
 49
0.0
140
0.0
141
0.0
142
1.0
143
1.0
 70
  1712
 72
     1
 73
     0
 74
     0
  7

 75
     0
147
1.0
148
0.0
149
0.0
100
AcDbLayout
  1
Model
 70
     1
 71
     0
 10
0.0
 20
0.0
 11
20000.0
 21
10000.0
 12
0.0
 22
0.0
 32
0.0
 14
0.0
 24
0.0
 34
0.0
 15
20000.0
 25
10000.0
 35
0.0
146
0.0
 13
0.0
 23
0.0
 33
0.0
 16
1.0
 26
0.0
 36
0.0
 17
0.0
 27
1.0
 37
0.0
 76
     0
330
1F
331
29
  0
MLINESTYLE
  5
18
102
{ACAD_REACTORS
330
17
102
}
330
17
100
AcDbMlineStyle
  2
Standard
 70
     0
  3

 62
   256
 51
90.0
 52
90.0
 71
     2
 49
0.5
 62
   256
  6
BYLAYER
 49
-0.5
 62
   256
  6
BYLAYER
  0
ACDBPLACEHOLDER
  5
F
102
{ACAD_REACTORS
330
E
102
}
330
E
  0
SCALE
  5
48
102
{ACAD_REACTORS
330
47
102
}
330
47
100
AcDbScale
 70
     0
300
1:1
140
1.0
141
1.0
290
     1
  0
SCALE
  5
49
102
{ACAD_REACTORS
330
47
102
}
330
47
100
AcDbScale
 70
     0
300
1:2
140
1.0
141
2.0
290
     0
  0
SCALE
  5
4A
102
{ACAD_REACTORS
330
47
102
}
330
47
100
AcDbScale
 70
     0
300
1:4
140
1.0
141
4.0
290
     0
  0
SCALE
  5
4B
102
{ACAD_REACTORS
330
47
102
}
330
47
100
AcDbScale
 70
     0
300
1:5
140
1.0
141
5.0
290
     0
  0
SCALE
  5
4C
102
{ACAD_REACTORS
330
47
102
}
330
47
100
AcDbScale
 70
     0
300
1:8
140
1.0
141
8.0
290
     0
  0
SCALE
  5
4D
102
{ACAD_REACTORS
330
47
102
}
330
47
100
AcDbScale
 70
     0
300
1:10
140
1.0
141
10.0
290
     0
  0
SCALE
  5
4E
102
{ACAD_REACTORS
330
47
102
}
330
47
100
AcDbScale
 70
     0
300
1:16
140
1.0
141
16.0
290
     0
  0
SCALE
  5
4F
102
{ACAD_REACTORS
330
47
102
}
330
47
100
AcDbScale
 70
     0
300
1:20
140
1.0
141
20.0
290
     0
  0
SCALE
  5
50
102
{ACAD_REACTORS
330
47
102
}
330
47
100
AcDbScale
 70
     0
300
1:30
140
1.0
141
30.0
290
     0
  0
SCALE
  5
51
102
{ACAD_REACTORS
330
47
102
}
330
47
100
AcDbScale
 70
     0
300
1:40
140
1.0
141
40.0
290
     0
  0
SCALE
  5
52
102
{ACAD_REACTORS
330
47
102
}
330
47
100
AcDbScale
 70
     0
300
1:50
140
1.0
141
50.0
290
     0
  0
SCALE
  5
53
102
{ACAD_REACTORS
330
47
102
}
330
47
100
AcDbScale
 70
     0
300
1:100
140
1.0
141
100.0
290
     0
  0
SCALE
  5
54
102
{ACAD_REACTORS
330
47
102
}
330
47
100
AcDbScale
 70
     0
300
2:1
140
2.0
141
1.0
290
     0
  0
SCALE
  5
55
102
{ACAD_REACTORS
330
47
102
}
330
47
100
AcDbScale
 70
     0
300
4:1
140
4.0
141
1.0
290
     0
  0
SCALE
  5
56
102
{ACAD_REACTORS
330
47
102
}
330
47
100
AcDbScale
 70
     0
300
8:1
140
8.0
141
1.0
290
     0
  0
SCALE
  5
57
102
{ACAD_REACTORS
330
47
102
}
330
47
100
AcDbScale
 70
     0
300
10:1
140
10.0
141
1.0
290
     0
  0
SCALE
  5
58
102
{ACAD_REACTORS
330
47
102
}
330
47
100
AcDbScale
 70
     0
300
100:1
140
100.0
141
1.0
290
     0
  0
SCALE
  5
59
102
{ACAD_REACTORS
330
47
102
}
330
47
100
AcDbScale
 70
     0
300
1/128" = 1'-0"
140
0.0078125
141
12.0
290
     0
  0
SCALE
  5
5A
102
{ACAD_REACTORS
330
47
102
}
330
47
100
AcDbScale
 70
     0
300
1/64" = 1'-0"
140
0.015625
141
12.0
290
     0
  0
SCALE
  5
5B
102
{ACAD_REACTORS
330
47
102
}
330
47
100
AcDbScale
 70
     0
300
1/32" = 1'-0"
140
0.03125
141
12.0
290
     0
  0
SCALE
  5
5C
102
{ACAD_REACTORS
330
47
102
}
330
47
100
AcDbScale
 70
     0
300
1/16" = 1'-0"
140
0.0625
141
12.0
290
     0
  0
SCALE
  5
5D
102
{ACAD_REACTORS
330
47
102
}
330
47
100
AcDbScale
 70
     0
300
3/32" = 1'-0"
140
0.09375
141
12.0
290
     0
  0
SCALE
  5
5E
102
{ACAD_REACTORS
330
47
102
}
330
47
100
AcDbScale
 70
     0
300
1/8" = 1'-0"
140
0.125
141
12.0
290
     0
  0
SCALE
  5
5F
102
{ACAD_REACTORS
330
47
102
}
330
47
100
AcDbScale
 70
     0
300
3/16" = 1'-0"
140
0.1875
141
12.0
290
     0
  0
SCALE
  5
60
102
{ACAD_REACTORS
330
47
102
}
330
47
100
AcDbScale
 70
     0
300
1/4" = 1'-0"
140
0.25
141
12.0
290
     0
  0
SCALE
  5
61
102
{ACAD_REACTORS
330
47
102
}
330
47
100
AcDbScale
 70
     0
300
3/8" = 1'-0"
140
0.375
141
12.0
290
     0
  0
SCALE
  5
62
102
{ACAD_REACTORS
330
47
102
}
330
47
100
AcDbScale
 70
     0
300
1/2" = 1'-0"
140
0.5
141
12.0
290
     0
  0
SCALE
  5
63
102
{ACAD_REACTORS
330
47
102
}
330
47
100
AcDbScale
 70
     0
300
3/4" = 1'-0"
140
0.75
141
12.0
290
     0
  0
SCALE
  5
64
102
{ACAD_REACTORS
330
47
102
}
330
47
100
AcDbScale
 70
     0
300
1" = 1'-0"
140
1.0
141
12.0
290
     0
  0
SCALE
  5
65
102
{ACAD_REACTORS
330
47
102
}
330
47
100
AcDbScale
 70
     0
300
1-1/2" = 1'-0"
140
1.5
141
12.0
290
     0
  0
SCALE
  5
66
102
{ACAD_REACTORS
330
47
102
}
330
47
100
AcDbScale
 70
     0
300
3" = 1'-0"
140
3.0
141
12.0
290
     0
  0
SCALE
  5
67
102
{ACAD_REACTORS
330
47
102
}
330
47
100
AcDbScale
 70
     0
300
6" = 1'-0"
140
6.0
141
12.0
290
     0
  0
SCALE
  5
68
102
{ACAD_REACTORS
330
47
102
}
330
47
100
AcDbScale
 70
     0
300
1'-0" = 1'-0"
140
12.0
141
12.0
290
     0
  0
ENDSEC
  0
EOF
