  0
SECTION
  2
HEADER
  9
$ACADVER
  1
AC1015
  9
$ACADMAINTVER
 70
     6
  9
$DWGCODEPAGE
  3
ANSI_1250
  9
$INSBASE
 10
0.0
 20
0.0
 30
0.0
  9
$EXTMIN
 10
0.0
 20
0.0
 30
0.0
  9
$EXTMAX
 10
20000.0
 20
10000.0
 30
0.0
  9
$LIMMIN
 10
0.0
 20
0.0
  9
$LIMMAX
 10
20000.0
 20
10000.0
  9
$ORTHOMODE
 70
     0
  9
$REGENMODE
 70
     1
  9
$FILLMODE
 70
     1
  9
$QTEXTMODE
 70
     0
  9
$MIRRTEXT
 70
     1
  9
$LTSCALE
 40
1.0
  9
$ATTMODE
 70
     1
  9
$TEXTSIZE
 40
2.0
  9
$TRACEWID
 40
1.0
  9
$TEXTSTYLE
  7
Standard
  9
$CLAYER
  8
0
  9
$CELTYPE
  6
ByLayer
  9
$CECOLOR
 62
   256
  9
$CELTSCALE
 40
1.0
  9
$DISPSILH
 70
     0
  9
$DIMSCALE
 40
1.0
  9
$DIMASZ
 40
2.0
  9
$DIMEXO
 40
1.0
  9
$DIMDLI
 40
3.75
  9
$DIMRND
 40
0.0
  9
$DIMDLE
 40
0.0
  9
$DIMEXE
 40
1.0
  9
$DIMTP
 40
0.0
  9
$DIMTM
 40
0.0
  9
$DIMTXT
 40
2.0
  9
$DIMCEN
 40
2.5
  9
$DIMTSZ
 40
0.0
  9
$DIMTOL
 70
     0
  9
$DIMLIM
 70
     0
  9
$DIMTIH
 70
     1
  9
$DIMTOH
 70
     1
  9
$DIMSE1
 70
     0
  9
$DIMSE2
 70
     0
  9
$DIMTAD
 70
     1
  9
$DIMZIN
 70
     0
  9
$DIMBLK
  1

  9
$DIMASO
 70
     1
  9
$DIMSHO
 70
     1
  9
$DIMPOST
  1

  9
$DIMAPOST
  1

  9
$DIMALT
 70
     0
  9
$DIMALTD
 70
     3
  9
$DIMALTF
 40
0.0393700787
  9
$DIMLFAC
 40
1.0
  9
$DIMTOFL
 70
     1
  9
$DIMTVP
 40
0.0
  9
$DIMTIX
 70
     0
  9
$DIMSOXD
 70
     0
  9
$DIMSAH
 70
     0
  9
$DIMBLK1
  1

  9
$DIMBLK2
  1

  9
$DIMSTYLE
  2
ISO-25
  9
$DIMCLRD
 70
     0
  9
$DIMCLRE
 70
     0
  9
$DIMCLRT
 70
     0
  9
$DIMTFAC
 40
1.0
  9
$DIMGAP
 40
1.524
  9
$DIMJUST
 70
     0
  9
$DIMSD1
 70
     0
  9
$DIMSD2
 70
     0
  9
$DIMTOLJ
 70
     0
  9
$DIMTZIN
 70
     0
  9
$DIMALTZ
 70
     0
  9
$DIMALTTZ
 70
     0
  9
$DIMUPT
 70
     0
  9
$DIMDEC
 70
     2
  9
$DIMTDEC
 70
     0
  9
$DIMALTU
 70
     2
  9
$DIMALTTD
 70
     3
  9
$DIMTXSTY
  7
Standard
  9
$DIMAUNIT
 70
     0
  9
$DIMADEC
 70
     2
  9
$DIMALTRND
 40
0.0
  9
$DIMAZIN
 70
     0
  9
$DIMDSEP
 70
    44
  9
$DIMATFIT
 70
     3
  9
$DIMFRAC
 70
     0
  9
$DIMLDRBLK
  1

  9
$DIMLUNIT
 70
     2
  9
$DIMLWD
 70
    -2
  9
$DIMLWE
 70
    -2
  9
$DIMTMOVE
 70
     0
  9
$LUNITS
 70
     2
  9
$LUPREC
 70
     3
  9
$SKETCHINC
 40
1.0
  9
$FILLETRAD
 40
10.0
  9
$AUNITS
 70
     0
  9
$AUPREC
 70
     2
  9
$MENU
  1
.
  9
$ELEVATION
 40
0.0
  9
$PELEVATION
 40
0.0
  9
$THICKNESS
 40
0.0
  9
$LIMCHECK
 70
     0
  9
$CHAMFERA
 40
0.0
  9
$CHAMFERB
 40
0.0
  9
$CHAMFERC
 40
0.0
  9
$CHAMFERD
 40
0.0
  9
$SKPOLY
 70
     0
  9
$TDCREATE
 40
2459543.401323762
  9
$TDUCREATE
 40
2459543.359657095
  9
$TDUPDATE
 40
2459543.401324016
  9
$TDUUPDATE
 40
2459543.35965735
  9
$TDINDWG
 40
0.0000000116
  9
$TDUSRTIMER
 40
0.0000000116
  9
$USRTIMER
 70
     1
  9
$ANGBASE
 50
0.0
  9
$ANGDIR
 70
     0
  9
$PDMODE
 70
     0
  9
$PDSIZE
 40
-1.0
  9
$PLINEWID
 40
0.0
  9
$SPLFRAME
 70
     0
  9
$SPLINETYPE
 70
     6
  9
$SPLINESEGS
 70
     8
  9
$HANDSEED
  5
2A5
  9
$SURFTAB1
 70
     6
  9
$SURFTAB2
 70
     6
  9
$SURFTYPE
 70
     6
  9
$SURFU
 70
     6
  9
$SURFV
 70
     6
  9
$UCSBASE
  2

  9
$UCSNAME
  2

  9
$UCSORG
 10
0.0
 20
0.0
 30
0.0
  9
$UCSXDIR
 10
1.0
 20
0.0
 30
0.0
  9
$UCSYDIR
 10
0.0
 20
1.0
 30
0.0
  9
$UCSORTHOREF
  2

  9
$UCSORTHOVIEW
 70
     0
  9
$UCSORGTOP
 10
0.0
 20
0.0
 30
0.0
  9
$UCSORGBOTTOM
 10
0.0
 20
0.0
 30
0.0
  9
$UCSORGLEFT
 10
0.0
 20
0.0
 30
0.0
  9
$UCSORGRIGHT
 10
0.0
 20
0.0
 30
0.0
  9
$UCSORGFRONT
 10
0.0
 20
0.0
 30
0.0
  9
$UCSORGBACK
 10
0.0
 20
0.0
 30
0.0
  9
$PUCSBASE
  2

  9
$PUCSNAME
  2

  9
$PUCSORG
 10
0.0
 20
0.0
 30
0.0
  9
$PUCSXDIR
 10
1.0
 20
0.0
 30
0.0
  9
$PUCSYDIR
 10
0.0
 20
1.0
 30
0.0
  9
$PUCSORTHOREF
  2

  9
$PUCSORTHOVIEW
 70
     0
  9
$PUCSORGTOP
 10
0.0
 20
0.0
 30
0.0
  9
$PUCSORGBOTTOM
 10
0.0
 20
0.0
 30
0.0
  9
$PUCSORGLEFT
 10
0.0
 20
0.0
 30
0.0
  9
$PUCSORGRIGHT
 10
0.0
 20
0.0
 30
0.0
  9
$PUCSORGFRONT
 10
0.0
 20
0.0
 30
0.0
  9
$PUCSORGBACK
 10
0.0
 20
0.0
 30
0.0
  9
$USERI1
 70
     0
  9
$USERI2
 70
     0
  9
$USERI3
 70
     0
  9
$USERI4
 70
     0
  9
$USERI5
 70
     0
  9
$USERR1
 40
0.0
  9
$USERR2
 40
0.0
  9
$USERR3
 40
0.0
  9
$USERR4
 40
0.0
  9
$USERR5
 40
0.0
  9
$WORLDVIEW
 70
     1
  9
$SHADEDGE
 70
     3
  9
$SHADEDIF
 70
    70
  9
$TILEMODE
 70
     1
  9
$MAXACTVP
 70
    64
  9
$PINSBASE
 10
0.0
 20
0.0
 30
0.0
  9
$PLIMCHECK
 70
     0
  9
$PEXTMIN
 10
1.0000000000E+20
 20
1.0000000000E+20
 30
1.0000000000E+20
  9
$PEXTMAX
 10
-1.0000000000E+20
 20
-1.0000000000E+20
 30
-1.0000000000E+20
  9
$PLIMMIN
 10
0.0
 20
0.0
  9
$PLIMMAX
 10
420.0
 20
297.0
  9
$UNITMODE
 70
     0
  9
$VISRETAIN
 70
     1
  9
$PLINEGEN
 70
     0
  9
$PSLTSCALE
 70
     1
  9
$TREEDEPTH
 70
  3020
  9
$CMLSTYLE
  2
Standard
  9
$CMLJUST
 70
     0
  9
$CMLSCALE
 40
20.0
  9
$PROXYGRAPHICS
 70
     1
  9
$MEASUREMENT
 70
     1
  9
$CELWEIGHT
370
    -1
  9
$ENDCAPS
280
     0
  9
$JOINSTYLE
280
     0
  9
$LWDISPLAY
290
     1
  9
$INSUNITS
 70
     4
  9
$HYPERLINKBASE
  1

  9
$STYLESHEET
  1

  9
$XEDIT
290
     1
  9
$CEPSNTYPE
380
     0
  9
$PSTYLEMODE
290
     1
  9
$FINGERPRINTGUID
  2
{0bbe6c21-cdf7-4ade-a30f-100b97ea211a}
  9
$VERSIONGUID
  2
{FAEB1C32-E019-11D5-929B-00C0DF256EC4}
  9
$EXTNAMES
290
     1
  9
$PSVPSCALE
 40
0.0
  9
$OLESTARTUP
290
     0
  0
ENDSEC
  0
SECTION
  2
CLASSES
  0
CLASS
  1
ACDBDICTIONARYWDFLT
  2
AcDbDictionaryWithDefault
  3
ObjectDBX Classes
 90
        0
280
     0
281
     0
  0
CLASS
  1
VISUALSTYLE
  2
AcDbVisualStyle
  3
ObjectDBX Classes
 90
     4095
280
     0
281
     0
  0
CLASS
  1
MATERIAL
  2
AcDbMaterial
  3
ObjectDBX Classes
 90
     1153
280
     0
281
     0
  0
CLASS
  1
SCALE
  2
AcDbScale
  3
ObjectDBX Classes
 90
     1153
280
     0
281
     0
  0
CLASS
  1
TABLESTYLE
  2
AcDbTableStyle
  3
ObjectDBX Classes
 90
     4095
280
     0
281
     0
  0
CLASS
  1
MLEADERSTYLE
  2
AcDbMLeaderStyle
  3
ACDB_MLEADERSTYLE_CLASS
 90
     4095
280
     0
281
     0
  0
CLASS
  1
SUN
  2
AcDbSun
  3
SCENEOE
 90
     1153
280
     0
281
     0
  0
CLASS
  1
ACDBPLACEHOLDER
  2
AcDbPlaceHolder
  3
ObjectDBX Classes
 90
        0
280
     0
281
     0
  0
CLASS
  1
LAYOUT
  2
AcDbLayout
  3
ObjectDBX Classes
 90
        0
280
     0
281
     0
  0
ENDSEC
  0
SECTION
  2
TABLES
  0
TABLE
  2
VPORT
  5
8
330
0
100
AcDbSymbolTable
 70
     1
  0
VPORT
  5
29
330
8
100
AcDbSymbolTableRecord
100
AcDbViewportTableRecord
  2
*Active
 70
     0
 10
0.0
 20
0.0
 11
1.0
 21
1.0
 12
10000.0
 22
5000.0
 13
0.0
 23
0.0
 14
10.0
 24
10.0
 15
10.0
 25
10.0
 16
0.0
 26
0.0
 36
1.0
 17
0.0
 27
0.0
 37
0.0
 40
10000.0
 41
2.0
 42
50.0
 43
0.0
 44
0.0
 50
0.0
 51
0.0
 71
     0
 72
  2000
 73
     1
 74
     3
 75
     0
 76
     0
 77
     0
 78
     0
281
     0
 65
     1
110
0.0
120
0.0
130
0.0
111
1.0
121
0.0
131
0.0
112
0.0
122
1.0
132
0.0
 79
     0
146
0.0
  0
ENDTAB
  0
TABLE
  2
LTYPE
  5
5
330
0
100
AcDbSymbolTable
 70
     6
  0
LTYPE
  5
14
330
5
100
AcDbSymbolTableRecord
100
AcDbLinetypeTableRecord
  2
ByBlock
 70
     0
  3

 72
    65
 73
     0
 40
0.0
  0
LTYPE
  5
15
330
5
100
AcDbSymbolTableRecord
100
AcDbLinetypeTableRecord
  2
ByLayer
 70
     0
  3

 72
    65
 73
     0
 40
0.0
  0
LTYPE
  5
16
330
5
100
AcDbSymbolTableRecord
100
AcDbLinetypeTableRecord
  2
Continuous
 70
     0
  3
Solid line
 72
    65
 73
     0
 40
0.0
  0
LTYPE
  5
6E
330
5
100
AcDbSymbolTableRecord
100
AcDbLinetypeTableRecord
  2
HIDDEN
 70
     0
  3
Hidden __ __ __ __ __ __ __ __ __ __ __ __ __ __
 72
    65
 73
     2
 40
1.905
 49
1.27
 74
     0
 49
-0.635
 74
     0
  0
LTYPE
  5
6F
330
5
100
AcDbSymbolTableRecord
100
AcDbLinetypeTableRecord
  2
PHANTOM
 70
     0
  3
Phantom ______  __  __  ______  __  __  ______
 72
    65
 73
     6
 40
12.7
 49
6.35
 74
     0
 49
-1.27
 74
     0
 49
1.27
 74
     0
 49
-1.27
 74
     0
 49
1.27
 74
     0
 49
-1.27
 74
     0
  0
LTYPE
  5
70
330
5
100
AcDbSymbolTableRecord
100
AcDbLinetypeTableRecord
  2
CENTER
 70
     0
  3
Center ____ _ ____ _ ____ _ ____ _ ____ _ ____
 72
    65
 73
     4
 40
10.16
 49
6.35
 74
     0
 49
-1.27
 74
     0
 49
1.27
 74
     0
 49
-1.27
 74
     0
  0
LTYPE
  5
71
330
5
100
AcDbSymbolTableRecord
100
AcDbLinetypeTableRecord
  2
CENTERX2
 70
     0
  3
Center (2x) ________  __  ________  __  _____
 72
    65
 73
     4
 40
20.32
 49
12.7
 74
     0
 49
-2.54
 74
     0
 49
2.54
 74
     0
 49
-2.54
 74
     0
  0
LTYPE
  5
72
330
5
100
AcDbSymbolTableRecord
100
AcDbLinetypeTableRecord
  2
DOT2
 70
     0
  3
Dot (.5x) ........................................
 72
    65
 73
     2
 40
0.635
 49
0.0
 74
     0
 49
-0.635
 74
     0
  0
ENDTAB
  0
TABLE
  2
LAYER
  5
2
330
0
100
AcDbSymbolTable
 70
    13
  0
LAYER
  5
10
330
2
100
AcDbSymbolTableRecord
100
AcDbLayerTableRecord
  2
0
 70
     0
 62
     7
  6
Continuous
370
    -3
390
F
  0
LAYER
  5
73
330
2
100
AcDbSymbolTableRecord
100
AcDbLayerTableRecord
  2
FORMAT
 70
     0
 62
     7
  6
Continuous
370
    -3
390
F
  0
LAYER
  5
74
330
2
100
AcDbSymbolTableRecord
100
AcDbLayerTableRecord
  2
OSA
 70
     0
 62
     7
  6
CENTER
370
    -3
390
F
  0
LAYER
  5
75
330
2
100
AcDbSymbolTableRecord
100
AcDbLayerTableRecord
  2
0_35
 70
     0
 62
     7
  6
Continuous
370
    35
390
F
  0
LAYER
  5
76
330
2
100
AcDbSymbolTableRecord
100
AcDbLayerTableRecord
  2
0_5
 70
     0
 62
     7
  6
Continuous
370
    50
390
F
  0
LAYER
  5
77
330
2
100
AcDbSymbolTableRecord
100
AcDbLayerTableRecord
  2
0_25
 70
     0
 62
     7
  6
Continuous
370
    25
390
F
  0
LAYER
  5
78
330
2
100
AcDbSymbolTableRecord
100
AcDbLayerTableRecord
  2
0_18
 70
     0
 62
     7
  6
Continuous
370
    -3
390
F
  0
LAYER
  5
79
330
2
100
AcDbSymbolTableRecord
100
AcDbLayerTableRecord
  2
SLD-0
 70
     0
 62
   179
  6
Continuous
370
    -3
390
F
  0
LAYER
  5
7A
330
2
100
AcDbSymbolTableRecord
100
AcDbLayerTableRecord
  2
KOTY
 70
     0
 62
     7
  6
Continuous
370
    -3
390
F
  0
LAYER
  5
7B
330
2
100
AcDbSymbolTableRecord
100
AcDbLayerTableRecord
  2
SILNA
 70
     0
 62
   179
  6
Continuous
370
    -3
390
F
  0
LAYER
  5
7C
330
2
100
AcDbSymbolTableRecord
100
AcDbLayerTableRecord
  2
0_18_1
 70
     0
 62
   179
  6
Continuous
370
    -3
390
F
  0
LAYER
  5
7D
330
2
100
AcDbSymbolTableRecord
100
AcDbLayerTableRecord
  2
0_35_1
 70
     0
 62
   179
  6
Continuous
370
    35
390
F
  0
LAYER
  5
7E
330
2
100
AcDbSymbolTableRecord
100
AcDbLayerTableRecord
  2
0_5_1
 70
     0
 62
   179
  6
Continuous
370
    50
390
F
  0
ENDTAB
  0
TABLE
  2
STYLE
  5
3
330
0
100
AcDbSymbolTable
 70
     1
  0
STYLE
  5
11
330
3
100
AcDbSymbolTableRecord
100
AcDbTextStyleTableRecord
  2
Standard
 70
     0
 40
0.0
 41
1.0
 50
0.0
 71
     0
 42
2.0
  3
txt
  4

  0
ENDTAB
  0
TABLE
  2
VIEW
  5
6
330
0
100
AcDbSymbolTable
 70
     0
  0
ENDTAB
  0
TABLE
  2
UCS
  5
7
330
0
100
AcDbSymbolTable
 70
     0
  0
ENDTAB
  0
TABLE
  2
APPID
  5
9
330
0
100
AcDbSymbolTable
 70
     1
  0
APPID
  5
12
330
9
100
AcDbSymbolTableRecord
100
AcDbRegAppTableRecord
  2
ACAD
 70
     0
  0
ENDTAB
  0
TABLE
  2
DIMSTYLE
  5
A
330
0
100
AcDbSymbolTable
 70
     1
100
AcDbDimStyleTable
  0
DIMSTYLE
105
27
330
A
100
AcDbSymbolTableRecord
100
AcDbDimStyleTableRecord
  2
ISO-25
 70
     0
 41
2.5
 42
0.625
 43
3.75
 44
1.25
 73
     0
 74
     0
 77
     1
 78
     8
140
2.5
141
2.5
143
0.0393700787
147
0.625
171
     3
172
     1
178
     0
271
     2
272
     2
274
     3
278
    44
283
     0
284
     8
340
11
  0
ENDTAB
  0
TABLE
  2
BLOCK_RECORD
  5
1
330
0
100
AcDbSymbolTable
 70
     1
  0
BLOCK_RECORD
  5
1F
330
1
100
AcDbSymbolTableRecord
100
AcDbBlockTableRecord
  2
*Model_Space
340
22
  0
BLOCK_RECORD
  5
1B
330
1
100
AcDbSymbolTableRecord
100
AcDbBlockTableRecord
  2
*Paper_Space
340
1E
  0
BLOCK_RECORD
  5
23
330
1
100
AcDbSymbolTableRecord
100
AcDbBlockTableRecord
  2
*Paper_Space0
340
26
  0
ENDTAB
  0
ENDSEC
  0
SECTION
  2
BLOCKS
  0
BLOCK
  5
20
330
1F
100
AcDbEntity
  8
0
100
AcDbBlockBegin
  2
*Model_Space
 70
     0
 10
0.0
 20
0.0
 30
0.0
  3
*Model_Space
  1

  0
ENDBLK
  5
21
330
1F
100
AcDbEntity
  8
0
100
AcDbBlockEnd
  0
BLOCK
  5
1C
330
1B
100
AcDbEntity
 67
     1
  8
0
100
AcDbBlockBegin
  2
*Paper_Space
 70
     0
 10
0.0
 20
0.0
 30
0.0
  3
*Paper_Space
  1

  0
ENDBLK
  5
1D
330
1B
100
AcDbEntity
 67
     1
  8
0
100
AcDbBlockEnd
  0
BLOCK
  5
24
330
23
100
AcDbEntity
  8
0
100
AcDbBlockBegin
  2
*Paper_Space0
 70
     0
 10
0.0
 20
0.0
 30
0.0
  3
*Paper_Space0
  1

  0
ENDBLK
  5
25
330
23
100
AcDbEntity
  8
0
100
AcDbBlockEnd
  0
ENDSEC
  0
SECTION
  2
ENTITIES
  0
LINE
  5
7F
330
1F
100
AcDbEntity
  8
0
  6
Continuous
 62
     7
370
    25
100
AcDbLine
 10
6099.6628193692
 20
5626.6213135489
 30
0.0
 11
6095.9910304335
 21
5626.3000736421
 31
0.0
  0
LINE
  5
80
330
1F
100
AcDbEntity
  8
0
  6
Continuous
 62
     7
370
    25
100
AcDbLine
 10
6095.9910304335
 20
5616.9425534556
 30
0.0
 11
6099.6628193692
 21
5616.6213135489
 31
0.0
  0
ARC
  5
81
330
1F
100
AcDbEntity
  8
0
  6
Continuous
 62
     7
370
    25
100
AcDbCircle
 10
6096.0128193692
 20
5617.1916021301
 30
0.0
 40
0.2499999999990905
100
AcDbArc
 50
180.0
 51
265.0000000001
  0
ARC
  5
82
330
1F
100
AcDbEntity
  8
0
  6
Continuous
 62
     7
370
    25
100
AcDbCircle
 10
6096.0128193692
 20
5626.0510249676
 30
0.0
 40
0.2499999999997972
100
AcDbArc
 50
94.9999999999
 51
180.0
  0
LINE
  5
83
330
1F
100
AcDbEntity
  8
0
  6
Continuous
 62
     7
370
    25
100
AcDbLine
 10
6449.6628193692
 20
5618.1213135489
 30
0.0
 11
6452.0802505177
 21
5618.3328113692
 31
0.0
  0
LINE
  5
84
330
1F
100
AcDbEntity
  8
0
  6
Continuous
 62
     7
370
    25
100
AcDbLine
 10
6452.0802505177
 20
5624.9098157285
 30
0.0
 11
6449.6628193692
 21
5625.1213135489
 31
0.0
  0
ARC
  5
85
330
1F
100
AcDbEntity
  8
0
  6
Continuous
 62
     7
370
    25
100
AcDbCircle
 10
6452.0628193692
 20
5618.5320503088
 30
0.0
 40
0.199999999999822
100
AcDbArc
 50
274.9999999998
 51
0.0
  0
ARC
  5
86
330
1F
100
AcDbEntity
  8
0
  6
Continuous
 62
     7
370
    25
100
AcDbCircle
 10
6452.0628193692
 20
5624.7105767889
 30
0.0
 40
0.199999999999822
100
AcDbArc
 50
0.0
 51
85.0000000002
  0
LINE
  5
87
330
1F
100
AcDbEntity
  8
0
  6
Continuous
 62
     7
370
    25
100
AcDbLine
 10
6449.6628193692
 20
5675.1213135489
 30
0.0
 11
6403.7911322206
 21
5675.1213135489
 31
0.0
  0
LINE
  5
88
330
1F
100
AcDbEntity
  8
0
  6
Continuous
 62
     7
370
    25
100
AcDbLine
 10
6372.5879615362
 20
5675.1213135489
 30
0.0
 11
6101.6628193692
 21
5675.1213135489
 31
0.0
  0
LINE
  5
89
330
1F
100
AcDbEntity
  8
0
  6
Continuous
 62
     7
370
    25
100
AcDbLine
 10
6407.6478799687
 20
5643.1213135489
 30
0.0
 11
6402.6835376804
 21
5684.3111874018
 31
0.0
  0
LINE
  5
8A
330
1F
100
AcDbEntity
  8
0
  6
Continuous
 62
     7
370
    25
100
AcDbLine
 10
6371.8660444397
 20
5672.5783344685
 30
0.0
 11
6375.4163037864
 21
5643.1213135489
 31
0.0
  0
LINE
  5
8B
330
1F
100
AcDbEntity
  8
0
  6
Continuous
 62
     7
370
    25
100
AcDbLine
 10
6097.3628193692
 20
5623.4226894412
 30
0.0
 11
6097.3628193692
 21
5621.8603226994
 31
0.0
  0
LWPOLYLINE
  5
8C
330
1F
100
AcDbEntity
  8
0
  6
Continuous
 62
     7
370
    25
100
AcDbPolyline
 90
        3
 70
   128
 43
0.0
 10
6097.3628193692
 20
5623.4226894412
 10
6096.5952282646
 20
5623.4080014541
 10
6095.9910304335
 20
5623.3964357222
  0
LWPOLYLINE
  5
8D
330
1F
100
AcDbEntity
  8
0
  6
Continuous
 62
     7
370
    25
100
AcDbPolyline
 90
        3
 70
   128
 43
0.0
 10
6095.9910304335
 20
5621.8340689804
 10
6096.5952282646
 20
5621.8456347123
 10
6097.3628193692
 20
5621.8603226994
  0
LINE
  5
8E
330
1F
100
AcDbEntity
  8
0
  6
Continuous
 62
     7
370
    25
100
AcDbLine
 10
6095.7628193692
 20
5617.1916021301
 30
0.0
 11
6095.7628193692
 21
5621.7795223899
 31
0.0
  0
ARC
  5
8F
330
1F
100
AcDbEntity
  8
0
  6
Continuous
 62
     7
370
    25
100
AcDbCircle
 10
6095.9434794551
 20
5621.5283459155
 30
0.0
 40
0.309398913908036
100
AcDbArc
 50
81.159272875
 51
125.7257879357
  0
LINE
  5
90
330
1F
100
AcDbEntity
  8
0
  6
Continuous
 62
     7
370
    25
100
AcDbLine
 10
6095.7628193692
 20
5623.3418891317
 30
0.0
 11
6095.7628193692
 21
5621.7795223899
 31
0.0
  0
ARC
  5
91
330
1F
100
AcDbEntity
  8
0
  6
Continuous
 62
     7
370
    25
100
AcDbCircle
 10
6095.9459509342
 20
5623.0803725266
 30
0.0
 40
0.319261812419557
100
AcDbArc
 50
81.8827576782
 51
125.0023031322
  0
LINE
  5
92
330
1F
100
AcDbEntity
  8
0
  6
Continuous
 62
     7
370
    25
100
AcDbLine
 10
6095.7628193692
 20
5623.3418891317
 30
0.0
 11
6095.7628193692
 21
5626.0510249676
 31
0.0
  0
LWPOLYLINE
  5
93
330
1F
100
AcDbEntity
  8
0
  6
Continuous
 62
     7
370
    25
100
AcDbPolyline
 90
        3
 70
   128
 43
0.0
 10
6452.0802505177
 20
5624.8387210449
 10
6451.6793096053
 20
5624.8716882813
 10
6451.1628193692
 20
5624.9141393023
  0
LINE
  5
94
330
1F
100
AcDbEntity
  8
0
  6
Continuous
 62
     7
370
    25
100
AcDbLine
 10
6451.1628193692
 20
5624.9141393023
 30
0.0
 11
6451.1628193692
 21
5624.4559201199
 31
0.0
  0
LWPOLYLINE
  5
95
330
1F
100
AcDbEntity
  8
0
  6
Continuous
 62
     7
370
    25
100
AcDbPolyline
 90
        3
 70
   128
 43
0.0
 10
6451.1628193692
 20
5624.4559201199
 10
6451.6793096053
 20
5624.4134690988
 10
6452.0802505177
 20
5624.3805018625
  0
LINE
  5
96
330
1F
100
AcDbEntity
  8
0
  6
Continuous
 62
     7
370
    25
100
AcDbLine
 10
6452.2628193692
 20
5624.1930082005
 30
0.0
 11
6452.2628193692
 21
5618.5320503088
 31
0.0
  0
ARC
  5
97
330
1F
100
AcDbEntity
  8
0
  6
Continuous
 62
     7
370
    25
100
AcDbCircle
 10
6452.0691113773
 20
5624.1870217784
 30
0.0
 40
0.1938004730887089
100
AcDbArc
 50
1.7701261662
 51
86.704973627
  0
ARC
  5
98
330
1F
100
AcDbEntity
  8
0
  6
Continuous
 62
     7
370
    25
100
AcDbCircle
 10
6452.0693532386
 20
5624.6454764693
 30
0.0
 40
0.1935515866471789
100
AcDbArc
 50
1.7026550265
 51
86.7724447673
  0
LINE
  5
99
330
1F
100
AcDbEntity
  8
0
  6
Continuous
 62
     7
370
    25
100
AcDbLine
 10
6452.2628193692
 20
5624.1930082005
 30
0.0
 11
6452.2628193692
 21
5624.6512273829
 31
0.0
  0
LINE
  5
9A
330
1F
100
AcDbEntity
  8
0
  6
Continuous
 62
     7
370
    25
100
AcDbLine
 10
6452.2628193692
 20
5624.7105767889
 30
0.0
 11
6452.2628193692
 21
5624.6512273829
 31
0.0
  0
LINE
  5
9B
330
1F
100
AcDbEntity
  8
0
  6
Continuous
 62
     7
370
    25
100
AcDbLine
 10
6100.6628193692
 20
5611.1213135489
 30
0.0
 11
6100.6628193692
 21
4742.1213135489
 31
0.0
  0
LINE
  5
9C
330
1F
100
AcDbEntity
  8
0
  6
Continuous
 62
     7
370
    25
100
AcDbLine
 10
6448.6628193692
 20
5611.1213135489
 30
0.0
 11
6448.6628193692
 21
4742.1213135489
 31
0.0
  0
LINE
  5
9D
330
1F
100
AcDbEntity
  8
0
  6
Continuous
 62
     7
370
    25
100
AcDbLine
 10
6100.6628193692
 20
4742.1213135489
 30
0.0
 11
6448.6628193692
 21
4742.1213135489
 31
0.0
  0
LINE
  5
9E
330
1F
100
AcDbEntity
  8
0
  6
Continuous
 62
     7
370
    25
100
AcDbLine
 10
6449.6628193692
 20
5642.6213135489
 30
0.0
 11
6099.6628193692
 21
5642.6213135489
 31
0.0
  0
ARC
  5
9F
330
1F
100
AcDbEntity
  8
0
  6
Continuous
 62
     7
370
    25
100
AcDbCircle
 10
6100.1628193692
 20
5642.6213135489
 30
0.0
 40
0.5
100
AcDbArc
 50
90.0
 51
180.0
  0
LINE
  5
A0
330
1F
100
AcDbEntity
  8
0
  6
Continuous
 62
     7
370
    25
100
AcDbLine
 10
6100.1628193692
 20
5643.1213135489
 30
0.0
 11
6449.1628193692
 21
5643.1213135489
 31
0.0
  0
ARC
  5
A1
330
1F
100
AcDbEntity
  8
0
  6
Continuous
 62
     7
370
    25
100
AcDbCircle
 10
6449.1628193692
 20
5642.6213135489
 30
0.0
 40
0.5
100
AcDbArc
 50
0.0
 51
90.0
  0
LINE
  5
A2
330
1F
100
AcDbEntity
  8
0
  6
Continuous
 62
     7
370
    25
100
AcDbLine
 10
6099.6628193692
 20
5611.1213135489
 30
0.0
 11
6099.6628193692
 21
5642.6213135489
 31
0.0
  0
LINE
  5
A3
330
1F
100
AcDbEntity
  8
0
  6
Continuous
 62
     7
370
    25
100
AcDbLine
 10
6449.6628193692
 20
5611.1213135489
 30
0.0
 11
6449.6628193692
 21
5642.6213135489
 31
0.0
  0
LINE
  5
A4
330
1F
100
AcDbEntity
  8
0
  6
Continuous
 62
     7
370
    25
100
AcDbLine
 10
6099.6628193692
 20
5611.1213135489
 30
0.0
 11
6449.6628193692
 21
5611.1213135489
 31
0.0
  0
LINE
  5
A5
330
1F
100
AcDbEntity
  8
0
  6
Continuous
 62
     7
370
    25
100
AcDbLine
 10
6101.6628193692
 20
5644.1213135489
 30
0.0
 11
6101.6628193692
 21
5643.1213135489
 31
0.0
  0
LINE
  5
A6
330
1F
100
AcDbEntity
  8
0
  6
Continuous
 62
     7
370
    25
100
AcDbLine
 10
6447.6628193692
 20
5643.1213135489
 30
0.0
 11
6447.6628193692
 21
5644.1213135489
 31
0.0
  0
LINE
  5
A7
330
1F
100
AcDbEntity
  8
0
  6
Continuous
 62
     7
370
    25
100
AcDbLine
 10
6449.6628193692
 20
5674.0713135489
 30
0.0
 11
6449.6628193692
 21
5644.1213135489
 31
0.0
  0
LINE
  5
A8
330
1F
100
AcDbEntity
  8
0
  6
Continuous
 62
     7
370
    25
100
AcDbLine
 10
6449.6628193692
 20
5644.1213135489
 30
0.0
 11
6447.6628193692
 21
5644.1213135489
 31
0.0
  0
LINE
  5
A9
330
1F
100
AcDbEntity
  8
0
  6
Continuous
 62
     7
370
    25
100
AcDbLine
 10
6101.6628193692
 20
5644.1213135489
 30
0.0
 11
6101.6628193692
 21
5674.0713135489
 31
0.0
  0
LINE
  5
AA
330
1F
100
AcDbEntity
  8
0
  6
Continuous
 62
     7
370
    25
100
AcDbLine
 10
6101.6628193692
 20
5674.0713135489
 30
0.0
 11
6101.6628193692
 21
5675.1213135489
 31
0.0
  0
LINE
  5
AB
330
1F
100
AcDbEntity
  8
0
  6
Continuous
 62
     7
370
    25
100
AcDbLine
 10
6449.6628193692
 20
5675.1213135489
 30
0.0
 11
6449.6628193692
 21
5674.0713135489
 31
0.0
  0
LINE
  5
AC
330
1F
100
AcDbEntity
  8
0
  6
Continuous
 62
     7
370
    25
100
AcDbLine
 10
6386.1403552973
 20
5684.4634276415
 30
0.0
 11
6402.6601632425
 21
5684.4634276415
 31
0.0
  0
ELLIPSE
  5
AD
330
1F
100
AcDbEntity
  8
0
  6
Continuous
 62
     7
370
    25
100
AcDbEllipse
 10
6387.27479106
 20
5678.4447609351
 30
0.0
 11
15.24710649354711
 21
6.478018520056139
 31
0.0
210
0.0
220
0.0
230
1.0
 40
0.3622926534
 41
1.491671915907317
 42
6.203651679425949
  0
LWPOLYLINE
  5
AE
330
1F
100
AcDbEntity
  8
0
  6
Continuous
 62
     7
370
    25
100
AcDbPolyline
 90
       17
 70
   128
 43
0.0
 10
6388.7767589753
 20
5679.7134276415
 10
6388.4253498083
 20
5679.7705179922
 10
6388.2626174398
 20
5679.9330975557
 10
6388.3133363977
 20
5680.1764150673
 10
6388.5697851804
 20
5680.4634276415
 10
6388.9929217855
 20
5680.7504402158
 10
6389.5183275006
 20
5680.9937577274
 10
6390.0660140683
 20
5681.1563372909
 10
6390.5526011736
 20
5681.2134276415
 10
6390.9040103405
 20
5681.1563372909
 10
6391.066742709
 20
5680.9937577274
 10
6391.0160237512
 20
5680.7504402158
 10
6390.7595749684
 20
5680.4634276415
 10
6390.3364383634
 20
5680.1764150673
 10
6389.8110326483
 20
5679.9330975557
 10
6389.2633460806
 20
5679.7705179922
 10
6388.7767589753
 20
5679.7134276415
  0
LWPOLYLINE
  5
AF
330
1F
100
AcDbEntity
  8
0
  6
Continuous
 62
     7
370
    25
100
AcDbPolyline
 90
       22
 70
   128
 43
0.0
 10
6394.7741895798
 20
5680.4634276415
 10
6393.8083928369
 20
5680.3745732531
 10
6392.7180228764
 20
5680.1159051902
 10
6391.5999638542
 20
5679.7104072453
 10
6390.5535602209
 20
5679.1941096903
 10
6389.6717895314
 20
5678.6128878287
 10
6389.0330009811
 20
5678.0183857736
 10
6388.693953736
 20
5677.4634276415
 10
6388.6847736316
 20
5676.9973238979
 10
6389.0062763606
 20
5676.6614899057
 10
6389.6298949945
 20
5676.4857659891
 10
6390.500218281
 20
5676.4857659891
 10
6391.5399141768
 20
5676.6614899057
 10
6392.656601139
 20
5676.9973238979
 10
6393.7510566303
 20
5677.4634276415
 10
6394.7260334775
 20
5678.0183857736
 10
6395.4949007091
 20
5678.6128878287
 10
6395.9893410974
 20
5679.1941096903
 10
6396.1654214442
 20
5679.7104072453
 10
6396.0074962378
 20
5680.1159051902
 10
6395.529597826
 20
5680.3745732531
 10
6394.7741895798
 20
5680.4634276415
  0
LWPOLYLINE
  5
B0
330
1F
100
AcDbEntity
  8
0
  6
Continuous
 62
     7
370
    25
100
AcDbPolyline
 90
       22
 70
   128
 43
0.0
 10
6384.5756190465
 20
5680.4634276415
 10
6383.6098223037
 20
5680.3745732531
 10
6382.5194523432
 20
5680.1159051902
 10
6381.401393321
 20
5679.7104072453
 10
6380.3549896877
 20
5679.1941096903
 10
6379.4732189982
 20
5678.6128878287
 10
6378.8344304479
 20
5678.0183857736
 10
6378.4953832028
 20
5677.4634276415
 10
6378.4862030984
 20
5676.9973238979
 10
6378.8077058274
 20
5676.6614899057
 10
6379.4313244613
 20
5676.4857659891
 10
6380.3016477478
 20
5676.4857659891
 10
6381.3413436436
 20
5676.6614899057
 10
6382.4580306057
 20
5676.9973238979
 10
6383.5524860971
 20
5677.4634276415
 10
6384.5274629443
 20
5678.0183857736
 10
6385.2963301759
 20
5678.6128878287
 10
6385.7907705642
 20
5679.1941096903
 10
6385.9668509109
 20
5679.7104072453
 10
6385.8089257046
 20
5680.1159051902
 10
6385.3310272927
 20
5680.3745732531
 10
6384.5756190465
 20
5680.4634276415
  0
LWPOLYLINE
  5
B1
330
1F
100
AcDbEntity
  8
0
  6
Continuous
 62
     7
370
    25
100
AcDbPolyline
 90
       17
 70
   128
 43
0.0
 10
6382.2653375815
 20
5674.2134276415
 10
6381.4543590727
 20
5674.1182770572
 10
6380.5415481265
 20
5673.847311118
 10
6379.6658719347
 20
5673.441781932
 10
6378.9606442596
 20
5672.9634276415
 10
6378.5332296217
 20
5672.4850733511
 10
6378.4486980252
 20
5672.0795441651
 10
6378.7199186394
 20
5671.8085782259
 10
6379.3056005843
 20
5671.7134276415
 10
6380.1165790931
 20
5671.8085782259
 10
6381.0293900393
 20
5672.0795441651
 10
6381.9050662311
 20
5672.4850733511
 10
6382.6102939062
 20
5672.9634276415
 10
6383.0377085441
 20
5673.441781932
 10
6383.1222401406
 20
5673.847311118
 10
6382.8510195264
 20
5674.1182770572
 10
6382.2653375815
 20
5674.2134276415
  0
LWPOLYLINE
  5
B2
330
1F
100
AcDbEntity
  8
0
  6
Continuous
 62
     7
370
    25
100
AcDbPolyline
 90
       22
 70
   128
 43
0.0
 10
6379.8400398514
 20
5676.4634276405
 10
6380.8058365943
 20
5676.552282029
 10
6381.8962065547
 20
5676.8109500921
 10
6383.0142655769
 20
5677.2164480372
 10
6384.0606692101
 20
5677.7327455924
 10
6384.9424398994
 20
5678.3139674543
 10
6385.5812284496
 20
5678.9084695097
 10
6385.9202756946
 20
5679.463427642
 10
6385.9294557989
 20
5679.9295313859
 10
6385.6079530699
 20
5680.2653653783
 10
6384.9843344359
 20
5680.441089295
 10
6384.1140111494
 20
5680.441089295
 10
6383.0743152536
 20
5680.2653653783
 10
6381.9576282916
 20
5679.9295313859
 10
6380.8631728003
 20
5679.463427642
 10
6379.8881959532
 20
5678.9084695097
 10
6379.1193287218
 20
5678.3139674543
 10
6378.6248883336
 20
5677.7327455924
 10
6378.4488079869
 20
5677.2164480372
 10
6378.6067331934
 20
5676.8109500921
 10
6379.0846316052
 20
5676.552282029
 10
6379.8400398514
 20
5676.4634276405
  0
LWPOLYLINE
  5
B3
330
1F
100
AcDbEntity
  8
0
  6
Continuous
 62
     7
370
    25
100
AcDbPolyline
 90
       22
 70
   128
 43
0.0
 10
6390.0386103847
 20
5676.4634276405
 10
6391.0044071275
 20
5676.552282029
 10
6392.094777088
 20
5676.8109500921
 10
6393.2128361101
 20
5677.2164480372
 10
6394.2592397433
 20
5677.7327455924
 10
6395.1410104326
 20
5678.3139674543
 10
6395.7797989828
 20
5678.9084695097
 10
6396.1188462278
 20
5679.463427642
 10
6396.1280263321
 20
5679.9295313859
 10
6395.8065236031
 20
5680.2653653783
 10
6395.1829049692
 20
5680.441089295
 10
6394.3125816826
 20
5680.441089295
 10
6393.2728857868
 20
5680.2653653783
 10
6392.1561988248
 20
5679.9295313859
 10
6391.0617433336
 20
5679.463427642
 10
6390.0867664865
 20
5678.9084695097
 10
6389.317899255
 20
5678.3139674543
 10
6388.8234588668
 20
5677.7327455924
 10
6388.6473785201
 20
5677.2164480372
 10
6388.8053037266
 20
5676.8109500921
 10
6389.2832021385
 20
5676.552282029
 10
6390.0386103847
 20
5676.4634276405
  0
LWPOLYLINE
  5
B4
330
1F
100
AcDbEntity
  8
0
  6
Continuous
 62
     7
370
    25
100
AcDbPolyline
 90
       17
 70
   128
 43
0.0
 10
6390.5526011736
 20
5681.2134276414
 10
6390.9040103406
 20
5681.1563372908
 10
6391.0667427091
 20
5680.9937577273
 10
6391.0160237512
 20
5680.7504402158
 10
6390.7595749684
 20
5680.4634276415
 10
6390.3364383633
 20
5680.1764150673
 10
6389.8110326483
 20
5679.9330975557
 10
6389.2633460805
 20
5679.7705179923
 10
6388.7767589752
 20
5679.7134276417
 10
6388.4253498083
 20
5679.7705179923
 10
6388.2626174398
 20
5679.9330975557
 10
6388.3133363977
 20
5680.1764150673
 10
6388.5697851804
 20
5680.4634276415
 10
6388.9929217855
 20
5680.7504402158
 10
6389.5183275006
 20
5680.9937577273
 10
6390.0660140684
 20
5681.1563372908
 10
6390.5526011736
 20
5681.2134276414
  0
LINE
  5
B5
330
1F
100
AcDbEntity
  8
0
  6
Continuous
 62
     8
370
    25
100
AcDbLine
 10
6095.9910304335
 20
5626.3000736421
 30
0.0
 11
6095.9910304335
 21
5623.3964357222
 31
0.0
  0
LINE
  5
B6
330
1F
100
AcDbEntity
  8
0
  6
Continuous
 62
     8
370
    25
100
AcDbLine
 10
6095.9910304335
 20
5621.8340689804
 30
0.0
 11
6095.9910304335
 21
5616.9425534556
 31
0.0
  0
LINE
  5
B7
330
1F
100
AcDbEntity
  8
0
  6
Continuous
 62
     8
370
    25
100
AcDbLine
 10
6452.0802505177
 20
5624.8387210449
 30
0.0
 11
6452.0802505177
 21
5624.9098157285
 31
0.0
  0
LINE
  5
B8
330
1F
100
AcDbEntity
  8
0
  6
Continuous
 62
     8
370
    25
100
AcDbLine
 10
6452.0802505177
 20
5618.3328113692
 30
0.0
 11
6452.0802505177
 21
5624.3805018625
 31
0.0
  0
LINE
  5
B9
330
1F
100
AcDbEntity
  8
0
  6
Continuous
 62
     8
370
    25
100
AcDbLine
 10
6447.6628193692
 20
5644.1213135489
 30
0.0
 11
6407.5273566015
 21
5644.1213135489
 31
0.0
  0
LINE
  5
BA
330
1F
100
AcDbEntity
  8
0
  6
Continuous
 62
     8
370
    25
100
AcDbLine
 10
6375.2957804193
 20
5644.1213135489
 30
0.0
 11
6101.6628193692
 21
5644.1213135489
 31
0.0
  0
LINE
  5
BB
330
1F
100
AcDbEntity
  8
0
  6
Continuous
 62
     8
370
    25
100
AcDbLine
 10
6449.6628193692
 20
5674.0713135489
 30
0.0
 11
6403.9176817561
 21
5674.0713135489
 31
0.0
  0
LINE
  5
BC
330
1F
100
AcDbEntity
  8
0
  6
Continuous
 62
     8
370
    25
100
AcDbLine
 10
6372.0770472973
 20
5674.0713135489
 30
0.0
 11
6101.6628193692
 21
5674.0713135489
 31
0.0
  0
LINE
  5
BD
330
1F
100
AcDbEntity
  8
0
  6
Continuous
 62
     7
370
    25
100
AcDbLine
 10
7010.3247012568
 20
4742.1213135489
 30
0.0
 11
7010.3247012568
 21
5611.1213135489
 31
0.0
  0
LINE
  5
BE
330
1F
100
AcDbEntity
  8
0
  6
Continuous
 62
     7
370
    25
100
AcDbLine
 10
7011.3247012568
 20
5611.1213135489
 30
0.0
 11
7011.3247012568
 21
5642.6213135489
 31
0.0
  0
ARC
  5
BF
330
1F
100
AcDbEntity
  8
0
  6
Continuous
 62
     7
370
    25
100
AcDbCircle
 10
7010.8247012568
 20
5642.6213135489
 30
0.0
 40
0.5000000000009095
100
AcDbArc
 50
0.0
 51
90.0
  0
LINE
  5
C0
330
1F
100
AcDbEntity
  8
0
  6
Continuous
 62
     7
370
    25
100
AcDbLine
 10
6729.7261211865
 20
5643.1213135489
 30
0.0
 11
6733.4669716574
 21
5672.1863188501
 31
0.0
  0
LINE
  5
C1
330
1F
100
AcDbEntity
  8
0
  6
Continuous
 62
     7
370
    25
100
AcDbLine
 10
6702.636298323
 20
5683.3223916472
 30
0.0
 11
6697.4621646741
 21
5643.1213135489
 31
0.0
  0
ARC
  5
C2
330
1F
100
AcDbEntity
  8
0
  6
Continuous
 62
     7
370
    25
100
AcDbCircle
 10
6764.3247012568
 20
5621.6213135489
 30
0.0
 40
4.67876009330066
100
AcDbArc
 50
202.2965300939
 51
2.6062873399
  0
LINE
  5
C3
330
1F
100
AcDbEntity
  8
0
  6
Continuous
 62
     7
370
    25
100
AcDbLine
 10
6759.9957594369
 20
5619.8461913755
 30
0.0
 11
6760.2427944822
 21
5619.900737966
 31
0.0
  0
ARC
  5
C4
330
1F
100
AcDbEntity
  8
0
  6
Continuous
 62
     7
370
    25
100
AcDbCircle
 10
6764.3247012568
 20
5621.6213135489
 30
0.0
 40
4.429711418745215
100
AcDbArc
 50
202.8560414118
 51
2.0467760221
  0
LINE
  5
C5
330
1F
100
AcDbEntity
  8
0
  6
Continuous
 62
     7
370
    25
100
AcDbLine
 10
6768.7515865293
 20
5621.7795223899
 30
0.0
 11
6768.9986215746
 21
5621.8340689804
 31
0.0
  0
ARC
  5
C6
330
1F
100
AcDbEntity
  8
0
  6
Continuous
 62
     7
370
    25
100
AcDbCircle
 10
6764.3247012568
 20
5621.6213135489
 30
0.0
 40
4.429711418744721
100
AcDbArc
 50
22.8560414118
 51
182.0467760221
  0
LINE
  5
C7
330
1F
100
AcDbEntity
  8
0
  6
Continuous
 62
     7
370
    25
100
AcDbLine
 10
6759.8978159843
 20
5621.4631047079
 30
0.0
 11
6759.6507809391
 21
5621.4085581174
 31
0.0
  0
ARC
  5
C8
330
1F
100
AcDbEntity
  8
0
  6
Continuous
 62
     7
370
    25
100
AcDbCircle
 10
6764.3247012568
 20
5621.6213135489
 30
0.0
 40
4.678760093268792
100
AcDbArc
 50
22.296530094
 51
182.6062873399
  0
LINE
  5
C9
330
1F
100
AcDbEntity
  8
0
  6
Continuous
 62
     7
370
    25
100
AcDbLine
 10
6768.6536430767
 20
5623.3964357222
 30
0.0
 11
6768.4066080315
 21
5623.3418891317
 31
0.0
  0
LINE
  5
CA
330
1F
100
AcDbEntity
  8
0
  6
Continuous
 62
     7
370
    25
100
AcDbLine
 10
6768.4066080315
 20
5623.3418891317
 30
0.0
 11
6759.8978159843
 21
5621.4631047079
 31
0.0
  0
LINE
  5
CB
330
1F
100
AcDbEntity
  8
0
  6
Continuous
 62
     7
370
    25
100
AcDbLine
 10
6760.2427944822
 20
5619.900737966
 30
0.0
 11
6768.7515865293
 21
5621.7795223899
 31
0.0
  0
CIRCLE
  5
CC
330
1F
100
AcDbEntity
  8
0
  6
Continuous
 62
     7
370
    25
100
AcDbCircle
 10
6764.3247012568
 20
5621.6213135489
 30
0.0
 40
5.00000000000015
  0
ARC
  5
CD
330
1F
100
AcDbEntity
  8
0
  6
Continuous
 62
     7
370
    25
100
AcDbCircle
 10
6764.3247012568
 20
5621.6213135489
 30
0.0
 40
4.798776073890375
100
AcDbArc
 50
2.854870388
 51
22.0479470459
  0
ARC
  5
CE
330
1F
100
AcDbEntity
  8
0
  6
Continuous
 62
     7
370
    25
100
AcDbCircle
 10
6764.3247012568
 20
5621.6213135489
 30
0.0
 40
4.798776073890872
100
AcDbArc
 50
182.854870388
 51
202.0479470459
  0
LINE
  5
CF
330
1F
100
AcDbEntity
  8
0
  6
Continuous
 62
     7
370
    25
100
AcDbLine
 10
6759.6507809391
 20
5621.4085581174
 30
0.0
 11
6759.5318809563
 21
5621.3823043984
 31
0.0
  0
LINE
  5
D0
330
1F
100
AcDbEntity
  8
0
  6
Continuous
 62
     7
370
    25
100
AcDbLine
 10
6768.7725430595
 20
5623.4226894412
 30
0.0
 11
6768.6536430767
 21
5623.3964357222
 31
0.0
  0
LINE
  5
D1
330
1F
100
AcDbEntity
  8
0
  6
Continuous
 62
     7
370
    25
100
AcDbLine
 10
6759.8768594541
 20
5619.8199376565
 30
0.0
 11
6759.9957594369
 21
5619.8461913755
 31
0.0
  0
LINE
  5
D2
330
1F
100
AcDbEntity
  8
0
  6
Continuous
 62
     7
370
    25
100
AcDbLine
 10
6768.9986215746
 20
5621.8340689804
 30
0.0
 11
6769.1175215574
 21
5621.8603226994
 31
0.0
  0
LINE
  5
D3
330
1F
100
AcDbEntity
  8
0
  6
Continuous
 62
     7
370
    25
100
AcDbLine
 10
6650.6815091704
 20
5502.1213135489
 30
0.0
 11
6650.6815091704
 21
5352.1213135489
 31
0.0
  0
LINE
  5
D4
330
1F
100
AcDbEntity
  8
0
  6
Continuous
 62
     7
370
    25
100
AcDbLine
 10
6651.3247012568
 20
5502.1213135489
 30
0.0
 11
6650.6815091704
 21
5502.1213135489
 31
0.0
  0
LINE
  5
D5
330
1F
100
AcDbEntity
  8
0
  6
Continuous
 62
     7
370
    25
100
AcDbLine
 10
6651.3247012568
 20
5352.1213135489
 30
0.0
 11
6650.6815091704
 21
5352.1213135489
 31
0.0
  0
LINE
  5
D6
330
1F
100
AcDbEntity
  8
0
  6
Continuous
 62
     7
370
    25
100
AcDbLine
 10
6650.8519851148
 20
5052.1213135489
 30
0.0
 11
6650.8519851148
 21
4902.1213135489
 31
0.0
  0
LINE
  5
D7
330
1F
100
AcDbEntity
  8
0
  6
Continuous
 62
     7
370
    25
100
AcDbLine
 10
6651.3247012568
 20
5052.1213135489
 30
0.0
 11
6650.8519851148
 21
5052.1213135489
 31
0.0
  0
LINE
  5
D8
330
1F
100
AcDbEntity
  8
0
  6
Continuous
 62
     7
370
    25
100
AcDbLine
 10
6651.3247012568
 20
4902.1213135489
 30
0.0
 11
6650.8519851148
 21
4902.1213135489
 31
0.0
  0
LINE
  5
D9
330
1F
100
AcDbEntity
  8
0
  6
Continuous
 62
     7
370
    25
100
AcDbLine
 10
6650.6786820018
 20
5052.1213135489
 30
0.0
 11
6650.6786820018
 21
4902.1213135489
 31
0.0
  0
LINE
  5
DA
330
1F
100
AcDbEntity
  8
0
  6
Continuous
 62
     7
370
    25
100
AcDbLine
 10
6650.8519851148
 20
5052.1213135489
 30
0.0
 11
6650.6786820018
 21
5052.1213135489
 31
0.0
  0
LINE
  5
DB
330
1F
100
AcDbEntity
  8
0
  6
Continuous
 62
     7
370
    25
100
AcDbLine
 10
6650.8519851148
 20
4902.1213135489
 30
0.0
 11
6650.6786820018
 21
4902.1213135489
 31
0.0
  0
LINE
  5
DC
330
1F
100
AcDbEntity
  8
0
  6
Continuous
 62
     7
370
    25
100
AcDbLine
 10
6707.8247012568
 20
4808.8713135489
 30
0.0
 11
6707.8247012568
 21
4795.3713135489
 31
0.0
  0
ARC
  5
DD
330
1F
100
AcDbEntity
  8
0
  6
Continuous
 62
     7
370
    25
100
AcDbCircle
 10
6705.5747012568
 20
4808.8713135489
 30
0.0
 40
2.25
100
AcDbArc
 50
0.0
 51
180.0
  0
LINE
  5
DE
330
1F
100
AcDbEntity
  8
0
  6
Continuous
 62
     7
370
    25
100
AcDbLine
 10
6703.3247012568
 20
4795.3713135489
 30
0.0
 11
6703.3247012568
 21
4808.8713135489
 31
0.0
  0
ARC
  5
DF
330
1F
100
AcDbEntity
  8
0
  6
Continuous
 62
     7
370
    25
100
AcDbCircle
 10
6705.5747012568
 20
4795.3713135489
 30
0.0
 40
2.25
100
AcDbArc
 50
180.0
 51
0.0
  0
LINE
  5
E0
330
1F
100
AcDbEntity
  8
0
  6
Continuous
 62
     7
370
    25
100
AcDbLine
 10
6727.8247012568
 20
4808.8713135489
 30
0.0
 11
6727.8247012568
 21
4795.3713135489
 31
0.0
  0
ARC
  5
E1
330
1F
100
AcDbEntity
  8
0
  6
Continuous
 62
     7
370
    25
100
AcDbCircle
 10
6725.5747012568
 20
4808.8713135489
 30
0.0
 40
2.250000000000909
100
AcDbArc
 50
0.0
 51
180.0
  0
LINE
  5
E2
330
1F
100
AcDbEntity
  8
0
  6
Continuous
 62
     7
370
    25
100
AcDbLine
 10
6723.3247012568
 20
4795.3713135489
 30
0.0
 11
6723.3247012568
 21
4808.8713135489
 31
0.0
  0
ARC
  5
E3
330
1F
100
AcDbEntity
  8
0
  6
Continuous
 62
     7
370
    25
100
AcDbCircle
 10
6725.5747012568
 20
4795.3713135489
 30
0.0
 40
2.250000000000909
100
AcDbArc
 50
180.0
 51
0.0
  0
LINE
  5
E4
330
1F
100
AcDbEntity
  8
0
  6
Continuous
 62
     7
370
    25
100
AcDbLine
 10
6747.8247012568
 20
4808.8713135489
 30
0.0
 11
6747.8247012568
 21
4795.3713135489
 31
0.0
  0
ARC
  5
E5
330
1F
100
AcDbEntity
  8
0
  6
Continuous
 62
     7
370
    25
100
AcDbCircle
 10
6745.5747012568
 20
4808.8713135489
 30
0.0
 40
2.25
100
AcDbArc
 50
0.0
 51
180.0
  0
LINE
  5
E6
330
1F
100
AcDbEntity
  8
0
  6
Continuous
 62
     7
370
    25
100
AcDbLine
 10
6743.3247012568
 20
4795.3713135489
 30
0.0
 11
6743.3247012568
 21
4808.8713135489
 31
0.0
  0
ARC
  5
E7
330
1F
100
AcDbEntity
  8
0
  6
Continuous
 62
     7
370
    25
100
AcDbCircle
 10
6745.5747012568
 20
4795.3713135489
 30
0.0
 40
2.25
100
AcDbArc
 50
180.0
 51
0.0
  0
LINE
  5
E8
330
1F
100
AcDbEntity
  8
0
  6
Continuous
 62
     7
370
    25
100
AcDbLine
 10
6717.8247012568
 20
4828.8713135489
 30
0.0
 11
6717.8247012568
 21
4815.3713135489
 31
0.0
  0
ARC
  5
E9
330
1F
100
AcDbEntity
  8
0
  6
Continuous
 62
     7
370
    25
100
AcDbCircle
 10
6715.5747012568
 20
4828.8713135489
 30
0.0
 40
2.25
100
AcDbArc
 50
0.0
 51
180.0
  0
LINE
  5
EA
330
1F
100
AcDbEntity
  8
0
  6
Continuous
 62
     7
370
    25
100
AcDbLine
 10
6713.3247012568
 20
4815.3713135489
 30
0.0
 11
6713.3247012568
 21
4828.8713135489
 31
0.0
  0
ARC
  5
EB
330
1F
100
AcDbEntity
  8
0
  6
Continuous
 62
     7
370
    25
100
AcDbCircle
 10
6715.5747012568
 20
4815.3713135489
 30
0.0
 40
2.25
100
AcDbArc
 50
180.0
 51
0.0
  0
LINE
  5
EC
330
1F
100
AcDbEntity
  8
0
  6
Continuous
 62
     7
370
    25
100
AcDbLine
 10
6737.8247012568
 20
4828.8713135489
 30
0.0
 11
6737.8247012568
 21
4815.3713135489
 31
0.0
  0
ARC
  5
ED
330
1F
100
AcDbEntity
  8
0
  6
Continuous
 62
     7
370
    25
100
AcDbCircle
 10
6735.5747012568
 20
4828.8713135489
 30
0.0
 40
2.25
100
AcDbArc
 50
0.0
 51
180.0
  0
LINE
  5
EE
330
1F
100
AcDbEntity
  8
0
  6
Continuous
 62
     7
370
    25
100
AcDbLine
 10
6733.3247012568
 20
4815.3713135489
 30
0.0
 11
6733.3247012568
 21
4828.8713135489
 31
0.0
  0
ARC
  5
EF
330
1F
100
AcDbEntity
  8
0
  6
Continuous
 62
     7
370
    25
100
AcDbCircle
 10
6735.5747012568
 20
4815.3713135489
 30
0.0
 40
2.25
100
AcDbArc
 50
180.0
 51
0.0
  0
LINE
  5
F0
330
1F
100
AcDbEntity
  8
0
  6
Continuous
 62
     7
370
    25
100
AcDbLine
 10
6757.8247012568
 20
4828.8713135489
 30
0.0
 11
6757.8247012568
 21
4815.3713135489
 31
0.0
  0
ARC
  5
F1
330
1F
100
AcDbEntity
  8
0
  6
Continuous
 62
     7
370
    25
100
AcDbCircle
 10
6755.5747012568
 20
4828.8713135489
 30
0.0
 40
2.25
100
AcDbArc
 50
0.0
 51
180.0
  0
LINE
  5
F2
330
1F
100
AcDbEntity
  8
0
  6
Continuous
 62
     7
370
    25
100
AcDbLine
 10
6753.3247012568
 20
4815.3713135489
 30
0.0
 11
6753.3247012568
 21
4828.8713135489
 31
0.0
  0
ARC
  5
F3
330
1F
100
AcDbEntity
  8
0
  6
Continuous
 62
     7
370
    25
100
AcDbCircle
 10
6755.5747012568
 20
4815.3713135489
 30
0.0
 40
2.25
100
AcDbArc
 50
180.0
 51
0.0
  0
LINE
  5
F4
330
1F
100
AcDbEntity
  8
0
  6
Continuous
 62
     7
370
    25
100
AcDbLine
 10
6727.8247012568
 20
4848.8713135489
 30
0.0
 11
6727.8247012568
 21
4835.3713135489
 31
0.0
  0
ARC
  5
F5
330
1F
100
AcDbEntity
  8
0
  6
Continuous
 62
     7
370
    25
100
AcDbCircle
 10
6725.5747012568
 20
4848.8713135489
 30
0.0
 40
2.250000000000909
100
AcDbArc
 50
0.0
 51
180.0
  0
LINE
  5
F6
330
1F
100
AcDbEntity
  8
0
  6
Continuous
 62
     7
370
    25
100
AcDbLine
 10
6723.3247012568
 20
4835.3713135489
 30
0.0
 11
6723.3247012568
 21
4848.8713135489
 31
0.0
  0
ARC
  5
F7
330
1F
100
AcDbEntity
  8
0
  6
Continuous
 62
     7
370
    25
100
AcDbCircle
 10
6725.5747012568
 20
4835.3713135489
 30
0.0
 40
2.250000000000909
100
AcDbArc
 50
180.0
 51
0.0
  0
LINE
  5
F8
330
1F
100
AcDbEntity
  8
0
  6
Continuous
 62
     7
370
    25
100
AcDbLine
 10
6747.8247012568
 20
4848.8713135489
 30
0.0
 11
6747.8247012568
 21
4835.3713135489
 31
0.0
  0
ARC
  5
F9
330
1F
100
AcDbEntity
  8
0
  6
Continuous
 62
     7
370
    25
100
AcDbCircle
 10
6745.5747012568
 20
4848.8713135489
 30
0.0
 40
2.25
100
AcDbArc
 50
0.0
 51
180.0
  0
LINE
  5
FA
330
1F
100
AcDbEntity
  8
0
  6
Continuous
 62
     7
370
    25
100
AcDbLine
 10
6743.3247012568
 20
4835.3713135489
 30
0.0
 11
6743.3247012568
 21
4848.8713135489
 31
0.0
  0
ARC
  5
FB
330
1F
100
AcDbEntity
  8
0
  6
Continuous
 62
     7
370
    25
100
AcDbCircle
 10
6745.5747012568
 20
4835.3713135489
 30
0.0
 40
2.25
100
AcDbArc
 50
180.0
 51
0.0
  0
LINE
  5
FC
330
1F
100
AcDbEntity
  8
0
  6
Continuous
 62
     7
370
    25
100
AcDbLine
 10
6717.8247012568
 20
4868.8713135489
 30
0.0
 11
6717.8247012568
 21
4855.3713135489
 31
0.0
  0
ARC
  5
FD
330
1F
100
AcDbEntity
  8
0
  6
Continuous
 62
     7
370
    25
100
AcDbCircle
 10
6715.5747012568
 20
4868.8713135489
 30
0.0
 40
2.25
100
AcDbArc
 50
0.0
 51
180.0
  0
LINE
  5
FE
330
1F
100
AcDbEntity
  8
0
  6
Continuous
 62
     7
370
    25
100
AcDbLine
 10
6713.3247012568
 20
4855.3713135489
 30
0.0
 11
6713.3247012568
 21
4868.8713135489
 31
0.0
  0
ARC
  5
FF
330
1F
100
AcDbEntity
  8
0
  6
Continuous
 62
     7
370
    25
100
AcDbCircle
 10
6715.5747012568
 20
4855.3713135489
 30
0.0
 40
2.25
100
AcDbArc
 50
180.0
 51
0.0
  0
LINE
  5
100
330
1F
100
AcDbEntity
  8
0
  6
Continuous
 62
     7
370
    25
100
AcDbLine
 10
6737.8247012568
 20
4868.8713135489
 30
0.0
 11
6737.8247012568
 21
4855.3713135489
 31
0.0
  0
ARC
  5
101
330
1F
100
AcDbEntity
  8
0
  6
Continuous
 62
     7
370
    25
100
AcDbCircle
 10
6735.5747012568
 20
4868.8713135489
 30
0.0
 40
2.25
100
AcDbArc
 50
0.0
 51
180.0
  0
LINE
  5
102
330
1F
100
AcDbEntity
  8
0
  6
Continuous
 62
     7
370
    25
100
AcDbLine
 10
6733.3247012568
 20
4855.3713135489
 30
0.0
 11
6733.3247012568
 21
4868.8713135489
 31
0.0
  0
ARC
  5
103
330
1F
100
AcDbEntity
  8
0
  6
Continuous
 62
     7
370
    25
100
AcDbCircle
 10
6735.5747012568
 20
4855.3713135489
 30
0.0
 40
2.25
100
AcDbArc
 50
180.0
 51
0.0
  0
LINE
  5
104
330
1F
100
AcDbEntity
  8
0
  6
Continuous
 62
     7
370
    25
100
AcDbLine
 10
6757.8247012568
 20
4868.8713135489
 30
0.0
 11
6757.8247012568
 21
4855.3713135489
 31
0.0
  0
ARC
  5
105
330
1F
100
AcDbEntity
  8
0
  6
Continuous
 62
     7
370
    25
100
AcDbCircle
 10
6755.5747012568
 20
4868.8713135489
 30
0.0
 40
2.25
100
AcDbArc
 50
0.0
 51
180.0
  0
LINE
  5
106
330
1F
100
AcDbEntity
  8
0
  6
Continuous
 62
     7
370
    25
100
AcDbLine
 10
6753.3247012568
 20
4855.3713135489
 30
0.0
 11
6753.3247012568
 21
4868.8713135489
 31
0.0
  0
ARC
  5
107
330
1F
100
AcDbEntity
  8
0
  6
Continuous
 62
     7
370
    25
100
AcDbCircle
 10
6755.5747012568
 20
4855.3713135489
 30
0.0
 40
2.25
100
AcDbArc
 50
180.0
 51
0.0
  0
LINE
  5
108
330
1F
100
AcDbEntity
  8
0
  6
Continuous
 62
     7
370
    25
100
AcDbLine
 10
6727.8247012568
 20
4888.8713135489
 30
0.0
 11
6727.8247012568
 21
4875.3713135489
 31
0.0
  0
ARC
  5
109
330
1F
100
AcDbEntity
  8
0
  6
Continuous
 62
     7
370
    25
100
AcDbCircle
 10
6725.5747012568
 20
4888.8713135489
 30
0.0
 40
2.250000000000909
100
AcDbArc
 50
0.0
 51
180.0
  0
LINE
  5
10A
330
1F
100
AcDbEntity
  8
0
  6
Continuous
 62
     7
370
    25
100
AcDbLine
 10
6723.3247012568
 20
4875.3713135489
 30
0.0
 11
6723.3247012568
 21
4888.8713135489
 31
0.0
  0
ARC
  5
10B
330
1F
100
AcDbEntity
  8
0
  6
Continuous
 62
     7
370
    25
100
AcDbCircle
 10
6725.5747012568
 20
4875.3713135489
 30
0.0
 40
2.250000000000909
100
AcDbArc
 50
180.0
 51
0.0
  0
LINE
  5
10C
330
1F
100
AcDbEntity
  8
0
  6
Continuous
 62
     7
370
    25
100
AcDbLine
 10
6747.8247012568
 20
4888.8713135489
 30
0.0
 11
6747.8247012568
 21
4875.3713135489
 31
0.0
  0
ARC
  5
10D
330
1F
100
AcDbEntity
  8
0
  6
Continuous
 62
     7
370
    25
100
AcDbCircle
 10
6745.5747012568
 20
4888.8713135489
 30
0.0
 40
2.25
100
AcDbArc
 50
0.0
 51
180.0
  0
LINE
  5
10E
330
1F
100
AcDbEntity
  8
0
  6
Continuous
 62
     7
370
    25
100
AcDbLine
 10
6743.3247012568
 20
4875.3713135489
 30
0.0
 11
6743.3247012568
 21
4888.8713135489
 31
0.0
  0
ARC
  5
10F
330
1F
100
AcDbEntity
  8
0
  6
Continuous
 62
     7
370
    25
100
AcDbCircle
 10
6745.5747012568
 20
4875.3713135489
 30
0.0
 40
2.25
100
AcDbArc
 50
180.0
 51
0.0
  0
LINE
  5
110
330
1F
100
AcDbEntity
  8
0
  6
Continuous
 62
     7
370
    25
100
AcDbLine
 10
6717.8247012568
 20
4908.8713135489
 30
0.0
 11
6717.8247012568
 21
4895.3713135489
 31
0.0
  0
ARC
  5
111
330
1F
100
AcDbEntity
  8
0
  6
Continuous
 62
     7
370
    25
100
AcDbCircle
 10
6715.5747012568
 20
4908.8713135489
 30
0.0
 40
2.25
100
AcDbArc
 50
0.0
 51
180.0
  0
LINE
  5
112
330
1F
100
AcDbEntity
  8
0
  6
Continuous
 62
     7
370
    25
100
AcDbLine
 10
6713.3247012568
 20
4895.3713135489
 30
0.0
 11
6713.3247012568
 21
4908.8713135489
 31
0.0
  0
ARC
  5
113
330
1F
100
AcDbEntity
  8
0
  6
Continuous
 62
     7
370
    25
100
AcDbCircle
 10
6715.5747012568
 20
4895.3713135489
 30
0.0
 40
2.25
100
AcDbArc
 50
180.0
 51
0.0
  0
LINE
  5
114
330
1F
100
AcDbEntity
  8
0
  6
Continuous
 62
     7
370
    25
100
AcDbLine
 10
6737.8247012568
 20
4908.8713135489
 30
0.0
 11
6737.8247012568
 21
4895.3713135489
 31
0.0
  0
ARC
  5
115
330
1F
100
AcDbEntity
  8
0
  6
Continuous
 62
     7
370
    25
100
AcDbCircle
 10
6735.5747012568
 20
4908.8713135489
 30
0.0
 40
2.25
100
AcDbArc
 50
0.0
 51
180.0
  0
LINE
  5
116
330
1F
100
AcDbEntity
  8
0
  6
Continuous
 62
     7
370
    25
100
AcDbLine
 10
6733.3247012568
 20
4895.3713135489
 30
0.0
 11
6733.3247012568
 21
4908.8713135489
 31
0.0
  0
ARC
  5
117
330
1F
100
AcDbEntity
  8
0
  6
Continuous
 62
     7
370
    25
100
AcDbCircle
 10
6735.5747012568
 20
4895.3713135489
 30
0.0
 40
2.25
100
AcDbArc
 50
180.0
 51
0.0
  0
LINE
  5
118
330
1F
100
AcDbEntity
  8
0
  6
Continuous
 62
     7
370
    25
100
AcDbLine
 10
6757.8247012568
 20
4908.8713135489
 30
0.0
 11
6757.8247012568
 21
4895.3713135489
 31
0.0
  0
ARC
  5
119
330
1F
100
AcDbEntity
  8
0
  6
Continuous
 62
     7
370
    25
100
AcDbCircle
 10
6755.5747012568
 20
4908.8713135489
 30
0.0
 40
2.25
100
AcDbArc
 50
0.0
 51
180.0
  0
LINE
  5
11A
330
1F
100
AcDbEntity
  8
0
  6
Continuous
 62
     7
370
    25
100
AcDbLine
 10
6753.3247012568
 20
4895.3713135489
 30
0.0
 11
6753.3247012568
 21
4908.8713135489
 31
0.0
  0
ARC
  5
11B
330
1F
100
AcDbEntity
  8
0
  6
Continuous
 62
     7
370
    25
100
AcDbCircle
 10
6755.5747012568
 20
4895.3713135489
 30
0.0
 40
2.25
100
AcDbArc
 50
180.0
 51
0.0
  0
LINE
  5
11C
330
1F
100
AcDbEntity
  8
0
  6
Continuous
 62
     7
370
    25
100
AcDbLine
 10
6727.8247012568
 20
4928.8713135489
 30
0.0
 11
6727.8247012568
 21
4915.3713135489
 31
0.0
  0
ARC
  5
11D
330
1F
100
AcDbEntity
  8
0
  6
Continuous
 62
     7
370
    25
100
AcDbCircle
 10
6725.5747012568
 20
4928.8713135489
 30
0.0
 40
2.250000000000909
100
AcDbArc
 50
0.0
 51
180.0
  0
LINE
  5
11E
330
1F
100
AcDbEntity
  8
0
  6
Continuous
 62
     7
370
    25
100
AcDbLine
 10
6723.3247012568
 20
4915.3713135489
 30
0.0
 11
6723.3247012568
 21
4928.8713135489
 31
0.0
  0
ARC
  5
11F
330
1F
100
AcDbEntity
  8
0
  6
Continuous
 62
     7
370
    25
100
AcDbCircle
 10
6725.5747012568
 20
4915.3713135489
 30
0.0
 40
2.250000000000909
100
AcDbArc
 50
180.0
 51
0.0
  0
LINE
  5
120
330
1F
100
AcDbEntity
  8
0
  6
Continuous
 62
     7
370
    25
100
AcDbLine
 10
6747.8247012568
 20
4928.8713135489
 30
0.0
 11
6747.8247012568
 21
4915.3713135489
 31
0.0
  0
ARC
  5
121
330
1F
100
AcDbEntity
  8
0
  6
Continuous
 62
     7
370
    25
100
AcDbCircle
 10
6745.5747012568
 20
4928.8713135489
 30
0.0
 40
2.25
100
AcDbArc
 50
0.0
 51
180.0
  0
LINE
  5
122
330
1F
100
AcDbEntity
  8
0
  6
Continuous
 62
     7
370
    25
100
AcDbLine
 10
6743.3247012568
 20
4915.3713135489
 30
0.0
 11
6743.3247012568
 21
4928.8713135489
 31
0.0
  0
ARC
  5
123
330
1F
100
AcDbEntity
  8
0
  6
Continuous
 62
     7
370
    25
100
AcDbCircle
 10
6745.5747012568
 20
4915.3713135489
 30
0.0
 40
2.25
100
AcDbArc
 50
180.0
 51
0.0
  0
LINE
  5
124
330
1F
100
AcDbEntity
  8
0
  6
Continuous
 62
     7
370
    25
100
AcDbLine
 10
6707.8247012568
 20
4828.8713135489
 30
0.0
 11
6707.8247012568
 21
4815.3713135489
 31
0.0
  0
ARC
  5
125
330
1F
100
AcDbEntity
  8
0
  6
Continuous
 62
     7
370
    25
100
AcDbCircle
 10
6705.5747012568
 20
4828.8713135489
 30
0.0
 40
2.25
100
AcDbArc
 50
0.0
 51
180.0
  0
LINE
  5
126
330
1F
100
AcDbEntity
  8
0
  6
Continuous
 62
     7
370
    25
100
AcDbLine
 10
6703.3247012568
 20
4815.3713135489
 30
0.0
 11
6703.3247012568
 21
4828.8713135489
 31
0.0
  0
ARC
  5
127
330
1F
100
AcDbEntity
  8
0
  6
Continuous
 62
     7
370
    25
100
AcDbCircle
 10
6705.5747012568
 20
4815.3713135489
 30
0.0
 40
2.25
100
AcDbArc
 50
180.0
 51
0.0
  0
LINE
  5
128
330
1F
100
AcDbEntity
  8
0
  6
Continuous
 62
     7
370
    25
100
AcDbLine
 10
6707.8247012568
 20
4868.8713135489
 30
0.0
 11
6707.8247012568
 21
4855.3713135489
 31
0.0
  0
ARC
  5
129
330
1F
100
AcDbEntity
  8
0
  6
Continuous
 62
     7
370
    25
100
AcDbCircle
 10
6705.5747012568
 20
4868.8713135489
 30
0.0
 40
2.25
100
AcDbArc
 50
0.0
 51
180.0
  0
LINE
  5
12A
330
1F
100
AcDbEntity
  8
0
  6
Continuous
 62
     7
370
    25
100
AcDbLine
 10
6703.3247012568
 20
4855.3713135489
 30
0.0
 11
6703.3247012568
 21
4868.8713135489
 31
0.0
  0
ARC
  5
12B
330
1F
100
AcDbEntity
  8
0
  6
Continuous
 62
     7
370
    25
100
AcDbCircle
 10
6705.5747012568
 20
4855.3713135489
 30
0.0
 40
2.25
100
AcDbArc
 50
180.0
 51
0.0
  0
LINE
  5
12C
330
1F
100
AcDbEntity
  8
0
  6
Continuous
 62
     7
370
    25
100
AcDbLine
 10
6707.8247012568
 20
4908.8713135489
 30
0.0
 11
6707.8247012568
 21
4895.3713135489
 31
0.0
  0
ARC
  5
12D
330
1F
100
AcDbEntity
  8
0
  6
Continuous
 62
     7
370
    25
100
AcDbCircle
 10
6705.5747012568
 20
4908.8713135489
 30
0.0
 40
2.25
100
AcDbArc
 50
0.0
 51
180.0
  0
LINE
  5
12E
330
1F
100
AcDbEntity
  8
0
  6
Continuous
 62
     7
370
    25
100
AcDbLine
 10
6703.3247012568
 20
4895.3713135489
 30
0.0
 11
6703.3247012568
 21
4908.8713135489
 31
0.0
  0
ARC
  5
12F
330
1F
100
AcDbEntity
  8
0
  6
Continuous
 62
     7
370
    25
100
AcDbCircle
 10
6705.5747012568
 20
4895.3713135489
 30
0.0
 40
2.25
100
AcDbArc
 50
180.0
 51
0.0
  0
LINE
  5
130
330
1F
100
AcDbEntity
  8
0
  6
Continuous
 62
     7
370
    25
100
AcDbLine
 10
6703.3247012568
 20
5455.3713135489
 30
0.0
 11
6703.3247012568
 21
5468.8713135489
 31
0.0
  0
ARC
  5
131
330
1F
100
AcDbEntity
  8
0
  6
Continuous
 62
     7
370
    25
100
AcDbCircle
 10
6705.5747012568
 20
5455.3713135489
 30
0.0
 40
2.250000000000909
100
AcDbArc
 50
180.0
 51
0.0
  0
LINE
  5
132
330
1F
100
AcDbEntity
  8
0
  6
Continuous
 62
     7
370
    25
100
AcDbLine
 10
6707.8247012568
 20
5468.8713135489
 30
0.0
 11
6707.8247012568
 21
5455.3713135489
 31
0.0
  0
ARC
  5
133
330
1F
100
AcDbEntity
  8
0
  6
Continuous
 62
     7
370
    25
100
AcDbCircle
 10
6705.5747012568
 20
5468.8713135489
 30
0.0
 40
2.250000000002728
100
AcDbArc
 50
0.0
 51
180.0
  0
LINE
  5
134
330
1F
100
AcDbEntity
  8
0
  6
Continuous
 62
     7
370
    25
100
AcDbLine
 10
6703.3247012568
 20
5495.3713135489
 30
0.0
 11
6703.3247012568
 21
5508.8713135489
 31
0.0
  0
ARC
  5
135
330
1F
100
AcDbEntity
  8
0
  6
Continuous
 62
     7
370
    25
100
AcDbCircle
 10
6705.5747012568
 20
5495.3713135489
 30
0.0
 40
2.250000000000909
100
AcDbArc
 50
180.0
 51
0.0
  0
LINE
  5
136
330
1F
100
AcDbEntity
  8
0
  6
Continuous
 62
     7
370
    25
100
AcDbLine
 10
6707.8247012568
 20
5508.8713135489
 30
0.0
 11
6707.8247012568
 21
5495.3713135489
 31
0.0
  0
ARC
  5
137
330
1F
100
AcDbEntity
  8
0
  6
Continuous
 62
     7
370
    25
100
AcDbCircle
 10
6705.5747012568
 20
5508.8713135489
 30
0.0
 40
2.250000000000909
100
AcDbArc
 50
0.0
 51
180.0
  0
LINE
  5
138
330
1F
100
AcDbEntity
  8
0
  6
Continuous
 62
     7
370
    25
100
AcDbLine
 10
6703.3247012568
 20
5535.3713135489
 30
0.0
 11
6703.3247012568
 21
5548.8713135489
 31
0.0
  0
ARC
  5
139
330
1F
100
AcDbEntity
  8
0
  6
Continuous
 62
     7
370
    25
100
AcDbCircle
 10
6705.5747012568
 20
5535.3713135489
 30
0.0
 40
2.25
100
AcDbArc
 50
180.0
 51
0.0
  0
LINE
  5
13A
330
1F
100
AcDbEntity
  8
0
  6
Continuous
 62
     7
370
    25
100
AcDbLine
 10
6707.8247012568
 20
5548.8713135489
 30
0.0
 11
6707.8247012568
 21
5535.3713135489
 31
0.0
  0
ARC
  5
13B
330
1F
100
AcDbEntity
  8
0
  6
Continuous
 62
     7
370
    25
100
AcDbCircle
 10
6705.5747012568
 20
5548.8713135489
 30
0.0
 40
2.250000000000909
100
AcDbArc
 50
0.0
 51
180.0
  0
LINE
  5
13C
330
1F
100
AcDbEntity
  8
0
  6
Continuous
 62
     7
370
    25
100
AcDbLine
 10
6753.3247012568
 20
5455.3713135489
 30
0.0
 11
6753.3247012568
 21
5468.8713135489
 31
0.0
  0
ARC
  5
13D
330
1F
100
AcDbEntity
  8
0
  6
Continuous
 62
     7
370
    25
100
AcDbCircle
 10
6755.5747012568
 20
5455.3713135489
 30
0.0
 40
2.250000000001819
100
AcDbArc
 50
180.0
 51
0.0
  0
LINE
  5
13E
330
1F
100
AcDbEntity
  8
0
  6
Continuous
 62
     7
370
    25
100
AcDbLine
 10
6757.8247012568
 20
5468.8713135489
 30
0.0
 11
6757.8247012568
 21
5455.3713135489
 31
0.0
  0
ARC
  5
13F
330
1F
100
AcDbEntity
  8
0
  6
Continuous
 62
     7
370
    25
100
AcDbCircle
 10
6755.5747012568
 20
5468.8713135489
 30
0.0
 40
2.250000000002728
100
AcDbArc
 50
0.0
 51
180.0
  0
LINE
  5
140
330
1F
100
AcDbEntity
  8
0
  6
Continuous
 62
     7
370
    25
100
AcDbLine
 10
6733.3247012568
 20
5455.3713135489
 30
0.0
 11
6733.3247012568
 21
5468.8713135489
 31
0.0
  0
ARC
  5
141
330
1F
100
AcDbEntity
  8
0
  6
Continuous
 62
     7
370
    25
100
AcDbCircle
 10
6735.5747012568
 20
5455.3713135489
 30
0.0
 40
2.250000000000909
100
AcDbArc
 50
180.0
 51
0.0
  0
LINE
  5
142
330
1F
100
AcDbEntity
  8
0
  6
Continuous
 62
     7
370
    25
100
AcDbLine
 10
6737.8247012568
 20
5468.8713135489
 30
0.0
 11
6737.8247012568
 21
5455.3713135489
 31
0.0
  0
ARC
  5
143
330
1F
100
AcDbEntity
  8
0
  6
Continuous
 62
     7
370
    25
100
AcDbCircle
 10
6735.5747012568
 20
5468.8713135489
 30
0.0
 40
2.250000000001819
100
AcDbArc
 50
0.0
 51
180.0
  0
LINE
  5
144
330
1F
100
AcDbEntity
  8
0
  6
Continuous
 62
     7
370
    25
100
AcDbLine
 10
6713.3247012568
 20
5455.3713135489
 30
0.0
 11
6713.3247012568
 21
5468.8713135489
 31
0.0
  0
ARC
  5
145
330
1F
100
AcDbEntity
  8
0
  6
Continuous
 62
     7
370
    25
100
AcDbCircle
 10
6715.5747012568
 20
5455.3713135489
 30
0.0
 40
2.250000000001819
100
AcDbArc
 50
180.0
 51
0.0
  0
LINE
  5
146
330
1F
100
AcDbEntity
  8
0
  6
Continuous
 62
     7
370
    25
100
AcDbLine
 10
6717.8247012568
 20
5468.8713135489
 30
0.0
 11
6717.8247012568
 21
5455.3713135489
 31
0.0
  0
ARC
  5
147
330
1F
100
AcDbEntity
  8
0
  6
Continuous
 62
     7
370
    25
100
AcDbCircle
 10
6715.5747012568
 20
5468.8713135489
 30
0.0
 40
2.250000000002728
100
AcDbArc
 50
0.0
 51
180.0
  0
LINE
  5
148
330
1F
100
AcDbEntity
  8
0
  6
Continuous
 62
     7
370
    25
100
AcDbLine
 10
6743.3247012568
 20
5475.3713135489
 30
0.0
 11
6743.3247012568
 21
5488.8713135489
 31
0.0
  0
ARC
  5
149
330
1F
100
AcDbEntity
  8
0
  6
Continuous
 62
     7
370
    25
100
AcDbCircle
 10
6745.5747012568
 20
5475.3713135489
 30
0.0
 40
2.250000000000909
100
AcDbArc
 50
180.0
 51
0.0
  0
LINE
  5
14A
330
1F
100
AcDbEntity
  8
0
  6
Continuous
 62
     7
370
    25
100
AcDbLine
 10
6747.8247012568
 20
5488.8713135489
 30
0.0
 11
6747.8247012568
 21
5475.3713135489
 31
0.0
  0
ARC
  5
14B
330
1F
100
AcDbEntity
  8
0
  6
Continuous
 62
     7
370
    25
100
AcDbCircle
 10
6745.5747012568
 20
5488.8713135489
 30
0.0
 40
2.250000000001819
100
AcDbArc
 50
0.0
 51
180.0
  0
LINE
  5
14C
330
1F
100
AcDbEntity
  8
0
  6
Continuous
 62
     7
370
    25
100
AcDbLine
 10
6723.3247012568
 20
5475.3713135489
 30
0.0
 11
6723.3247012568
 21
5488.8713135489
 31
0.0
  0
ARC
  5
14D
330
1F
100
AcDbEntity
  8
0
  6
Continuous
 62
     7
370
    25
100
AcDbCircle
 10
6725.5747012568
 20
5475.3713135489
 30
0.0
 40
2.250000000001819
100
AcDbArc
 50
180.0
 51
0.0
  0
LINE
  5
14E
330
1F
100
AcDbEntity
  8
0
  6
Continuous
 62
     7
370
    25
100
AcDbLine
 10
6727.8247012568
 20
5488.8713135489
 30
0.0
 11
6727.8247012568
 21
5475.3713135489
 31
0.0
  0
ARC
  5
14F
330
1F
100
AcDbEntity
  8
0
  6
Continuous
 62
     7
370
    25
100
AcDbCircle
 10
6725.5747012568
 20
5488.8713135489
 30
0.0
 40
2.250000000001819
100
AcDbArc
 50
0.0
 51
180.0
  0
LINE
  5
150
330
1F
100
AcDbEntity
  8
0
  6
Continuous
 62
     7
370
    25
100
AcDbLine
 10
6753.3247012568
 20
5495.3713135489
 30
0.0
 11
6753.3247012568
 21
5508.8713135489
 31
0.0
  0
ARC
  5
151
330
1F
100
AcDbEntity
  8
0
  6
Continuous
 62
     7
370
    25
100
AcDbCircle
 10
6755.5747012568
 20
5495.3713135489
 30
0.0
 40
2.250000000000909
100
AcDbArc
 50
180.0
 51
0.0
  0
LINE
  5
152
330
1F
100
AcDbEntity
  8
0
  6
Continuous
 62
     7
370
    25
100
AcDbLine
 10
6757.8247012568
 20
5508.8713135489
 30
0.0
 11
6757.8247012568
 21
5495.3713135489
 31
0.0
  0
ARC
  5
153
330
1F
100
AcDbEntity
  8
0
  6
Continuous
 62
     7
370
    25
100
AcDbCircle
 10
6755.5747012568
 20
5508.8713135489
 30
0.0
 40
2.250000000000909
100
AcDbArc
 50
0.0
 51
180.0
  0
LINE
  5
154
330
1F
100
AcDbEntity
  8
0
  6
Continuous
 62
     7
370
    25
100
AcDbLine
 10
6733.3247012568
 20
5495.3713135489
 30
0.0
 11
6733.3247012568
 21
5508.8713135489
 31
0.0
  0
ARC
  5
155
330
1F
100
AcDbEntity
  8
0
  6
Continuous
 62
     7
370
    25
100
AcDbCircle
 10
6735.5747012568
 20
5495.3713135489
 30
0.0
 40
2.250000000000909
100
AcDbArc
 50
180.0
 51
0.0
  0
LINE
  5
156
330
1F
100
AcDbEntity
  8
0
  6
Continuous
 62
     7
370
    25
100
AcDbLine
 10
6737.8247012568
 20
5508.8713135489
 30
0.0
 11
6737.8247012568
 21
5495.3713135489
 31
0.0
  0
ARC
  5
157
330
1F
100
AcDbEntity
  8
0
  6
Continuous
 62
     7
370
    25
100
AcDbCircle
 10
6735.5747012568
 20
5508.8713135489
 30
0.0
 40
2.250000000001819
100
AcDbArc
 50
0.0
 51
180.0
  0
LINE
  5
158
330
1F
100
AcDbEntity
  8
0
  6
Continuous
 62
     7
370
    25
100
AcDbLine
 10
6713.3247012568
 20
5495.3713135489
 30
0.0
 11
6713.3247012568
 21
5508.8713135489
 31
0.0
  0
ARC
  5
159
330
1F
100
AcDbEntity
  8
0
  6
Continuous
 62
     7
370
    25
100
AcDbCircle
 10
6715.5747012568
 20
5495.3713135489
 30
0.0
 40
2.250000000000909
100
AcDbArc
 50
180.0
 51
0.0
  0
LINE
  5
15A
330
1F
100
AcDbEntity
  8
0
  6
Continuous
 62
     7
370
    25
100
AcDbLine
 10
6717.8247012568
 20
5508.8713135489
 30
0.0
 11
6717.8247012568
 21
5495.3713135489
 31
0.0
  0
ARC
  5
15B
330
1F
100
AcDbEntity
  8
0
  6
Continuous
 62
     7
370
    25
100
AcDbCircle
 10
6715.5747012568
 20
5508.8713135489
 30
0.0
 40
2.250000000000909
100
AcDbArc
 50
0.0
 51
180.0
  0
LINE
  5
15C
330
1F
100
AcDbEntity
  8
0
  6
Continuous
 62
     7
370
    25
100
AcDbLine
 10
6743.3247012568
 20
5515.3713135489
 30
0.0
 11
6743.3247012568
 21
5528.8713135489
 31
0.0
  0
ARC
  5
15D
330
1F
100
AcDbEntity
  8
0
  6
Continuous
 62
     7
370
    25
100
AcDbCircle
 10
6745.5747012568
 20
5515.3713135489
 30
0.0
 40
2.25
100
AcDbArc
 50
180.0
 51
0.0
  0
LINE
  5
15E
330
1F
100
AcDbEntity
  8
0
  6
Continuous
 62
     7
370
    25
100
AcDbLine
 10
6747.8247012568
 20
5528.8713135489
 30
0.0
 11
6747.8247012568
 21
5515.3713135489
 31
0.0
  0
ARC
  5
15F
330
1F
100
AcDbEntity
  8
0
  6
Continuous
 62
     7
370
    25
100
AcDbCircle
 10
6745.5747012568
 20
5528.8713135489
 30
0.0
 40
2.250000000000909
100
AcDbArc
 50
0.0
 51
180.0
  0
LINE
  5
160
330
1F
100
AcDbEntity
  8
0
  6
Continuous
 62
     7
370
    25
100
AcDbLine
 10
6723.3247012568
 20
5515.3713135489
 30
0.0
 11
6723.3247012568
 21
5528.8713135489
 31
0.0
  0
ARC
  5
161
330
1F
100
AcDbEntity
  8
0
  6
Continuous
 62
     7
370
    25
100
AcDbCircle
 10
6725.5747012568
 20
5515.3713135489
 30
0.0
 40
2.250000000001819
100
AcDbArc
 50
180.0
 51
0.0
  0
LINE
  5
162
330
1F
100
AcDbEntity
  8
0
  6
Continuous
 62
     7
370
    25
100
AcDbLine
 10
6727.8247012568
 20
5528.8713135489
 30
0.0
 11
6727.8247012568
 21
5515.3713135489
 31
0.0
  0
ARC
  5
163
330
1F
100
AcDbEntity
  8
0
  6
Continuous
 62
     7
370
    25
100
AcDbCircle
 10
6725.5747012568
 20
5528.8713135489
 30
0.0
 40
2.250000000001819
100
AcDbArc
 50
0.0
 51
180.0
  0
LINE
  5
164
330
1F
100
AcDbEntity
  8
0
  6
Continuous
 62
     7
370
    25
100
AcDbLine
 10
6753.3247012568
 20
5535.3713135489
 30
0.0
 11
6753.3247012568
 21
5548.8713135489
 31
0.0
  0
ARC
  5
165
330
1F
100
AcDbEntity
  8
0
  6
Continuous
 62
     7
370
    25
100
AcDbCircle
 10
6755.5747012568
 20
5535.3713135489
 30
0.0
 40
2.250000000000909
100
AcDbArc
 50
180.0
 51
0.0
  0
LINE
  5
166
330
1F
100
AcDbEntity
  8
0
  6
Continuous
 62
     7
370
    25
100
AcDbLine
 10
6757.8247012568
 20
5548.8713135489
 30
0.0
 11
6757.8247012568
 21
5535.3713135489
 31
0.0
  0
ARC
  5
167
330
1F
100
AcDbEntity
  8
0
  6
Continuous
 62
     7
370
    25
100
AcDbCircle
 10
6755.5747012568
 20
5548.8713135489
 30
0.0
 40
2.250000000000909
100
AcDbArc
 50
0.0
 51
180.0
  0
LINE
  5
168
330
1F
100
AcDbEntity
  8
0
  6
Continuous
 62
     7
370
    25
100
AcDbLine
 10
6733.3247012568
 20
5535.3713135489
 30
0.0
 11
6733.3247012568
 21
5548.8713135489
 31
0.0
  0
ARC
  5
169
330
1F
100
AcDbEntity
  8
0
  6
Continuous
 62
     7
370
    25
100
AcDbCircle
 10
6735.5747012568
 20
5535.3713135489
 30
0.0
 40
2.25
100
AcDbArc
 50
180.0
 51
0.0
  0
LINE
  5
16A
330
1F
100
AcDbEntity
  8
0
  6
Continuous
 62
     7
370
    25
100
AcDbLine
 10
6737.8247012568
 20
5548.8713135489
 30
0.0
 11
6737.8247012568
 21
5535.3713135489
 31
0.0
  0
ARC
  5
16B
330
1F
100
AcDbEntity
  8
0
  6
Continuous
 62
     7
370
    25
100
AcDbCircle
 10
6735.5747012568
 20
5548.8713135489
 30
0.0
 40
2.25
100
AcDbArc
 50
0.0
 51
180.0
  0
LINE
  5
16C
330
1F
100
AcDbEntity
  8
0
  6
Continuous
 62
     7
370
    25
100
AcDbLine
 10
6713.3247012568
 20
5535.3713135489
 30
0.0
 11
6713.3247012568
 21
5548.8713135489
 31
0.0
  0
ARC
  5
16D
330
1F
100
AcDbEntity
  8
0
  6
Continuous
 62
     7
370
    25
100
AcDbCircle
 10
6715.5747012568
 20
5535.3713135489
 30
0.0
 40
2.250000000000909
100
AcDbArc
 50
180.0
 51
0.0
  0
LINE
  5
16E
330
1F
100
AcDbEntity
  8
0
  6
Continuous
 62
     7
370
    25
100
AcDbLine
 10
6717.8247012568
 20
5548.8713135489
 30
0.0
 11
6717.8247012568
 21
5535.3713135489
 31
0.0
  0
ARC
  5
16F
330
1F
100
AcDbEntity
  8
0
  6
Continuous
 62
     7
370
    25
100
AcDbCircle
 10
6715.5747012568
 20
5548.8713135489
 30
0.0
 40
2.250000000000909
100
AcDbArc
 50
0.0
 51
180.0
  0
LINE
  5
170
330
1F
100
AcDbEntity
  8
0
  6
Continuous
 62
     7
370
    25
100
AcDbLine
 10
6743.3247012568
 20
5555.3713135489
 30
0.0
 11
6743.3247012568
 21
5568.8713135489
 31
0.0
  0
ARC
  5
171
330
1F
100
AcDbEntity
  8
0
  6
Continuous
 62
     7
370
    25
100
AcDbCircle
 10
6745.5747012568
 20
5555.3713135489
 30
0.0
 40
2.25
100
AcDbArc
 50
180.0
 51
0.0
  0
LINE
  5
172
330
1F
100
AcDbEntity
  8
0
  6
Continuous
 62
     7
370
    25
100
AcDbLine
 10
6747.8247012568
 20
5568.8713135489
 30
0.0
 11
6747.8247012568
 21
5555.3713135489
 31
0.0
  0
ARC
  5
173
330
1F
100
AcDbEntity
  8
0
  6
Continuous
 62
     7
370
    25
100
AcDbCircle
 10
6745.5747012568
 20
5568.8713135489
 30
0.0
 40
2.25
100
AcDbArc
 50
0.0
 51
180.0
  0
LINE
  5
174
330
1F
100
AcDbEntity
  8
0
  6
Continuous
 62
     7
370
    25
100
AcDbLine
 10
6723.3247012568
 20
5555.3713135489
 30
0.0
 11
6723.3247012568
 21
5568.8713135489
 31
0.0
  0
ARC
  5
175
330
1F
100
AcDbEntity
  8
0
  6
Continuous
 62
     7
370
    25
100
AcDbCircle
 10
6725.5747012568
 20
5555.3713135489
 30
0.0
 40
2.250000000000909
100
AcDbArc
 50
180.0
 51
0.0
  0
LINE
  5
176
330
1F
100
AcDbEntity
  8
0
  6
Continuous
 62
     7
370
    25
100
AcDbLine
 10
6727.8247012568
 20
5568.8713135489
 30
0.0
 11
6727.8247012568
 21
5555.3713135489
 31
0.0
  0
ARC
  5
177
330
1F
100
AcDbEntity
  8
0
  6
Continuous
 62
     7
370
    25
100
AcDbCircle
 10
6725.5747012568
 20
5568.8713135489
 30
0.0
 40
2.250000000000909
100
AcDbArc
 50
0.0
 51
180.0
  0
LINE
  5
178
330
1F
100
AcDbEntity
  8
0
  6
Continuous
 62
     7
370
    25
100
AcDbLine
 10
6753.3247012568
 20
5575.3713135489
 30
0.0
 11
6753.3247012568
 21
5588.8713135489
 31
0.0
  0
ARC
  5
179
330
1F
100
AcDbEntity
  8
0
  6
Continuous
 62
     7
370
    25
100
AcDbCircle
 10
6755.5747012568
 20
5575.3713135489
 30
0.0
 40
2.25
100
AcDbArc
 50
180.0
 51
0.0
  0
LINE
  5
17A
330
1F
100
AcDbEntity
  8
0
  6
Continuous
 62
     7
370
    25
100
AcDbLine
 10
6757.8247012568
 20
5588.8713135489
 30
0.0
 11
6757.8247012568
 21
5575.3713135489
 31
0.0
  0
ARC
  5
17B
330
1F
100
AcDbEntity
  8
0
  6
Continuous
 62
     7
370
    25
100
AcDbCircle
 10
6755.5747012568
 20
5588.8713135489
 30
0.0
 40
2.25
100
AcDbArc
 50
0.0
 51
180.0
  0
LINE
  5
17C
330
1F
100
AcDbEntity
  8
0
  6
Continuous
 62
     7
370
    25
100
AcDbLine
 10
6733.3247012568
 20
5575.3713135489
 30
0.0
 11
6733.3247012568
 21
5588.8713135489
 31
0.0
  0
ARC
  5
17D
330
1F
100
AcDbEntity
  8
0
  6
Continuous
 62
     7
370
    25
100
AcDbCircle
 10
6735.5747012568
 20
5575.3713135489
 30
0.0
 40
2.25
100
AcDbArc
 50
180.0
 51
0.0
  0
LINE
  5
17E
330
1F
100
AcDbEntity
  8
0
  6
Continuous
 62
     7
370
    25
100
AcDbLine
 10
6737.8247012568
 20
5588.8713135489
 30
0.0
 11
6737.8247012568
 21
5575.3713135489
 31
0.0
  0
ARC
  5
17F
330
1F
100
AcDbEntity
  8
0
  6
Continuous
 62
     7
370
    25
100
AcDbCircle
 10
6735.5747012568
 20
5588.8713135489
 30
0.0
 40
2.25
100
AcDbArc
 50
0.0
 51
180.0
  0
LINE
  5
180
330
1F
100
AcDbEntity
  8
0
  6
Continuous
 62
     7
370
    25
100
AcDbLine
 10
6713.3247012568
 20
5575.3713135489
 30
0.0
 11
6713.3247012568
 21
5588.8713135489
 31
0.0
  0
ARC
  5
181
330
1F
100
AcDbEntity
  8
0
  6
Continuous
 62
     7
370
    25
100
AcDbCircle
 10
6715.5747012568
 20
5575.3713135489
 30
0.0
 40
2.25
100
AcDbArc
 50
180.0
 51
0.0
  0
LINE
  5
182
330
1F
100
AcDbEntity
  8
0
  6
Continuous
 62
     7
370
    25
100
AcDbLine
 10
6717.8247012568
 20
5588.8713135489
 30
0.0
 11
6717.8247012568
 21
5575.3713135489
 31
0.0
  0
ARC
  5
183
330
1F
100
AcDbEntity
  8
0
  6
Continuous
 62
     7
370
    25
100
AcDbCircle
 10
6715.5747012568
 20
5588.8713135489
 30
0.0
 40
2.25
100
AcDbArc
 50
0.0
 51
180.0
  0
LINE
  5
184
330
1F
100
AcDbEntity
  8
0
  6
Continuous
 62
     7
370
    25
100
AcDbLine
 10
6653.3247012568
 20
4742.1213135489
 30
0.0
 11
6836.3247012568
 21
4742.1213135489
 31
0.0
  0
LINE
  5
185
330
1F
100
AcDbEntity
  8
0
  6
Continuous
 62
     7
370
    25
100
AcDbLine
 10
6703.3247012568
 20
5575.3713135489
 30
0.0
 11
6703.3247012568
 21
5588.8713135489
 31
0.0
  0
ARC
  5
186
330
1F
100
AcDbEntity
  8
0
  6
Continuous
 62
     7
370
    25
100
AcDbCircle
 10
6705.5747012568
 20
5575.3713135489
 30
0.0
 40
2.25
100
AcDbArc
 50
180.0
 51
0.0
  0
LINE
  5
187
330
1F
100
AcDbEntity
  8
0
  6
Continuous
 62
     7
370
    25
100
AcDbLine
 10
6707.8247012568
 20
5588.8713135489
 30
0.0
 11
6707.8247012568
 21
5575.3713135489
 31
0.0
  0
ARC
  5
188
330
1F
100
AcDbEntity
  8
0
  6
Continuous
 62
     7
370
    25
100
AcDbCircle
 10
6705.5747012568
 20
5588.8713135489
 30
0.0
 40
2.25
100
AcDbArc
 50
0.0
 51
180.0
  0
LINE
  5
189
330
1F
100
AcDbEntity
  8
0
  6
Continuous
 62
     7
370
    25
100
AcDbLine
 10
6723.3247012568
 20
5575.3713135489
 30
0.0
 11
6723.3247012568
 21
5588.8713135489
 31
0.0
  0
ARC
  5
18A
330
1F
100
AcDbEntity
  8
0
  6
Continuous
 62
     7
370
    25
100
AcDbCircle
 10
6725.5747012568
 20
5575.3713135489
 30
0.0
 40
2.250000000000909
100
AcDbArc
 50
180.0
 51
0.0
  0
LINE
  5
18B
330
1F
100
AcDbEntity
  8
0
  6
Continuous
 62
     7
370
    25
100
AcDbLine
 10
6727.8247012568
 20
5588.8713135489
 30
0.0
 11
6727.8247012568
 21
5575.3713135489
 31
0.0
  0
ARC
  5
18C
330
1F
100
AcDbEntity
  8
0
  6
Continuous
 62
     7
370
    25
100
AcDbCircle
 10
6725.5747012568
 20
5588.8713135489
 30
0.0
 40
2.250000000000909
100
AcDbArc
 50
0.0
 51
180.0
  0
LINE
  5
18D
330
1F
100
AcDbEntity
  8
0
  6
Continuous
 62
     7
370
    25
100
AcDbLine
 10
6743.3247012568
 20
5575.3713135489
 30
0.0
 11
6743.3247012568
 21
5588.8713135489
 31
0.0
  0
ARC
  5
18E
330
1F
100
AcDbEntity
  8
0
  6
Continuous
 62
     7
370
    25
100
AcDbCircle
 10
6745.5747012568
 20
5575.3713135489
 30
0.0
 40
2.25
100
AcDbArc
 50
180.0
 51
0.0
  0
LINE
  5
18F
330
1F
100
AcDbEntity
  8
0
  6
Continuous
 62
     7
370
    25
100
AcDbLine
 10
6747.8247012568
 20
5588.8713135489
 30
0.0
 11
6747.8247012568
 21
5575.3713135489
 31
0.0
  0
ARC
  5
190
330
1F
100
AcDbEntity
  8
0
  6
Continuous
 62
     7
370
    25
100
AcDbCircle
 10
6745.5747012568
 20
5588.8713135489
 30
0.0
 40
2.25
100
AcDbArc
 50
0.0
 51
180.0
  0
LINE
  5
191
330
1F
100
AcDbEntity
  8
0
  6
Continuous
 62
     7
370
    25
100
AcDbLine
 10
6713.3247012568
 20
5555.3713135489
 30
0.0
 11
6713.3247012568
 21
5568.8713135489
 31
0.0
  0
ARC
  5
192
330
1F
100
AcDbEntity
  8
0
  6
Continuous
 62
     7
370
    25
100
AcDbCircle
 10
6715.5747012568
 20
5555.3713135489
 30
0.0
 40
2.250000000000909
100
AcDbArc
 50
180.0
 51
0.0
  0
LINE
  5
193
330
1F
100
AcDbEntity
  8
0
  6
Continuous
 62
     7
370
    25
100
AcDbLine
 10
6717.8247012568
 20
5568.8713135489
 30
0.0
 11
6717.8247012568
 21
5555.3713135489
 31
0.0
  0
ARC
  5
194
330
1F
100
AcDbEntity
  8
0
  6
Continuous
 62
     7
370
    25
100
AcDbCircle
 10
6715.5747012568
 20
5568.8713135489
 30
0.0
 40
2.250000000000909
100
AcDbArc
 50
0.0
 51
180.0
  0
LINE
  5
195
330
1F
100
AcDbEntity
  8
0
  6
Continuous
 62
     7
370
    25
100
AcDbLine
 10
6733.3247012568
 20
5555.3713135489
 30
0.0
 11
6733.3247012568
 21
5568.8713135489
 31
0.0
  0
ARC
  5
196
330
1F
100
AcDbEntity
  8
0
  6
Continuous
 62
     7
370
    25
100
AcDbCircle
 10
6735.5747012568
 20
5555.3713135489
 30
0.0
 40
2.25
100
AcDbArc
 50
180.0
 51
0.0
  0
LINE
  5
197
330
1F
100
AcDbEntity
  8
0
  6
Continuous
 62
     7
370
    25
100
AcDbLine
 10
6737.8247012568
 20
5568.8713135489
 30
0.0
 11
6737.8247012568
 21
5555.3713135489
 31
0.0
  0
ARC
  5
198
330
1F
100
AcDbEntity
  8
0
  6
Continuous
 62
     7
370
    25
100
AcDbCircle
 10
6735.5747012568
 20
5568.8713135489
 30
0.0
 40
2.25
100
AcDbArc
 50
0.0
 51
180.0
  0
LINE
  5
199
330
1F
100
AcDbEntity
  8
0
  6
Continuous
 62
     7
370
    25
100
AcDbLine
 10
6753.3247012568
 20
5555.3713135489
 30
0.0
 11
6753.3247012568
 21
5568.8713135489
 31
0.0
  0
ARC
  5
19A
330
1F
100
AcDbEntity
  8
0
  6
Continuous
 62
     7
370
    25
100
AcDbCircle
 10
6755.5747012568
 20
5555.3713135489
 30
0.0
 40
2.250000000000909
100
AcDbArc
 50
180.0
 51
0.0
  0
LINE
  5
19B
330
1F
100
AcDbEntity
  8
0
  6
Continuous
 62
     7
370
    25
100
AcDbLine
 10
6757.8247012568
 20
5568.8713135489
 30
0.0
 11
6757.8247012568
 21
5555.3713135489
 31
0.0
  0
ARC
  5
19C
330
1F
100
AcDbEntity
  8
0
  6
Continuous
 62
     7
370
    25
100
AcDbCircle
 10
6755.5747012568
 20
5568.8713135489
 30
0.0
 40
2.250000000000909
100
AcDbArc
 50
0.0
 51
180.0
  0
LINE
  5
19D
330
1F
100
AcDbEntity
  8
0
  6
Continuous
 62
     7
370
    25
100
AcDbLine
 10
6723.3247012568
 20
5535.3713135489
 30
0.0
 11
6723.3247012568
 21
5548.8713135489
 31
0.0
  0
ARC
  5
19E
330
1F
100
AcDbEntity
  8
0
  6
Continuous
 62
     7
370
    25
100
AcDbCircle
 10
6725.5747012568
 20
5535.3713135489
 30
0.0
 40
2.250000000001819
100
AcDbArc
 50
180.0
 51
0.0
  0
LINE
  5
19F
330
1F
100
AcDbEntity
  8
0
  6
Continuous
 62
     7
370
    25
100
AcDbLine
 10
6727.8247012568
 20
5548.8713135489
 30
0.0
 11
6727.8247012568
 21
5535.3713135489
 31
0.0
  0
ARC
  5
1A0
330
1F
100
AcDbEntity
  8
0
  6
Continuous
 62
     7
370
    25
100
AcDbCircle
 10
6725.5747012568
 20
5548.8713135489
 30
0.0
 40
2.250000000001819
100
AcDbArc
 50
0.0
 51
180.0
  0
LINE
  5
1A1
330
1F
100
AcDbEntity
  8
0
  6
Continuous
 62
     7
370
    25
100
AcDbLine
 10
6743.3247012568
 20
5535.3713135489
 30
0.0
 11
6743.3247012568
 21
5548.8713135489
 31
0.0
  0
ARC
  5
1A2
330
1F
100
AcDbEntity
  8
0
  6
Continuous
 62
     7
370
    25
100
AcDbCircle
 10
6745.5747012568
 20
5535.3713135489
 30
0.0
 40
2.25
100
AcDbArc
 50
180.0
 51
0.0
  0
LINE
  5
1A3
330
1F
100
AcDbEntity
  8
0
  6
Continuous
 62
     7
370
    25
100
AcDbLine
 10
6747.8247012568
 20
5548.8713135489
 30
0.0
 11
6747.8247012568
 21
5535.3713135489
 31
0.0
  0
ARC
  5
1A4
330
1F
100
AcDbEntity
  8
0
  6
Continuous
 62
     7
370
    25
100
AcDbCircle
 10
6745.5747012568
 20
5548.8713135489
 30
0.0
 40
2.250000000000909
100
AcDbArc
 50
0.0
 51
180.0
  0
LINE
  5
1A5
330
1F
100
AcDbEntity
  8
0
  6
Continuous
 62
     7
370
    25
100
AcDbLine
 10
6713.3247012568
 20
5515.3713135489
 30
0.0
 11
6713.3247012568
 21
5528.8713135489
 31
0.0
  0
ARC
  5
1A6
330
1F
100
AcDbEntity
  8
0
  6
Continuous
 62
     7
370
    25
100
AcDbCircle
 10
6715.5747012568
 20
5515.3713135489
 30
0.0
 40
2.250000000000909
100
AcDbArc
 50
180.0
 51
0.0
  0
LINE
  5
1A7
330
1F
100
AcDbEntity
  8
0
  6
Continuous
 62
     7
370
    25
100
AcDbLine
 10
6717.8247012568
 20
5528.8713135489
 30
0.0
 11
6717.8247012568
 21
5515.3713135489
 31
0.0
  0
ARC
  5
1A8
330
1F
100
AcDbEntity
  8
0
  6
Continuous
 62
     7
370
    25
100
AcDbCircle
 10
6715.5747012568
 20
5528.8713135489
 30
0.0
 40
2.250000000000909
100
AcDbArc
 50
0.0
 51
180.0
  0
LINE
  5
1A9
330
1F
100
AcDbEntity
  8
0
  6
Continuous
 62
     7
370
    25
100
AcDbLine
 10
6733.3247012568
 20
5515.3713135489
 30
0.0
 11
6733.3247012568
 21
5528.8713135489
 31
0.0
  0
ARC
  5
1AA
330
1F
100
AcDbEntity
  8
0
  6
Continuous
 62
     7
370
    25
100
AcDbCircle
 10
6735.5747012568
 20
5515.3713135489
 30
0.0
 40
2.250000000000909
100
AcDbArc
 50
180.0
 51
0.0
  0
LINE
  5
1AB
330
1F
100
AcDbEntity
  8
0
  6
Continuous
 62
     7
370
    25
100
AcDbLine
 10
6737.8247012568
 20
5528.8713135489
 30
0.0
 11
6737.8247012568
 21
5515.3713135489
 31
0.0
  0
ARC
  5
1AC
330
1F
100
AcDbEntity
  8
0
  6
Continuous
 62
     7
370
    25
100
AcDbCircle
 10
6735.5747012568
 20
5528.8713135489
 30
0.0
 40
2.250000000001819
100
AcDbArc
 50
0.0
 51
180.0
  0
LINE
  5
1AD
330
1F
100
AcDbEntity
  8
0
  6
Continuous
 62
     7
370
    25
100
AcDbLine
 10
6753.3247012568
 20
5515.3713135489
 30
0.0
 11
6753.3247012568
 21
5528.8713135489
 31
0.0
  0
ARC
  5
1AE
330
1F
100
AcDbEntity
  8
0
  6
Continuous
 62
     7
370
    25
100
AcDbCircle
 10
6755.5747012568
 20
5515.3713135489
 30
0.0
 40
2.250000000000909
100
AcDbArc
 50
180.0
 51
0.0
  0
LINE
  5
1AF
330
1F
100
AcDbEntity
  8
0
  6
Continuous
 62
     7
370
    25
100
AcDbLine
 10
6757.8247012568
 20
5528.8713135489
 30
0.0
 11
6757.8247012568
 21
5515.3713135489
 31
0.0
  0
ARC
  5
1B0
330
1F
100
AcDbEntity
  8
0
  6
Continuous
 62
     7
370
    25
100
AcDbCircle
 10
6755.5747012568
 20
5528.8713135489
 30
0.0
 40
2.250000000000909
100
AcDbArc
 50
0.0
 51
180.0
  0
LINE
  5
1B1
330
1F
100
AcDbEntity
  8
0
  6
Continuous
 62
     7
370
    25
100
AcDbLine
 10
6723.3247012568
 20
5495.3713135489
 30
0.0
 11
6723.3247012568
 21
5508.8713135489
 31
0.0
  0
ARC
  5
1B2
330
1F
100
AcDbEntity
  8
0
  6
Continuous
 62
     7
370
    25
100
AcDbCircle
 10
6725.5747012568
 20
5495.3713135489
 30
0.0
 40
2.250000000001819
100
AcDbArc
 50
180.0
 51
0.0
  0
LINE
  5
1B3
330
1F
100
AcDbEntity
  8
0
  6
Continuous
 62
     7
370
    25
100
AcDbLine
 10
6727.8247012568
 20
5508.8713135489
 30
0.0
 11
6727.8247012568
 21
5495.3713135489
 31
0.0
  0
ARC
  5
1B4
330
1F
100
AcDbEntity
  8
0
  6
Continuous
 62
     7
370
    25
100
AcDbCircle
 10
6725.5747012568
 20
5508.8713135489
 30
0.0
 40
2.250000000001819
100
AcDbArc
 50
0.0
 51
180.0
  0
LINE
  5
1B5
330
1F
100
AcDbEntity
  8
0
  6
Continuous
 62
     7
370
    25
100
AcDbLine
 10
6743.3247012568
 20
5495.3713135489
 30
0.0
 11
6743.3247012568
 21
5508.8713135489
 31
0.0
  0
ARC
  5
1B6
330
1F
100
AcDbEntity
  8
0
  6
Continuous
 62
     7
370
    25
100
AcDbCircle
 10
6745.5747012568
 20
5495.3713135489
 30
0.0
 40
2.250000000000909
100
AcDbArc
 50
180.0
 51
0.0
  0
LINE
  5
1B7
330
1F
100
AcDbEntity
  8
0
  6
Continuous
 62
     7
370
    25
100
AcDbLine
 10
6747.8247012568
 20
5508.8713135489
 30
0.0
 11
6747.8247012568
 21
5495.3713135489
 31
0.0
  0
ARC
  5
1B8
330
1F
100
AcDbEntity
  8
0
  6
Continuous
 62
     7
370
    25
100
AcDbCircle
 10
6745.5747012568
 20
5508.8713135489
 30
0.0
 40
2.250000000001819
100
AcDbArc
 50
0.0
 51
180.0
  0
LINE
  5
1B9
330
1F
100
AcDbEntity
  8
0
  6
Continuous
 62
     7
370
    25
100
AcDbLine
 10
6713.3247012568
 20
5475.3713135489
 30
0.0
 11
6713.3247012568
 21
5488.8713135489
 31
0.0
  0
ARC
  5
1BA
330
1F
100
AcDbEntity
  8
0
  6
Continuous
 62
     7
370
    25
100
AcDbCircle
 10
6715.5747012568
 20
5475.3713135489
 30
0.0
 40
2.250000000000909
100
AcDbArc
 50
180.0
 51
0.0
  0
LINE
  5
1BB
330
1F
100
AcDbEntity
  8
0
  6
Continuous
 62
     7
370
    25
100
AcDbLine
 10
6717.8247012568
 20
5488.8713135489
 30
0.0
 11
6717.8247012568
 21
5475.3713135489
 31
0.0
  0
ARC
  5
1BC
330
1F
100
AcDbEntity
  8
0
  6
Continuous
 62
     7
370
    25
100
AcDbCircle
 10
6715.5747012568
 20
5488.8713135489
 30
0.0
 40
2.250000000001819
100
AcDbArc
 50
0.0
 51
180.0
  0
LINE
  5
1BD
330
1F
100
AcDbEntity
  8
0
  6
Continuous
 62
     7
370
    25
100
AcDbLine
 10
6733.3247012568
 20
5475.3713135489
 30
0.0
 11
6733.3247012568
 21
5488.8713135489
 31
0.0
  0
ARC
  5
1BE
330
1F
100
AcDbEntity
  8
0
  6
Continuous
 62
     7
370
    25
100
AcDbCircle
 10
6735.5747012568
 20
5475.3713135489
 30
0.0
 40
2.250000000000909
100
AcDbArc
 50
180.0
 51
0.0
  0
LINE
  5
1BF
330
1F
100
AcDbEntity
  8
0
  6
Continuous
 62
     7
370
    25
100
AcDbLine
 10
6737.8247012568
 20
5488.8713135489
 30
0.0
 11
6737.8247012568
 21
5475.3713135489
 31
0.0
  0
ARC
  5
1C0
330
1F
100
AcDbEntity
  8
0
  6
Continuous
 62
     7
370
    25
100
AcDbCircle
 10
6735.5747012568
 20
5488.8713135489
 30
0.0
 40
2.250000000001819
100
AcDbArc
 50
0.0
 51
180.0
  0
LINE
  5
1C1
330
1F
100
AcDbEntity
  8
0
  6
Continuous
 62
     7
370
    25
100
AcDbLine
 10
6753.3247012568
 20
5475.3713135489
 30
0.0
 11
6753.3247012568
 21
5488.8713135489
 31
0.0
  0
ARC
  5
1C2
330
1F
100
AcDbEntity
  8
0
  6
Continuous
 62
     7
370
    25
100
AcDbCircle
 10
6755.5747012568
 20
5475.3713135489
 30
0.0
 40
2.250000000001819
100
AcDbArc
 50
180.0
 51
0.0
  0
LINE
  5
1C3
330
1F
100
AcDbEntity
  8
0
  6
Continuous
 62
     7
370
    25
100
AcDbLine
 10
6757.8247012568
 20
5488.8713135489
 30
0.0
 11
6757.8247012568
 21
5475.3713135489
 31
0.0
  0
ARC
  5
1C4
330
1F
100
AcDbEntity
  8
0
  6
Continuous
 62
     7
370
    25
100
AcDbCircle
 10
6755.5747012568
 20
5488.8713135489
 30
0.0
 40
2.250000000002728
100
AcDbArc
 50
0.0
 51
180.0
  0
LINE
  5
1C5
330
1F
100
AcDbEntity
  8
0
  6
Continuous
 62
     7
370
    25
100
AcDbLine
 10
6723.3247012568
 20
5455.3713135489
 30
0.0
 11
6723.3247012568
 21
5468.8713135489
 31
0.0
  0
ARC
  5
1C6
330
1F
100
AcDbEntity
  8
0
  6
Continuous
 62
     7
370
    25
100
AcDbCircle
 10
6725.5747012568
 20
5455.3713135489
 30
0.0
 40
2.250000000002728
100
AcDbArc
 50
180.0
 51
0.0
  0
LINE
  5
1C7
330
1F
100
AcDbEntity
  8
0
  6
Continuous
 62
     7
370
    25
100
AcDbLine
 10
6727.8247012568
 20
5468.8713135489
 30
0.0
 11
6727.8247012568
 21
5455.3713135489
 31
0.0
  0
ARC
  5
1C8
330
1F
100
AcDbEntity
  8
0
  6
Continuous
 62
     7
370
    25
100
AcDbCircle
 10
6725.5747012568
 20
5468.8713135489
 30
0.0
 40
2.250000000002728
100
AcDbArc
 50
0.0
 51
180.0
  0
LINE
  5
1C9
330
1F
100
AcDbEntity
  8
0
  6
Continuous
 62
     7
370
    25
100
AcDbLine
 10
6743.3247012568
 20
5455.3713135489
 30
0.0
 11
6743.3247012568
 21
5468.8713135489
 31
0.0
  0
ARC
  5
1CA
330
1F
100
AcDbEntity
  8
0
  6
Continuous
 62
     7
370
    25
100
AcDbCircle
 10
6745.5747012568
 20
5455.3713135489
 30
0.0
 40
2.250000000000909
100
AcDbArc
 50
180.0
 51
0.0
  0
LINE
  5
1CB
330
1F
100
AcDbEntity
  8
0
  6
Continuous
 62
     7
370
    25
100
AcDbLine
 10
6747.8247012568
 20
5468.8713135489
 30
0.0
 11
6747.8247012568
 21
5455.3713135489
 31
0.0
  0
ARC
  5
1CC
330
1F
100
AcDbEntity
  8
0
  6
Continuous
 62
     7
370
    25
100
AcDbCircle
 10
6745.5747012568
 20
5468.8713135489
 30
0.0
 40
2.250000000002728
100
AcDbArc
 50
0.0
 51
180.0
  0
LINE
  5
1CD
330
1F
100
AcDbEntity
  8
0
  6
Continuous
 62
     7
370
    25
100
AcDbLine
 10
6703.3247012568
 20
5555.3713135489
 30
0.0
 11
6703.3247012568
 21
5568.8713135489
 31
0.0
  0
ARC
  5
1CE
330
1F
100
AcDbEntity
  8
0
  6
Continuous
 62
     7
370
    25
100
AcDbCircle
 10
6705.5747012568
 20
5555.3713135489
 30
0.0
 40
2.25
100
AcDbArc
 50
180.0
 51
0.0
  0
LINE
  5
1CF
330
1F
100
AcDbEntity
  8
0
  6
Continuous
 62
     7
370
    25
100
AcDbLine
 10
6707.8247012568
 20
5568.8713135489
 30
0.0
 11
6707.8247012568
 21
5555.3713135489
 31
0.0
  0
ARC
  5
1D0
330
1F
100
AcDbEntity
  8
0
  6
Continuous
 62
     7
370
    25
100
AcDbCircle
 10
6705.5747012568
 20
5568.8713135489
 30
0.0
 40
2.25
100
AcDbArc
 50
0.0
 51
180.0
  0
LINE
  5
1D1
330
1F
100
AcDbEntity
  8
0
  6
Continuous
 62
     7
370
    25
100
AcDbLine
 10
6703.3247012568
 20
5515.3713135489
 30
0.0
 11
6703.3247012568
 21
5528.8713135489
 31
0.0
  0
ARC
  5
1D2
330
1F
100
AcDbEntity
  8
0
  6
Continuous
 62
     7
370
    25
100
AcDbCircle
 10
6705.5747012568
 20
5515.3713135489
 30
0.0
 40
2.25
100
AcDbArc
 50
180.0
 51
0.0
  0
LINE
  5
1D3
330
1F
100
AcDbEntity
  8
0
  6
Continuous
 62
     7
370
    25
100
AcDbLine
 10
6707.8247012568
 20
5528.8713135489
 30
0.0
 11
6707.8247012568
 21
5515.3713135489
 31
0.0
  0
ARC
  5
1D4
330
1F
100
AcDbEntity
  8
0
  6
Continuous
 62
     7
370
    25
100
AcDbCircle
 10
6705.5747012568
 20
5528.8713135489
 30
0.0
 40
2.250000000000909
100
AcDbArc
 50
0.0
 51
180.0
  0
LINE
  5
1D5
330
1F
100
AcDbEntity
  8
0
  6
Continuous
 62
     7
370
    25
100
AcDbLine
 10
6703.3247012568
 20
5475.3713135489
 30
0.0
 11
6703.3247012568
 21
5488.8713135489
 31
0.0
  0
ARC
  5
1D6
330
1F
100
AcDbEntity
  8
0
  6
Continuous
 62
     7
370
    25
100
AcDbCircle
 10
6705.5747012568
 20
5475.3713135489
 30
0.0
 40
2.250000000000909
100
AcDbArc
 50
180.0
 51
0.0
  0
LINE
  5
1D7
330
1F
100
AcDbEntity
  8
0
  6
Continuous
 62
     7
370
    25
100
AcDbLine
 10
6707.8247012568
 20
5488.8713135489
 30
0.0
 11
6707.8247012568
 21
5475.3713135489
 31
0.0
  0
ARC
  5
1D8
330
1F
100
AcDbEntity
  8
0
  6
Continuous
 62
     7
370
    25
100
AcDbCircle
 10
6705.5747012568
 20
5488.8713135489
 30
0.0
 40
2.250000000001819
100
AcDbArc
 50
0.0
 51
180.0
  0
LINE
  5
1D9
330
1F
100
AcDbEntity
  8
0
  6
Continuous
 62
     7
370
    25
100
AcDbLine
 10
6707.8247012568
 20
4928.8713135489
 30
0.0
 11
6707.8247012568
 21
4915.3713135489
 31
0.0
  0
ARC
  5
1DA
330
1F
100
AcDbEntity
  8
0
  6
Continuous
 62
     7
370
    25
100
AcDbCircle
 10
6705.5747012568
 20
4928.8713135489
 30
0.0
 40
2.25
100
AcDbArc
 50
0.0
 51
180.0
  0
LINE
  5
1DB
330
1F
100
AcDbEntity
  8
0
  6
Continuous
 62
     7
370
    25
100
AcDbLine
 10
6703.3247012568
 20
4915.3713135489
 30
0.0
 11
6703.3247012568
 21
4928.8713135489
 31
0.0
  0
ARC
  5
1DC
330
1F
100
AcDbEntity
  8
0
  6
Continuous
 62
     7
370
    25
100
AcDbCircle
 10
6705.5747012568
 20
4915.3713135489
 30
0.0
 40
2.25
100
AcDbArc
 50
180.0
 51
0.0
  0
LINE
  5
1DD
330
1F
100
AcDbEntity
  8
0
  6
Continuous
 62
     7
370
    25
100
AcDbLine
 10
6707.8247012568
 20
4888.8713135489
 30
0.0
 11
6707.8247012568
 21
4875.3713135489
 31
0.0
  0
ARC
  5
1DE
330
1F
100
AcDbEntity
  8
0
  6
Continuous
 62
     7
370
    25
100
AcDbCircle
 10
6705.5747012568
 20
4888.8713135489
 30
0.0
 40
2.25
100
AcDbArc
 50
0.0
 51
180.0
  0
LINE
  5
1DF
330
1F
100
AcDbEntity
  8
0
  6
Continuous
 62
     7
370
    25
100
AcDbLine
 10
6703.3247012568
 20
4875.3713135489
 30
0.0
 11
6703.3247012568
 21
4888.8713135489
 31
0.0
  0
ARC
  5
1E0
330
1F
100
AcDbEntity
  8
0
  6
Continuous
 62
     7
370
    25
100
AcDbCircle
 10
6705.5747012568
 20
4875.3713135489
 30
0.0
 40
2.25
100
AcDbArc
 50
180.0
 51
0.0
  0
LINE
  5
1E1
330
1F
100
AcDbEntity
  8
0
  6
Continuous
 62
     7
370
    25
100
AcDbLine
 10
6707.8247012568
 20
4848.8713135489
 30
0.0
 11
6707.8247012568
 21
4835.3713135489
 31
0.0
  0
ARC
  5
1E2
330
1F
100
AcDbEntity
  8
0
  6
Continuous
 62
     7
370
    25
100
AcDbCircle
 10
6705.5747012568
 20
4848.8713135489
 30
0.0
 40
2.25
100
AcDbArc
 50
0.0
 51
180.0
  0
LINE
  5
1E3
330
1F
100
AcDbEntity
  8
0
  6
Continuous
 62
     7
370
    25
100
AcDbLine
 10
6703.3247012568
 20
4835.3713135489
 30
0.0
 11
6703.3247012568
 21
4848.8713135489
 31
0.0
  0
ARC
  5
1E4
330
1F
100
AcDbEntity
  8
0
  6
Continuous
 62
     7
370
    25
100
AcDbCircle
 10
6705.5747012568
 20
4835.3713135489
 30
0.0
 40
2.25
100
AcDbArc
 50
180.0
 51
0.0
  0
LINE
  5
1E5
330
1F
100
AcDbEntity
  8
0
  6
Continuous
 62
     7
370
    25
100
AcDbLine
 10
6757.8247012568
 20
4928.8713135489
 30
0.0
 11
6757.8247012568
 21
4915.3713135489
 31
0.0
  0
ARC
  5
1E6
330
1F
100
AcDbEntity
  8
0
  6
Continuous
 62
     7
370
    25
100
AcDbCircle
 10
6755.5747012568
 20
4928.8713135489
 30
0.0
 40
2.25
100
AcDbArc
 50
0.0
 51
180.0
  0
LINE
  5
1E7
330
1F
100
AcDbEntity
  8
0
  6
Continuous
 62
     7
370
    25
100
AcDbLine
 10
6753.3247012568
 20
4915.3713135489
 30
0.0
 11
6753.3247012568
 21
4928.8713135489
 31
0.0
  0
ARC
  5
1E8
330
1F
100
AcDbEntity
  8
0
  6
Continuous
 62
     7
370
    25
100
AcDbCircle
 10
6755.5747012568
 20
4915.3713135489
 30
0.0
 40
2.25
100
AcDbArc
 50
180.0
 51
0.0
  0
LINE
  5
1E9
330
1F
100
AcDbEntity
  8
0
  6
Continuous
 62
     7
370
    25
100
AcDbLine
 10
6737.8247012568
 20
4928.8713135489
 30
0.0
 11
6737.8247012568
 21
4915.3713135489
 31
0.0
  0
ARC
  5
1EA
330
1F
100
AcDbEntity
  8
0
  6
Continuous
 62
     7
370
    25
100
AcDbCircle
 10
6735.5747012568
 20
4928.8713135489
 30
0.0
 40
2.25
100
AcDbArc
 50
0.0
 51
180.0
  0
LINE
  5
1EB
330
1F
100
AcDbEntity
  8
0
  6
Continuous
 62
     7
370
    25
100
AcDbLine
 10
6733.3247012568
 20
4915.3713135489
 30
0.0
 11
6733.3247012568
 21
4928.8713135489
 31
0.0
  0
ARC
  5
1EC
330
1F
100
AcDbEntity
  8
0
  6
Continuous
 62
     7
370
    25
100
AcDbCircle
 10
6735.5747012568
 20
4915.3713135489
 30
0.0
 40
2.25
100
AcDbArc
 50
180.0
 51
0.0
  0
LINE
  5
1ED
330
1F
100
AcDbEntity
  8
0
  6
Continuous
 62
     7
370
    25
100
AcDbLine
 10
6717.8247012568
 20
4928.8713135489
 30
0.0
 11
6717.8247012568
 21
4915.3713135489
 31
0.0
  0
ARC
  5
1EE
330
1F
100
AcDbEntity
  8
0
  6
Continuous
 62
     7
370
    25
100
AcDbCircle
 10
6715.5747012568
 20
4928.8713135489
 30
0.0
 40
2.25
100
AcDbArc
 50
0.0
 51
180.0
  0
LINE
  5
1EF
330
1F
100
AcDbEntity
  8
0
  6
Continuous
 62
     7
370
    25
100
AcDbLine
 10
6713.3247012568
 20
4915.3713135489
 30
0.0
 11
6713.3247012568
 21
4928.8713135489
 31
0.0
  0
ARC
  5
1F0
330
1F
100
AcDbEntity
  8
0
  6
Continuous
 62
     7
370
    25
100
AcDbCircle
 10
6715.5747012568
 20
4915.3713135489
 30
0.0
 40
2.25
100
AcDbArc
 50
180.0
 51
0.0
  0
LINE
  5
1F1
330
1F
100
AcDbEntity
  8
0
  6
Continuous
 62
     7
370
    25
100
AcDbLine
 10
6747.8247012568
 20
4908.8713135489
 30
0.0
 11
6747.8247012568
 21
4895.3713135489
 31
0.0
  0
ARC
  5
1F2
330
1F
100
AcDbEntity
  8
0
  6
Continuous
 62
     7
370
    25
100
AcDbCircle
 10
6745.5747012568
 20
4908.8713135489
 30
0.0
 40
2.25
100
AcDbArc
 50
0.0
 51
180.0
  0
LINE
  5
1F3
330
1F
100
AcDbEntity
  8
0
  6
Continuous
 62
     7
370
    25
100
AcDbLine
 10
6743.3247012568
 20
4895.3713135489
 30
0.0
 11
6743.3247012568
 21
4908.8713135489
 31
0.0
  0
ARC
  5
1F4
330
1F
100
AcDbEntity
  8
0
  6
Continuous
 62
     7
370
    25
100
AcDbCircle
 10
6745.5747012568
 20
4895.3713135489
 30
0.0
 40
2.25
100
AcDbArc
 50
180.0
 51
0.0
  0
LINE
  5
1F5
330
1F
100
AcDbEntity
  8
0
  6
Continuous
 62
     7
370
    25
100
AcDbLine
 10
6727.8247012568
 20
4908.8713135489
 30
0.0
 11
6727.8247012568
 21
4895.3713135489
 31
0.0
  0
ARC
  5
1F6
330
1F
100
AcDbEntity
  8
0
  6
Continuous
 62
     7
370
    25
100
AcDbCircle
 10
6725.5747012568
 20
4908.8713135489
 30
0.0
 40
2.250000000000909
100
AcDbArc
 50
0.0
 51
180.0
  0
LINE
  5
1F7
330
1F
100
AcDbEntity
  8
0
  6
Continuous
 62
     7
370
    25
100
AcDbLine
 10
6723.3247012568
 20
4895.3713135489
 30
0.0
 11
6723.3247012568
 21
4908.8713135489
 31
0.0
  0
ARC
  5
1F8
330
1F
100
AcDbEntity
  8
0
  6
Continuous
 62
     7
370
    25
100
AcDbCircle
 10
6725.5747012568
 20
4895.3713135489
 30
0.0
 40
2.250000000000909
100
AcDbArc
 50
180.0
 51
0.0
  0
LINE
  5
1F9
330
1F
100
AcDbEntity
  8
0
  6
Continuous
 62
     7
370
    25
100
AcDbLine
 10
6757.8247012568
 20
4888.8713135489
 30
0.0
 11
6757.8247012568
 21
4875.3713135489
 31
0.0
  0
ARC
  5
1FA
330
1F
100
AcDbEntity
  8
0
  6
Continuous
 62
     7
370
    25
100
AcDbCircle
 10
6755.5747012568
 20
4888.8713135489
 30
0.0
 40
2.25
100
AcDbArc
 50
0.0
 51
180.0
  0
LINE
  5
1FB
330
1F
100
AcDbEntity
  8
0
  6
Continuous
 62
     7
370
    25
100
AcDbLine
 10
6753.3247012568
 20
4875.3713135489
 30
0.0
 11
6753.3247012568
 21
4888.8713135489
 31
0.0
  0
ARC
  5
1FC
330
1F
100
AcDbEntity
  8
0
  6
Continuous
 62
     7
370
    25
100
AcDbCircle
 10
6755.5747012568
 20
4875.3713135489
 30
0.0
 40
2.25
100
AcDbArc
 50
180.0
 51
0.0
  0
LINE
  5
1FD
330
1F
100
AcDbEntity
  8
0
  6
Continuous
 62
     7
370
    25
100
AcDbLine
 10
6737.8247012568
 20
4888.8713135489
 30
0.0
 11
6737.8247012568
 21
4875.3713135489
 31
0.0
  0
ARC
  5
1FE
330
1F
100
AcDbEntity
  8
0
  6
Continuous
 62
     7
370
    25
100
AcDbCircle
 10
6735.5747012568
 20
4888.8713135489
 30
0.0
 40
2.25
100
AcDbArc
 50
0.0
 51
180.0
  0
LINE
  5
1FF
330
1F
100
AcDbEntity
  8
0
  6
Continuous
 62
     7
370
    25
100
AcDbLine
 10
6733.3247012568
 20
4875.3713135489
 30
0.0
 11
6733.3247012568
 21
4888.8713135489
 31
0.0
  0
ARC
  5
200
330
1F
100
AcDbEntity
  8
0
  6
Continuous
 62
     7
370
    25
100
AcDbCircle
 10
6735.5747012568
 20
4875.3713135489
 30
0.0
 40
2.25
100
AcDbArc
 50
180.0
 51
0.0
  0
LINE
  5
201
330
1F
100
AcDbEntity
  8
0
  6
Continuous
 62
     7
370
    25
100
AcDbLine
 10
6717.8247012568
 20
4888.8713135489
 30
0.0
 11
6717.8247012568
 21
4875.3713135489
 31
0.0
  0
ARC
  5
202
330
1F
100
AcDbEntity
  8
0
  6
Continuous
 62
     7
370
    25
100
AcDbCircle
 10
6715.5747012568
 20
4888.8713135489
 30
0.0
 40
2.25
100
AcDbArc
 50
0.0
 51
180.0
  0
LINE
  5
203
330
1F
100
AcDbEntity
  8
0
  6
Continuous
 62
     7
370
    25
100
AcDbLine
 10
6713.3247012568
 20
4875.3713135489
 30
0.0
 11
6713.3247012568
 21
4888.8713135489
 31
0.0
  0
ARC
  5
204
330
1F
100
AcDbEntity
  8
0
  6
Continuous
 62
     7
370
    25
100
AcDbCircle
 10
6715.5747012568
 20
4875.3713135489
 30
0.0
 40
2.25
100
AcDbArc
 50
180.0
 51
0.0
  0
LINE
  5
205
330
1F
100
AcDbEntity
  8
0
  6
Continuous
 62
     7
370
    25
100
AcDbLine
 10
6747.8247012568
 20
4868.8713135489
 30
0.0
 11
6747.8247012568
 21
4855.3713135489
 31
0.0
  0
ARC
  5
206
330
1F
100
AcDbEntity
  8
0
  6
Continuous
 62
     7
370
    25
100
AcDbCircle
 10
6745.5747012568
 20
4868.8713135489
 30
0.0
 40
2.25
100
AcDbArc
 50
0.0
 51
180.0
  0
LINE
  5
207
330
1F
100
AcDbEntity
  8
0
  6
Continuous
 62
     7
370
    25
100
AcDbLine
 10
6743.3247012568
 20
4855.3713135489
 30
0.0
 11
6743.3247012568
 21
4868.8713135489
 31
0.0
  0
ARC
  5
208
330
1F
100
AcDbEntity
  8
0
  6
Continuous
 62
     7
370
    25
100
AcDbCircle
 10
6745.5747012568
 20
4855.3713135489
 30
0.0
 40
2.25
100
AcDbArc
 50
180.0
 51
0.0
  0
LINE
  5
209
330
1F
100
AcDbEntity
  8
0
  6
Continuous
 62
     7
370
    25
100
AcDbLine
 10
6727.8247012568
 20
4868.8713135489
 30
0.0
 11
6727.8247012568
 21
4855.3713135489
 31
0.0
  0
ARC
  5
20A
330
1F
100
AcDbEntity
  8
0
  6
Continuous
 62
     7
370
    25
100
AcDbCircle
 10
6725.5747012568
 20
4868.8713135489
 30
0.0
 40
2.250000000000909
100
AcDbArc
 50
0.0
 51
180.0
  0
LINE
  5
20B
330
1F
100
AcDbEntity
  8
0
  6
Continuous
 62
     7
370
    25
100
AcDbLine
 10
6723.3247012568
 20
4855.3713135489
 30
0.0
 11
6723.3247012568
 21
4868.8713135489
 31
0.0
  0
ARC
  5
20C
330
1F
100
AcDbEntity
  8
0
  6
Continuous
 62
     7
370
    25
100
AcDbCircle
 10
6725.5747012568
 20
4855.3713135489
 30
0.0
 40
2.250000000000909
100
AcDbArc
 50
180.0
 51
0.0
  0
LINE
  5
20D
330
1F
100
AcDbEntity
  8
0
  6
Continuous
 62
     7
370
    25
100
AcDbLine
 10
6757.8247012568
 20
4848.8713135489
 30
0.0
 11
6757.8247012568
 21
4835.3713135489
 31
0.0
  0
ARC
  5
20E
330
1F
100
AcDbEntity
  8
0
  6
Continuous
 62
     7
370
    25
100
AcDbCircle
 10
6755.5747012568
 20
4848.8713135489
 30
0.0
 40
2.25
100
AcDbArc
 50
0.0
 51
180.0
  0
LINE
  5
20F
330
1F
100
AcDbEntity
  8
0
  6
Continuous
 62
     7
370
    25
100
AcDbLine
 10
6753.3247012568
 20
4835.3713135489
 30
0.0
 11
6753.3247012568
 21
4848.8713135489
 31
0.0
  0
ARC
  5
210
330
1F
100
AcDbEntity
  8
0
  6
Continuous
 62
     7
370
    25
100
AcDbCircle
 10
6755.5747012568
 20
4835.3713135489
 30
0.0
 40
2.25
100
AcDbArc
 50
180.0
 51
0.0
  0
LINE
  5
211
330
1F
100
AcDbEntity
  8
0
  6
Continuous
 62
     7
370
    25
100
AcDbLine
 10
6737.8247012568
 20
4848.8713135489
 30
0.0
 11
6737.8247012568
 21
4835.3713135489
 31
0.0
  0
ARC
  5
212
330
1F
100
AcDbEntity
  8
0
  6
Continuous
 62
     7
370
    25
100
AcDbCircle
 10
6735.5747012568
 20
4848.8713135489
 30
0.0
 40
2.25
100
AcDbArc
 50
0.0
 51
180.0
  0
LINE
  5
213
330
1F
100
AcDbEntity
  8
0
  6
Continuous
 62
     7
370
    25
100
AcDbLine
 10
6733.3247012568
 20
4835.3713135489
 30
0.0
 11
6733.3247012568
 21
4848.8713135489
 31
0.0
  0
ARC
  5
214
330
1F
100
AcDbEntity
  8
0
  6
Continuous
 62
     7
370
    25
100
AcDbCircle
 10
6735.5747012568
 20
4835.3713135489
 30
0.0
 40
2.25
100
AcDbArc
 50
180.0
 51
0.0
  0
LINE
  5
215
330
1F
100
AcDbEntity
  8
0
  6
Continuous
 62
     7
370
    25
100
AcDbLine
 10
6717.8247012568
 20
4848.8713135489
 30
0.0
 11
6717.8247012568
 21
4835.3713135489
 31
0.0
  0
ARC
  5
216
330
1F
100
AcDbEntity
  8
0
  6
Continuous
 62
     7
370
    25
100
AcDbCircle
 10
6715.5747012568
 20
4848.8713135489
 30
0.0
 40
2.25
100
AcDbArc
 50
0.0
 51
180.0
  0
LINE
  5
217
330
1F
100
AcDbEntity
  8
0
  6
Continuous
 62
     7
370
    25
100
AcDbLine
 10
6713.3247012568
 20
4835.3713135489
 30
0.0
 11
6713.3247012568
 21
4848.8713135489
 31
0.0
  0
ARC
  5
218
330
1F
100
AcDbEntity
  8
0
  6
Continuous
 62
     7
370
    25
100
AcDbCircle
 10
6715.5747012568
 20
4835.3713135489
 30
0.0
 40
2.25
100
AcDbArc
 50
180.0
 51
0.0
  0
LINE
  5
219
330
1F
100
AcDbEntity
  8
0
  6
Continuous
 62
     7
370
    25
100
AcDbLine
 10
6747.8247012568
 20
4828.8713135489
 30
0.0
 11
6747.8247012568
 21
4815.3713135489
 31
0.0
  0
ARC
  5
21A
330
1F
100
AcDbEntity
  8
0
  6
Continuous
 62
     7
370
    25
100
AcDbCircle
 10
6745.5747012568
 20
4828.8713135489
 30
0.0
 40
2.25
100
AcDbArc
 50
0.0
 51
180.0
  0
LINE
  5
21B
330
1F
100
AcDbEntity
  8
0
  6
Continuous
 62
     7
370
    25
100
AcDbLine
 10
6743.3247012568
 20
4815.3713135489
 30
0.0
 11
6743.3247012568
 21
4828.8713135489
 31
0.0
  0
ARC
  5
21C
330
1F
100
AcDbEntity
  8
0
  6
Continuous
 62
     7
370
    25
100
AcDbCircle
 10
6745.5747012568
 20
4815.3713135489
 30
0.0
 40
2.25
100
AcDbArc
 50
180.0
 51
0.0
  0
LINE
  5
21D
330
1F
100
AcDbEntity
  8
0
  6
Continuous
 62
     7
370
    25
100
AcDbLine
 10
6727.8247012568
 20
4828.8713135489
 30
0.0
 11
6727.8247012568
 21
4815.3713135489
 31
0.0
  0
ARC
  5
21E
330
1F
100
AcDbEntity
  8
0
  6
Continuous
 62
     7
370
    25
100
AcDbCircle
 10
6725.5747012568
 20
4828.8713135489
 30
0.0
 40
2.250000000000909
100
AcDbArc
 50
0.0
 51
180.0
  0
LINE
  5
21F
330
1F
100
AcDbEntity
  8
0
  6
Continuous
 62
     7
370
    25
100
AcDbLine
 10
6723.3247012568
 20
4815.3713135489
 30
0.0
 11
6723.3247012568
 21
4828.8713135489
 31
0.0
  0
ARC
  5
220
330
1F
100
AcDbEntity
  8
0
  6
Continuous
 62
     7
370
    25
100
AcDbCircle
 10
6725.5747012568
 20
4815.3713135489
 30
0.0
 40
2.250000000000909
100
AcDbArc
 50
180.0
 51
0.0
  0
LINE
  5
221
330
1F
100
AcDbEntity
  8
0
  6
Continuous
 62
     7
370
    25
100
AcDbLine
 10
6757.8247012568
 20
4808.8713135489
 30
0.0
 11
6757.8247012568
 21
4795.3713135489
 31
0.0
  0
ARC
  5
222
330
1F
100
AcDbEntity
  8
0
  6
Continuous
 62
     7
370
    25
100
AcDbCircle
 10
6755.5747012568
 20
4808.8713135489
 30
0.0
 40
2.25
100
AcDbArc
 50
0.0
 51
180.0
  0
LINE
  5
223
330
1F
100
AcDbEntity
  8
0
  6
Continuous
 62
     7
370
    25
100
AcDbLine
 10
6753.3247012568
 20
4795.3713135489
 30
0.0
 11
6753.3247012568
 21
4808.8713135489
 31
0.0
  0
ARC
  5
224
330
1F
100
AcDbEntity
  8
0
  6
Continuous
 62
     7
370
    25
100
AcDbCircle
 10
6755.5747012568
 20
4795.3713135489
 30
0.0
 40
2.25
100
AcDbArc
 50
180.0
 51
0.0
  0
LINE
  5
225
330
1F
100
AcDbEntity
  8
0
  6
Continuous
 62
     7
370
    25
100
AcDbLine
 10
6737.8247012568
 20
4808.8713135489
 30
0.0
 11
6737.8247012568
 21
4795.3713135489
 31
0.0
  0
ARC
  5
226
330
1F
100
AcDbEntity
  8
0
  6
Continuous
 62
     7
370
    25
100
AcDbCircle
 10
6735.5747012568
 20
4808.8713135489
 30
0.0
 40
2.25
100
AcDbArc
 50
0.0
 51
180.0
  0
LINE
  5
227
330
1F
100
AcDbEntity
  8
0
  6
Continuous
 62
     7
370
    25
100
AcDbLine
 10
6733.3247012568
 20
4795.3713135489
 30
0.0
 11
6733.3247012568
 21
4808.8713135489
 31
0.0
  0
ARC
  5
228
330
1F
100
AcDbEntity
  8
0
  6
Continuous
 62
     7
370
    25
100
AcDbCircle
 10
6735.5747012568
 20
4795.3713135489
 30
0.0
 40
2.25
100
AcDbArc
 50
180.0
 51
0.0
  0
LINE
  5
229
330
1F
100
AcDbEntity
  8
0
  6
Continuous
 62
     7
370
    25
100
AcDbLine
 10
6717.8247012568
 20
4808.8713135489
 30
0.0
 11
6717.8247012568
 21
4795.3713135489
 31
0.0
  0
ARC
  5
22A
330
1F
100
AcDbEntity
  8
0
  6
Continuous
 62
     7
370
    25
100
AcDbCircle
 10
6715.5747012568
 20
4808.8713135489
 30
0.0
 40
2.25
100
AcDbArc
 50
0.0
 51
180.0
  0
LINE
  5
22B
330
1F
100
AcDbEntity
  8
0
  6
Continuous
 62
     7
370
    25
100
AcDbLine
 10
6713.3247012568
 20
4795.3713135489
 30
0.0
 11
6713.3247012568
 21
4808.8713135489
 31
0.0
  0
ARC
  5
22C
330
1F
100
AcDbEntity
  8
0
  6
Continuous
 62
     7
370
    25
100
AcDbCircle
 10
6715.5747012568
 20
4795.3713135489
 30
0.0
 40
2.25
100
AcDbArc
 50
180.0
 51
0.0
  0
LINE
  5
22D
330
1F
100
AcDbEntity
  8
0
  6
Continuous
 62
     7
370
    25
100
AcDbLine
 10
6651.3247012568
 20
4742.1213135489
 30
0.0
 11
6651.3247012568
 21
5611.1213135489
 31
0.0
  0
LINE
  5
22E
330
1F
100
AcDbEntity
  8
0
  6
Continuous
 62
     7
370
    25
100
AcDbLine
 10
6653.3247012568
 20
4742.1213135489
 30
0.0
 11
6651.3247012568
 21
4742.1213135489
 31
0.0
  0
LINE
  5
22F
330
1F
100
AcDbEntity
  8
0
  6
Continuous
 62
     7
370
    25
100
AcDbLine
 10
6836.3247012568
 20
4742.1213135489
 30
0.0
 11
7010.3247012568
 21
4742.1213135489
 31
0.0
  0
LINE
  5
230
330
1F
100
AcDbEntity
  8
0
  6
Continuous
 62
     7
370
    25
100
AcDbLine
 10
6651.3247012568
 20
5611.1213135489
 30
0.0
 11
6651.3247012568
 21
5642.6213135489
 31
0.0
  0
LINE
  5
231
330
1F
100
AcDbEntity
  8
0
  6
Continuous
 62
     7
370
    25
100
AcDbLine
 10
6836.3247012568
 20
5642.6213135489
 30
0.0
 11
6651.3247012568
 21
5642.6213135489
 31
0.0
  0
LINE
  5
232
330
1F
100
AcDbEntity
  8
0
  6
Continuous
 62
     7
370
    25
100
AcDbLine
 10
6836.3247012568
 20
5611.1213135489
 30
0.0
 11
6836.3247012568
 21
5642.6213135489
 31
0.0
  0
LINE
  5
233
330
1F
100
AcDbEntity
  8
0
  6
Continuous
 62
     7
370
    25
100
AcDbLine
 10
6651.3247012568
 20
5611.1213135489
 30
0.0
 11
6836.3247012568
 21
5611.1213135489
 31
0.0
  0
LINE
  5
234
330
1F
100
AcDbEntity
  8
0
  6
Continuous
 62
     7
370
    25
100
AcDbLine
 10
6651.3247012568
 20
5643.1213135489
 30
0.0
 11
6836.3247012568
 21
5643.1213135489
 31
0.0
  0
LINE
  5
235
330
1F
100
AcDbEntity
  8
0
  6
Continuous
 62
     7
370
    25
100
AcDbLine
 10
6836.3247012568
 20
5642.6213135489
 30
0.0
 11
6836.3247012568
 21
5643.1213135489
 31
0.0
  0
LINE
  5
236
330
1F
100
AcDbEntity
  8
0
  6
Continuous
 62
     7
370
    25
100
AcDbLine
 10
6651.3247012568
 20
5642.6213135489
 30
0.0
 11
6651.3247012568
 21
5643.1213135489
 31
0.0
  0
LINE
  5
237
330
1F
100
AcDbEntity
  8
0
  6
Continuous
 62
     7
370
    25
100
AcDbLine
 10
6836.3247012568
 20
5611.1213135489
 30
0.0
 11
7011.3247012568
 21
5611.1213135489
 31
0.0
  0
LINE
  5
238
330
1F
100
AcDbEntity
  8
0
  6
Continuous
 62
     7
370
    25
100
AcDbLine
 10
6836.3247012568
 20
5643.1213135489
 30
0.0
 11
7010.8247012568
 21
5643.1213135489
 31
0.0
  0
ARC
  5
239
330
1F
100
AcDbEntity
  8
0
  6
Continuous
 62
     7
370
    25
100
AcDbCircle
 10
6651.2747012568
 20
5674.0713135489
 30
0.0
 40
1.050000000000182
100
AcDbArc
 50
0.0
 51
180.0
  0
LINE
  5
23A
330
1F
100
AcDbEntity
  8
0
  6
Continuous
 62
     7
370
    25
100
AcDbLine
 10
6651.3247012568
 20
5674.0713135489
 30
0.0
 11
6652.3247012568
 21
5674.0713135489
 31
0.0
  0
ARC
  5
23B
330
1F
100
AcDbEntity
  8
0
  6
Continuous
 62
     7
370
    25
100
AcDbCircle
 10
6651.2747012568
 20
5674.0713135489
 30
0.0
 40
0.0500000000001819
100
AcDbArc
 50
0.0
 51
180.0
  0
LINE
  5
23C
330
1F
100
AcDbEntity
  8
0
  6
Continuous
 62
     7
370
    25
100
AcDbLine
 10
6651.2247012568
 20
5674.0713135489
 30
0.0
 11
6650.2247012568
 21
5674.0713135489
 31
0.0
  0
ARC
  5
23D
330
1F
100
AcDbEntity
  8
0
  6
Continuous
 62
     7
370
    25
100
AcDbCircle
 10
6653.3247012568
 20
5644.1213135489
 30
0.0
 40
1.0
100
AcDbArc
 50
180.0
 51
270.0
  0
ARC
  5
23E
330
1F
100
AcDbEntity
  8
0
  6
Continuous
 62
     7
370
    25
100
AcDbCircle
 10
6653.3247012568
 20
5644.1213135489
 30
0.0
 40
2.0
100
AcDbArc
 50
180.0
 51
210.0
  0
LINE
  5
23F
330
1F
100
AcDbEntity
  8
0
  6
Continuous
 62
     7
370
    25
100
AcDbLine
 10
6651.3247012568
 20
5644.1213135489
 30
0.0
 11
6651.3247012568
 21
5674.0713135489
 31
0.0
  0
LINE
  5
240
330
1F
100
AcDbEntity
  8
0
  6
Continuous
 62
     7
370
    25
100
AcDbLine
 10
6652.3247012568
 20
5644.1213135489
 30
0.0
 11
6652.3247012568
 21
5674.0713135489
 31
0.0
  0
LINE
  5
241
330
1F
100
AcDbEntity
  8
0
  6
Continuous
 62
     7
370
    25
100
AcDbLine
 10
6650.2247012568
 20
5674.0713135489
 30
0.0
 11
6650.2247012568
 21
5669.1213135489
 31
0.0
  0
LINE
  5
242
330
1F
100
AcDbEntity
  8
0
  6
Continuous
 62
     7
370
    25
100
AcDbLine
 10
6651.2247012568
 20
5674.0713135489
 30
0.0
 11
6651.2247012568
 21
5669.1213135489
 31
0.0
  0
LINE
  5
243
330
1F
100
AcDbEntity
  8
0
  6
Continuous
 62
     7
370
    25
100
AcDbLine
 10
6651.2247012568
 20
5669.1213135489
 30
0.0
 11
6650.2247012568
 21
5669.1213135489
 31
0.0
  0
ELLIPSE
  5
244
330
1F
100
AcDbEntity
  8
0
  6
Continuous
 62
     7
370
    25
100
AcDbEllipse
 10
6722.6014718112
 20
5713.104881112
 30
0.0
 11
18.09415868023007
 21
40.30467960303759
 31
0.0
210
0.0
220
0.0
230
1.0
 40
0.2269976956
 41
2.457546376385362
 42
2.498206052392016
  0
ELLIPSE
  5
245
330
1F
100
AcDbEntity
  8
0
  6
Continuous
 62
     7
370
    25
100
AcDbEllipse
 10
6718.1404945796
 20
5678.4447609351
 30
0.0
 11
15.17219895793005
 21
-6.811322610094977
 31
0.0
210
0.0
220
0.0
230
1.0
 40
0.3366205128
 41
3.283808824222499
 42
7.995788587741043
  0
LINE
  5
246
330
1F
100
AcDbEntity
  8
0
  6
Continuous
 62
     7
370
    25
100
AcDbLine
 10
6702.7964898212
 20
5684.4634276415
 30
0.0
 11
6718.2659909277
 21
5684.4634276415
 31
0.0
  0
LWPOLYLINE
  5
247
330
1F
100
AcDbEntity
  8
0
  6
Continuous
 62
     7
370
    25
100
AcDbPolyline
 90
       17
 70
   128
 43
0.0
 10
6716.5365500614
 20
5679.7134276415
 10
6716.0720133105
 20
5679.7705179922
 10
6715.5338421802
 20
5679.9330975557
 10
6715.0039683466
 20
5680.1764150673
 10
6714.5630602975
 20
5680.4634276415
 10
6714.2782422865
 20
5680.7504402158
 10
6714.192875274
 20
5680.9937577274
 10
6714.3199556138
 20
5681.1563372909
 10
6714.640136476
 20
5681.2134276415
 10
6715.1046732269
 20
5681.1563372909
 10
6715.6428443572
 20
5680.9937577274
 10
6716.1727181908
 20
5680.7504402158
 10
6716.6136262399
 20
5680.4634276415
 10
6716.8984442509
 20
5680.1764150673
 10
6716.9838112634
 20
5679.9330975557
 10
6716.8567309236
 20
5679.7705179922
 10
6716.5365500614
 20
5679.7134276415
  0
LWPOLYLINE
  5
248
330
1F
100
AcDbEntity
  8
0
  6
Continuous
 62
     7
370
    25
100
AcDbPolyline
 90
       22
 70
   128
 43
0.0
 10
6720.3729971344
 20
5680.4634276415
 10
6719.679447018
 20
5680.3745732531
 10
6719.2721947654
 20
5680.1159051902
 10
6719.1874265266
 20
5679.7104072453
 10
6719.4326743315
 20
5679.1941096903
 10
6719.9861468364
 20
5678.6128878287
 10
6720.7986655804
 20
5678.0183857736
 10
6721.7980347074
 20
5677.4634276415
 10
6722.8954558848
 20
5676.9973238979
 10
6723.9934184251
 20
5676.6614899057
 10
6724.9943635382
 20
5676.4857659891
 10
6725.8093528582
 20
5676.4857659891
 10
6726.3659710076
 20
5676.6614899057
 10
6726.614760021
 20
5676.9973238979
 10
6726.5336139029
 20
5677.4634276415
 10
6726.1297428419
 20
5678.0183857736
 10
6725.4390325542
 20
5678.6128878287
 10
6724.52285568
 20
5679.1941096903
 10
6723.4626185551
 20
5679.7104072453
 10
6722.3525279008
 20
5680.1159051902
 10
6721.2912201434
 20
5680.3745732531
 10
6720.3729971344
 20
5680.4634276415
  0
LWPOLYLINE
  5
249
330
1F
100
AcDbEntity
  8
0
  6
Continuous
 62
     7
370
    25
100
AcDbPolyline
 90
       22
 70
   128
 43
0.0
 10
6710.8228377941
 20
5680.4634276415
 10
6710.1292876776
 20
5680.3745732531
 10
6709.7220354251
 20
5680.1159051902
 10
6709.6372671862
 20
5679.7104072453
 10
6709.8825149911
 20
5679.1941096903
 10
6710.435987496
 20
5678.6128878287
 10
6711.24850624
 20
5678.0183857736
 10
6712.2478753671
 20
5677.4634276415
 10
6713.3452965445
 20
5676.9973238979
 10
6714.4432590848
 20
5676.6614899057
 10
6715.4442041978
 20
5676.4857659891
 10
6716.2591935179
 20
5676.4857659891
 10
6716.8158116672
 20
5676.6614899057
 10
6717.0646006807
 20
5676.9973238979
 10
6716.9834545625
 20
5677.4634276415
 10
6716.5795835016
 20
5678.0183857736
 10
6715.8888732139
 20
5678.6128878287
 10
6714.9726963396
 20
5679.1941096903
 10
6713.9124592147
 20
5679.7104072453
 10
6712.8023685605
 20
5680.1159051902
 10
6711.741060803
 20
5680.3745732531
 10
6710.8228377941
 20
5680.4634276415
  0
LWPOLYLINE
  5
24A
330
1F
100
AcDbEntity
  8
0
  6
Continuous
 62
     7
370
    25
100
AcDbPolyline
 90
       17
 70
   128
 43
0.0
 10
6723.490066541
 20
5674.2134276415
 10
6722.9564317706
 20
5674.1182770572
 10
6722.7446312044
 20
5673.847311118
 10
6722.8869095585
 20
5673.441781932
 10
6723.3616062434
 20
5672.9634276415
 10
6724.0964529919
 20
5672.4850733511
 10
6724.9795760479
 20
5672.0795441651
 10
6725.8765279317
 20
5671.8085782259
 10
6726.6507558499
 20
5671.7134276415
 10
6727.1843906203
 20
5671.8085782259
 10
6727.3961911866
 20
5672.0795441651
 10
6727.2539128324
 20
5672.4850733511
 10
6726.7792161475
 20
5672.9634276415
 10
6726.044369399
 20
5673.441781932
 10
6725.161246343
 20
5673.847311118
 10
6724.2642944592
 20
5674.1182770572
 10
6723.490066541
 20
5674.2134276415
  0
LWPOLYLINE
  5
24B
330
1F
100
AcDbEntity
  8
0
  6
Continuous
 62
     7
370
    25
100
AcDbPolyline
 90
       22
 70
   128
 43
0.0
 10
6715.8799406879
 20
5676.4634276405
 10
6716.5734908044
 20
5676.552282029
 10
6716.9807430571
 20
5676.8109500921
 10
6717.065511296
 20
5677.2164480372
 10
6716.8202634912
 20
5677.7327455924
 10
6716.2667909864
 20
5678.3139674543
 10
6715.4542722425
 20
5678.9084695097
 10
6714.4549031156
 20
5679.463427642
 10
6713.3574819383
 20
5679.9295313859
 10
6712.2595193981
 20
5680.2653653783
 10
6711.258574285
 20
5680.441089295
 10
6710.443584965
 20
5680.441089295
 10
6709.8869668156
 20
5680.2653653783
 10
6709.6381778021
 20
5679.9295313859
 10
6709.7193239201
 20
5679.463427642
 10
6710.123194981
 20
5678.9084695097
 10
6710.8139052686
 20
5678.3139674543
 10
6711.7300821427
 20
5677.7327455924
 10
6712.7903192675
 20
5677.2164480372
 10
6713.9004099217
 20
5676.8109500921
 10
6714.9617176791
 20
5676.552282029
 10
6715.8799406879
 20
5676.4634276405
  0
LWPOLYLINE
  5
24C
330
1F
100
AcDbEntity
  8
0
  6
Continuous
 62
     7
370
    25
100
AcDbPolyline
 90
       22
 70
   128
 43
0.0
 10
6725.4301000283
 20
5676.4634276405
 10
6726.1236501448
 20
5676.552282029
 10
6726.5309023974
 20
5676.8109500921
 10
6726.6156706363
 20
5677.2164480372
 10
6726.3704228316
 20
5677.7327455924
 10
6725.8169503268
 20
5678.3139674543
 10
6725.0044315829
 20
5678.9084695097
 10
6724.005062456
 20
5679.463427642
 10
6722.9076412786
 20
5679.9295313859
 10
6721.8096787384
 20
5680.2653653783
 10
6720.8087336254
 20
5680.441089295
 10
6719.9937443054
 20
5680.441089295
 10
6719.437126156
 20
5680.2653653783
 10
6719.1883371425
 20
5679.9295313859
 10
6719.2694832605
 20
5679.463427642
 10
6719.6733543213
 20
5678.9084695097
 10
6720.3640646089
 20
5678.3139674543
 10
6721.280241483
 20
5677.7327455924
 10
6722.3404786078
 20
5677.2164480372
 10
6723.450569262
 20
5676.8109500921
 10
6724.5118770194
 20
5676.552282029
 10
6725.4301000283
 20
5676.4634276405
  0
LWPOLYLINE
  5
24D
330
1F
100
AcDbEntity
  8
0
  6
Continuous
 62
     7
370
    25
100
AcDbPolyline
 90
       17
 70
   128
 43
0.0
 10
6714.640136476
 20
5681.2134276414
 10
6715.1046732269
 20
5681.1563372908
 10
6715.6428443572
 20
5680.9937577273
 10
6716.1727181908
 20
5680.7504402158
 10
6716.6136262399
 20
5680.4634276415
 10
6716.8984442509
 20
5680.1764150673
 10
6716.9838112634
 20
5679.9330975557
 10
6716.8567309237
 20
5679.7705179923
 10
6716.5365500614
 20
5679.7134276417
 10
6716.0720133105
 20
5679.7705179923
 10
6715.5338421802
 20
5679.9330975557
 10
6715.0039683466
 20
5680.1764150673
 10
6714.5630602975
 20
5680.4634276415
 10
6714.2782422865
 20
5680.7504402158
 10
6714.192875274
 20
5680.9937577273
 10
6714.3199556137
 20
5681.1563372908
 10
6714.640136476
 20
5681.2134276414
  0
LINE
  5
24E
330
1F
100
AcDbEntity
  8
0
  6
Continuous
 62
     8
370
    25
100
AcDbLine
 10
6836.3247012568
 20
5611.1213135489
 30
0.0
 11
6836.3247012568
 21
4742.1213135489
 31
0.0
  0
LINE
  5
24F
330
1F
100
AcDbEntity
  8
0
  6
Continuous
 62
     8
370
    25
100
AcDbLine
 10
6653.3247012568
 20
5611.1213135489
 30
0.0
 11
6653.3247012568
 21
4742.1213135489
 31
0.0
  0
LINE
  5
250
330
1F
100
AcDbEntity
  8
0
  6
Continuous
 62
     8
370
    25
100
AcDbLine
 10
7011.3247012568
 20
5642.6213135489
 30
0.0
 11
6836.3247012568
 21
5642.6213135489
 31
0.0
  0
CIRCLE
  5
251
330
1F
100
AcDbEntity
  8
0
  6
Continuous
 62
     7
100
AcDbCircle
 10
6390.8875129672
 20
4478.4807315355
 30
0.0
 40
15.0000000000004
  0
CIRCLE
  5
252
330
1F
100
AcDbEntity
  8
0
  6
Continuous
 62
     7
100
AcDbCircle
 10
6384.760170401
 20
4471.9373710411
 30
0.0
 40
4.99999999999893
  0
LINE
  5
253
330
1F
100
AcDbEntity
  8
0
  6
Continuous
 62
     7
370
    25
100
AcDbLine
 10
6099.5142282743
 20
4433.2798362794
 30
0.0
 11
6095.8424393386
 21
4432.9585963727
 31
0.0
  0
LINE
  5
254
330
1F
100
AcDbEntity
  8
0
  6
Continuous
 62
     7
370
    25
100
AcDbLine
 10
6095.8424393386
 20
4423.6010761861
 30
0.0
 11
6099.5142282743
 21
4423.2798362794
 31
0.0
  0
ARC
  5
255
330
1F
100
AcDbEntity
  8
0
  6
Continuous
 62
     7
370
    25
100
AcDbCircle
 10
6095.8642282743
 20
4432.7095476981
 30
0.0
 40
0.2500000000007033
100
AcDbArc
 50
94.9999999999
 51
180.0
  0
ARC
  5
256
330
1F
100
AcDbEntity
  8
0
  6
Continuous
 62
     7
370
    25
100
AcDbCircle
 10
6095.8642282743
 20
4423.8501248606
 30
0.0
 40
0.25
100
AcDbArc
 50
180.0
 51
265.0000000001
  0
LINE
  5
257
330
1F
100
AcDbEntity
  8
0
  6
Continuous
 62
     7
370
    25
100
AcDbLine
 10
6449.5142282743
 20
4424.7798362794
 30
0.0
 11
6451.9316594229
 21
4424.9913340997
 31
0.0
  0
LINE
  5
258
330
1F
100
AcDbEntity
  8
0
  6
Continuous
 62
     7
370
    25
100
AcDbLine
 10
6451.9316594229
 20
4431.568338459
 30
0.0
 11
6449.5142282743
 21
4431.7798362794
 31
0.0
  0
ARC
  5
259
330
1F
100
AcDbEntity
  8
0
  6
Continuous
 62
     7
370
    25
100
AcDbCircle
 10
6451.9142282743
 20
4431.3690995194
 30
0.0
 40
0.200000000000728
100
AcDbArc
 50
0.0
 51
85.0000000002
  0
ARC
  5
25A
330
1F
100
AcDbEntity
  8
0
  6
Continuous
 62
     7
370
    25
100
AcDbCircle
 10
6451.9142282743
 20
4425.1905730394
 30
0.0
 40
0.200000000000728
100
AcDbArc
 50
274.9999999998
 51
0.0
  0
LINE
  5
25B
330
1F
100
AcDbEntity
  8
0
  6
Continuous
 62
     7
370
    25
100
AcDbLine
 10
6379.7046219134
 20
4489.9467462991
 30
0.0
 11
6375.4473210959
 21
4485.4003946497
 31
0.0
  0
LINE
  5
25C
330
1F
100
AcDbEntity
  8
0
  6
Continuous
 62
     7
370
    25
100
AcDbLine
 10
6398.8050788345
 20
4463.5276912635
 30
0.0
 11
6403.062379652
 21
4468.0740429128
 31
0.0
  0
LINE
  5
25D
330
1F
100
AcDbEntity
  8
0
  6
Continuous
 62
     7
370
    25
100
AcDbLine
 10
6097.2142282743
 20
4423.8319944767
 30
0.0
 11
6097.2142282743
 21
4423.4870159788
 31
0.0
  0
LWPOLYLINE
  5
25E
330
1F
100
AcDbEntity
  8
0
  6
Continuous
 62
     7
370
    25
100
AcDbPolyline
 90
        3
 70
   128
 43
0.0
 10
6097.2142282743
 20
4423.8319944767
 10
6096.4466371697
 20
4423.8985146299
 10
6095.8424393386
 20
4423.9508944595
  0
LWPOLYLINE
  5
25F
330
1F
100
AcDbEntity
  8
0
  6
Continuous
 62
     7
370
    25
100
AcDbPolyline
 90
        3
 70
   128
 43
0.0
 10
6095.8424393386
 20
4423.6059159616
 10
6096.4466371697
 20
4423.553536132
 10
6097.2142282743
 20
4423.4870159788
  0
LINE
  5
260
330
1F
100
AcDbEntity
  8
0
  6
Continuous
 62
     7
370
    25
100
AcDbLine
 10
6095.6142282743
 20
4424.1979295047
 30
0.0
 11
6095.6142282743
 21
4432.7095476981
 31
0.0
  0
ARC
  5
261
330
1F
100
AcDbEntity
  8
0
  6
Continuous
 62
     7
370
    25
100
AcDbCircle
 10
6095.8630458838
 20
4424.1988590479
 30
0.0
 40
0.2488193457783041
100
AcDbArc
 50
180.2140469695
 51
265.2494775315
  0
ARC
  5
262
330
1F
100
AcDbEntity
  8
0
  6
Continuous
 62
     7
370
    25
100
AcDbCircle
 10
6095.8629897688
 20
4423.8538287111
 30
0.0
 40
0.2487630429348418
100
AcDbArc
 50
180.2021556393
 51
265.2613688633
  0
LINE
  5
263
330
1F
100
AcDbEntity
  8
0
  6
Continuous
 62
     7
370
    25
100
AcDbLine
 10
6095.6142282743
 20
4424.1979295047
 30
0.0
 11
6095.6142282743
 21
4423.8529510069
 31
0.0
  0
LWPOLYLINE
  5
264
330
1F
100
AcDbEntity
  8
0
  6
Continuous
 62
     7
370
    25
100
AcDbPolyline
 90
        3
 70
   128
 43
0.0
 10
6451.9316594229
 20
4427.599736588
 10
6451.5307185105
 20
4427.5861159628
 10
6451.0142282743
 20
4427.5685770512
  0
LINE
  5
265
330
1F
100
AcDbEntity
  8
0
  6
Continuous
 62
     7
370
    25
100
AcDbLine
 10
6451.0142282743
 20
4427.5685770512
 30
0.0
 11
6451.0142282743
 21
4426.4595075399
 31
0.0
  0
LWPOLYLINE
  5
266
330
1F
100
AcDbEntity
  8
0
  6
Continuous
 62
     7
370
    25
100
AcDbPolyline
 90
        3
 70
   128
 43
0.0
 10
6451.0142282743
 20
4426.4595075399
 10
6451.5307185105
 20
4426.4770464515
 10
6451.9316594229
 20
4426.4906670767
  0
LINE
  5
267
330
1F
100
AcDbEntity
  8
0
  6
Continuous
 62
     7
370
    25
100
AcDbLine
 10
6452.1142282743
 20
4431.3690995194
 30
0.0
 11
6452.1142282743
 21
4427.6772007971
 31
0.0
  0
LWPOLYLINE
  5
268
330
1F
100
AcDbEntity
  8
0
  6
Continuous
 62
     7
370
    25
100
AcDbPolyline
 90
        6
 70
   128
 43
0.0
 10
6452.1142282743
 20
4427.6772007971
 10
6452.1049704784
 20
4427.6537974382
 10
6452.0733980426
 20
4427.6300963655
 10
6452.0428208238
 20
4427.6176289958
 10
6451.9856151874
 20
4427.6045577424
 10
6451.9316594229
 20
4427.599736588
  0
LINE
  5
269
330
1F
100
AcDbEntity
  8
0
  6
Continuous
 62
     7
370
    25
100
AcDbLine
 10
6452.1142282743
 20
4426.5681312858
 30
0.0
 11
6452.1142282743
 21
4427.6772007971
 31
0.0
  0
LWPOLYLINE
  5
26A
330
1F
100
AcDbEntity
  8
0
  6
Continuous
 62
     7
370
    25
100
AcDbPolyline
 90
        7
 70
   128
 43
0.0
 10
6451.9316594229
 20
4426.4906670767
 10
6451.9480426039
 20
4426.4914897226
 10
6452.0102939879
 20
4426.4999196437
 10
6452.0428208238
 20
4426.5085594845
 10
6452.086502943
 20
4426.5286090921
 10
6452.1104246948
 20
4426.5530239589
 10
6452.1142282743
 20
4426.5681312858
  0
LINE
  5
26B
330
1F
100
AcDbEntity
  8
0
  6
Continuous
 62
     7
370
    25
100
AcDbLine
 10
6452.1142282743
 20
4426.5681312858
 30
0.0
 11
6452.1142282743
 21
4425.1905730394
 31
0.0
  0
LINE
  5
26C
330
1F
100
AcDbEntity
  8
0
  6
Continuous
 62
     7
370
    25
100
AcDbLine
 10
6272.8764951405
 20
4353.7888201298
 30
0.0
 11
6274.8426782117
 21
4359.2672385007
 31
0.0
  0
LINE
  5
26D
330
1F
100
AcDbEntity
  8
0
  6
Continuous
 62
     7
370
    25
100
AcDbLine
 10
6276.1489151914
 20
4358.7623646894
 30
0.0
 11
6274.1975341786
 21
4353.3251896138
 31
0.0
  0
ARC
  5
26E
330
1F
100
AcDbEntity
  8
0
  6
Continuous
 62
     7
370
    25
100
AcDbCircle
 10
6446.5142282743
 20
4539.2798362794
 30
0.0
 40
2.000000000000619
100
AcDbArc
 50
0.0
 51
30.0
  0
LINE
  5
26F
330
1F
100
AcDbEntity
  8
0
  6
Continuous
 62
     7
370
    25
100
AcDbLine
 10
6447.5142282743
 20
4539.2798362794
 30
0.0
 11
6448.5142282743
 21
4539.2798362794
 31
0.0
  0
LINE
  5
270
330
1F
100
AcDbEntity
  8
0
  6
Continuous
 62
     7
370
    25
100
AcDbLine
 10
6101.5142282743
 20
4539.2798362794
 30
0.0
 11
6100.5142282743
 21
4539.2798362794
 31
0.0
  0
ARC
  5
271
330
1F
100
AcDbEntity
  8
0
  6
Continuous
 62
     7
370
    25
100
AcDbCircle
 10
6102.5142282743
 20
4539.2798362794
 30
0.0
 40
2.000000000000164
100
AcDbArc
 50
120.0
 51
180.0
  0
LINE
  5
272
330
1F
100
AcDbEntity
  8
0
  6
Continuous
 62
     7
370
    25
100
AcDbLine
 10
6449.5142282743
 20
4542.3798362794
 30
0.0
 11
6101.5142282743
 21
4542.3798362794
 31
0.0
  0
LINE
  5
273
330
1F
100
AcDbEntity
  8
0
  6
Continuous
 62
     7
370
    25
100
AcDbLine
 10
6449.5142282743
 20
4540.2798362794
 30
0.0
 11
6101.5142282743
 21
4540.2798362794
 31
0.0
  0
LINE
  5
274
330
1F
100
AcDbEntity
  8
0
  6
Continuous
 62
     7
370
    25
100
AcDbLine
 10
6101.5142282743
 20
4540.2798362794
 30
0.0
 11
6101.5142282743
 21
4542.3798362794
 31
0.0
  0
LINE
  5
275
330
1F
100
AcDbEntity
  8
0
  6
Continuous
 62
     7
370
    25
100
AcDbLine
 10
6449.5142282743
 20
4542.3798362794
 30
0.0
 11
6449.5142282743
 21
4540.2798362794
 31
0.0
  0
LINE
  5
276
330
1F
100
AcDbEntity
  8
0
  6
Continuous
 62
     7
370
    25
100
AcDbLine
 10
6101.5142282743
 20
4539.2798362794
 30
0.0
 11
6447.5142282743
 21
4539.2798362794
 31
0.0
  0
LINE
  5
277
330
1F
100
AcDbEntity
  8
0
  6
Continuous
 62
     7
370
    25
100
AcDbLine
 10
6447.5142282743
 20
4539.2798362794
 30
0.0
 11
6447.5142282743
 21
4540.2798362794
 31
0.0
  0
LINE
  5
278
330
1F
100
AcDbEntity
  8
0
  6
Continuous
 62
     7
370
    25
100
AcDbLine
 10
6101.5142282743
 20
4540.2798362794
 30
0.0
 11
6101.5142282743
 21
4539.2798362794
 31
0.0
  0
LINE
  5
279
330
1F
100
AcDbEntity
  8
0
  6
Continuous
 62
     7
370
    25
100
AcDbLine
 10
6449.5142282743
 20
4540.2798362794
 30
0.0
 11
6449.5142282743
 21
4356.2798362794
 31
0.0
  0
LINE
  5
27A
330
1F
100
AcDbEntity
  8
0
  6
Continuous
 62
     7
370
    25
100
AcDbLine
 10
6449.5142282743
 20
4356.2798362794
 30
0.0
 11
6449.0142282743
 21
4356.2798362794
 31
0.0
  0
LINE
  5
27B
330
1F
100
AcDbEntity
  8
0
  6
Continuous
 62
     7
370
    25
100
AcDbLine
 10
6100.5142282743
 20
4541.2798362794
 30
0.0
 11
6100.5142282743
 21
4538.2798362794
 31
0.0
  0
LINE
  5
27C
330
1F
100
AcDbEntity
  8
0
  6
Continuous
 62
     7
370
    25
100
AcDbLine
 10
6100.5142282743
 20
4538.2798362794
 30
0.0
 11
6101.5142282743
 21
4538.2798362794
 31
0.0
  0
LINE
  5
27D
330
1F
100
AcDbEntity
  8
0
  6
Continuous
 62
     7
370
    25
100
AcDbLine
 10
6101.5142282743
 20
4538.2798362794
 30
0.0
 11
6101.5142282743
 21
4539.2798362794
 31
0.0
  0
LINE
  5
27E
330
1F
100
AcDbEntity
  8
0
  6
Continuous
 62
     7
370
    25
100
AcDbLine
 10
6447.5142282743
 20
4539.2798362794
 30
0.0
 11
6447.5142282743
 21
4538.2798362794
 31
0.0
  0
LINE
  5
27F
330
1F
100
AcDbEntity
  8
0
  6
Continuous
 62
     7
370
    25
100
AcDbLine
 10
6447.5142282743
 20
4538.2798362794
 30
0.0
 11
6448.5142282743
 21
4538.2798362794
 31
0.0
  0
ARC
  5
280
330
1F
100
AcDbEntity
  8
0
  6
Continuous
 62
     7
370
    25
100
AcDbCircle
 10
6274.5142282743
 20
4356.2798362794
 30
0.0
 40
174.5
100
AcDbArc
 50
180.0
 51
0.0
  0
LINE
  5
281
330
1F
100
AcDbEntity
  8
0
  6
Continuous
 62
     7
370
    25
100
AcDbLine
 10
6100.0142282743
 20
4541.2798362794
 30
0.0
 11
6100.0142282743
 21
4356.2798362794
 31
0.0
  0
LINE
  5
282
330
1F
100
AcDbEntity
  8
0
  6
Continuous
 62
     7
370
    25
100
AcDbLine
 10
6100.5142282743
 20
4541.2798362794
 30
0.0
 11
6100.0142282743
 21
4541.2798362794
 31
0.0
  0
CIRCLE
  5
283
330
1F
100
AcDbEntity
  8
0
  6
Continuous
 62
     7
370
    25
100
AcDbCircle
 10
6274.5142282743
 20
4353.7798362794
 30
0.0
 40
140.2557652558353
  0
LINE
  5
284
330
1F
100
AcDbEntity
  8
0
  6
Continuous
 62
     7
370
    25
100
AcDbLine
 10
6448.5142282743
 20
4538.2798362794
 30
0.0
 11
6448.5142282743
 21
4540.2798362794
 31
0.0
  0
LINE
  5
285
330
1F
100
AcDbEntity
  8
0
  6
Continuous
 62
     7
370
    25
100
AcDbLine
 10
6099.5142282743
 20
4356.2798362794
 30
0.0
 11
6100.0142282743
 21
4356.2798362794
 31
0.0
  0
LINE
  5
286
330
1F
100
AcDbEntity
  8
0
  6
Continuous
 62
     7
370
    25
100
AcDbLine
 10
6099.5142282743
 20
4356.2798362794
 30
0.0
 11
6099.5142282743
 21
4541.2798362794
 31
0.0
  0
LINE
  5
287
330
1F
100
AcDbEntity
  8
0
  6
Continuous
 62
     7
370
    25
100
AcDbLine
 10
6099.5142282743
 20
4541.2798362794
 30
0.0
 11
6100.0142282743
 21
4541.2798362794
 31
0.0
  0
CIRCLE
  5
288
330
1F
100
AcDbEntity
  8
0
  6
Continuous
 62
     7
370
    25
100
AcDbCircle
 10
6274.5142282743
 20
4353.7798362794
 30
0.0
 40
140.045035055552
  0
ARC
  5
289
330
1F
100
AcDbEntity
  8
0
  6
Continuous
 62
     7
370
    25
100
AcDbCircle
 10
6274.5142282743
 20
4356.2798362794
 30
0.0
 40
175.0000000000009
100
AcDbArc
 50
180.0
 51
0.0
  0
CIRCLE
  5
28A
330
1F
100
AcDbEntity
  8
0
  6
Continuous
 62
     7
370
    25
100
AcDbCircle
 10
6274.5142282743
 20
4356.2798362794
 30
0.0
 40
2.999999999999286
  0
CIRCLE
  5
28B
330
1F
100
AcDbEntity
  8
0
  6
Continuous
 62
     7
370
    25
100
AcDbCircle
 10
6257.0142282743
 20
4356.2798362794
 30
0.0
 40
3.999999999999572
  0
CIRCLE
  5
28C
330
1F
100
AcDbEntity
  8
0
  6
Continuous
 62
     7
370
    25
100
AcDbCircle
 10
6262.1398596035
 20
4368.6542049501
 30
0.0
 40
4.000000000002434
  0
CIRCLE
  5
28D
330
1F
100
AcDbEntity
  8
0
  6
Continuous
 62
     7
370
    25
100
AcDbCircle
 10
6274.5142282743
 20
4373.7798362794
 30
0.0
 40
4.000000000003386
  0
CIRCLE
  5
28E
330
1F
100
AcDbEntity
  8
0
  6
Continuous
 62
     7
370
    25
100
AcDbCircle
 10
6286.8885969451
 20
4368.6542049501
 30
0.0
 40
4.000000000000012
  0
CIRCLE
  5
28F
330
1F
100
AcDbEntity
  8
0
  6
Continuous
 62
     7
370
    25
100
AcDbCircle
 10
6292.0142282743
 20
4356.2798362794
 30
0.0
 40
3.999999999999975
  0
CIRCLE
  5
290
330
1F
100
AcDbEntity
  8
0
  6
Continuous
 62
     7
370
    25
100
AcDbCircle
 10
6286.8885969451
 20
4343.9054676086
 30
0.0
 40
4.000000000002871
  0
CIRCLE
  5
291
330
1F
100
AcDbEntity
  8
0
  6
Continuous
 62
     7
370
    25
100
AcDbCircle
 10
6274.5142282743
 20
4338.7798362794
 30
0.0
 40
4.000000000000254
  0
CIRCLE
  5
292
330
1F
100
AcDbEntity
  8
0
  6
Continuous
 62
     7
370
    25
100
AcDbCircle
 10
6262.1398596035
 20
4343.9054676086
 30
0.0
 40
4.000000000003253
  0
ELLIPSE
  5
293
330
1F
100
AcDbEntity
  8
0
  6
Continuous
 62
     7
370
    25
100
AcDbEllipse
 10
6382.9488455765
 20
4470.003065725
 30
0.0
 11
15.98787660106427
 21
17.07337871352865
 31
0.0
210
0.0
220
0.0
230
1.0
 40
0.6840402867
 41
5.497582535349077
 42
7.068788079010086
  0
ELLIPSE
  5
294
330
1F
100
AcDbEntity
  8
0
  6
Continuous
 62
     7
370
    25
100
AcDbEllipse
 10
6387.1261999652
 20
4474.4640429566
 30
0.0
 11
11.67887886930839
 21
-10.93635169313802
 31
0.0
210
0.0
220
0.0
230
1.0
 40
0.9216049851
 41
2.356399098625487
 42
7.068378862143939
  0
ELLIPSE
  5
295
330
1F
100
AcDbEntity
  8
0
  6
Continuous
 62
     7
370
    25
100
AcDbEllipse
 10
6391.3835007827
 20
4479.0103946059
 30
0.0
 11
11.10506254615393
 21
11.85904440088598
 31
0.0
210
0.0
220
0.0
230
1.0
 40
0.984807753
 41
4.712388980384768
 42
6.283185307179586
  0
ELLIPSE
  5
296
330
1F
100
AcDbEntity
  8
0
  6
Continuous
 62
     7
370
    25
100
AcDbEllipse
 10
6391.3835007827
 20
4479.0103946059
 30
0.0
 11
11.10506254615393
 21
11.85904440088598
 31
0.0
210
0.0
220
0.0
230
1.0
 40
0.984807753
 41
0.0
 42
1.570796326794923
  0
LINE
  5
297
330
1F
100
AcDbEntity
  8
0
  6
Continuous
 62
     7
370
    25
100
AcDbLine
 10
6385.9917642025
 20
4489.808047715
 30
0.0
 11
6402.5115721477
 21
4474.3385466085
 31
0.0
  0
LWPOLYLINE
  5
298
330
1F
100
AcDbEntity
  8
0
  6
Continuous
 62
     7
370
    25
100
AcDbPolyline
 90
       17
 70
   128
 43
0.0
 10
6388.6281678804
 20
4476.0679874748
 10
6388.2767587135
 20
4476.5325242257
 10
6388.114026345
 20
4477.070695356
 10
6388.1647453029
 20
4477.6005691897
 10
6388.4211940856
 20
4478.0414772387
 10
6388.8443306907
 20
4478.3262952497
 10
6389.3697364057
 20
4478.4116622622
 10
6389.9174229735
 20
4478.2845819224
 10
6390.4040100787
 20
4477.9644010602
 10
6390.7554192457
 20
4477.4998643093
 10
6390.9181516142
 20
4476.961693179
 10
6390.8674326563
 20
4476.4318193454
 10
6390.6109838736
 20
4475.9909112963
 10
6390.1878472685
 20
4475.7060932853
 10
6389.6624415534
 20
4475.6207262729
 10
6389.1147549857
 20
4475.7478066126
 10
6388.6281678804
 20
4476.0679874748
  0
LWPOLYLINE
  5
299
330
1F
100
AcDbEntity
  8
0
  6
Continuous
 62
     7
370
    25
100
AcDbPolyline
 90
       22
 70
   128
 43
0.0
 10
6394.6255984849
 20
4472.2315404018
 10
6393.6598017421
 20
4472.9250905182
 10
6392.5694317815
 20
4473.3323427708
 10
6391.4513727593
 20
4473.4171110097
 10
6390.404969126
 20
4473.1718632048
 10
6389.5231984366
 20
4472.6183906998
 10
6388.8844098863
 20
4471.8058719558
 10
6388.5453626412
 20
4470.8065028288
 10
6388.5361825368
 20
4469.7090816514
 10
6388.8576852657
 20
4468.6111191111
 10
6389.4813038996
 20
4467.610173998
 10
6390.3516271862
 20
4466.795184678
 10
6391.391323082
 20
4466.2385665286
 10
6392.5080100441
 20
4465.9897775152
 10
6393.6024655354
 20
4466.0709236333
 10
6394.5774423826
 20
4466.4747946943
 10
6395.3463096142
 20
4467.165504982
 10
6395.8407500025
 20
4468.0816818562
 10
6396.0168303493
 20
4469.1419189811
 10
6395.8589051429
 20
4470.2520096354
 10
6395.3810067311
 20
4471.3133173929
 10
6394.6255984849
 20
4472.2315404018
  0
LWPOLYLINE
  5
29A
330
1F
100
AcDbEntity
  8
0
  6
Continuous
 62
     7
370
    25
100
AcDbPolyline
 90
       22
 70
   128
 43
0.0
 10
6384.4270279517
 20
4481.7816997421
 10
6383.4612312089
 20
4482.4752498586
 10
6382.3708612483
 20
4482.8825021112
 10
6381.2528022261
 20
4482.96727035
 10
6380.2063985928
 20
4482.7220225451
 10
6379.3246279034
 20
4482.1685500402
 10
6378.6858393531
 20
4481.3560312962
 10
6378.3467921079
 20
4480.3566621692
 10
6378.3376120036
 20
4479.2592409917
 10
6378.6591147325
 20
4478.1612784515
 10
6379.2827333664
 20
4477.1603333384
 10
6380.1530566529
 20
4476.3453440184
 10
6381.1927525488
 20
4475.788725869
 10
6382.3094395109
 20
4475.5399368556
 10
6383.4038950022
 20
4475.6210829737
 10
6384.3788718494
 20
4476.0249540346
 10
6385.147739081
 20
4476.7156643223
 10
6385.6421794693
 20
4477.6318411966
 10
6385.8182598161
 20
4478.6920783215
 10
6385.6603346097
 20
4479.8021689758
 10
6385.1824361979
 20
4480.8634767332
 10
6384.4270279517
 20
4481.7816997421
  0
LWPOLYLINE
  5
29B
330
1F
100
AcDbEntity
  8
0
  6
Continuous
 62
     7
370
    25
100
AcDbPolyline
 90
       17
 70
   128
 43
0.0
 10
6382.1167464866
 20
4469.1144709952
 10
6381.3057679778
 20
4469.6481057656
 10
6380.3929570316
 20
4469.8599063319
 10
6379.5172808398
 20
4469.7176279777
 10
6378.8120531647
 20
4469.2429312928
 10
6378.3846385269
 20
4468.5080845443
 10
6378.3001069304
 20
4467.6249614883
 10
6378.5713275445
 20
4466.7280096045
 10
6379.1570094895
 20
4465.9537816863
 10
6379.9679879982
 20
4465.4201469159
 10
6380.8807989445
 20
4465.2083463497
 10
6381.7564751362
 20
4465.3506247038
 10
6382.4617028114
 20
4465.8253213887
 10
6382.8891174492
 20
4466.5601681372
 10
6382.9736490457
 20
4467.4432911932
 10
6382.7024284316
 20
4468.340243077
 10
6382.1167464866
 20
4469.1144709952
  0
LWPOLYLINE
  5
29C
330
1F
100
AcDbEntity
  8
0
  6
Continuous
 62
     7
370
    25
100
AcDbPolyline
 90
       22
 70
   128
 43
0.0
 10
6379.6914487566
 20
4476.7245968483
 10
6380.6572454994
 20
4476.0310467318
 10
6381.7476154599
 20
4475.6237944792
 10
6382.865674482
 20
4475.5390262402
 10
6383.9120781152
 20
4475.784274045
 10
6384.7938488046
 20
4476.3377465498
 10
6385.4326373547
 20
4477.1502652937
 10
6385.7716845998
 20
4478.1496344206
 10
6385.780864704
 20
4479.2470555979
 10
6385.459361975
 20
4480.3450181381
 10
6384.8357433411
 20
4481.3459632512
 10
6383.9654200545
 20
4482.1609525712
 10
6382.9257241588
 20
4482.7175707206
 10
6381.8090371967
 20
4482.9663597341
 10
6380.7145817055
 20
4482.8852136161
 10
6379.7396048584
 20
4482.4813425552
 10
6378.9707376269
 20
4481.7906322677
 10
6378.4762972387
 20
4480.8744553935
 10
6378.3002168921
 20
4479.8142182687
 10
6378.4581420985
 20
4478.7041276146
 10
6378.9360405104
 20
4477.6428198572
 10
6379.6914487566
 20
4476.7245968483
  0
LWPOLYLINE
  5
29D
330
1F
100
AcDbEntity
  8
0
  6
Continuous
 62
     7
370
    25
100
AcDbPolyline
 90
       22
 70
   128
 43
0.0
 10
6389.8900192898
 20
4467.1744375079
 10
6390.8558160326
 20
4466.4808873914
 10
6391.9461859931
 20
4466.0736351388
 10
6393.0642450153
 20
4465.9888668999
 10
6394.1106486484
 20
4466.2341147047
 10
6394.9924193378
 20
4466.7875872095
 10
6395.6312078879
 20
4467.6001059533
 10
6395.970255133
 20
4468.5994750802
 10
6395.9794352373
 20
4469.6968962576
 10
6395.6579325083
 20
4470.7948587978
 10
6395.0343138743
 20
4471.7958039108
 10
6394.1639905878
 20
4472.6107932308
 10
6393.124294692
 20
4473.1674113802
 10
6392.0076077299
 20
4473.4162003937
 10
6390.9131522387
 20
4473.3350542757
 10
6389.9381753916
 20
4472.9311832149
 10
6389.1693081601
 20
4472.2404729273
 10
6388.6748677719
 20
4471.3242960532
 10
6388.4987874253
 20
4470.2640589284
 10
6388.6567126317
 20
4469.1539682742
 10
6389.1346110436
 20
4468.0926605168
 10
6389.8900192898
 20
4467.1744375079
  0
LWPOLYLINE
  5
29E
330
1F
100
AcDbEntity
  8
0
  6
Continuous
 62
     7
370
    25
100
AcDbPolyline
 90
       17
 70
   128
 43
0.0
 10
6390.4040100788
 20
4477.9644010602
 10
6390.7554192457
 20
4477.4998643093
 10
6390.9181516142
 20
4476.961693179
 10
6390.8674326563
 20
4476.4318193454
 10
6390.6109838736
 20
4475.9909112963
 10
6390.1878472685
 20
4475.7060932853
 10
6389.6624415534
 20
4475.6207262728
 10
6389.1147549857
 20
4475.7478066125
 10
6388.6281678804
 20
4476.0679874748
 10
6388.2767587134
 20
4476.5325242257
 10
6388.1140263449
 20
4477.070695356
 10
6388.1647453029
 20
4477.6005691896
 10
6388.4211940856
 20
4478.0414772387
 10
6388.8443306907
 20
4478.3262952497
 10
6389.3697364058
 20
4478.4116622622
 10
6389.9174229735
 20
4478.2845819225
 10
6390.4040100788
 20
4477.9644010602
  0
LINE
  5
29F
330
1F
100
AcDbEntity
  8
0
  6
Continuous
 62
     8
370
    25
100
AcDbLine
 10
6095.8424393386
 20
4432.9585963727
 30
0.0
 11
6095.8424393386
 21
4423.9508944595
 31
0.0
  0
LINE
  5
2A0
330
1F
100
AcDbEntity
  8
0
  6
Continuous
 62
     8
370
    25
100
AcDbLine
 10
6095.8424393386
 20
4423.6059159616
 30
0.0
 11
6095.8424393386
 21
4423.6010761861
 31
0.0
  0
LINE
  5
2A1
330
1F
100
AcDbEntity
  8
0
  6
Continuous
 62
     8
370
    25
100
AcDbLine
 10
6451.9316594229
 20
4427.599736588
 30
0.0
 11
6451.9316594229
 21
4431.568338459
 31
0.0
  0
LINE
  5
2A2
330
1F
100
AcDbEntity
  8
0
  6
Continuous
 62
     8
370
    25
100
AcDbLine
 10
6451.9316594229
 20
4424.9913340997
 30
0.0
 11
6451.9316594229
 21
4426.4906670767
 31
0.0
  0
LINE
  5
2A3
330
1F
100
AcDbEntity
  8
0
  6
Continuous
 62
     8
370
    25
100
AcDbLine
 10
6449.0142282743
 20
4356.2798362794
 30
0.0
 11
6449.0142282743
 21
4540.2798362794
 31
0.0
  0
ENDSEC
  0
SECTION
  2
OBJECTS
  0
DICTIONARY
  5
C
330
0
100
AcDbDictionary
281
     1
  3
ACAD_GROUP
350
D
  3
ACAD_LAYOUT
350
1A
  3
ACAD_MLINESTYLE
350
17
  3
ACAD_PLOTSETTINGS
350
19
  3
ACAD_PLOTSTYLENAME
350
E
  3
ACAD_SCALELIST
350
47
  3
DWGPROPS
350
2A4
  0
DICTIONARY
  5
D
102
{ACAD_REACTORS
330
C
102
}
330
C
100
AcDbDictionary
281
     1
  0
DICTIONARY
  5
1A
102
{ACAD_REACTORS
330
C
102
}
330
C
100
AcDbDictionary
281
     1
  3
Layout1
350
1E
  3
Layout2
350
26
  3
Model
350
22
  0
DICTIONARY
  5
17
102
{ACAD_REACTORS
330
C
102
}
330
C
100
AcDbDictionary
281
     1
  3
Standard
350
18
  0
DICTIONARY
  5
19
102
{ACAD_REACTORS
330
C
102
}
330
C
100
AcDbDictionary
281
     1
  0
ACDBDICTIONARYWDFLT
  5
E
102
{ACAD_REACTORS
330
C
102
}
330
C
100
AcDbDictionary
281
     1
  3
Normal
350
F
100
AcDbDictionaryWithDefault
340
F
  0
DICTIONARY
  5
47
102
{ACAD_REACTORS
330
C
102
}
330
C
100
AcDbDictionary
281
     1
  3
A0
350
48
  3
A1
350
49
  3
A2
350
4A
  3
A3
350
4B
  3
A4
350
4C
  3
A5
350
4D
  3
A6
350
4E
  3
A7
350
4F
  3
A8
350
50
  3
A9
350
51
  3
B0
350
52
  3
B1
350
53
  3
B2
350
54
  3
B3
350
55
  3
B4
350
56
  3
B5
350
57
  3
B6
350
58
  3
B7
350
59
  3
B8
350
5A
  3
B9
350
5B
  3
C0
350
5C
  3
C1
350
5D
  3
C2
350
5E
  3
C3
350
5F
  3
C4
350
60
  3
C5
350
61
  3
C6
350
62
  3
C7
350
63
  3
C8
350
64
  3
C9
350
65
  3
D0
350
66
  3
D1
350
67
  3
D2
350
68
  0
XRECORD
  5
2A4
102
{ACAD_REACTORS
330
C
102
}
330
C
100
AcDbXrecord
280
     1
  1
DWGPROPS COOKIE
  2

  3

  4

  6

  7

  8
radek.stransky
  9

300
=
301
=
302
=
303
=
304
=
305
=
306
=
307
=
308
=
309
=
 40
0.0
 41
2459543.359657095
 42
2459543.35965735
  1

 90
        0
  0
LAYOUT
  5
1E
102
{ACAD_REACTORS
330
1A
102
}
330
1A
100
AcDbPlotSettings
  1

  2
none_device
  4

  6

 40
0.0
 41
0.0
 42
0.0
 43
0.0
 44
0.0
 45
0.0
 46
0.0
 47
0.0
 48
0.0
 49
0.0
140
0.0
141
0.0
142
1.0
143
1.0
 70
   688
 72
     1
 73
     0
 74
     5
  7

 75
    16
147
1.0
148
0.0
149
0.0
100
AcDbLayout
  1
Layout1
 70
     1
 71
     1
 10
0.0
 20
0.0
 11
420.0
 21
297.0
 12
0.0
 22
0.0
 32
0.0
 14
1.0000000000E+20
 24
1.0000000000E+20
 34
1.0000000000E+20
 15
-1.0000000000E+20
 25
-1.0000000000E+20
 35
-1.0000000000E+20
146
0.0
 13
0.0
 23
0.0
 33
0.0
 16
1.0
 26
0.0
 36
0.0
 17
0.0
 27
1.0
 37
0.0
 76
     0
330
1B
  0
LAYOUT
  5
26
102
{ACAD_REACTORS
330
1A
102
}
330
1A
100
AcDbPlotSettings
  1

  2
none_device
  4

  6

 40
0.0
 41
0.0
 42
0.0
 43
0.0
 44
0.0
 45
0.0
 46
0.0
 47
0.0
 48
0.0
 49
0.0
140
0.0
141
0.0
142
1.0
143
1.0
 70
   688
 72
     1
 73
     0
 74
     5
  7

 75
    16
147
1.0
148
0.0
149
0.0
100
AcDbLayout
  1
Layout2
 70
     1
 71
     2
 10
0.0
 20
0.0
 11
0.0
 21
0.0
 12
0.0
 22
0.0
 32
0.0
 14
0.0
 24
0.0
 34
0.0
 15
0.0
 25
0.0
 35
0.0
146
0.0
 13
0.0
 23
0.0
 33
0.0
 16
1.0
 26
0.0
 36
0.0
 17
0.0
 27
1.0
 37
0.0
 76
     0
330
23
  0
LAYOUT
  5
22
102
{ACAD_REACTORS
330
1A
102
}
330
1A
100
AcDbPlotSettings
  1

  2
none_device
  4
Letter_(8.50_x_11.00_Inches)
  6

 40
6.35
 41
6.35
 42
6.35000508
 43
6.35000508
 44
215.9
 45
279.4
 46
0.0
 47
0.0
 48
0.0
 49
0.0
140
0.0
141
0.0
142
1.0
143
1.0
 70
  1712
 72
     1
 73
     0
 74
     0
  7

 75
     0
147
1.0
148
0.0
149
0.0
100
AcDbLayout
  1
Model
 70
     1
 71
     0
 10
0.0
 20
0.0
 11
20000.0
 21
10000.0
 12
0.0
 22
0.0
 32
0.0
 14
0.0
 24
0.0
 34
0.0
 15
20000.0
 25
10000.0
 35
0.0
146
0.0
 13
0.0
 23
0.0
 33
0.0
 16
1.0
 26
0.0
 36
0.0
 17
0.0
 27
1.0
 37
0.0
 76
     0
330
1F
331
29
  0
MLINESTYLE
  5
18
102
{ACAD_REACTORS
330
17
102
}
330
17
100
AcDbMlineStyle
  2
Standard
 70
     0
  3

 62
   256
 51
90.0
 52
90.0
 71
     2
 49
0.5
 62
   256
  6
BYLAYER
 49
-0.5
 62
   256
  6
BYLAYER
  0
ACDBPLACEHOLDER
  5
F
102
{ACAD_REACTORS
330
E
102
}
330
E
  0
SCALE
  5
48
102
{ACAD_REACTORS
330
47
102
}
330
47
100
AcDbScale
 70
     0
300
1:1
140
1.0
141
1.0
290
     1
  0
SCALE
  5
49
102
{ACAD_REACTORS
330
47
102
}
330
47
100
AcDbScale
 70
     0
300
1:2
140
1.0
141
2.0
290
     0
  0
SCALE
  5
4A
102
{ACAD_REACTORS
330
47
102
}
330
47
100
AcDbScale
 70
     0
300
1:4
140
1.0
141
4.0
290
     0
  0
SCALE
  5
4B
102
{ACAD_REACTORS
330
47
102
}
330
47
100
AcDbScale
 70
     0
300
1:5
140
1.0
141
5.0
290
     0
  0
SCALE
  5
4C
102
{ACAD_REACTORS
330
47
102
}
330
47
100
AcDbScale
 70
     0
300
1:8
140
1.0
141
8.0
290
     0
  0
SCALE
  5
4D
102
{ACAD_REACTORS
330
47
102
}
330
47
100
AcDbScale
 70
     0
300
1:10
140
1.0
141
10.0
290
     0
  0
SCALE
  5
4E
102
{ACAD_REACTORS
330
47
102
}
330
47
100
AcDbScale
 70
     0
300
1:16
140
1.0
141
16.0
290
     0
  0
SCALE
  5
4F
102
{ACAD_REACTORS
330
47
102
}
330
47
100
AcDbScale
 70
     0
300
1:20
140
1.0
141
20.0
290
     0
  0
SCALE
  5
50
102
{ACAD_REACTORS
330
47
102
}
330
47
100
AcDbScale
 70
     0
300
1:30
140
1.0
141
30.0
290
     0
  0
SCALE
  5
51
102
{ACAD_REACTORS
330
47
102
}
330
47
100
AcDbScale
 70
     0
300
1:40
140
1.0
141
40.0
290
     0
  0
SCALE
  5
52
102
{ACAD_REACTORS
330
47
102
}
330
47
100
AcDbScale
 70
     0
300
1:50
140
1.0
141
50.0
290
     0
  0
SCALE
  5
53
102
{ACAD_REACTORS
330
47
102
}
330
47
100
AcDbScale
 70
     0
300
1:100
140
1.0
141
100.0
290
     0
  0
SCALE
  5
54
102
{ACAD_REACTORS
330
47
102
}
330
47
100
AcDbScale
 70
     0
300
2:1
140
2.0
141
1.0
290
     0
  0
SCALE
  5
55
102
{ACAD_REACTORS
330
47
102
}
330
47
100
AcDbScale
 70
     0
300
4:1
140
4.0
141
1.0
290
     0
  0
SCALE
  5
56
102
{ACAD_REACTORS
330
47
102
}
330
47
100
AcDbScale
 70
     0
300
8:1
140
8.0
141
1.0
290
     0
  0
SCALE
  5
57
102
{ACAD_REACTORS
330
47
102
}
330
47
100
AcDbScale
 70
     0
300
10:1
140
10.0
141
1.0
290
     0
  0
SCALE
  5
58
102
{ACAD_REACTORS
330
47
102
}
330
47
100
AcDbScale
 70
     0
300
100:1
140
100.0
141
1.0
290
     0
  0
SCALE
  5
59
102
{ACAD_REACTORS
330
47
102
}
330
47
100
AcDbScale
 70
     0
300
1/128" = 1'-0"
140
0.0078125
141
12.0
290
     0
  0
SCALE
  5
5A
102
{ACAD_REACTORS
330
47
102
}
330
47
100
AcDbScale
 70
     0
300
1/64" = 1'-0"
140
0.015625
141
12.0
290
     0
  0
SCALE
  5
5B
102
{ACAD_REACTORS
330
47
102
}
330
47
100
AcDbScale
 70
     0
300
1/32" = 1'-0"
140
0.03125
141
12.0
290
     0
  0
SCALE
  5
5C
102
{ACAD_REACTORS
330
47
102
}
330
47
100
AcDbScale
 70
     0
300
1/16" = 1'-0"
140
0.0625
141
12.0
290
     0
  0
SCALE
  5
5D
102
{ACAD_REACTORS
330
47
102
}
330
47
100
AcDbScale
 70
     0
300
3/32" = 1'-0"
140
0.09375
141
12.0
290
     0
  0
SCALE
  5
5E
102
{ACAD_REACTORS
330
47
102
}
330
47
100
AcDbScale
 70
     0
300
1/8" = 1'-0"
140
0.125
141
12.0
290
     0
  0
SCALE
  5
5F
102
{ACAD_REACTORS
330
47
102
}
330
47
100
AcDbScale
 70
     0
300
3/16" = 1'-0"
140
0.1875
141
12.0
290
     0
  0
SCALE
  5
60
102
{ACAD_REACTORS
330
47
102
}
330
47
100
AcDbScale
 70
     0
300
1/4" = 1'-0"
140
0.25
141
12.0
290
     0
  0
SCALE
  5
61
102
{ACAD_REACTORS
330
47
102
}
330
47
100
AcDbScale
 70
     0
300
3/8" = 1'-0"
140
0.375
141
12.0
290
     0
  0
SCALE
  5
62
102
{ACAD_REACTORS
330
47
102
}
330
47
100
AcDbScale
 70
     0
300
1/2" = 1'-0"
140
0.5
141
12.0
290
     0
  0
SCALE
  5
63
102
{ACAD_REACTORS
330
47
102
}
330
47
100
AcDbScale
 70
     0
300
3/4" = 1'-0"
140
0.75
141
12.0
290
     0
  0
SCALE
  5
64
102
{ACAD_REACTORS
330
47
102
}
330
47
100
AcDbScale
 70
     0
300
1" = 1'-0"
140
1.0
141
12.0
290
     0
  0
SCALE
  5
65
102
{ACAD_REACTORS
330
47
102
}
330
47
100
AcDbScale
 70
     0
300
1-1/2" = 1'-0"
140
1.5
141
12.0
290
     0
  0
SCALE
  5
66
102
{ACAD_REACTORS
330
47
102
}
330
47
100
AcDbScale
 70
     0
300
3" = 1'-0"
140
3.0
141
12.0
290
     0
  0
SCALE
  5
67
102
{ACAD_REACTORS
330
47
102
}
330
47
100
AcDbScale
 70
     0
300
6" = 1'-0"
140
6.0
141
12.0
290
     0
  0
SCALE
  5
68
102
{ACAD_REACTORS
330
47
102
}
330
47
100
AcDbScale
 70
     0
300
1'-0" = 1'-0"
140
12.0
141
12.0
290
     0
  0
ENDSEC
  0
EOF
