  0
SECTION
  2
HEADER
  9
$ACADVER
  1
AC1015
  9
$ACADMAINTVER
 70
     6
  9
$DWGCODEPAGE
  3
ANSI_1250
  9
$INSBASE
 10
0.0
 20
0.0
 30
0.0
  9
$EXTMIN
 10
0.0
 20
0.0
 30
0.0
  9
$EXTMAX
 10
20000.0
 20
10000.0
 30
0.0
  9
$LIMMIN
 10
0.0
 20
0.0
  9
$LIMMAX
 10
20000.0
 20
10000.0
  9
$ORTHOMODE
 70
     0
  9
$REGENMODE
 70
     1
  9
$FILLMODE
 70
     1
  9
$QTEXTMODE
 70
     0
  9
$MIRRTEXT
 70
     1
  9
$LTSCALE
 40
1.0
  9
$ATTMODE
 70
     1
  9
$TEXTSIZE
 40
2.0
  9
$TRACEWID
 40
1.0
  9
$TEXTSTYLE
  7
Standard
  9
$CLAYER
  8
0
  9
$CELTYPE
  6
ByLayer
  9
$CECOLOR
 62
   256
  9
$CELTSCALE
 40
1.0
  9
$DISPSILH
 70
     0
  9
$DIMSCALE
 40
1.0
  9
$DIMASZ
 40
2.0
  9
$DIMEXO
 40
1.0
  9
$DIMDLI
 40
3.75
  9
$DIMRND
 40
0.0
  9
$DIMDLE
 40
0.0
  9
$DIMEXE
 40
1.0
  9
$DIMTP
 40
0.0
  9
$DIMTM
 40
0.0
  9
$DIMTXT
 40
2.0
  9
$DIMCEN
 40
2.5
  9
$DIMTSZ
 40
0.0
  9
$DIMTOL
 70
     0
  9
$DIMLIM
 70
     0
  9
$DIMTIH
 70
     1
  9
$DIMTOH
 70
     1
  9
$DIMSE1
 70
     0
  9
$DIMSE2
 70
     0
  9
$DIMTAD
 70
     1
  9
$DIMZIN
 70
     0
  9
$DIMBLK
  1

  9
$DIMASO
 70
     1
  9
$DIMSHO
 70
     1
  9
$DIMPOST
  1

  9
$DIMAPOST
  1

  9
$DIMALT
 70
     0
  9
$DIMALTD
 70
     3
  9
$DIMALTF
 40
0.0393700787
  9
$DIMLFAC
 40
1.0
  9
$DIMTOFL
 70
     1
  9
$DIMTVP
 40
0.0
  9
$DIMTIX
 70
     0
  9
$DIMSOXD
 70
     0
  9
$DIMSAH
 70
     0
  9
$DIMBLK1
  1

  9
$DIMBLK2
  1

  9
$DIMSTYLE
  2
ISO-25
  9
$DIMCLRD
 70
     0
  9
$DIMCLRE
 70
     0
  9
$DIMCLRT
 70
     0
  9
$DIMTFAC
 40
1.0
  9
$DIMGAP
 40
1.524
  9
$DIMJUST
 70
     0
  9
$DIMSD1
 70
     0
  9
$DIMSD2
 70
     0
  9
$DIMTOLJ
 70
     0
  9
$DIMTZIN
 70
     0
  9
$DIMALTZ
 70
     0
  9
$DIMALTTZ
 70
     0
  9
$DIMUPT
 70
     0
  9
$DIMDEC
 70
     2
  9
$DIMTDEC
 70
     0
  9
$DIMALTU
 70
     2
  9
$DIMALTTD
 70
     3
  9
$DIMTXSTY
  7
Standard
  9
$DIMAUNIT
 70
     0
  9
$DIMADEC
 70
     2
  9
$DIMALTRND
 40
0.0
  9
$DIMAZIN
 70
     0
  9
$DIMDSEP
 70
    44
  9
$DIMATFIT
 70
     3
  9
$DIMFRAC
 70
     0
  9
$DIMLDRBLK
  1

  9
$DIMLUNIT
 70
     2
  9
$DIMLWD
 70
    -2
  9
$DIMLWE
 70
    -2
  9
$DIMTMOVE
 70
     0
  9
$LUNITS
 70
     2
  9
$LUPREC
 70
     3
  9
$SKETCHINC
 40
1.0
  9
$FILLETRAD
 40
10.0
  9
$AUNITS
 70
     0
  9
$AUPREC
 70
     2
  9
$MENU
  1
.
  9
$ELEVATION
 40
0.0
  9
$PELEVATION
 40
0.0
  9
$THICKNESS
 40
0.0
  9
$LIMCHECK
 70
     0
  9
$CHAMFERA
 40
0.0
  9
$CHAMFERB
 40
0.0
  9
$CHAMFERC
 40
0.0
  9
$CHAMFERD
 40
0.0
  9
$SKPOLY
 70
     0
  9
$TDCREATE
 40
2459110.435636389
  9
$TDUCREATE
 40
2459110.352303056
  9
$TDUPDATE
 40
2459110.435636678
  9
$TDUUPDATE
 40
2459110.352303345
  9
$TDINDWG
 40
0.0000000116
  9
$TDUSRTIMER
 40
0.0000000116
  9
$USRTIMER
 70
     1
  9
$ANGBASE
 50
0.0
  9
$ANGDIR
 70
     0
  9
$PDMODE
 70
     0
  9
$PDSIZE
 40
-1.0
  9
$PLINEWID
 40
0.0
  9
$SPLFRAME
 70
     0
  9
$SPLINETYPE
 70
     6
  9
$SPLINESEGS
 70
     8
  9
$HANDSEED
  5
310
  9
$SURFTAB1
 70
     6
  9
$SURFTAB2
 70
     6
  9
$SURFTYPE
 70
     6
  9
$SURFU
 70
     6
  9
$SURFV
 70
     6
  9
$UCSBASE
  2

  9
$UCSNAME
  2

  9
$UCSORG
 10
0.0
 20
0.0
 30
0.0
  9
$UCSXDIR
 10
1.0
 20
0.0
 30
0.0
  9
$UCSYDIR
 10
0.0
 20
1.0
 30
0.0
  9
$UCSORTHOREF
  2

  9
$UCSORTHOVIEW
 70
     0
  9
$UCSORGTOP
 10
0.0
 20
0.0
 30
0.0
  9
$UCSORGBOTTOM
 10
0.0
 20
0.0
 30
0.0
  9
$UCSORGLEFT
 10
0.0
 20
0.0
 30
0.0
  9
$UCSORGRIGHT
 10
0.0
 20
0.0
 30
0.0
  9
$UCSORGFRONT
 10
0.0
 20
0.0
 30
0.0
  9
$UCSORGBACK
 10
0.0
 20
0.0
 30
0.0
  9
$PUCSBASE
  2

  9
$PUCSNAME
  2

  9
$PUCSORG
 10
0.0
 20
0.0
 30
0.0
  9
$PUCSXDIR
 10
1.0
 20
0.0
 30
0.0
  9
$PUCSYDIR
 10
0.0
 20
1.0
 30
0.0
  9
$PUCSORTHOREF
  2

  9
$PUCSORTHOVIEW
 70
     0
  9
$PUCSORGTOP
 10
0.0
 20
0.0
 30
0.0
  9
$PUCSORGBOTTOM
 10
0.0
 20
0.0
 30
0.0
  9
$PUCSORGLEFT
 10
0.0
 20
0.0
 30
0.0
  9
$PUCSORGRIGHT
 10
0.0
 20
0.0
 30
0.0
  9
$PUCSORGFRONT
 10
0.0
 20
0.0
 30
0.0
  9
$PUCSORGBACK
 10
0.0
 20
0.0
 30
0.0
  9
$USERI1
 70
     0
  9
$USERI2
 70
     0
  9
$USERI3
 70
     0
  9
$USERI4
 70
     0
  9
$USERI5
 70
     0
  9
$USERR1
 40
0.0
  9
$USERR2
 40
0.0
  9
$USERR3
 40
0.0
  9
$USERR4
 40
0.0
  9
$USERR5
 40
0.0
  9
$WORLDVIEW
 70
     1
  9
$SHADEDGE
 70
     3
  9
$SHADEDIF
 70
    70
  9
$TILEMODE
 70
     1
  9
$MAXACTVP
 70
    64
  9
$PINSBASE
 10
0.0
 20
0.0
 30
0.0
  9
$PLIMCHECK
 70
     0
  9
$PEXTMIN
 10
1.0000000000E+20
 20
1.0000000000E+20
 30
1.0000000000E+20
  9
$PEXTMAX
 10
-1.0000000000E+20
 20
-1.0000000000E+20
 30
-1.0000000000E+20
  9
$PLIMMIN
 10
0.0
 20
0.0
  9
$PLIMMAX
 10
420.0
 20
297.0
  9
$UNITMODE
 70
     0
  9
$VISRETAIN
 70
     1
  9
$PLINEGEN
 70
     0
  9
$PSLTSCALE
 70
     1
  9
$TREEDEPTH
 70
  3020
  9
$CMLSTYLE
  2
Standard
  9
$CMLJUST
 70
     0
  9
$CMLSCALE
 40
20.0
  9
$PROXYGRAPHICS
 70
     1
  9
$MEASUREMENT
 70
     1
  9
$CELWEIGHT
370
    -1
  9
$ENDCAPS
280
     0
  9
$JOINSTYLE
280
     0
  9
$LWDISPLAY
290
     1
  9
$INSUNITS
 70
     4
  9
$HYPERLINKBASE
  1

  9
$STYLESHEET
  1

  9
$XEDIT
290
     1
  9
$CEPSNTYPE
380
     0
  9
$PSTYLEMODE
290
     1
  9
$FINGERPRINTGUID
  2
{b46b3a3b-4122-4a67-a1c2-f762e6e55549}
  9
$VERSIONGUID
  2
{FAEB1C32-E019-11D5-929B-00C0DF256EC4}
  9
$EXTNAMES
290
     1
  9
$PSVPSCALE
 40
0.0
  9
$OLESTARTUP
290
     0
  0
ENDSEC
  0
SECTION
  2
CLASSES
  0
CLASS
  1
ACDBDICTIONARYWDFLT
  2
AcDbDictionaryWithDefault
  3
ObjectDBX Classes
 90
        0
280
     0
281
     0
  0
CLASS
  1
VISUALSTYLE
  2
AcDbVisualStyle
  3
ObjectDBX Classes
 90
     4095
280
     0
281
     0
  0
CLASS
  1
MATERIAL
  2
AcDbMaterial
  3
ObjectDBX Classes
 90
     1153
280
     0
281
     0
  0
CLASS
  1
SCALE
  2
AcDbScale
  3
ObjectDBX Classes
 90
     1153
280
     0
281
     0
  0
CLASS
  1
TABLESTYLE
  2
AcDbTableStyle
  3
ObjectDBX Classes
 90
     4095
280
     0
281
     0
  0
CLASS
  1
MLEADERSTYLE
  2
AcDbMLeaderStyle
  3
ACDB_MLEADERSTYLE_CLASS
 90
     4095
280
     0
281
     0
  0
CLASS
  1
SUN
  2
AcDbSun
  3
SCENEOE
 90
     1153
280
     0
281
     0
  0
CLASS
  1
ACDBPLACEHOLDER
  2
AcDbPlaceHolder
  3
ObjectDBX Classes
 90
        0
280
     0
281
     0
  0
CLASS
  1
LAYOUT
  2
AcDbLayout
  3
ObjectDBX Classes
 90
        0
280
     0
281
     0
  0
ENDSEC
  0
SECTION
  2
TABLES
  0
TABLE
  2
VPORT
  5
8
330
0
100
AcDbSymbolTable
 70
     1
  0
VPORT
  5
29
330
8
100
AcDbSymbolTableRecord
100
AcDbViewportTableRecord
  2
*Active
 70
     0
 10
0.0
 20
0.0
 11
1.0
 21
1.0
 12
10000.0
 22
5000.0
 13
0.0
 23
0.0
 14
10.0
 24
10.0
 15
10.0
 25
10.0
 16
0.0
 26
0.0
 36
1.0
 17
0.0
 27
0.0
 37
0.0
 40
10000.0
 41
2.0
 42
50.0
 43
0.0
 44
0.0
 50
0.0
 51
0.0
 71
     0
 72
  2000
 73
     1
 74
     3
 75
     0
 76
     0
 77
     0
 78
     0
281
     0
 65
     1
110
0.0
120
0.0
130
0.0
111
1.0
121
0.0
131
0.0
112
0.0
122
1.0
132
0.0
 79
     0
146
0.0
  0
ENDTAB
  0
TABLE
  2
LTYPE
  5
5
330
0
100
AcDbSymbolTable
 70
     6
  0
LTYPE
  5
14
330
5
100
AcDbSymbolTableRecord
100
AcDbLinetypeTableRecord
  2
ByBlock
 70
     0
  3

 72
    65
 73
     0
 40
0.0
  0
LTYPE
  5
15
330
5
100
AcDbSymbolTableRecord
100
AcDbLinetypeTableRecord
  2
ByLayer
 70
     0
  3

 72
    65
 73
     0
 40
0.0
  0
LTYPE
  5
16
330
5
100
AcDbSymbolTableRecord
100
AcDbLinetypeTableRecord
  2
Continuous
 70
     0
  3
Solid line
 72
    65
 73
     0
 40
0.0
  0
LTYPE
  5
6E
330
5
100
AcDbSymbolTableRecord
100
AcDbLinetypeTableRecord
  2
HIDDEN
 70
     0
  3
Hidden __ __ __ __ __ __ __ __ __ __ __ __ __ __
 72
    65
 73
     2
 40
1.905
 49
1.27
 74
     0
 49
-0.635
 74
     0
  0
LTYPE
  5
6F
330
5
100
AcDbSymbolTableRecord
100
AcDbLinetypeTableRecord
  2
PHANTOM
 70
     0
  3
Phantom ______  __  __  ______  __  __  ______
 72
    65
 73
     6
 40
12.7
 49
6.35
 74
     0
 49
-1.27
 74
     0
 49
1.27
 74
     0
 49
-1.27
 74
     0
 49
1.27
 74
     0
 49
-1.27
 74
     0
  0
LTYPE
  5
70
330
5
100
AcDbSymbolTableRecord
100
AcDbLinetypeTableRecord
  2
CENTER
 70
     0
  3
Center ____ _ ____ _ ____ _ ____ _ ____ _ ____
 72
    65
 73
     4
 40
10.16
 49
6.35
 74
     0
 49
-1.27
 74
     0
 49
1.27
 74
     0
 49
-1.27
 74
     0
  0
LTYPE
  5
71
330
5
100
AcDbSymbolTableRecord
100
AcDbLinetypeTableRecord
  2
CENTERX2
 70
     0
  3
Center (2x) ________  __  ________  __  _____
 72
    65
 73
     4
 40
20.32
 49
12.7
 74
     0
 49
-2.54
 74
     0
 49
2.54
 74
     0
 49
-2.54
 74
     0
  0
LTYPE
  5
72
330
5
100
AcDbSymbolTableRecord
100
AcDbLinetypeTableRecord
  2
DOT2
 70
     0
  3
Dot (.5x) ........................................
 72
    65
 73
     2
 40
0.635
 49
0.0
 74
     0
 49
-0.635
 74
     0
  0
ENDTAB
  0
TABLE
  2
LAYER
  5
2
330
0
100
AcDbSymbolTable
 70
    13
  0
LAYER
  5
10
330
2
100
AcDbSymbolTableRecord
100
AcDbLayerTableRecord
  2
0
 70
     0
 62
     7
  6
Continuous
370
    -3
390
F
  0
LAYER
  5
73
330
2
100
AcDbSymbolTableRecord
100
AcDbLayerTableRecord
  2
FORMAT
 70
     0
 62
     7
  6
Continuous
370
    -3
390
F
  0
LAYER
  5
74
330
2
100
AcDbSymbolTableRecord
100
AcDbLayerTableRecord
  2
OSA
 70
     0
 62
     7
  6
CENTER
370
    -3
390
F
  0
LAYER
  5
75
330
2
100
AcDbSymbolTableRecord
100
AcDbLayerTableRecord
  2
0_35
 70
     0
 62
     7
  6
Continuous
370
    35
390
F
  0
LAYER
  5
76
330
2
100
AcDbSymbolTableRecord
100
AcDbLayerTableRecord
  2
0_5
 70
     0
 62
     7
  6
Continuous
370
    50
390
F
  0
LAYER
  5
77
330
2
100
AcDbSymbolTableRecord
100
AcDbLayerTableRecord
  2
0_25
 70
     0
 62
     7
  6
Continuous
370
    25
390
F
  0
LAYER
  5
78
330
2
100
AcDbSymbolTableRecord
100
AcDbLayerTableRecord
  2
0_18
 70
     0
 62
     7
  6
Continuous
370
    -3
390
F
  0
LAYER
  5
79
330
2
100
AcDbSymbolTableRecord
100
AcDbLayerTableRecord
  2
SLD-0
 70
     0
 62
   179
  6
Continuous
370
    -3
390
F
  0
LAYER
  5
7A
330
2
100
AcDbSymbolTableRecord
100
AcDbLayerTableRecord
  2
KOTY
 70
     0
 62
     7
  6
Continuous
370
    -3
390
F
  0
LAYER
  5
7B
330
2
100
AcDbSymbolTableRecord
100
AcDbLayerTableRecord
  2
SILNA
 70
     0
 62
   179
  6
Continuous
370
    -3
390
F
  0
LAYER
  5
7C
330
2
100
AcDbSymbolTableRecord
100
AcDbLayerTableRecord
  2
0_18_1
 70
     0
 62
   179
  6
Continuous
370
    -3
390
F
  0
LAYER
  5
7D
330
2
100
AcDbSymbolTableRecord
100
AcDbLayerTableRecord
  2
0_35_1
 70
     0
 62
   179
  6
Continuous
370
    35
390
F
  0
LAYER
  5
7E
330
2
100
AcDbSymbolTableRecord
100
AcDbLayerTableRecord
  2
0_5_1
 70
     0
 62
   179
  6
Continuous
370
    50
390
F
  0
ENDTAB
  0
TABLE
  2
STYLE
  5
3
330
0
100
AcDbSymbolTable
 70
     1
  0
STYLE
  5
11
330
3
100
AcDbSymbolTableRecord
100
AcDbTextStyleTableRecord
  2
Standard
 70
     0
 40
0.0
 41
1.0
 50
0.0
 71
     0
 42
2.0
  3
txt
  4

  0
ENDTAB
  0
TABLE
  2
VIEW
  5
6
330
0
100
AcDbSymbolTable
 70
     0
  0
ENDTAB
  0
TABLE
  2
UCS
  5
7
330
0
100
AcDbSymbolTable
 70
     0
  0
ENDTAB
  0
TABLE
  2
APPID
  5
9
330
0
100
AcDbSymbolTable
 70
     1
  0
APPID
  5
12
330
9
100
AcDbSymbolTableRecord
100
AcDbRegAppTableRecord
  2
ACAD
 70
     0
  0
ENDTAB
  0
TABLE
  2
DIMSTYLE
  5
A
330
0
100
AcDbSymbolTable
 70
     1
100
AcDbDimStyleTable
  0
DIMSTYLE
105
27
330
A
100
AcDbSymbolTableRecord
100
AcDbDimStyleTableRecord
  2
ISO-25
 70
     0
 41
2.5
 42
0.625
 43
3.75
 44
1.25
 73
     0
 74
     0
 77
     1
 78
     8
140
2.5
141
2.5
143
0.0393700787
147
0.625
171
     3
172
     1
178
     0
271
     2
272
     2
274
     3
278
    44
283
     0
284
     8
340
11
  0
ENDTAB
  0
TABLE
  2
BLOCK_RECORD
  5
1
330
0
100
AcDbSymbolTable
 70
     1
  0
BLOCK_RECORD
  5
1F
330
1
100
AcDbSymbolTableRecord
100
AcDbBlockTableRecord
  2
*Model_Space
340
22
  0
BLOCK_RECORD
  5
1B
330
1
100
AcDbSymbolTableRecord
100
AcDbBlockTableRecord
  2
*Paper_Space
340
1E
  0
BLOCK_RECORD
  5
23
330
1
100
AcDbSymbolTableRecord
100
AcDbBlockTableRecord
  2
*Paper_Space0
340
26
  0
ENDTAB
  0
ENDSEC
  0
SECTION
  2
BLOCKS
  0
BLOCK
  5
20
330
1F
100
AcDbEntity
  8
0
100
AcDbBlockBegin
  2
*Model_Space
 70
     0
 10
0.0
 20
0.0
 30
0.0
  3
*Model_Space
  1

  0
ENDBLK
  5
21
330
1F
100
AcDbEntity
  8
0
100
AcDbBlockEnd
  0
BLOCK
  5
1C
330
1B
100
AcDbEntity
 67
     1
  8
0
100
AcDbBlockBegin
  2
*Paper_Space
 70
     0
 10
0.0
 20
0.0
 30
0.0
  3
*Paper_Space
  1

  0
ENDBLK
  5
1D
330
1B
100
AcDbEntity
 67
     1
  8
0
100
AcDbBlockEnd
  0
BLOCK
  5
24
330
23
100
AcDbEntity
  8
0
100
AcDbBlockBegin
  2
*Paper_Space0
 70
     0
 10
0.0
 20
0.0
 30
0.0
  3
*Paper_Space0
  1

  0
ENDBLK
  5
25
330
23
100
AcDbEntity
  8
0
100
AcDbBlockEnd
  0
ENDSEC
  0
SECTION
  2
ENTITIES
  0
CIRCLE
  5
7F
330
1F
100
AcDbEntity
  8
0
  6
Continuous
 62
     7
370
    25
100
AcDbCircle
 10
6101.6735546086
 20
5470.637358066
 30
0.0
 40
24.99999999999954
  0
LINE
  5
80
330
1F
100
AcDbEntity
  8
0
  6
Continuous
 62
     7
370
    25
100
AcDbLine
 10
6260.0187553361
 20
5437.6427519552
 30
0.0
 11
6260.0187553361
 21
5434.6427519552
 31
0.0
  0
LINE
  5
81
330
1F
100
AcDbEntity
  8
0
  6
Continuous
 62
     7
370
    25
100
AcDbLine
 10
6288.0187553361
 20
5434.6427519552
 30
0.0
 11
6288.0187553361
 21
5437.6427519552
 31
0.0
  0
LWPOLYLINE
  5
82
330
1F
100
AcDbEntity
  8
0
  6
Continuous
 62
     7
370
    25
100
AcDbPolyline
 90
       33
 70
   128
 43
0.0
 10
6286.5232451936
 20
5211.6803169603
 10
6286.524866574
 20
5225.1075113218
 10
6286.5274866241
 20
5243.6677445827
 10
6286.5301511609
 20
5261.1129188372
 10
6286.5326639782
 20
5277.472016983
 10
6286.5350186684
 20
5294.247196992
 10
6286.5366912205
 20
5309.7818722372
 10
6286.5374204483
 20
5324.1146216463
 10
6286.5369452484
 20
5337.284039413
 10
6286.5350044715
 20
5349.3287239747
 10
6286.5313366408
 20
5360.2872474853
 10
6286.5256802851
 20
5370.1981901051
 10
6286.5177744679
 20
5379.1002586042
 10
6286.5073585818
 20
5387.032238134
 10
6286.4941704827
 20
5394.0328030633
 10
6286.4782619487
 20
5400.0388812779
 10
6286.4591699501
 20
5405.2199446156
 10
6286.4366443201
 20
5409.6138600265
 10
6286.4104368737
 20
5413.2596695459
 10
6286.3751209934
 20
5416.5920255371
 10
6286.3339093052
 20
5419.0331834439
 10
6286.2874851439
 20
5420.7586068582
 10
6286.2389881314
 20
5422.0269089519
 10
6286.192458068
 20
5423.1199825677
 10
6286.138605807
 20
5424.7907883326
 10
6286.1221030888
 20
5426.8485743708
 10
6286.195810113
 20
5428.8630507726
 10
6286.2923256154
 20
5429.5898170774
 10
6286.5307098772
 20
5430.207569984
 10
6287.0106830827
 20
5431.5594789149
 10
6287.1347647427
 20
5432.9980219669
 10
6287.1061935098
 20
5433.8439852505
 10
6287.0361782501
 20
5434.6427519552
  0
LWPOLYLINE
  5
83
330
1F
100
AcDbEntity
  8
0
  6
Continuous
 62
     7
370
    25
100
AcDbPolyline
 90
        3
 70
   128
 43
0.0
 10
6286.3774538137
 20
5437.6427519552
 10
6286.3481093454
 20
5437.8580464714
 10
6286.2927778095
 20
5439.1427519552
  0
LINE
  5
84
330
1F
100
AcDbEntity
  8
0
  6
Continuous
 62
     7
370
    25
100
AcDbLine
 10
6261.7447328627
 20
5439.1427519552
 30
0.0
 11
6261.6273055052
 21
5437.6427519552
 31
0.0
  0
LWPOLYLINE
  5
85
330
1F
100
AcDbEntity
  8
0
  6
Continuous
 62
     7
370
    25
100
AcDbPolyline
 90
       30
 70
   128
 43
0.0
 10
6261.0367980258
 20
5434.6427519552
 10
6260.9473743113
 20
5434.2155025426
 10
6260.9047205656
 20
5432.4810539726
 10
6261.5840741005
 20
5430.0266953032
 10
6261.8417005592
 20
5428.8630507726
 10
6261.9177353883
 20
5426.2699483513
 10
6261.8709859244
 20
5423.8162149594
 10
6261.7950783312
 20
5421.9455074253
 10
6261.7474490703
 20
5420.680252037
 10
6261.7020306168
 20
5418.9596613583
 10
6261.66170814
 20
5416.5406211193
 10
6261.6270737985
 20
5413.2596695459
 10
6261.5989347462
 20
5409.2908436085
 10
6261.5750661715
 20
5404.4459645687
 10
6261.5551553794
 20
5398.6759540444
 10
6261.5388864929
 20
5391.93362073
 10
6261.5259412513
 20
5384.1731932316
 10
6261.5160035137
 20
5375.3487767248
 10
6261.509108386
 20
5366.0125485058
 10
6261.5043492813
 20
5355.6505858852
 10
6261.5014649697
 20
5344.2242515603
 10
6261.500193935
 20
5331.6949762242
 10
6261.5002748152
 20
5318.0241783672
 10
6261.5014465488
 20
5303.1732543716
 10
6261.5034479698
 20
5287.1036201141
 10
6261.5060179111
 20
5269.7766963581
 10
6261.5088952262
 20
5251.1539056915
 10
6261.5118187631
 20
5231.1966731915
 10
6261.5139781361
 20
5214.5547112646
 10
6261.5142900678
 20
5211.6803169603
  0
LINE
  5
86
330
1F
100
AcDbEntity
  8
0
  6
Continuous
 62
     7
370
    25
100
AcDbLine
 10
6298.7687553361
 20
5448.6427519552
 30
0.0
 11
6298.2687553361
 21
5449.1427519552
 31
0.0
  0
LINE
  5
87
330
1F
100
AcDbEntity
  8
0
  6
Continuous
 62
     7
370
    25
100
AcDbLine
 10
6249.7687553361
 20
5449.1427519552
 30
0.0
 11
6249.2687553361
 21
5448.6427519552
 31
0.0
  0
LINE
  5
88
330
1F
100
AcDbEntity
  8
0
  6
Continuous
 62
     7
370
    25
100
AcDbLine
 10
6298.7687553361
 20
5446.1427519552
 30
0.0
 11
6298.7687553361
 21
5448.6427519552
 31
0.0
  0
LINE
  5
89
330
1F
100
AcDbEntity
  8
0
  6
Continuous
 62
     7
370
    25
100
AcDbLine
 10
6249.2687553361
 20
5448.6427519552
 30
0.0
 11
6249.2687553361
 21
5446.1427519552
 31
0.0
  0
LINE
  5
8A
330
1F
100
AcDbEntity
  8
0
  6
Continuous
 62
     7
370
    25
100
AcDbLine
 10
6295.2187553361
 20
5439.1427519552
 30
0.0
 11
6295.2187553361
 21
5446.1427519552
 31
0.0
  0
LINE
  5
8B
330
1F
100
AcDbEntity
  8
0
  6
Continuous
 62
     7
370
    25
100
AcDbLine
 10
6252.8187553361
 20
5446.1427519552
 30
0.0
 11
6252.8187553361
 21
5439.1427519552
 31
0.0
  0
LINE
  5
8C
330
1F
100
AcDbEntity
  8
0
  6
Continuous
 62
     7
370
    25
100
AcDbLine
 10
6283.3307435951
 20
5430.0850552598
 30
0.0
 11
6284.5187553361
 21
5432.1427519552
 31
0.0
  0
LINE
  5
8D
330
1F
100
AcDbEntity
  8
0
  6
Continuous
 62
     7
370
    25
100
AcDbLine
 10
6284.5187553361
 20
5432.1427519552
 30
0.0
 11
6284.5187553361
 21
5433.1427519552
 31
0.0
  0
LINE
  5
8E
330
1F
100
AcDbEntity
  8
0
  6
Continuous
 62
     7
370
    25
100
AcDbLine
 10
6263.5187553361
 20
5433.1427519552
 30
0.0
 11
6263.5187553361
 21
5432.1427519552
 31
0.0
  0
LINE
  5
8F
330
1F
100
AcDbEntity
  8
0
  6
Continuous
 62
     7
370
    25
100
AcDbLine
 10
6283.5187553361
 20
5433.1427519552
 30
0.0
 11
6283.5187553361
 21
5434.6427519552
 31
0.0
  0
LINE
  5
90
330
1F
100
AcDbEntity
  8
0
  6
Continuous
 62
     7
370
    25
100
AcDbLine
 10
6215.5187553361
 20
5170.1803169603
 30
0.0
 11
6216.0187553361
 21
5169.6803169603
 31
0.0
  0
LINE
  5
91
330
1F
100
AcDbEntity
  8
0
  6
Continuous
 62
     7
370
    25
100
AcDbLine
 10
6222.0187553361
 20
5169.6803169603
 30
0.0
 11
6222.5187553361
 21
5170.1803169603
 31
0.0
  0
LINE
  5
92
330
1F
100
AcDbEntity
  8
0
  6
Continuous
 62
     7
370
    25
100
AcDbLine
 10
6216.0187553361
 20
5169.6803169603
 30
0.0
 11
6216.0187553361
 21
5169.4803169603
 31
0.0
  0
LINE
  5
93
330
1F
100
AcDbEntity
  8
0
  6
Continuous
 62
     7
370
    25
100
AcDbLine
 10
6222.0187553361
 20
5169.4803169603
 30
0.0
 11
6222.0187553361
 21
5169.6803169603
 31
0.0
  0
LINE
  5
94
330
1F
100
AcDbEntity
  8
0
  6
Continuous
 62
     7
370
    25
100
AcDbLine
 10
6325.5187553361
 20
5170.1803169603
 30
0.0
 11
6326.0187553361
 21
5169.6803169603
 31
0.0
  0
LINE
  5
95
330
1F
100
AcDbEntity
  8
0
  6
Continuous
 62
     7
370
    25
100
AcDbLine
 10
6332.0187553361
 20
5169.6803169603
 30
0.0
 11
6332.5187553361
 21
5170.1803169603
 31
0.0
  0
LINE
  5
96
330
1F
100
AcDbEntity
  8
0
  6
Continuous
 62
     7
370
    25
100
AcDbLine
 10
6326.0187553361
 20
5169.6803169603
 30
0.0
 11
6326.0187553361
 21
5169.4803169603
 31
0.0
  0
LINE
  5
97
330
1F
100
AcDbEntity
  8
0
  6
Continuous
 62
     7
370
    25
100
AcDbLine
 10
6332.0187553361
 20
5169.4803169603
 30
0.0
 11
6332.0187553361
 21
5169.6803169603
 31
0.0
  0
LINE
  5
98
330
1F
100
AcDbEntity
  8
0
  6
Continuous
 62
     7
370
    25
100
AcDbLine
 10
6313.5187553361
 20
5203.9803169603
 30
0.0
 11
6313.5187553361
 21
5205.9803169603
 31
0.0
  0
LINE
  5
99
330
1F
100
AcDbEntity
  8
0
  6
Continuous
 62
     7
370
    25
100
AcDbLine
 10
6234.5187553361
 20
5205.9803169603
 30
0.0
 11
6234.5187553361
 21
5203.9803169603
 31
0.0
  0
LWPOLYLINE
  5
9A
330
1F
100
AcDbEntity
  8
0
  6
Continuous
 62
     7
370
    25
100
AcDbPolyline
 90
        3
 70
   128
 43
0.0
 10
6292.1549369476
 20
5206.9803169603
 10
6292.1245391418
 20
5207.0168250046
 10
6291.6532250814
 20
5207.5503812126
  0
LWPOLYLINE
  5
9B
330
1F
100
AcDbEntity
  8
0
  6
Continuous
 62
     7
370
    25
100
AcDbPolyline
 90
        3
 70
   128
 43
0.0
 10
6256.3842855908
 20
5207.5503812126
 10
6255.9129715304
 20
5207.0168250046
 10
6255.8825737246
 20
5206.9803169603
  0
ARC
  5
9C
330
1F
100
AcDbEntity
  8
0
  6
Continuous
 62
     7
370
    25
100
AcDbCircle
 10
6292.0187553361
 20
5207.89153753
 30
0.0
 40
0.5000000000003546
100
AcDbArc
 50
180.0
 51
223.024625876
  0
ARC
  5
9D
330
1F
100
AcDbEntity
  8
0
  6
Continuous
 62
     7
370
    25
100
AcDbCircle
 10
6256.0187553361
 20
5207.89153753
 30
0.0
 40
0.5000000000003546
100
AcDbArc
 50
316.975374124
 51
0.0
  0
LINE
  5
9E
330
1F
100
AcDbEntity
  8
0
  6
Continuous
 62
     7
370
    25
100
AcDbLine
 10
6256.5187553361
 20
5211.6803169603
 30
0.0
 11
6256.5187553361
 21
5207.89153753
 31
0.0
  0
LINE
  5
9F
330
1F
100
AcDbEntity
  8
0
  6
Continuous
 62
     7
370
    25
100
AcDbLine
 10
6291.5187553361
 20
5207.89153753
 30
0.0
 11
6291.5187553361
 21
5211.6803169603
 31
0.0
  0
CIRCLE
  5
A0
330
1F
100
AcDbEntity
  8
0
  6
Continuous
 62
     7
370
    25
100
AcDbCircle
 10
6101.6735546086
 20
5470.637358066
 30
0.0
 40
36.49999999999956
  0
CIRCLE
  5
A1
330
1F
100
AcDbEntity
  8
0
  6
Continuous
 62
     7
370
    25
100
AcDbCircle
 10
6101.6735546086
 20
5470.637358066
 30
0.0
 40
25.19999999999957
  0
CIRCLE
  5
A2
330
1F
100
AcDbEntity
  8
0
  6
Continuous
 62
     7
370
    25
100
AcDbCircle
 10
6101.6735546086
 20
5470.637358066
 30
0.0
 40
37.49999999999986
  0
CIRCLE
  5
A3
330
1F
100
AcDbEntity
  8
0
  6
Continuous
 62
     7
370
    25
100
AcDbCircle
 10
6101.6735546086
 20
5470.637358066
 30
0.0
 40
23.90000000000055
  0
CIRCLE
  5
A4
330
1F
100
AcDbEntity
  8
0
  6
Continuous
 62
     7
370
    25
100
AcDbCircle
 10
6101.6735546086
 20
5470.637358066
 30
0.0
 40
24.90000000000055
  0
ARC
  5
A5
330
1F
100
AcDbEntity
  8
0
  6
Continuous
 62
     7
370
    25
100
AcDbCircle
 10
6274.7424729629
 20
5446.3511899793
 30
0.0
 40
19.99999999999975
100
AcDbArc
 50
33.5573097619
 51
146.4426902381
  0
ARC
  5
A6
330
1F
100
AcDbEntity
  8
0
  6
Continuous
 62
     7
370
    25
100
AcDbCircle
 10
6287.2424729629
 20
5454.6427519552
 30
0.0
 40
5.0
100
AcDbArc
 50
0.0
 51
33.5573097619
  0
LINE
  5
A7
330
1F
100
AcDbEntity
  8
0
  6
Continuous
 62
     7
370
    25
100
AcDbLine
 10
6292.2424729629
 20
5452.6427519552
 30
0.0
 11
6292.2424729629
 21
5454.6427519552
 31
0.0
  0
ARC
  5
A8
330
1F
100
AcDbEntity
  8
0
  6
Continuous
 62
     7
370
    25
100
AcDbCircle
 10
6289.2424729629
 20
5452.6427519552
 30
0.0
 40
3.000000000000909
100
AcDbArc
 50
270.0
 51
0.0
  0
LINE
  5
A9
330
1F
100
AcDbEntity
  8
0
  6
Continuous
 62
     7
370
    25
100
AcDbLine
 10
6284.7424729629
 20
5449.6427519552
 30
0.0
 11
6289.2424729629
 21
5449.6427519552
 31
0.0
  0
ARC
  5
AA
330
1F
100
AcDbEntity
  8
0
  6
Continuous
 62
     7
370
    25
100
AcDbCircle
 10
6284.7424729629
 20
5449.1427519552
 30
0.0
 40
0.5000000000009095
100
AcDbArc
 50
90.0
 51
180.0
  0
ARC
  5
AB
330
1F
100
AcDbEntity
  8
0
  6
Continuous
 62
     7
370
    25
100
AcDbCircle
 10
6280.7424729629
 20
5449.1427519552
 30
0.0
 40
0.5000000000009095
100
AcDbArc
 50
0.0
 51
90.0
  0
ARC
  5
AC
330
1F
100
AcDbEntity
  8
0
  6
Continuous
 62
     7
370
    25
100
AcDbCircle
 10
6268.7424729629
 20
5449.1427519552
 30
0.0
 40
0.5000000000009095
100
AcDbArc
 50
90.0
 51
180.0
  0
ARC
  5
AD
330
1F
100
AcDbEntity
  8
0
  6
Continuous
 62
     7
370
    25
100
AcDbCircle
 10
6264.7424729629
 20
5449.1427519552
 30
0.0
 40
0.5000000000009095
100
AcDbArc
 50
0.0
 51
90.0
  0
ARC
  5
AE
330
1F
100
AcDbEntity
  8
0
  6
Continuous
 62
     7
370
    25
100
AcDbCircle
 10
6260.2424729629
 20
5452.6427519552
 30
0.0
 40
3.000000000000909
100
AcDbArc
 50
180.0
 51
270.0
  0
LINE
  5
AF
330
1F
100
AcDbEntity
  8
0
  6
Continuous
 62
     7
370
    25
100
AcDbLine
 10
6260.2424729629
 20
5449.6427519552
 30
0.0
 11
6264.7424729629
 21
5449.6427519552
 31
0.0
  0
ARC
  5
B0
330
1F
100
AcDbEntity
  8
0
  6
Continuous
 62
     7
370
    25
100
AcDbCircle
 10
6262.2424729629
 20
5454.6427519552
 30
0.0
 40
5.0
100
AcDbArc
 50
146.4426902381
 51
180.0
  0
LINE
  5
B1
330
1F
100
AcDbEntity
  8
0
  6
Continuous
 62
     7
370
    25
100
AcDbLine
 10
6268.7424729629
 20
5449.6427519552
 30
0.0
 11
6280.7424729629
 21
5449.6427519552
 31
0.0
  0
LINE
  5
B2
330
1F
100
AcDbEntity
  8
0
  6
Continuous
 62
     7
370
    25
100
AcDbLine
 10
6257.2424729629
 20
5454.6427519552
 30
0.0
 11
6257.2424729629
 21
5452.6427519552
 31
0.0
  0
CIRCLE
  5
B3
330
1F
100
AcDbEntity
  8
0
  6
Continuous
 62
     7
370
    25
100
AcDbCircle
 10
6274.7424729629
 20
5461.3511899793
 30
0.0
 40
2.0
  0
LINE
  5
B4
330
1F
100
AcDbEntity
  8
0
  6
Continuous
 62
     7
370
    25
100
AcDbLine
 10
6288.0187553361
 20
5434.6427519552
 30
0.0
 11
6260.0187553361
 21
5434.6427519552
 31
0.0
  0
LINE
  5
B5
330
1F
100
AcDbEntity
  8
0
  6
Continuous
 62
     7
370
    25
100
AcDbLine
 10
6288.0187553361
 20
5437.6427519552
 30
0.0
 11
6260.0187553361
 21
5437.6427519552
 31
0.0
  0
LINE
  5
B6
330
1F
100
AcDbEntity
  8
0
  6
Continuous
 62
     7
370
    25
100
AcDbLine
 10
6275.0187553361
 20
5439.1427519552
 30
0.0
 11
6275.0187553361
 21
5438.1427519552
 31
0.0
  0
LINE
  5
B7
330
1F
100
AcDbEntity
  8
0
  6
Continuous
 62
     7
370
    25
100
AcDbLine
 10
6275.5187553361
 20
5438.1427519552
 30
0.0
 11
6275.0187553361
 21
5438.1427519552
 31
0.0
  0
LINE
  5
B8
330
1F
100
AcDbEntity
  8
0
  6
Continuous
 62
     7
370
    25
100
AcDbLine
 10
6275.5187553361
 20
5438.1427519552
 30
0.0
 11
6275.5187553361
 21
5439.1427519552
 31
0.0
  0
LINE
  5
B9
330
1F
100
AcDbEntity
  8
0
  6
Continuous
 62
     7
370
    25
100
AcDbLine
 10
6273.0187553361
 20
5438.1427519552
 30
0.0
 11
6273.0187553361
 21
5439.1427519552
 31
0.0
  0
LINE
  5
BA
330
1F
100
AcDbEntity
  8
0
  6
Continuous
 62
     7
370
    25
100
AcDbLine
 10
6273.0187553361
 20
5438.1427519552
 30
0.0
 11
6272.5187553361
 21
5438.1427519552
 31
0.0
  0
LINE
  5
BB
330
1F
100
AcDbEntity
  8
0
  6
Continuous
 62
     7
370
    25
100
AcDbLine
 10
6272.5187553361
 20
5439.1427519552
 30
0.0
 11
6272.5187553361
 21
5438.1427519552
 31
0.0
  0
LINE
  5
BC
330
1F
100
AcDbEntity
  8
0
  6
Continuous
 62
     7
370
    25
100
AcDbLine
 10
6298.2687553361
 20
5449.1427519552
 30
0.0
 11
6249.7687553361
 21
5449.1427519552
 31
0.0
  0
LINE
  5
BD
330
1F
100
AcDbEntity
  8
0
  6
Continuous
 62
     7
370
    25
100
AcDbLine
 10
6298.7687553361
 20
5448.6427519552
 30
0.0
 11
6249.2687553361
 21
5448.6427519552
 31
0.0
  0
LINE
  5
BE
330
1F
100
AcDbEntity
  8
0
  6
Continuous
 62
     7
370
    25
100
AcDbLine
 10
6298.7687553361
 20
5446.1427519552
 30
0.0
 11
6249.2687553361
 21
5446.1427519552
 31
0.0
  0
LINE
  5
BF
330
1F
100
AcDbEntity
  8
0
  6
Continuous
 62
     7
370
    25
100
AcDbLine
 10
6295.2187553361
 20
5439.1427519552
 30
0.0
 11
6252.8187553361
 21
5439.1427519552
 31
0.0
  0
LINE
  5
C0
330
1F
100
AcDbEntity
  8
0
  6
Continuous
 62
     7
370
    25
100
AcDbLine
 10
6218.8505706435
 20
5169.6803169603
 30
0.0
 11
6222.0187553361
 21
5169.6803169603
 31
0.0
  0
LINE
  5
C1
330
1F
100
AcDbEntity
  8
0
  6
Continuous
 62
     7
370
    25
100
AcDbLine
 10
6216.0187553361
 20
5169.6803169603
 30
0.0
 11
6218.8505706435
 21
5169.6803169603
 31
0.0
  0
LINE
  5
C2
330
1F
100
AcDbEntity
  8
0
  6
Continuous
 62
     7
370
    25
100
AcDbLine
 10
6329.0187553361
 20
5169.6803169603
 30
0.0
 11
6332.0187553361
 21
5169.6803169603
 31
0.0
  0
LINE
  5
C3
330
1F
100
AcDbEntity
  8
0
  6
Continuous
 62
     7
370
    25
100
AcDbLine
 10
6326.0187553361
 20
5169.6803169603
 30
0.0
 11
6329.0187553361
 21
5169.6803169603
 31
0.0
  0
LINE
  5
C4
330
1F
100
AcDbEntity
  8
0
  6
Continuous
 62
     7
370
    25
100
AcDbLine
 10
6319.0187553361
 20
5203.9803169603
 30
0.0
 11
6229.0187553361
 21
5203.9803169603
 31
0.0
  0
LINE
  5
C5
330
1F
100
AcDbEntity
  8
0
  6
Continuous
 62
     7
370
    25
100
AcDbLine
 10
6319.0187553361
 20
5202.1803169603
 30
0.0
 11
6319.0187553361
 21
5203.9803169603
 31
0.0
  0
LINE
  5
C6
330
1F
100
AcDbEntity
  8
0
  6
Continuous
 62
     7
370
    25
100
AcDbLine
 10
6319.0187553361
 20
5202.1803169603
 30
0.0
 11
6229.0187553361
 21
5202.1803169603
 31
0.0
  0
LINE
  5
C7
330
1F
100
AcDbEntity
  8
0
  6
Continuous
 62
     7
370
    25
100
AcDbLine
 10
6229.0187553361
 20
5202.1803169603
 30
0.0
 11
6229.0187553361
 21
5203.9803169603
 31
0.0
  0
LINE
  5
C8
330
1F
100
AcDbEntity
  8
0
  6
Continuous
 62
     7
370
    25
100
AcDbLine
 10
6319.0187553361
 20
5169.4803169603
 30
0.0
 11
6319.0187553361
 21
5202.1803169603
 31
0.0
  0
LINE
  5
C9
330
1F
100
AcDbEntity
  8
0
  6
Continuous
 62
     7
370
    25
100
AcDbLine
 10
6229.0187553361
 20
5169.4803169603
 30
0.0
 11
6229.0187553361
 21
5202.1803169603
 31
0.0
  0
LINE
  5
CA
330
1F
100
AcDbEntity
  8
0
  6
Continuous
 62
     7
370
    25
100
AcDbLine
 10
6331.8187553361
 20
5170.1803169603
 30
0.0
 11
6331.8187553361
 21
5171.1803169603
 31
0.0
  0
LINE
  5
CB
330
1F
100
AcDbEntity
  8
0
  6
Continuous
 62
     7
370
    25
100
AcDbLine
 10
6331.8187553361
 20
5171.1803169603
 30
0.0
 11
6336.8187553361
 21
5171.1803169603
 31
0.0
  0
LINE
  5
CC
330
1F
100
AcDbEntity
  8
0
  6
Continuous
 62
     7
370
    25
100
AcDbLine
 10
6336.8187553361
 20
5171.1803169603
 30
0.0
 11
6336.8187553361
 21
5170.1803169603
 31
0.0
  0
LINE
  5
CD
330
1F
100
AcDbEntity
  8
0
  6
Continuous
 62
     7
370
    25
100
AcDbLine
 10
6336.8187553361
 20
5170.1803169603
 30
0.0
 11
6331.8187553361
 21
5170.1803169603
 31
0.0
  0
LINE
  5
CE
330
1F
100
AcDbEntity
  8
0
  6
Continuous
 62
     7
370
    25
100
AcDbLine
 10
6321.6187553361
 20
5171.1803169603
 30
0.0
 11
6321.6187553361
 21
5170.1803169603
 31
0.0
  0
LINE
  5
CF
330
1F
100
AcDbEntity
  8
0
  6
Continuous
 62
     7
370
    25
100
AcDbLine
 10
6331.8187553361
 20
5171.1803169603
 30
0.0
 11
6321.6187553361
 21
5171.1803169603
 31
0.0
  0
LINE
  5
D0
330
1F
100
AcDbEntity
  8
0
  6
Continuous
 62
     7
370
    25
100
AcDbLine
 10
6331.8187553361
 20
5170.1803169603
 30
0.0
 11
6321.6187553361
 21
5170.1803169603
 31
0.0
  0
ARC
  5
D1
330
1F
100
AcDbEntity
  8
0
  6
Continuous
 62
     7
370
    25
100
AcDbCircle
 10
6321.6187553361
 20
5171.9803169603
 30
0.0
 40
1.799999999999272
100
AcDbArc
 50
180.0
 51
270.0
  0
LINE
  5
D2
330
1F
100
AcDbEntity
  8
0
  6
Continuous
 62
     7
370
    25
100
AcDbLine
 10
6320.8187553361
 20
5171.9803169603
 30
0.0
 11
6319.8187553361
 21
5171.9803169603
 31
0.0
  0
ARC
  5
D3
330
1F
100
AcDbEntity
  8
0
  6
Continuous
 62
     7
370
    25
100
AcDbCircle
 10
6321.6187553361
 20
5171.9803169603
 30
0.0
 40
0.8000000000001819
100
AcDbArc
 50
180.0
 51
270.0
  0
LINE
  5
D4
330
1F
100
AcDbEntity
  8
0
  6
Continuous
 62
     7
370
    25
100
AcDbLine
 10
6319.8187553361
 20
5205.1803169603
 30
0.0
 11
6320.8187553361
 21
5205.1803169603
 31
0.0
  0
LINE
  5
D5
330
1F
100
AcDbEntity
  8
0
  6
Continuous
 62
     7
370
    25
100
AcDbLine
 10
6320.8187553361
 20
5171.9803169603
 30
0.0
 11
6320.8187553361
 21
5205.1803169603
 31
0.0
  0
LINE
  5
D6
330
1F
100
AcDbEntity
  8
0
  6
Continuous
 62
     7
370
    25
100
AcDbLine
 10
6319.8187553361
 20
5171.9803169603
 30
0.0
 11
6319.8187553361
 21
5205.1803169603
 31
0.0
  0
LINE
  5
D7
330
1F
100
AcDbEntity
  8
0
  6
Continuous
 62
     7
370
    25
100
AcDbLine
 10
6319.0187553361
 20
5205.9803169603
 30
0.0
 11
6319.0187553361
 21
5206.9803169603
 31
0.0
  0
ARC
  5
D8
330
1F
100
AcDbEntity
  8
0
  6
Continuous
 62
     7
370
    25
100
AcDbCircle
 10
6319.0187553361
 20
5205.1803169603
 30
0.0
 40
1.800000000000182
100
AcDbArc
 50
0.0
 51
90.0
  0
ARC
  5
D9
330
1F
100
AcDbEntity
  8
0
  6
Continuous
 62
     7
370
    25
100
AcDbCircle
 10
6319.0187553361
 20
5205.1803169603
 30
0.0
 40
0.8000000000001819
100
AcDbArc
 50
0.0
 51
90.0
  0
LINE
  5
DA
330
1F
100
AcDbEntity
  8
0
  6
Continuous
 62
     7
370
    25
100
AcDbLine
 10
6229.0187553361
 20
5205.9803169603
 30
0.0
 11
6319.0187553361
 21
5205.9803169603
 31
0.0
  0
LINE
  5
DB
330
1F
100
AcDbEntity
  8
0
  6
Continuous
 62
     7
370
    25
100
AcDbLine
 10
6229.0187553361
 20
5205.9803169603
 30
0.0
 11
6229.0187553361
 21
5206.9803169603
 31
0.0
  0
LINE
  5
DC
330
1F
100
AcDbEntity
  8
0
  6
Continuous
 62
     7
370
    25
100
AcDbLine
 10
6229.0187553361
 20
5206.9803169603
 30
0.0
 11
6319.0187553361
 21
5206.9803169603
 31
0.0
  0
LINE
  5
DD
330
1F
100
AcDbEntity
  8
0
  6
Continuous
 62
     7
370
    25
100
AcDbLine
 10
6226.4187553361
 20
5171.1803169603
 30
0.0
 11
6226.4187553361
 21
5170.1803169603
 31
0.0
  0
LINE
  5
DE
330
1F
100
AcDbEntity
  8
0
  6
Continuous
 62
     7
370
    25
100
AcDbLine
 10
6226.4187553361
 20
5170.1803169603
 30
0.0
 11
6216.2187553361
 21
5170.1803169603
 31
0.0
  0
LINE
  5
DF
330
1F
100
AcDbEntity
  8
0
  6
Continuous
 62
     7
370
    25
100
AcDbLine
 10
6216.2187553361
 20
5171.1803169603
 30
0.0
 11
6216.2187553361
 21
5170.1803169603
 31
0.0
  0
LINE
  5
E0
330
1F
100
AcDbEntity
  8
0
  6
Continuous
 62
     7
370
    25
100
AcDbLine
 10
6226.4187553361
 20
5171.1803169603
 30
0.0
 11
6216.2187553361
 21
5171.1803169603
 31
0.0
  0
LINE
  5
E1
330
1F
100
AcDbEntity
  8
0
  6
Continuous
 62
     7
370
    25
100
AcDbLine
 10
6211.2187553361
 20
5170.1803169603
 30
0.0
 11
6211.2187553361
 21
5171.1803169603
 31
0.0
  0
LINE
  5
E2
330
1F
100
AcDbEntity
  8
0
  6
Continuous
 62
     7
370
    25
100
AcDbLine
 10
6211.2187553361
 20
5171.1803169603
 30
0.0
 11
6216.2187553361
 21
5171.1803169603
 31
0.0
  0
LINE
  5
E3
330
1F
100
AcDbEntity
  8
0
  6
Continuous
 62
     7
370
    25
100
AcDbLine
 10
6216.2187553361
 20
5170.1803169603
 30
0.0
 11
6211.2187553361
 21
5170.1803169603
 31
0.0
  0
ARC
  5
E4
330
1F
100
AcDbEntity
  8
0
  6
Continuous
 62
     7
370
    25
100
AcDbCircle
 10
6229.0187553361
 20
5205.1803169603
 30
0.0
 40
0.8000000000001819
100
AcDbArc
 50
90.0
 51
180.0
  0
LINE
  5
E5
330
1F
100
AcDbEntity
  8
0
  6
Continuous
 62
     7
370
    25
100
AcDbLine
 10
6228.2187553361
 20
5205.1803169603
 30
0.0
 11
6227.2187553361
 21
5205.1803169603
 31
0.0
  0
ARC
  5
E6
330
1F
100
AcDbEntity
  8
0
  6
Continuous
 62
     7
370
    25
100
AcDbCircle
 10
6229.0187553361
 20
5205.1803169603
 30
0.0
 40
1.800000000000182
100
AcDbArc
 50
90.0
 51
180.0
  0
LINE
  5
E7
330
1F
100
AcDbEntity
  8
0
  6
Continuous
 62
     7
370
    25
100
AcDbLine
 10
6227.2187553361
 20
5171.9803169603
 30
0.0
 11
6228.2187553361
 21
5171.9803169603
 31
0.0
  0
LINE
  5
E8
330
1F
100
AcDbEntity
  8
0
  6
Continuous
 62
     7
370
    25
100
AcDbLine
 10
6227.2187553361
 20
5205.1803169603
 30
0.0
 11
6227.2187553361
 21
5171.9803169603
 31
0.0
  0
LINE
  5
E9
330
1F
100
AcDbEntity
  8
0
  6
Continuous
 62
     7
370
    25
100
AcDbLine
 10
6228.2187553361
 20
5205.1803169603
 30
0.0
 11
6228.2187553361
 21
5171.9803169603
 31
0.0
  0
ARC
  5
EA
330
1F
100
AcDbEntity
  8
0
  6
Continuous
 62
     7
370
    25
100
AcDbCircle
 10
6226.4187553361
 20
5171.9803169603
 30
0.0
 40
1.800000000000182
100
AcDbArc
 50
270.0
 51
0.0
  0
ARC
  5
EB
330
1F
100
AcDbEntity
  8
0
  6
Continuous
 62
     7
370
    25
100
AcDbCircle
 10
6226.4187553361
 20
5171.9803169603
 30
0.0
 40
0.8000000000001819
100
AcDbArc
 50
270.0
 51
0.0
  0
LINE
  5
EC
330
1F
100
AcDbEntity
  8
0
  6
Continuous
 62
     7
370
    25
100
AcDbLine
 10
6291.5187553361
 20
5211.6803169603
 30
0.0
 11
6256.5187553361
 21
5211.6803169603
 31
0.0
  0
LINE
  5
ED
330
1F
100
AcDbEntity
  8
0
  6
Continuous
 62
     7
370
    25
100
AcDbLine
 10
6389.0187553361
 20
4953.4803169603
 30
0.0
 11
6396.2745692896
 21
5109.4803169603
 31
0.0
  0
LINE
  5
EE
330
1F
100
AcDbEntity
  8
0
  6
Continuous
 62
     7
370
    25
100
AcDbLine
 10
6369.0187553361
 20
4953.4803169603
 30
0.0
 11
6389.0187553361
 21
4953.4803169603
 31
0.0
  0
LINE
  5
EF
330
1F
100
AcDbEntity
  8
0
  6
Continuous
 62
     7
370
    25
100
AcDbLine
 10
6159.0187553361
 20
4953.4803169603
 30
0.0
 11
6179.0187553361
 21
4953.4803169603
 31
0.0
  0
LINE
  5
F0
330
1F
100
AcDbEntity
  8
0
  6
Continuous
 62
     7
370
    25
100
AcDbLine
 10
6151.7629413826
 20
5109.4803169603
 30
0.0
 11
6159.0187553361
 21
4953.4803169603
 31
0.0
  0
LINE
  5
F1
330
1F
100
AcDbEntity
  8
0
  6
Continuous
 62
     7
370
    25
100
AcDbLine
 10
6179.0187553361
 20
4953.4803169603
 30
0.0
 11
6369.0187553361
 21
4953.4803169603
 31
0.0
  0
LINE
  5
F2
330
1F
100
AcDbEntity
  8
0
  6
Continuous
 62
     7
370
    25
100
AcDbLine
 10
6462.2187553361
 20
5166.9732101791
 30
0.0
 11
6462.2187553361
 21
4919.3874237415
 31
0.0
  0
LINE
  5
F3
330
1F
100
AcDbEntity
  8
0
  6
Continuous
 62
     7
370
    25
100
AcDbLine
 10
6404.0187553361
 20
5108.7732101791
 30
0.0
 11
6462.2187553361
 21
5166.9732101791
 31
0.0
  0
LINE
  5
F4
330
1F
100
AcDbEntity
  8
0
  6
Continuous
 62
     7
370
    25
100
AcDbLine
 10
6462.2187553361
 20
4919.3874237415
 30
0.0
 11
6404.0187553361
 21
4919.3874237415
 31
0.0
  0
LINE
  5
F5
330
1F
100
AcDbEntity
  8
0
  6
Continuous
 62
     7
370
    25
100
AcDbLine
 10
6404.0187553361
 20
4919.3874237415
 30
0.0
 11
6404.0187553361
 21
5108.7732101791
 31
0.0
  0
LINE
  5
F6
330
1F
100
AcDbEntity
  8
0
  6
Continuous
 62
     7
370
    25
100
AcDbLine
 10
6144.7258621173
 20
5109.4803169603
 30
0.0
 11
6086.5258621173
 21
5167.6803169603
 31
0.0
  0
LINE
  5
F7
330
1F
100
AcDbEntity
  8
0
  6
Continuous
 62
     7
370
    25
100
AcDbLine
 10
6461.5116485549
 20
5167.6803169603
 30
0.0
 11
6086.5258621173
 21
5167.6803169603
 31
0.0
  0
LINE
  5
F8
330
1F
100
AcDbEntity
  8
0
  6
Continuous
 62
     7
370
    25
100
AcDbLine
 10
6403.3116485549
 20
5109.4803169603
 30
0.0
 11
6144.7258621173
 21
5109.4803169603
 31
0.0
  0
LINE
  5
F9
330
1F
100
AcDbEntity
  8
0
  6
Continuous
 62
     7
370
    25
100
AcDbLine
 10
6461.5116485549
 20
5167.6803169603
 30
0.0
 11
6403.3116485549
 21
5109.4803169603
 31
0.0
  0
LINE
  5
FA
330
1F
100
AcDbEntity
  8
0
  6
Continuous
 62
     7
370
    25
100
AcDbLine
 10
6144.0187553361
 20
4919.3874237415
 30
0.0
 11
6085.8187553361
 21
4919.3874237415
 31
0.0
  0
LINE
  5
FB
330
1F
100
AcDbEntity
  8
0
  6
Continuous
 62
     7
370
    25
100
AcDbLine
 10
6085.8187553361
 20
4919.3874237415
 30
0.0
 11
6085.8187553361
 21
5166.9732101791
 31
0.0
  0
LINE
  5
FC
330
1F
100
AcDbEntity
  8
0
  6
Continuous
 62
     7
370
    25
100
AcDbLine
 10
6085.8187553361
 20
5166.9732101791
 30
0.0
 11
6144.0187553361
 21
5108.7732101791
 31
0.0
  0
LINE
  5
FD
330
1F
100
AcDbEntity
  8
0
  6
Continuous
 62
     7
370
    25
100
AcDbLine
 10
6144.0187553361
 20
5108.7732101791
 30
0.0
 11
6144.0187553361
 21
4919.3874237415
 31
0.0
  0
ARC
  5
FE
330
1F
100
AcDbEntity
  8
0
  6
Continuous
 62
     7
370
    25
100
AcDbCircle
 10
6462.1603278452
 20
4938.0054034046
 30
0.0
 40
18.61807134231468
100
AcDbArc
 50
270.1798067088
 51
275.7287175667
  0
ARC
  5
FF
330
1F
100
AcDbEntity
  8
0
  6
Continuous
 62
     7
370
    25
100
AcDbCircle
 10
6462.1636278208
 20
5169.7581212845
 30
0.0
 40
2.78545667846876
100
AcDbArc
 50
271.1340259649
 51
311.7594570772
  0
LINE
  5
100
330
1F
100
AcDbEntity
  8
0
  6
Continuous
 62
     7
370
    25
100
AcDbLine
 10
6464.0187553361
 20
5167.6803169603
 30
0.0
 11
6464.0187553361
 21
4919.4803169603
 31
0.0
  0
ARC
  5
101
330
1F
100
AcDbEntity
  8
0
  6
Continuous
 62
     7
370
    25
100
AcDbCircle
 10
6465.4820503258
 20
5167.1594847291
 30
0.0
 40
4.004417115591371
100
AcDbArc
 50
144.5798324756
 51
172.5266844824
  0
LINE
  5
102
330
1F
100
AcDbEntity
  8
0
  6
Continuous
 62
     7
370
    25
100
AcDbLine
 10
6462.2187553361
 20
5168.4803169603
 30
0.0
 11
6462.2187553361
 21
5169.4803169603
 31
0.0
  0
ARC
  5
103
330
1F
100
AcDbEntity
  8
0
  6
Continuous
 62
     7
370
    25
100
AcDbCircle
 10
6462.8280405799
 20
5167.2292798008
 30
0.0
 40
1.391518049736529
100
AcDbArc
 50
115.9671981419
 51
161.0869332402
  0
LINE
  5
104
330
1F
100
AcDbEntity
  8
0
  6
Continuous
 62
     7
370
    25
100
AcDbLine
 10
6464.0187553361
 20
5167.6803169603
 30
0.0
 11
6463.0187553361
 21
5167.6803169603
 31
0.0
  0
ARC
  5
105
330
1F
100
AcDbEntity
  8
0
  6
Continuous
 62
     7
370
    25
100
AcDbCircle
 10
6461.8500770307
 20
5168.1964237973
 30
0.0
 40
1.27756614258127
100
AcDbArc
 50
286.7728806496
 51
336.1729879684
  0
ARC
  5
106
330
1F
100
AcDbEntity
  8
0
  6
Continuous
 62
     7
370
    25
100
AcDbCircle
 10
6083.7409510119
 20
5167.625189445
 30
0.0
 40
2.785456678492456
100
AcDbArc
 50
1.134025965
 51
41.759457077
  0
LINE
  5
107
330
1F
100
AcDbEntity
  8
0
  6
Continuous
 62
     7
370
    25
100
AcDbLine
 10
6085.8187553361
 20
5169.4803169603
 30
0.0
 11
6462.2187553361
 21
5169.4803169603
 31
0.0
  0
ARC
  5
108
330
1F
100
AcDbEntity
  8
0
  6
Continuous
 62
     7
370
    25
100
AcDbCircle
 10
6086.3395875673
 20
5170.94361195
 30
0.0
 40
4.00441711553929
100
AcDbArc
 50
234.5798324754
 51
262.5266844826
  0
LINE
  5
109
330
1F
100
AcDbEntity
  8
0
  6
Continuous
 62
     7
370
    25
100
AcDbLine
 10
6085.0187553361
 20
5167.6803169603
 30
0.0
 11
6084.0187553361
 21
5167.6803169603
 31
0.0
  0
ARC
  5
10A
330
1F
100
AcDbEntity
  8
0
  6
Continuous
 62
     7
370
    25
100
AcDbCircle
 10
6086.2697924956
 20
5168.2896022041
 30
0.0
 40
1.391518049741538
100
AcDbArc
 50
205.967198142
 51
251.0869332402
  0
ARC
  5
10B
330
1F
100
AcDbEntity
  8
0
  6
Continuous
 62
     7
370
    25
100
AcDbCircle
 10
6085.877182827
 20
4938.0054034045
 30
0.0
 40
18.61807134224009
100
AcDbArc
 50
264.2712824332
 51
269.8201932912
  0
LINE
  5
10C
330
1F
100
AcDbEntity
  8
0
  6
Continuous
 62
     7
370
    25
100
AcDbLine
 10
6084.0187553361
 20
4919.4803169603
 30
0.0
 11
6084.0187553361
 21
5167.6803169603
 31
0.0
  0
LINE
  5
10D
330
1F
100
AcDbEntity
  8
0
  6
Continuous
 62
     7
370
    25
100
AcDbLine
 10
6085.8187553361
 20
5169.4803169603
 30
0.0
 11
6085.8187553361
 21
5168.4803169603
 31
0.0
  0
ARC
  5
10E
330
1F
100
AcDbEntity
  8
0
  6
Continuous
 62
     7
370
    25
100
AcDbCircle
 10
6085.3026484991
 20
5167.3116386549
 30
0.0
 40
1.277566142579663
100
AcDbArc
 50
16.7728806495
 51
66.1729879683
  0
ARC
  5
10F
330
1F
100
AcDbEntity
  8
0
  6
Continuous
 62
     7
370
    25
100
AcDbCircle
 10
6462.2187553361
 20
4919.4803169603
 30
0.0
 40
1.800000000001091
100
AcDbArc
 50
270.0
 51
0.0
  0
LINE
  5
110
330
1F
100
AcDbEntity
  8
0
  6
Continuous
 62
     7
370
    25
100
AcDbLine
 10
6462.2187553361
 20
4918.6803169603
 30
0.0
 11
6462.2187553361
 21
4917.6803169603
 31
0.0
  0
ARC
  5
111
330
1F
100
AcDbEntity
  8
0
  6
Continuous
 62
     7
370
    25
100
AcDbCircle
 10
6462.2187553361
 20
4919.4803169603
 30
0.0
 40
0.8000000000010914
100
AcDbArc
 50
270.0
 51
0.0
  0
LINE
  5
112
330
1F
100
AcDbEntity
  8
0
  6
Continuous
 62
     7
370
    25
100
AcDbLine
 10
6404.0187553361
 20
4917.6803169603
 30
0.0
 11
6404.0187553361
 21
4918.6803169603
 31
0.0
  0
LINE
  5
113
330
1F
100
AcDbEntity
  8
0
  6
Continuous
 62
     7
370
    25
100
AcDbLine
 10
6404.0187553361
 20
4918.6803169603
 30
0.0
 11
6462.2187553361
 21
4918.6803169603
 31
0.0
  0
LINE
  5
114
330
1F
100
AcDbEntity
  8
0
  6
Continuous
 62
     7
370
    25
100
AcDbLine
 10
6404.0187553361
 20
4917.6803169603
 30
0.0
 11
6462.2187553361
 21
4917.6803169603
 31
0.0
  0
LINE
  5
115
330
1F
100
AcDbEntity
  8
0
  6
Continuous
 62
     7
370
    25
100
AcDbLine
 10
6144.0187553361
 20
4917.6803169603
 30
0.0
 11
6144.0187553361
 21
4918.6803169603
 31
0.0
  0
LINE
  5
116
330
1F
100
AcDbEntity
  8
0
  6
Continuous
 62
     7
370
    25
100
AcDbLine
 10
6085.8187553361
 20
4918.6803169603
 30
0.0
 11
6085.8187553361
 21
4917.6803169603
 31
0.0
  0
LINE
  5
117
330
1F
100
AcDbEntity
  8
0
  6
Continuous
 62
     7
370
    25
100
AcDbLine
 10
6085.8187553361
 20
4918.6803169603
 30
0.0
 11
6144.0187553361
 21
4918.6803169603
 31
0.0
  0
LINE
  5
118
330
1F
100
AcDbEntity
  8
0
  6
Continuous
 62
     7
370
    25
100
AcDbLine
 10
6085.8187553361
 20
4917.6803169603
 30
0.0
 11
6144.0187553361
 21
4917.6803169603
 31
0.0
  0
ARC
  5
119
330
1F
100
AcDbEntity
  8
0
  6
Continuous
 62
     7
370
    25
100
AcDbCircle
 10
6085.8187553361
 20
4919.4803169603
 30
0.0
 40
1.800000000001091
100
AcDbArc
 50
180.0
 51
269.9999999999
  0
ARC
  5
11A
330
1F
100
AcDbEntity
  8
0
  6
Continuous
 62
     7
370
    25
100
AcDbCircle
 10
6085.8187553361
 20
4919.4803169603
 30
0.0
 40
0.8000000000020009
100
AcDbArc
 50
180.0
 51
269.9999999999
  0
ARC
  5
11B
330
1F
100
AcDbEntity
  8
0
  6
Continuous
 62
     7
370
    25
100
AcDbCircle
 10
6462.2187553361
 20
5167.6803169603
 30
0.0
 40
1.800000000000182
100
AcDbArc
 50
0.0
 51
90.0
  0
ARC
  5
11C
330
1F
100
AcDbEntity
  8
0
  6
Continuous
 62
     7
370
    25
100
AcDbCircle
 10
6462.2187553361
 20
5167.6803169603
 30
0.0
 40
0.8000000000001819
100
AcDbArc
 50
0.0
 51
90.0
  0
ARC
  5
11D
330
1F
100
AcDbEntity
  8
0
  6
Continuous
 62
     7
370
    25
100
AcDbCircle
 10
6085.8187553361
 20
5167.6803169603
 30
0.0
 40
1.800000000001091
100
AcDbArc
 50
90.0
 51
180.0
  0
ARC
  5
11E
330
1F
100
AcDbEntity
  8
0
  6
Continuous
 62
     7
370
    25
100
AcDbCircle
 10
6085.8187553361
 20
5167.6803169603
 30
0.0
 40
0.8000000000001819
100
AcDbArc
 50
90.0
 51
180.0
  0
LINE
  5
11F
330
1F
100
AcDbEntity
  8
0
  6
Continuous
 62
     7
370
    25
100
AcDbLine
 10
6464.8187553361
 20
5167.6803169603
 30
0.0
 11
6464.0187553361
 21
5167.6803169603
 31
0.0
  0
LINE
  5
120
330
1F
100
AcDbEntity
  8
0
  6
Continuous
 62
     7
370
    25
100
AcDbLine
 10
6464.8187553361
 20
4919.4803169603
 30
0.0
 11
6464.8187553361
 21
5167.6803169603
 31
0.0
  0
LINE
  5
121
330
1F
100
AcDbEntity
  8
0
  6
Continuous
 62
     7
370
    25
100
AcDbLine
 10
6464.0187553361
 20
4919.4803169603
 30
0.0
 11
6464.8187553361
 21
4919.4803169603
 31
0.0
  0
LINE
  5
122
330
1F
100
AcDbEntity
  8
0
  6
Continuous
 62
     7
370
    25
100
AcDbLine
 10
6085.8187553361
 20
5170.2803169603
 30
0.0
 11
6085.8187553361
 21
5169.4803169603
 31
0.0
  0
LINE
  5
123
330
1F
100
AcDbEntity
  8
0
  6
Continuous
 62
     7
370
    25
100
AcDbLine
 10
6462.2187553361
 20
5169.4803169603
 30
0.0
 11
6462.2187553361
 21
5170.2803169603
 31
0.0
  0
LINE
  5
124
330
1F
100
AcDbEntity
  8
0
  6
Continuous
 62
     7
370
    25
100
AcDbLine
 10
6083.2187553361
 20
5167.6803169603
 30
0.0
 11
6083.2187553361
 21
4919.4803169603
 31
0.0
  0
LINE
  5
125
330
1F
100
AcDbEntity
  8
0
  6
Continuous
 62
     7
370
    25
100
AcDbLine
 10
6084.0187553361
 20
5167.6803169603
 30
0.0
 11
6083.2187553361
 21
5167.6803169603
 31
0.0
  0
LINE
  5
126
330
1F
100
AcDbEntity
  8
0
  6
Continuous
 62
     7
370
    25
100
AcDbLine
 10
6083.2187553361
 20
4919.4803169603
 30
0.0
 11
6084.0187553361
 21
4919.4803169603
 31
0.0
  0
LINE
  5
127
330
1F
100
AcDbEntity
  8
0
  6
Continuous
 62
     7
370
    25
100
AcDbLine
 10
6478.0187553361
 20
5167.6803169603
 30
0.0
 11
6464.8187553361
 21
5167.6803169603
 31
0.0
  0
ARC
  5
128
330
1F
100
AcDbEntity
  8
0
  6
Continuous
 62
     7
370
    25
100
AcDbCircle
 10
6478.0187553361
 20
5157.6803169603
 30
0.0
 40
10.0
100
AcDbArc
 50
0.0
 51
90.0
  0
LINE
  5
129
330
1F
100
AcDbEntity
  8
0
  6
Continuous
 62
     7
370
    25
100
AcDbLine
 10
6488.0187553361
 20
4929.4803169603
 30
0.0
 11
6488.0187553361
 21
5157.6803169603
 31
0.0
  0
ARC
  5
12A
330
1F
100
AcDbEntity
  8
0
  6
Continuous
 62
     7
370
    25
100
AcDbCircle
 10
6478.0187553361
 20
4929.4803169603
 30
0.0
 40
10.0
100
AcDbArc
 50
270.0
 51
0.0
  0
LINE
  5
12B
330
1F
100
AcDbEntity
  8
0
  6
Continuous
 62
     7
370
    25
100
AcDbLine
 10
6464.8187553361
 20
4919.4803169603
 30
0.0
 11
6478.0187553361
 21
4919.4803169603
 31
0.0
  0
CIRCLE
  5
12C
330
1F
100
AcDbEntity
  8
0
  6
Continuous
 62
     7
370
    25
100
AcDbCircle
 10
6479.0187553361
 20
4929.4803169603
 30
0.0
 40
2.5
  0
ARC
  5
12D
330
1F
100
AcDbEntity
  8
0
  6
Continuous
 62
     7
370
    25
100
AcDbCircle
 10
6174.0187553361
 20
5188.4803169603
 30
0.0
 40
2.5
100
AcDbArc
 50
0.0
 51
180.0
  0
LINE
  5
12E
330
1F
100
AcDbEntity
  8
0
  6
Continuous
 62
     7
370
    25
100
AcDbLine
 10
6171.5187553361
 20
5188.4803169603
 30
0.0
 11
6171.5187553361
 21
5182.8104439792
 31
0.0
  0
ARC
  5
12F
330
1F
100
AcDbEntity
  8
0
  6
Continuous
 62
     7
370
    25
100
AcDbCircle
 10
6174.0187553361
 20
5178.4803169603
 30
0.0
 40
5.000000000000016
100
AcDbArc
 50
120.0
 51
60.0
  0
LINE
  5
130
330
1F
100
AcDbEntity
  8
0
  6
Continuous
 62
     7
370
    25
100
AcDbLine
 10
6176.5187553361
 20
5188.4803169603
 30
0.0
 11
6176.5187553361
 21
5182.8104439792
 31
0.0
  0
ARC
  5
131
330
1F
100
AcDbEntity
  8
0
  6
Continuous
 62
     7
370
    25
100
AcDbCircle
 10
6452.2187553361
 20
5183.4803169603
 30
0.0
 40
10.0
100
AcDbArc
 50
0.0
 51
90.0
  0
LINE
  5
132
330
1F
100
AcDbEntity
  8
0
  6
Continuous
 62
     7
370
    25
100
AcDbLine
 10
6462.2187553361
 20
5170.2803169603
 30
0.0
 11
6462.2187553361
 21
5183.4803169603
 31
0.0
  0
LINE
  5
133
330
1F
100
AcDbEntity
  8
0
  6
Continuous
 62
     7
370
    25
100
AcDbLine
 10
6085.8187553361
 20
5183.4803169603
 30
0.0
 11
6085.8187553361
 21
5170.2803169603
 31
0.0
  0
ARC
  5
134
330
1F
100
AcDbEntity
  8
0
  6
Continuous
 62
     7
370
    25
100
AcDbCircle
 10
6095.8187553361
 20
5183.4803169603
 30
0.0
 40
10.0
100
AcDbArc
 50
90.0
 51
180.0
  0
LINE
  5
135
330
1F
100
AcDbEntity
  8
0
  6
Continuous
 62
     7
370
    25
100
AcDbLine
 10
6452.2187553361
 20
5193.4803169603
 30
0.0
 11
6320.8187553361
 21
5193.4803169603
 31
0.0
  0
LINE
  5
136
330
1F
100
AcDbEntity
  8
0
  6
Continuous
 62
     7
370
    25
100
AcDbLine
 10
6319.8187553361
 20
5193.4803169603
 30
0.0
 11
6319.0187553361
 21
5193.4803169603
 31
0.0
  0
LINE
  5
137
330
1F
100
AcDbEntity
  8
0
  6
Continuous
 62
     7
370
    25
100
AcDbLine
 10
6229.0187553361
 20
5193.4803169603
 30
0.0
 11
6228.2187553361
 21
5193.4803169603
 31
0.0
  0
LINE
  5
138
330
1F
100
AcDbEntity
  8
0
  6
Continuous
 62
     7
370
    25
100
AcDbLine
 10
6227.2187553361
 20
5193.4803169603
 30
0.0
 11
6095.8187553361
 21
5193.4803169603
 31
0.0
  0
ARC
  5
139
330
1F
100
AcDbEntity
  8
0
  6
Continuous
 62
     7
370
    25
100
AcDbCircle
 10
6374.0187553361
 20
5188.4803169603
 30
0.0
 40
2.5
100
AcDbArc
 50
0.0
 51
180.0
  0
LINE
  5
13A
330
1F
100
AcDbEntity
  8
0
  6
Continuous
 62
     7
370
    25
100
AcDbLine
 10
6371.5187553361
 20
5188.4803169603
 30
0.0
 11
6371.5187553361
 21
5182.8104439792
 31
0.0
  0
ARC
  5
13B
330
1F
100
AcDbEntity
  8
0
  6
Continuous
 62
     7
370
    25
100
AcDbCircle
 10
6374.0187553361
 20
5178.4803169603
 30
0.0
 40
5.000000000000016
100
AcDbArc
 50
120.0
 51
60.0
  0
LINE
  5
13C
330
1F
100
AcDbEntity
  8
0
  6
Continuous
 62
     7
370
    25
100
AcDbLine
 10
6376.5187553361
 20
5188.4803169603
 30
0.0
 11
6376.5187553361
 21
5182.8104439792
 31
0.0
  0
ARC
  5
13D
330
1F
100
AcDbEntity
  8
0
  6
Continuous
 62
     7
370
    25
100
AcDbCircle
 10
6070.0187553361
 20
5157.6803169603
 30
0.0
 40
9.99999999999909
100
AcDbArc
 50
90.0
 51
180.0
  0
LINE
  5
13E
330
1F
100
AcDbEntity
  8
0
  6
Continuous
 62
     7
370
    25
100
AcDbLine
 10
6083.2187553361
 20
5167.6803169603
 30
0.0
 11
6070.0187553361
 21
5167.6803169603
 31
0.0
  0
LINE
  5
13F
330
1F
100
AcDbEntity
  8
0
  6
Continuous
 62
     7
370
    25
100
AcDbLine
 10
6070.0187553361
 20
4919.4803169603
 30
0.0
 11
6083.2187553361
 21
4919.4803169603
 31
0.0
  0
ARC
  5
140
330
1F
100
AcDbEntity
  8
0
  6
Continuous
 62
     7
370
    25
100
AcDbCircle
 10
6070.0187553361
 20
4929.4803169603
 30
0.0
 40
9.99999999999909
100
AcDbArc
 50
180.0
 51
270.0
  0
LINE
  5
141
330
1F
100
AcDbEntity
  8
0
  6
Continuous
 62
     7
370
    25
100
AcDbLine
 10
6060.0187553361
 20
5157.6803169603
 30
0.0
 11
6060.0187553361
 21
4929.4803169603
 31
0.0
  0
CIRCLE
  5
142
330
1F
100
AcDbEntity
  8
0
  6
Continuous
 62
     7
370
    25
100
AcDbCircle
 10
6069.0187553361
 20
4929.4803169603
 30
0.0
 40
2.5
  0
LINE
  5
143
330
1F
100
AcDbEntity
  8
0
  6
Continuous
 62
     8
370
    25
100
AcDbLine
 10
6266.6945865488
 20
5207.5503812126
 30
0.0
 11
6291.6532250814
 21
5207.5503812126
 31
0.0
  0
LINE
  5
144
330
1F
100
AcDbEntity
  8
0
  6
Continuous
 62
     8
370
    25
100
AcDbLine
 10
6256.3842855908
 20
5207.5503812126
 30
0.0
 11
6266.6945865488
 21
5207.5503812126
 31
0.0
  0
LINE
  5
145
330
1F
100
AcDbEntity
  8
0
  6
Continuous
 62
     8
370
    25
100
AcDbLine
 10
6266.7504362072
 20
5207.89153753
 30
0.0
 11
6291.5187553361
 21
5207.89153753
 31
0.0
  0
LINE
  5
146
330
1F
100
AcDbEntity
  8
0
  6
Continuous
 62
     8
370
    25
100
AcDbLine
 10
6256.5187553361
 20
5207.89153753
 30
0.0
 11
6266.7504362072
 21
5207.89153753
 31
0.0
  0
LINE
  5
147
330
1F
100
AcDbEntity
  8
0
  6
Continuous
 62
     8
370
    25
100
AcDbLine
 10
6369.0187553361
 20
5109.4803169603
 30
0.0
 11
6369.0187553361
 21
4953.4803169603
 31
0.0
  0
LINE
  5
148
330
1F
100
AcDbEntity
  8
0
  6
Continuous
 62
     8
370
    25
100
AcDbLine
 10
6179.0187553361
 20
5109.4803169603
 30
0.0
 11
6179.0187553361
 21
4953.4803169603
 31
0.0
  0
LINE
  5
149
330
1F
100
AcDbEntity
  8
0
  6
Continuous
 62
     8
370
    25
100
AcDbLine
 10
6462.2187553361
 20
5170.2803169603
 30
0.0
 11
6336.8187553361
 21
5170.2803169603
 31
0.0
  0
LINE
  5
14A
330
1F
100
AcDbEntity
  8
0
  6
Continuous
 62
     8
370
    25
100
AcDbLine
 10
6321.0271473578
 20
5170.2803169603
 30
0.0
 11
6319.0187553361
 21
5170.2803169603
 31
0.0
  0
LINE
  5
14B
330
1F
100
AcDbEntity
  8
0
  6
Continuous
 62
     8
370
    25
100
AcDbLine
 10
6229.0187553361
 20
5170.2803169603
 30
0.0
 11
6227.0103633144
 21
5170.2803169603
 31
0.0
  0
LINE
  5
14C
330
1F
100
AcDbEntity
  8
0
  6
Continuous
 62
     8
370
    25
100
AcDbLine
 10
6211.2187553361
 20
5170.2803169603
 30
0.0
 11
6085.8187553361
 21
5170.2803169603
 31
0.0
  0
LINE
  5
14D
330
1F
100
AcDbEntity
  8
0
  6
Continuous
 62
     7
370
    25
100
AcDbLine
 10
6786.8866317145
 20
5433.137358066
 30
0.0
 11
6789.8866317145
 21
5433.137358066
 31
0.0
  0
LINE
  5
14E
330
1F
100
AcDbEntity
  8
0
  6
Continuous
 62
     7
370
    25
100
AcDbLine
 10
6789.8866317145
 20
5508.137358066
 30
0.0
 11
6786.8866317145
 21
5508.137358066
 31
0.0
  0
LINE
  5
14F
330
1F
100
AcDbEntity
  8
0
  6
Continuous
 62
     7
370
    25
100
AcDbLine
 10
6789.8866317145
 20
5433.137358066
 30
0.0
 11
6790.8866317145
 21
5434.137358066
 31
0.0
  0
LINE
  5
150
330
1F
100
AcDbEntity
  8
0
  6
Continuous
 62
     7
370
    25
100
AcDbLine
 10
6790.8866317145
 20
5507.137358066
 30
0.0
 11
6789.8866317145
 21
5508.137358066
 31
0.0
  0
LINE
  5
151
330
1F
100
AcDbEntity
  8
0
  6
Continuous
 62
     7
370
    25
100
AcDbLine
 10
6947.1866317145
 20
5495.537358066
 30
0.0
 11
6946.8866317145
 21
5495.237358066
 31
0.0
  0
LINE
  5
152
330
1F
100
AcDbEntity
  8
0
  6
Continuous
 62
     7
370
    25
100
AcDbLine
 10
6946.8866317145
 20
5446.037358066
 30
0.0
 11
6947.1866317145
 21
5445.737358066
 31
0.0
  0
LINE
  5
153
330
1F
100
AcDbEntity
  8
0
  6
Continuous
 62
     7
370
    25
100
AcDbLine
 10
6948.8866317145
 20
5495.537358066
 30
0.0
 11
6947.1866317145
 21
5495.537358066
 31
0.0
  0
LINE
  5
154
330
1F
100
AcDbEntity
  8
0
  6
Continuous
 62
     7
370
    25
100
AcDbLine
 10
6947.1866317145
 20
5445.737358066
 30
0.0
 11
6948.8866317145
 21
5445.737358066
 31
0.0
  0
LINE
  5
155
330
1F
100
AcDbEntity
  8
0
  6
Continuous
 62
     7
370
    25
100
AcDbLine
 10
6948.8866317145
 20
5445.737358066
 30
0.0
 11
6949.8866317145
 21
5446.737358066
 31
0.0
  0
LINE
  5
156
330
1F
100
AcDbEntity
  8
0
  6
Continuous
 62
     7
370
    25
100
AcDbLine
 10
6949.8866317145
 20
5494.537358066
 30
0.0
 11
6948.8866317145
 21
5495.537358066
 31
0.0
  0
LINE
  5
157
330
1F
100
AcDbEntity
  8
0
  6
Continuous
 62
     7
370
    25
100
AcDbLine
 10
6946.8866317145
 20
5495.387358066
 30
0.0
 11
6790.8866317145
 21
5495.387358066
 31
0.0
  0
LINE
  5
158
330
1F
100
AcDbEntity
  8
0
  6
Continuous
 62
     7
370
    25
100
AcDbLine
 10
6944.9212910331
 20
5445.887358066
 30
0.0
 11
6946.8866317145
 21
5445.887358066
 31
0.0
  0
LINE
  5
159
330
1F
100
AcDbEntity
  8
0
  6
Continuous
 62
     7
370
    25
100
AcDbLine
 10
6934.8866317145
 20
5445.887358066
 30
0.0
 11
6942.4366317145
 21
5445.887358066
 31
0.0
  0
LINE
  5
15A
330
1F
100
AcDbEntity
  8
0
  6
Continuous
 62
     7
370
    25
100
AcDbLine
 10
6919.7463179461
 20
5445.887358066
 30
0.0
 11
6923.8866317145
 21
5445.887358066
 31
0.0
  0
LINE
  5
15B
330
1F
100
AcDbEntity
  8
0
  6
Continuous
 62
     7
370
    25
100
AcDbLine
 10
6825.3422890937
 20
5445.887358066
 30
0.0
 11
6897.8866317145
 21
5445.887358066
 31
0.0
  0
LINE
  5
15C
330
1F
100
AcDbEntity
  8
0
  6
Continuous
 62
     7
370
    25
100
AcDbLine
 10
6790.8866317145
 20
5445.887358066
 30
0.0
 11
6818.3866317145
 21
5445.887358066
 31
0.0
  0
LINE
  5
15D
330
1F
100
AcDbEntity
  8
0
  6
Continuous
 62
     7
370
    25
100
AcDbLine
 10
6773.8866317145
 20
5466.3511899793
 30
0.0
 11
6772.3866317145
 21
5466.3511899793
 31
0.0
  0
LWPOLYLINE
  5
15E
330
1F
100
AcDbEntity
  8
0
  6
Continuous
 62
     7
370
    25
100
AcDbPolyline
 90
       33
 70
   128
 43
0.0
 10
6785.391121572
 20
5211.6803169603
 10
6785.3927429524
 20
5225.1075113218
 10
6785.3953630025
 20
5243.6677445827
 10
6785.3980275394
 20
5261.1129188372
 10
6785.4005403566
 20
5277.472016983
 10
6785.4028950468
 20
5294.247196992
 10
6785.4045675989
 20
5309.7818722372
 10
6785.4052968267
 20
5324.1146216463
 10
6785.4048216268
 20
5337.284039413
 10
6785.40288085
 20
5349.3287239747
 10
6785.3992130192
 20
5360.2872474853
 10
6785.3935566635
 20
5370.1981901051
 10
6785.3856508463
 20
5379.1002586042
 10
6785.3752349603
 20
5387.032238134
 10
6785.3620468612
 20
5394.0328030633
 10
6785.3461383271
 20
5400.0388812779
 10
6785.3270463285
 20
5405.2199446156
 10
6785.3045206985
 20
5409.6138600265
 10
6785.2783132521
 20
5413.2596695459
 10
6785.2429973718
 20
5416.5920255371
 10
6785.2017856837
 20
5419.0331834439
 10
6785.1553615224
 20
5420.7586068582
 10
6785.1068645098
 20
5422.0269089519
 10
6785.0603344464
 20
5423.1199825677
 10
6785.0064821854
 20
5424.7907883326
 10
6784.9899794672
 20
5426.8485743708
 10
6785.0636864915
 20
5428.8630507726
 10
6785.1602019938
 20
5429.5898170774
 10
6785.3985862556
 20
5430.207569984
 10
6785.8785594611
 20
5431.5594789149
 10
6786.0026411212
 20
5432.9980219669
 10
6785.9740698883
 20
5433.8439852505
 10
6785.9040546285
 20
5434.6427519552
  0
LWPOLYLINE
  5
15F
330
1F
100
AcDbEntity
  8
0
  6
Continuous
 62
     7
370
    25
100
AcDbPolyline
 90
        3
 70
   128
 43
0.0
 10
6785.2453301921
 20
5437.6427519552
 10
6785.2159857238
 20
5437.8580464714
 10
6785.1606541879
 20
5439.1427519552
  0
LWPOLYLINE
  5
160
330
1F
100
AcDbEntity
  8
0
  6
Continuous
 62
     7
370
    25
100
AcDbPolyline
 90
       29
 70
   128
 43
0.0
 10
6759.788869492
 20
5433.1427519552
 10
6759.7725969441
 20
5432.4810539726
 10
6760.451950479
 20
5430.0266953032
 10
6760.7095769376
 20
5428.8630507726
 10
6760.7856117668
 20
5426.2699483513
 10
6760.7388623028
 20
5423.8162149594
 10
6760.6629547096
 20
5421.9455074253
 10
6760.6153254487
 20
5420.680252037
 10
6760.5699069953
 20
5418.9596613583
 10
6760.5295845185
 20
5416.5406211193
 10
6760.4949501769
 20
5413.2596695459
 10
6760.4668111246
 20
5409.2908436085
 10
6760.4429425499
 20
5404.4459645687
 10
6760.4230317579
 20
5398.6759540444
 10
6760.4067628713
 20
5391.93362073
 10
6760.3938176298
 20
5384.1731932316
 10
6760.3838798921
 20
5375.3487767248
 10
6760.3769847645
 20
5366.0125485058
 10
6760.3722256597
 20
5355.6505858852
 10
6760.3693413482
 20
5344.2242515603
 10
6760.3680703135
 20
5331.6949762242
 10
6760.3681511936
 20
5318.0241783672
 10
6760.3693229272
 20
5303.1732543716
 10
6760.3713243482
 20
5287.1036201141
 10
6760.3738942895
 20
5269.7766963581
 10
6760.3767716046
 20
5251.1539056915
 10
6760.3796951415
 20
5231.1966731915
 10
6760.3818545145
 20
5214.5547112646
 10
6760.3821664463
 20
5211.6803169603
  0
LINE
  5
161
330
1F
100
AcDbEntity
  8
0
  6
Continuous
 62
     7
370
    25
100
AcDbLine
 10
6748.1366317145
 20
5448.6427519552
 30
0.0
 11
6748.1366317145
 21
5446.1427519552
 31
0.0
  0
LINE
  5
162
330
1F
100
AcDbEntity
  8
0
  6
Continuous
 62
     7
370
    25
100
AcDbLine
 10
6748.6366317145
 20
5449.1427519552
 30
0.0
 11
6748.1366317145
 21
5448.6427519552
 31
0.0
  0
LINE
  5
163
330
1F
100
AcDbEntity
  8
0
  6
Continuous
 62
     7
370
    25
100
AcDbLine
 10
6794.0866317145
 20
5439.1427519552
 30
0.0
 11
6794.0866317145
 21
5445.887358066
 31
0.0
  0
LINE
  5
164
330
1F
100
AcDbEntity
  8
0
  6
Continuous
 62
     7
370
    25
100
AcDbLine
 10
6751.6866317145
 20
5446.1427519552
 30
0.0
 11
6751.6866317145
 21
5439.1427519552
 31
0.0
  0
LINE
  5
165
330
1F
100
AcDbEntity
  8
0
  6
Continuous
 62
     7
370
    25
100
AcDbLine
 10
6846.3866317145
 20
5170.1803169603
 30
0.0
 11
6846.8866317145
 21
5169.6803169603
 31
0.0
  0
LINE
  5
166
330
1F
100
AcDbEntity
  8
0
  6
Continuous
 62
     7
370
    25
100
AcDbLine
 10
6852.8866317145
 20
5169.6803169603
 30
0.0
 11
6853.3866317145
 21
5170.1803169603
 31
0.0
  0
LINE
  5
167
330
1F
100
AcDbEntity
  8
0
  6
Continuous
 62
     7
370
    25
100
AcDbLine
 10
6846.8866317145
 20
5169.6803169603
 30
0.0
 11
6846.8866317145
 21
5169.4803169603
 31
0.0
  0
LINE
  5
168
330
1F
100
AcDbEntity
  8
0
  6
Continuous
 62
     7
370
    25
100
AcDbLine
 10
6852.8866317145
 20
5169.4803169603
 30
0.0
 11
6852.8866317145
 21
5169.6803169603
 31
0.0
  0
LINE
  5
169
330
1F
100
AcDbEntity
  8
0
  6
Continuous
 62
     7
370
    25
100
AcDbLine
 10
6813.1189402609
 20
5170.1803169603
 30
0.0
 11
6813.3065046956
 21
5169.4803169603
 31
0.0
  0
LINE
  5
16A
330
1F
100
AcDbEntity
  8
0
  6
Continuous
 62
     7
370
    25
100
AcDbLine
 10
6886.4667587334
 20
5169.4803169603
 30
0.0
 11
6886.6543231681
 21
5170.1803169603
 31
0.0
  0
LINE
  5
16B
330
1F
100
AcDbEntity
  8
0
  6
Continuous
 62
     7
370
    25
100
AcDbLine
 10
6750.3866317145
 20
5171.6803169603
 30
0.0
 11
6750.3866317145
 21
5169.4803169603
 31
0.0
  0
LINE
  5
16C
330
1F
100
AcDbEntity
  8
0
  6
Continuous
 62
     7
370
    25
100
AcDbLine
 10
6795.3866317145
 20
5169.4803169603
 30
0.0
 11
6795.3866317145
 21
5171.6803169603
 31
0.0
  0
ARC
  5
16D
330
1F
100
AcDbEntity
  8
0
  6
Continuous
 62
     7
370
    25
100
AcDbCircle
 10
6781.0173148377
 20
5198.6803169603
 30
0.0
 40
13.0000000000002
100
AcDbArc
 50
17.9202131394
 51
43.024625876
  0
ARC
  5
16E
330
1F
100
AcDbEntity
  8
0
  6
Continuous
 62
     7
370
    25
100
AcDbCircle
 10
6764.7559485914
 20
5198.6803169603
 30
0.0
 40
13.0000000000008
100
AcDbArc
 50
136.975374124
 51
162.0797868606
  0
LINE
  5
16F
330
1F
100
AcDbEntity
  8
0
  6
Continuous
 62
     7
370
    25
100
AcDbLine
 10
6754.6366317145
 20
5186.6803169603
 30
0.0
 11
6754.6366317145
 21
5178.1803169603
 31
0.0
  0
LINE
  5
170
330
1F
100
AcDbEntity
  8
0
  6
Continuous
 62
     7
370
    25
100
AcDbLine
 10
6791.1366317145
 20
5178.1803169603
 30
0.0
 11
6791.1366317145
 21
5186.6803169603
 31
0.0
  0
ARC
  5
171
330
1F
100
AcDbEntity
  8
0
  6
Continuous
 62
     7
370
    25
100
AcDbCircle
 10
6790.8866317145
 20
5207.89153753
 30
0.0
 40
0.5000000000003546
100
AcDbArc
 50
180.0
 51
223.024625876
  0
ARC
  5
172
330
1F
100
AcDbEntity
  8
0
  6
Continuous
 62
     7
370
    25
100
AcDbCircle
 10
6754.8866317145
 20
5207.89153753
 30
0.0
 40
0.5
100
AcDbArc
 50
316.9753741239
 51
0.0
  0
LINE
  5
173
330
1F
100
AcDbEntity
  8
0
  6
Continuous
 62
     7
370
    25
100
AcDbLine
 10
6755.3866317145
 20
5211.6803169603
 30
0.0
 11
6755.3866317145
 21
5207.89153753
 31
0.0
  0
LINE
  5
174
330
1F
100
AcDbEntity
  8
0
  6
Continuous
 62
     7
370
    25
100
AcDbLine
 10
6790.3866317145
 20
5207.89153753
 30
0.0
 11
6790.3866317145
 21
5211.6803169603
 31
0.0
  0
LINE
  5
175
330
1F
100
AcDbEntity
  8
0
  6
Continuous
 62
     7
370
    25
100
AcDbLine
 10
6786.8866317145
 20
5472.2534309631
 30
0.0
 11
6786.8866317145
 21
5508.137358066
 31
0.0
  0
LINE
  5
176
330
1F
100
AcDbEntity
  8
0
  6
Continuous
 62
     7
370
    25
100
AcDbLine
 10
6786.8866317145
 20
5433.137358066
 30
0.0
 11
6786.8866317145
 21
5472.2534309631
 31
0.0
  0
LINE
  5
177
330
1F
100
AcDbEntity
  8
0
  6
Continuous
 62
     7
370
    25
100
AcDbLine
 10
6789.8866317145
 20
5472.2534309631
 30
0.0
 11
6789.8866317145
 21
5508.137358066
 31
0.0
  0
LINE
  5
178
330
1F
100
AcDbEntity
  8
0
  6
Continuous
 62
     7
370
    25
100
AcDbLine
 10
6789.8866317145
 20
5433.137358066
 30
0.0
 11
6789.8866317145
 21
5472.2534309631
 31
0.0
  0
LINE
  5
179
330
1F
100
AcDbEntity
  8
0
  6
Continuous
 62
     7
370
    25
100
AcDbLine
 10
6790.8866317145
 20
5472.2103356858
 30
0.0
 11
6790.8866317145
 21
5507.137358066
 31
0.0
  0
LINE
  5
17A
330
1F
100
AcDbEntity
  8
0
  6
Continuous
 62
     7
370
    25
100
AcDbLine
 10
6790.8866317145
 20
5434.137358066
 30
0.0
 11
6790.8866317145
 21
5472.2103356858
 31
0.0
  0
LINE
  5
17B
330
1F
100
AcDbEntity
  8
0
  6
Continuous
 62
     7
370
    25
100
AcDbLine
 10
6947.1866317145
 20
5470.637358066
 30
0.0
 11
6947.1866317145
 21
5445.737358066
 31
0.0
  0
LINE
  5
17C
330
1F
100
AcDbEntity
  8
0
  6
Continuous
 62
     7
370
    25
100
AcDbLine
 10
6947.1866317145
 20
5495.537358066
 30
0.0
 11
6947.1866317145
 21
5470.637358066
 31
0.0
  0
LINE
  5
17D
330
1F
100
AcDbEntity
  8
0
  6
Continuous
 62
     7
370
    25
100
AcDbLine
 10
6946.8866317145
 20
5446.6238922198
 30
0.0
 11
6946.8866317145
 21
5446.1704437354
 31
0.0
  0
LINE
  5
17E
330
1F
100
AcDbEntity
  8
0
  6
Continuous
 62
     7
370
    25
100
AcDbLine
 10
6948.8866317145
 20
5470.637358066
 30
0.0
 11
6948.8866317145
 21
5445.737358066
 31
0.0
  0
LINE
  5
17F
330
1F
100
AcDbEntity
  8
0
  6
Continuous
 62
     7
370
    25
100
AcDbLine
 10
6948.8866317145
 20
5495.537358066
 30
0.0
 11
6948.8866317145
 21
5470.637358066
 31
0.0
  0
LINE
  5
180
330
1F
100
AcDbEntity
  8
0
  6
Continuous
 62
     7
370
    25
100
AcDbLine
 10
6949.8866317145
 20
5470.637358066
 30
0.0
 11
6949.8866317145
 21
5446.737358066
 31
0.0
  0
LINE
  5
181
330
1F
100
AcDbEntity
  8
0
  6
Continuous
 62
     7
370
    25
100
AcDbLine
 10
6949.8866317145
 20
5494.537358066
 30
0.0
 11
6949.8866317145
 21
5470.637358066
 31
0.0
  0
LWPOLYLINE
  5
182
330
1F
100
AcDbEntity
  8
0
  6
Continuous
 62
     7
370
    25
100
AcDbPolyline
 90
       15
 70
   128
 43
0.0
 10
6919.7463179461
 20
5445.9493291537
 10
6919.7984788788
 20
5445.9264109264
 10
6918.8669468436
 20
5446.3233869779
 10
6916.9615819056
 20
5447.0414406101
 10
6914.039768461
 20
5447.8751675228
 10
6912.3104151568
 20
5448.203348325
 10
6910.3990351874
 20
5448.4146250148
 10
6906.8648260246
 20
5448.374155281
 10
6903.7584721047
 20
5447.8808090969
 10
6900.9933142795
 20
5447.1029798051
 10
6899.8171517618
 20
5446.6828602293
 10
6898.8713459642
 20
5446.3090114584
 10
6898.2488526985
 20
5446.0462043234
 10
6897.9229337657
 20
5445.9034709329
 10
6897.8866317145
 20
5445.887358066
  0
LINE
  5
183
330
1F
100
AcDbEntity
  8
0
  6
Continuous
 62
     7
370
    25
100
AcDbLine
 10
6946.8866317145
 20
5446.0223572871
 30
0.0
 11
6946.8866317145
 21
5445.887358066
 31
0.0
  0
LINE
  5
184
330
1F
100
AcDbEntity
  8
0
  6
Continuous
 62
     7
370
    25
100
AcDbLine
 10
6946.8866317145
 20
5495.387358066
 30
0.0
 11
6946.8866317145
 21
5446.6238922198
 31
0.0
  0
LWPOLYLINE
  5
185
330
1F
100
AcDbEntity
  8
0
  6
Continuous
 62
     7
370
    25
100
AcDbPolyline
 90
        8
 70
   128
 43
0.0
 10
6946.8866317145
 20
5446.6238922198
 10
6946.3694358988
 20
5446.5234579286
 10
6946.0234451679
 20
5446.4001267742
 10
6945.8878220852
 20
5446.2754414296
 10
6945.9771766768
 20
5446.1670953835
 10
6946.2803939632
 20
5446.0847079206
 10
6946.7648405053
 20
5446.0304494821
 10
6946.8866317145
 20
5446.0223572871
  0
ARC
  5
186
330
1F
100
AcDbEntity
  8
0
  6
Continuous
 62
     7
370
    25
100
AcDbCircle
 10
6943.6865969324
 20
5421.1554859235
 30
0.0
 40
24.76343903261672
100
AcDbArc
 50
87.1420728558
 51
92.8933048526
  0
LINE
  5
187
330
1F
100
AcDbEntity
  8
0
  6
Continuous
 62
     7
370
    25
100
AcDbLine
 10
6923.8866317145
 20
5447.0510802758
 30
0.0
 11
6923.8866317145
 21
5445.887358066
 31
0.0
  0
LINE
  5
188
330
1F
100
AcDbEntity
  8
0
  6
Continuous
 62
     7
370
    25
100
AcDbLine
 10
6934.8866317145
 20
5445.887358066
 30
0.0
 11
6934.8866317145
 21
5447.0510802758
 31
0.0
  0
LWPOLYLINE
  5
189
330
1F
100
AcDbEntity
  8
0
  6
Continuous
 62
     7
370
    25
100
AcDbPolyline
 90
       11
 70
   128
 43
0.0
 10
6934.8866317145
 20
5447.0510802758
 10
6934.542169443
 20
5447.7483974751
 10
6933.5681275963
 20
5448.5024308236
 10
6932.0003642689
 20
5449.1826324225
 10
6930.1429839127
 20
5449.5442694893
 10
6928.4406751653
 20
5449.5260643667
 10
6926.9634489537
 20
5449.2393929805
 10
6925.6372386916
 20
5448.7339011525
 10
6924.5443301205
 20
5448.0455655963
 10
6923.9364883583
 20
5447.2989042585
 10
6923.8866317145
 20
5447.0510802758
  0
LWPOLYLINE
  5
18A
330
1F
100
AcDbEntity
  8
0
  6
Continuous
 62
     7
370
    25
100
AcDbPolyline
 90
       11
 70
   128
 43
0.0
 10
6818.3866317145
 20
5445.887358066
 10
6818.5816539705
 20
5445.9141831508
 10
6819.1437274723
 20
5445.9830273373
 10
6820.0159083602
 20
5446.0647695604
 10
6821.1044690971
 20
5446.1236011455
 10
6822.2752535288
 20
5446.1330007614
 10
6823.3939014581
 20
5446.0897642516
 10
6824.3477766147
 20
5446.012782248
 10
6825.0331675454
 20
5445.9348645131
 10
6825.3635086718
 20
5445.8906174044
 10
6825.3422890937
 20
5445.8935727874
  0
LINE
  5
18B
330
1F
100
AcDbEntity
  8
0
  6
Continuous
 62
     7
370
    25
100
AcDbLine
 10
6946.8866317145
 20
5446.1704437354
 30
0.0
 11
6946.8866317145
 21
5446.0223572871
 31
0.0
  0
LINE
  5
18C
330
1F
100
AcDbEntity
  8
0
  6
Continuous
 62
     7
370
    25
100
AcDbLine
 10
6772.3866317145
 20
5449.6427519552
 30
0.0
 11
6773.8866317145
 21
5449.6427519552
 31
0.0
  0
LINE
  5
18D
330
1F
100
AcDbEntity
  8
0
  6
Continuous
 62
     7
370
    25
100
AcDbLine
 10
6772.3866317145
 20
5452.6427519552
 30
0.0
 11
6772.3866317145
 21
5449.6427519552
 31
0.0
  0
LINE
  5
18E
330
1F
100
AcDbEntity
  8
0
  6
Continuous
 62
     7
370
    25
100
AcDbLine
 10
6772.3866317145
 20
5452.6427519552
 30
0.0
 11
6773.8866317145
 21
5452.6427519552
 31
0.0
  0
LINE
  5
18F
330
1F
100
AcDbEntity
  8
0
  6
Continuous
 62
     7
370
    25
100
AcDbLine
 10
6773.8866317145
 20
5452.6427519552
 30
0.0
 11
6773.8866317145
 21
5449.6427519552
 31
0.0
  0
LINE
  5
190
330
1F
100
AcDbEntity
  8
0
  6
Continuous
 62
     7
370
    25
100
AcDbLine
 10
6772.3866317145
 20
5454.6427519552
 30
0.0
 11
6773.8866317145
 21
5454.6427519552
 31
0.0
  0
LINE
  5
191
330
1F
100
AcDbEntity
  8
0
  6
Continuous
 62
     7
370
    25
100
AcDbLine
 10
6772.3866317145
 20
5457.4066059471
 30
0.0
 11
6772.3866317145
 21
5454.6427519552
 31
0.0
  0
LINE
  5
192
330
1F
100
AcDbEntity
  8
0
  6
Continuous
 62
     7
370
    25
100
AcDbLine
 10
6772.3866317145
 20
5457.4066059471
 30
0.0
 11
6773.8866317145
 21
5457.4066059471
 31
0.0
  0
LINE
  5
193
330
1F
100
AcDbEntity
  8
0
  6
Continuous
 62
     7
370
    25
100
AcDbLine
 10
6773.8866317145
 20
5457.4066059471
 30
0.0
 11
6773.8866317145
 21
5454.6427519552
 31
0.0
  0
LINE
  5
194
330
1F
100
AcDbEntity
  8
0
  6
Continuous
 62
     7
370
    25
100
AcDbLine
 10
6773.8866317145
 20
5454.6427519552
 30
0.0
 11
6773.8866317145
 21
5452.6427519552
 31
0.0
  0
LINE
  5
195
330
1F
100
AcDbEntity
  8
0
  6
Continuous
 62
     7
370
    25
100
AcDbLine
 10
6772.3866317145
 20
5454.6427519552
 30
0.0
 11
6772.3866317145
 21
5452.6427519552
 31
0.0
  0
LINE
  5
196
330
1F
100
AcDbEntity
  8
0
  6
Continuous
 62
     7
370
    25
100
AcDbLine
 10
6773.8866317145
 20
5466.3511899793
 30
0.0
 11
6773.8866317145
 21
5457.4066059471
 31
0.0
  0
LINE
  5
197
330
1F
100
AcDbEntity
  8
0
  6
Continuous
 62
     7
370
    25
100
AcDbLine
 10
6772.3866317145
 20
5466.3511899793
 30
0.0
 11
6772.3866317145
 21
5457.4066059471
 31
0.0
  0
LINE
  5
198
330
1F
100
AcDbEntity
  8
0
  6
Continuous
 62
     7
370
    25
100
AcDbLine
 10
6773.8866317145
 20
5449.6427519552
 30
0.0
 11
6773.8866317145
 21
5449.1427519552
 31
0.0
  0
LINE
  5
199
330
1F
100
AcDbEntity
  8
0
  6
Continuous
 62
     7
370
    25
100
AcDbLine
 10
6772.3866317145
 20
5449.6427519552
 30
0.0
 11
6772.3866317145
 21
5449.1427519552
 31
0.0
  0
LINE
  5
19A
330
1F
100
AcDbEntity
  8
0
  6
Continuous
 62
     7
370
    25
100
AcDbLine
 10
6786.8866317145
 20
5434.6427519552
 30
0.0
 11
6759.2118373833
 21
5434.6427519552
 31
0.0
  0
LINE
  5
19B
330
1F
100
AcDbEntity
  8
0
  6
Continuous
 62
     7
370
    25
100
AcDbLine
 10
6759.2118373833
 20
5434.6427519552
 30
0.0
 11
6759.2118373833
 21
5437.6427519552
 31
0.0
  0
LINE
  5
19C
330
1F
100
AcDbEntity
  8
0
  6
Continuous
 62
     7
370
    25
100
AcDbLine
 10
6786.8866317145
 20
5437.6427519552
 30
0.0
 11
6759.2118373833
 21
5437.6427519552
 31
0.0
  0
LINE
  5
19D
330
1F
100
AcDbEntity
  8
0
  6
Continuous
 62
     7
370
    25
100
AcDbLine
 10
6760.751970615
 20
5433.1427519552
 30
0.0
 11
6760.751970615
 21
5434.6427519552
 31
0.0
  0
LINE
  5
19E
330
1F
100
AcDbEntity
  8
0
  6
Continuous
 62
     7
370
    25
100
AcDbLine
 10
6760.751970615
 20
5433.1427519552
 30
0.0
 11
6756.751970615
 21
5433.1427519552
 31
0.0
  0
LINE
  5
19F
330
1F
100
AcDbEntity
  8
0
  6
Continuous
 62
     7
370
    25
100
AcDbLine
 10
6756.751970615
 20
5433.1427519552
 30
0.0
 11
6756.751970615
 21
5439.1427519552
 31
0.0
  0
LINE
  5
1A0
330
1F
100
AcDbEntity
  8
0
  6
Continuous
 62
     7
370
    25
100
AcDbLine
 10
6760.751970615
 20
5437.6427519552
 30
0.0
 11
6760.751970615
 21
5439.1427519552
 31
0.0
  0
LINE
  5
1A1
330
1F
100
AcDbEntity
  8
0
  6
Continuous
 62
     7
370
    25
100
AcDbLine
 10
6791.1366317145
 20
5439.1427519552
 30
0.0
 11
6791.1366317145
 21
5438.1427519552
 31
0.0
  0
LINE
  5
1A2
330
1F
100
AcDbEntity
  8
0
  6
Continuous
 62
     7
370
    25
100
AcDbLine
 10
6790.8866317145
 20
5438.1427519552
 30
0.0
 11
6791.1366317145
 21
5438.1427519552
 31
0.0
  0
LINE
  5
1A3
330
1F
100
AcDbEntity
  8
0
  6
Continuous
 62
     7
370
    25
100
AcDbLine
 10
6772.8866317145
 20
5448.6427519552
 30
0.0
 11
6748.1366317145
 21
5448.6427519552
 31
0.0
  0
LINE
  5
1A4
330
1F
100
AcDbEntity
  8
0
  6
Continuous
 62
     7
370
    25
100
AcDbLine
 10
6786.8866317145
 20
5448.6427519552
 30
0.0
 11
6772.8866317145
 21
5448.6427519552
 31
0.0
  0
LINE
  5
1A5
330
1F
100
AcDbEntity
  8
0
  6
Continuous
 62
     7
370
    25
100
AcDbLine
 10
6772.8866317145
 20
5446.1427519552
 30
0.0
 11
6748.1366317145
 21
5446.1427519552
 31
0.0
  0
LINE
  5
1A6
330
1F
100
AcDbEntity
  8
0
  6
Continuous
 62
     7
370
    25
100
AcDbLine
 10
6786.8866317145
 20
5446.1427519552
 30
0.0
 11
6772.8866317145
 21
5446.1427519552
 31
0.0
  0
LINE
  5
1A7
330
1F
100
AcDbEntity
  8
0
  6
Continuous
 62
     7
370
    25
100
AcDbLine
 10
6772.8866317145
 20
5449.1427519552
 30
0.0
 11
6748.6366317145
 21
5449.1427519552
 31
0.0
  0
LINE
  5
1A8
330
1F
100
AcDbEntity
  8
0
  6
Continuous
 62
     7
370
    25
100
AcDbLine
 10
6786.8866317145
 20
5449.1427519552
 30
0.0
 11
6772.8866317145
 21
5449.1427519552
 31
0.0
  0
LINE
  5
1A9
330
1F
100
AcDbEntity
  8
0
  6
Continuous
 62
     7
370
    25
100
AcDbLine
 10
6772.8866317145
 20
5439.1427519552
 30
0.0
 11
6751.6866317145
 21
5439.1427519552
 31
0.0
  0
LINE
  5
1AA
330
1F
100
AcDbEntity
  8
0
  6
Continuous
 62
     7
370
    25
100
AcDbLine
 10
6794.0866317145
 20
5439.1427519552
 30
0.0
 11
6790.8866317145
 21
5439.1427519552
 31
0.0
  0
LINE
  5
1AB
330
1F
100
AcDbEntity
  8
0
  6
Continuous
 62
     7
370
    25
100
AcDbLine
 10
6786.8866317145
 20
5439.1427519552
 30
0.0
 11
6772.8866317145
 21
5439.1427519552
 31
0.0
  0
LINE
  5
1AC
330
1F
100
AcDbEntity
  8
0
  6
Continuous
 62
     7
370
    25
100
AcDbLine
 10
6852.881913656
 20
5169.6803169603
 30
0.0
 11
6852.8866317145
 21
5169.6803169603
 31
0.0
  0
LINE
  5
1AD
330
1F
100
AcDbEntity
  8
0
  6
Continuous
 62
     7
370
    25
100
AcDbLine
 10
6846.8866317145
 20
5169.6803169603
 30
0.0
 11
6852.881913656
 21
5169.6803169603
 31
0.0
  0
LINE
  5
1AE
330
1F
100
AcDbEntity
  8
0
  6
Continuous
 62
     7
370
    25
100
AcDbLine
 10
6804.8866317145
 20
5170.1803169603
 30
0.0
 11
6804.8866317145
 21
5169.4803169603
 31
0.0
  0
LINE
  5
1AF
330
1F
100
AcDbEntity
  8
0
  6
Continuous
 62
     7
370
    25
100
AcDbLine
 10
6805.8866317145
 20
5170.1803169603
 30
0.0
 11
6805.8866317145
 21
5169.4803169603
 31
0.0
  0
LINE
  5
1B0
330
1F
100
AcDbEntity
  8
0
  6
Continuous
 62
     7
370
    25
100
AcDbLine
 10
6893.8866317145
 20
5169.4803169603
 30
0.0
 11
6893.8866317145
 21
5170.1803169603
 31
0.0
  0
LINE
  5
1B1
330
1F
100
AcDbEntity
  8
0
  6
Continuous
 62
     7
370
    25
100
AcDbLine
 10
6894.8866317145
 20
5169.4803169603
 30
0.0
 11
6894.8866317145
 21
5170.1803169603
 31
0.0
  0
LINE
  5
1B2
330
1F
100
AcDbEntity
  8
0
  6
Continuous
 62
     7
370
    25
100
AcDbLine
 10
6804.8866317145
 20
5170.1803169603
 30
0.0
 11
6804.8866317145
 21
5171.1803169603
 31
0.0
  0
LINE
  5
1B3
330
1F
100
AcDbEntity
  8
0
  6
Continuous
 62
     7
370
    25
100
AcDbLine
 10
6804.8866317145
 20
5171.1803169603
 30
0.0
 11
6809.8866317145
 21
5171.1803169603
 31
0.0
  0
LINE
  5
1B4
330
1F
100
AcDbEntity
  8
0
  6
Continuous
 62
     7
370
    25
100
AcDbLine
 10
6809.8866317145
 20
5171.1803169603
 30
0.0
 11
6809.8866317145
 21
5170.1803169603
 31
0.0
  0
LINE
  5
1B5
330
1F
100
AcDbEntity
  8
0
  6
Continuous
 62
     7
370
    25
100
AcDbLine
 10
6809.8866317145
 20
5170.1803169603
 30
0.0
 11
6804.8866317145
 21
5170.1803169603
 31
0.0
  0
LINE
  5
1B6
330
1F
100
AcDbEntity
  8
0
  6
Continuous
 62
     7
370
    25
100
AcDbLine
 10
6889.8866317145
 20
5170.1803169603
 30
0.0
 11
6889.8866317145
 21
5171.1803169603
 31
0.0
  0
LINE
  5
1B7
330
1F
100
AcDbEntity
  8
0
  6
Continuous
 62
     7
370
    25
100
AcDbLine
 10
6889.8866317145
 20
5171.1803169603
 30
0.0
 11
6809.8866317145
 21
5171.1803169603
 31
0.0
  0
LINE
  5
1B8
330
1F
100
AcDbEntity
  8
0
  6
Continuous
 62
     7
370
    25
100
AcDbLine
 10
6889.8866317145
 20
5170.1803169603
 30
0.0
 11
6809.8866317145
 21
5170.1803169603
 31
0.0
  0
LINE
  5
1B9
330
1F
100
AcDbEntity
  8
0
  6
Continuous
 62
     7
370
    25
100
AcDbLine
 10
6894.8866317145
 20
5171.1803169603
 30
0.0
 11
6894.8866317145
 21
5170.1803169603
 31
0.0
  0
LINE
  5
1BA
330
1F
100
AcDbEntity
  8
0
  6
Continuous
 62
     7
370
    25
100
AcDbLine
 10
6889.8866317145
 20
5171.1803169603
 30
0.0
 11
6894.8866317145
 21
5171.1803169603
 31
0.0
  0
LINE
  5
1BB
330
1F
100
AcDbEntity
  8
0
  6
Continuous
 62
     7
370
    25
100
AcDbLine
 10
6894.8866317145
 20
5170.1803169603
 30
0.0
 11
6889.8866317145
 21
5170.1803169603
 31
0.0
  0
LINE
  5
1BC
330
1F
100
AcDbEntity
  8
0
  6
Continuous
 62
     7
370
    25
100
AcDbLine
 10
6894.8866317145
 20
5171.1803169603
 30
0.0
 11
6894.8866317145
 21
5171.9803169603
 31
0.0
  0
LINE
  5
1BD
330
1F
100
AcDbEntity
  8
0
  6
Continuous
 62
     7
370
    25
100
AcDbLine
 10
6804.8866317145
 20
5171.9803169603
 30
0.0
 11
6804.8866317145
 21
5171.1803169603
 31
0.0
  0
LINE
  5
1BE
330
1F
100
AcDbEntity
  8
0
  6
Continuous
 62
     7
370
    25
100
AcDbLine
 10
6894.8866317145
 20
5171.9803169603
 30
0.0
 11
6804.8866317145
 21
5171.9803169603
 31
0.0
  0
LINE
  5
1BF
330
1F
100
AcDbEntity
  8
0
  6
Continuous
 62
     7
370
    25
100
AcDbLine
 10
6894.8866317145
 20
5205.1803169603
 30
0.0
 11
6894.8866317145
 21
5171.9803169603
 31
0.0
  0
LINE
  5
1C0
330
1F
100
AcDbEntity
  8
0
  6
Continuous
 62
     7
370
    25
100
AcDbLine
 10
6804.8866317145
 20
5205.1803169603
 30
0.0
 11
6894.8866317145
 21
5205.1803169603
 31
0.0
  0
LINE
  5
1C1
330
1F
100
AcDbEntity
  8
0
  6
Continuous
 62
     7
370
    25
100
AcDbLine
 10
6804.8866317145
 20
5171.9803169603
 30
0.0
 11
6804.8866317145
 21
5205.1803169603
 31
0.0
  0
LINE
  5
1C2
330
1F
100
AcDbEntity
  8
0
  6
Continuous
 62
     7
370
    25
100
AcDbLine
 10
6894.8866317145
 20
5206.9803169603
 30
0.0
 11
6894.8866317145
 21
5205.1803169603
 31
0.0
  0
LINE
  5
1C3
330
1F
100
AcDbEntity
  8
0
  6
Continuous
 62
     7
370
    25
100
AcDbLine
 10
6804.8866317145
 20
5205.1803169603
 30
0.0
 11
6804.8866317145
 21
5206.9803169603
 31
0.0
  0
LINE
  5
1C4
330
1F
100
AcDbEntity
  8
0
  6
Continuous
 62
     7
370
    25
100
AcDbLine
 10
6804.8866317145
 20
5206.9803169603
 30
0.0
 11
6894.8866317145
 21
5206.9803169603
 31
0.0
  0
LWPOLYLINE
  5
1C5
330
1F
100
AcDbEntity
  8
0
  6
Continuous
 62
     7
370
    25
100
AcDbPolyline
 90
        3
 70
   128
 43
0.0
 10
6793.3972996256
 20
5202.3234645251
 10
6793.3972996705
 20
5202.6758409528
 10
6793.3972996705
 20
5202.3271461866
  0
LINE
  5
1C6
330
1F
100
AcDbEntity
  8
0
  6
Continuous
 62
     7
370
    25
100
AcDbLine
 10
6791.1463594491
 20
5202.3229476952
 30
0.0
 11
6793.3972996256
 21
5202.3234645251
 31
0.0
  0
LWPOLYLINE
  5
1C7
330
1F
100
AcDbEntity
  8
0
  6
Continuous
 62
     7
370
    25
100
AcDbPolyline
 90
        3
 70
   128
 43
0.0
 10
6775.1204281932
 20
5202.3229476866
 10
6783.1114216929
 20
5202.6732611266
 10
6791.1463594491
 20
5202.3229476952
  0
LINE
  5
1C8
330
1F
100
AcDbEntity
  8
0
  6
Continuous
 62
     7
370
    25
100
AcDbLine
 10
6770.6717784934
 20
5202.323457621
 30
0.0
 11
6775.1204281932
 21
5202.3229476866
 31
0.0
  0
LWPOLYLINE
  5
1C9
330
1F
100
AcDbEntity
  8
0
  6
Continuous
 62
     7
370
    25
100
AcDbPolyline
 90
        3
 70
   128
 43
0.0
 10
6754.6380330966
 20
5202.3271343857
 10
6762.6329456555
 20
5202.6758417957
 10
6770.6717784934
 20
5202.323457621
  0
LINE
  5
1CA
330
1F
100
AcDbEntity
  8
0
  6
Continuous
 62
     7
370
    25
100
AcDbLine
 10
6752.3837973069
 20
5202.3281687966
 30
0.0
 11
6754.6380330966
 21
5202.3271343857
 31
0.0
  0
LINE
  5
1CB
330
1F
100
AcDbEntity
  8
0
  6
Continuous
 62
     7
370
    25
100
AcDbLine
 10
6752.3762906772
 20
5202.6803169637
 30
0.0
 11
6752.3837973069
 21
5202.3281687966
 31
0.0
  0
LINE
  5
1CC
330
1F
100
AcDbEntity
  8
0
  6
Continuous
 62
     7
370
    25
100
AcDbLine
 10
6752.3762906772
 20
5202.6803169637
 30
0.0
 11
6755.1208452282
 21
5202.680316962
 31
0.0
  0
LINE
  5
1CD
330
1F
100
AcDbEntity
  8
0
  6
Continuous
 62
     7
370
    25
100
AcDbLine
 10
6752.383797307
 20
5171.6803169603
 30
0.0
 11
6750.3866317145
 21
5171.6803169603
 31
0.0
  0
LINE
  5
1CE
330
1F
100
AcDbEntity
  8
0
  6
Continuous
 62
     7
370
    25
100
AcDbLine
 10
6752.383797307
 20
5178.1803169603
 30
0.0
 11
6752.383797307
 21
5171.6803169603
 31
0.0
  0
LINE
  5
1CF
330
1F
100
AcDbEntity
  8
0
  6
Continuous
 62
     7
370
    25
100
AcDbLine
 10
6754.6380334164
 20
5178.1803169603
 30
0.0
 11
6752.383797307
 21
5178.1803169603
 31
0.0
  0
LINE
  5
1D0
330
1F
100
AcDbEntity
  8
0
  6
Continuous
 62
     7
370
    25
100
AcDbLine
 10
6754.6380334164
 20
5171.6803169603
 30
0.0
 11
6754.6380334164
 21
5178.1803169603
 31
0.0
  0
LINE
  5
1D1
330
1F
100
AcDbEntity
  8
0
  6
Continuous
 62
     7
370
    25
100
AcDbLine
 10
6770.671778597
 20
5171.6803169603
 30
0.0
 11
6754.6380334164
 21
5171.6803169603
 31
0.0
  0
LINE
  5
1D2
330
1F
100
AcDbEntity
  8
0
  6
Continuous
 62
     7
370
    25
100
AcDbLine
 10
6770.671778597
 20
5178.1803169603
 30
0.0
 11
6770.671778597
 21
5171.6803169603
 31
0.0
  0
LINE
  5
1D3
330
1F
100
AcDbEntity
  8
0
  6
Continuous
 62
     7
370
    25
100
AcDbLine
 10
6775.1204283018
 20
5178.1803169603
 30
0.0
 11
6770.671778597
 21
5178.1803169603
 31
0.0
  0
LINE
  5
1D4
330
1F
100
AcDbEntity
  8
0
  6
Continuous
 62
     7
370
    25
100
AcDbLine
 10
6775.1204283018
 20
5171.6803169603
 30
0.0
 11
6775.1204283018
 21
5178.1803169603
 31
0.0
  0
LINE
  5
1D5
330
1F
100
AcDbEntity
  8
0
  6
Continuous
 62
     7
370
    25
100
AcDbLine
 10
6791.1463595527
 20
5171.6803169603
 30
0.0
 11
6775.1204283018
 21
5171.6803169603
 31
0.0
  0
LINE
  5
1D6
330
1F
100
AcDbEntity
  8
0
  6
Continuous
 62
     7
370
    25
100
AcDbLine
 10
6791.1463595527
 20
5178.1803169603
 30
0.0
 11
6791.1463595527
 21
5171.6803169603
 31
0.0
  0
LINE
  5
1D7
330
1F
100
AcDbEntity
  8
0
  6
Continuous
 62
     7
370
    25
100
AcDbLine
 10
6793.3972996705
 20
5178.1803169603
 30
0.0
 11
6791.1463595527
 21
5178.1803169603
 31
0.0
  0
LINE
  5
1D8
330
1F
100
AcDbEntity
  8
0
  6
Continuous
 62
     7
370
    25
100
AcDbLine
 10
6793.3972996705
 20
5171.6803169603
 30
0.0
 11
6793.3972996705
 21
5178.1803169603
 31
0.0
  0
LINE
  5
1D9
330
1F
100
AcDbEntity
  8
0
  6
Continuous
 62
     7
370
    25
100
AcDbLine
 10
6795.3866317145
 20
5171.6803169603
 30
0.0
 11
6793.3972996705
 21
5171.6803169603
 31
0.0
  0
LINE
  5
1DA
330
1F
100
AcDbEntity
  8
0
  6
Continuous
 62
     7
370
    25
100
AcDbLine
 10
6752.3681448926
 20
5171.6803169603
 30
0.0
 11
6752.3681448926
 21
5178.1803169603
 31
0.0
  0
LINE
  5
1DB
330
1F
100
AcDbEntity
  8
0
  6
Continuous
 62
     7
370
    25
100
AcDbLine
 10
6755.1208452282
 20
5202.680316962
 30
0.0
 11
6793.3866317145
 21
5202.6803169603
 31
0.0
  0
LINE
  5
1DC
330
1F
100
AcDbEntity
  8
0
  6
Continuous
 62
     7
370
    25
100
AcDbLine
 10
6775.1204281932
 20
5202.3229476866
 30
0.0
 11
6775.1204283018
 21
5186.6803169603
 31
0.0
  0
LINE
  5
1DD
330
1F
100
AcDbEntity
  8
0
  6
Continuous
 62
     7
370
    25
100
AcDbLine
 10
6791.1463594491
 20
5202.3229476952
 30
0.0
 11
6791.1463595527
 21
5186.6803169603
 31
0.0
  0
LINE
  5
1DE
330
1F
100
AcDbEntity
  8
0
  6
Continuous
 62
     7
370
    25
100
AcDbLine
 10
6775.1204283018
 20
5186.6803169603
 30
0.0
 11
6791.1463595527
 21
5186.6803169603
 31
0.0
  0
LINE
  5
1DF
330
1F
100
AcDbEntity
  8
0
  6
Continuous
 62
     7
370
    25
100
AcDbLine
 10
6788.9373798398
 20
5177.5303169603
 30
0.0
 11
6788.9373798398
 21
5172.3303169603
 31
0.0
  0
LINE
  5
1E0
330
1F
100
AcDbEntity
  8
0
  6
Continuous
 62
     7
370
    25
100
AcDbLine
 10
6777.3294080148
 20
5177.5303169603
 30
0.0
 11
6788.9373798398
 21
5177.5303169603
 31
0.0
  0
LINE
  5
1E1
330
1F
100
AcDbEntity
  8
0
  6
Continuous
 62
     7
370
    25
100
AcDbLine
 10
6777.3294080148
 20
5172.3303169603
 30
0.0
 11
6777.3294080148
 21
5177.5303169603
 31
0.0
  0
LINE
  5
1E2
330
1F
100
AcDbEntity
  8
0
  6
Continuous
 62
     7
370
    25
100
AcDbLine
 10
6788.9373798398
 20
5172.3303169603
 30
0.0
 11
6777.3294080148
 21
5172.3303169603
 31
0.0
  0
LINE
  5
1E3
330
1F
100
AcDbEntity
  8
0
  6
Continuous
 62
     7
370
    25
100
AcDbLine
 10
6791.1463595527
 20
5178.1803169603
 30
0.0
 11
6775.1204283018
 21
5178.1803169603
 31
0.0
  0
LINE
  5
1E4
330
1F
100
AcDbEntity
  8
0
  6
Continuous
 62
     7
370
    25
100
AcDbLine
 10
6770.6717784934
 20
5202.323457621
 30
0.0
 11
6770.671778597
 21
5186.6803169603
 31
0.0
  0
LINE
  5
1E5
330
1F
100
AcDbEntity
  8
0
  6
Continuous
 62
     7
370
    25
100
AcDbLine
 10
6770.671778597
 20
5186.6803169603
 30
0.0
 11
6775.1204283018
 21
5186.6803169603
 31
0.0
  0
LINE
  5
1E6
330
1F
100
AcDbEntity
  8
0
  6
Continuous
 62
     7
370
    25
100
AcDbLine
 10
6754.6380330966
 20
5202.3271343857
 30
0.0
 11
6754.6380334164
 21
5186.6803169603
 31
0.0
  0
LINE
  5
1E7
330
1F
100
AcDbEntity
  8
0
  6
Continuous
 62
     7
370
    25
100
AcDbLine
 10
6754.6380334164
 20
5186.6803169603
 30
0.0
 11
6770.671778597
 21
5186.6803169603
 31
0.0
  0
LINE
  5
1E8
330
1F
100
AcDbEntity
  8
0
  6
Continuous
 62
     7
370
    25
100
AcDbLine
 10
6765.6183125856
 20
5211.6803169603
 30
0.0
 11
6755.3866317145
 21
5211.6803169603
 31
0.0
  0
LINE
  5
1E9
330
1F
100
AcDbEntity
  8
0
  6
Continuous
 62
     7
370
    25
100
AcDbLine
 10
6790.3866317145
 20
5211.6803169603
 30
0.0
 11
6765.6183125856
 21
5211.6803169603
 31
0.0
  0
LINE
  5
1EA
330
1F
100
AcDbEntity
  8
0
  6
Continuous
 62
     7
370
    25
100
AcDbLine
 10
6756.8480901846
 20
5177.5303169603
 30
0.0
 11
6768.4617218289
 21
5177.5303169603
 31
0.0
  0
LINE
  5
1EB
330
1F
100
AcDbEntity
  8
0
  6
Continuous
 62
     7
370
    25
100
AcDbLine
 10
6756.8480901846
 20
5172.3303169603
 30
0.0
 11
6756.8480901846
 21
5177.5303169603
 31
0.0
  0
LINE
  5
1EC
330
1F
100
AcDbEntity
  8
0
  6
Continuous
 62
     7
370
    25
100
AcDbLine
 10
6768.4617218289
 20
5172.3303169603
 30
0.0
 11
6756.8480901846
 21
5172.3303169603
 31
0.0
  0
LINE
  5
1ED
330
1F
100
AcDbEntity
  8
0
  6
Continuous
 62
     7
370
    25
100
AcDbLine
 10
6768.4617218289
 20
5177.5303169603
 30
0.0
 11
6768.4617218289
 21
5172.3303169603
 31
0.0
  0
LINE
  5
1EE
330
1F
100
AcDbEntity
  8
0
  6
Continuous
 62
     7
370
    25
100
AcDbLine
 10
6770.671778597
 20
5178.1803169603
 30
0.0
 11
6754.6380334164
 21
5178.1803169603
 31
0.0
  0
LINE
  5
1EF
330
1F
100
AcDbEntity
  8
0
  6
Continuous
 62
     7
370
    25
100
AcDbLine
 10
6786.9390515094
 20
5172.3303169603
 30
0.0
 11
6786.9390515094
 21
5177.5303169603
 31
0.0
  0
LINE
  5
1F0
330
1F
100
AcDbEntity
  8
0
  6
Continuous
 62
     7
370
    25
100
AcDbLine
 10
6758.8434860887
 20
5177.5303169603
 30
0.0
 11
6758.8434860887
 21
5172.3303169603
 31
0.0
  0
LINE
  5
1F1
330
1F
100
AcDbEntity
  8
0
  6
Continuous
 62
     7
370
    25
100
AcDbLine
 10
6793.3972996256
 20
5202.3234645251
 30
0.0
 11
6793.3972996705
 21
5186.6803169603
 31
0.0
  0
LINE
  5
1F2
330
1F
100
AcDbEntity
  8
0
  6
Continuous
 62
     7
370
    25
100
AcDbLine
 10
6791.1463595527
 20
5186.6803169603
 30
0.0
 11
6793.3972996705
 21
5186.6803169603
 31
0.0
  0
LINE
  5
1F3
330
1F
100
AcDbEntity
  8
0
  6
Continuous
 62
     7
370
    25
100
AcDbLine
 10
6752.383797307
 20
5186.6803169603
 30
0.0
 11
6752.3837973069
 21
5202.3281687966
 31
0.0
  0
LINE
  5
1F4
330
1F
100
AcDbEntity
  8
0
  6
Continuous
 62
     7
370
    25
100
AcDbLine
 10
6752.383797307
 20
5186.6803169603
 30
0.0
 11
6754.6380334164
 21
5186.6803169603
 31
0.0
  0
LINE
  5
1F5
330
1F
100
AcDbEntity
  8
0
  6
Continuous
 62
     7
370
    25
100
AcDbLine
 10
6752.3703023875
 20
5172.3303169603
 30
0.0
 11
6752.3703023875
 21
5177.5303169603
 31
0.0
  0
LINE
  5
1F6
330
1F
100
AcDbEntity
  8
0
  6
Continuous
 62
     7
370
    25
100
AcDbLine
 10
6752.381639812
 20
5172.3303169603
 30
0.0
 11
6752.3703023875
 21
5172.3303169603
 31
0.0
  0
LINE
  5
1F7
330
1F
100
AcDbEntity
  8
0
  6
Continuous
 62
     7
370
    25
100
AcDbLine
 10
6752.381639812
 20
5177.5303169603
 30
0.0
 11
6752.381639812
 21
5172.3303169603
 31
0.0
  0
LINE
  5
1F8
330
1F
100
AcDbEntity
  8
0
  6
Continuous
 62
     7
370
    25
100
AcDbLine
 10
6752.3703023875
 20
5177.5303169603
 30
0.0
 11
6752.381639812
 21
5177.5303169603
 31
0.0
  0
LINE
  5
1F9
330
1F
100
AcDbEntity
  8
0
  6
Continuous
 62
     7
370
    25
100
AcDbLine
 10
6752.383797307
 20
5178.1803169603
 30
0.0
 11
6752.3681448926
 21
5178.1803169603
 31
0.0
  0
LINE
  5
1FA
330
1F
100
AcDbEntity
  8
0
  6
Continuous
 62
     7
370
    25
100
AcDbLine
 10
6752.3681449374
 20
5202.3318566172
 30
0.0
 11
6752.3681448926
 21
5186.6803169603
 31
0.0
  0
LINE
  5
1FB
330
1F
100
AcDbEntity
  8
0
  6
Continuous
 62
     7
370
    25
100
AcDbLine
 10
6752.3681449374
 20
5202.3318566172
 30
0.0
 11
6752.3756085041
 21
5202.6803169638
 31
0.0
  0
LINE
  5
1FC
330
1F
100
AcDbEntity
  8
0
  6
Continuous
 62
     7
370
    25
100
AcDbLine
 10
6752.3762906772
 20
5202.6803169637
 30
0.0
 11
6752.3756085041
 21
5202.6803169638
 31
0.0
  0
LINE
  5
1FD
330
1F
100
AcDbEntity
  8
0
  6
Continuous
 62
     7
370
    25
100
AcDbLine
 10
6752.3681448926
 20
5186.6803169603
 30
0.0
 11
6752.383797307
 21
5186.6803169603
 31
0.0
  0
LINE
  5
1FE
330
1F
100
AcDbEntity
  8
0
  6
Continuous
 62
     7
370
    25
100
AcDbLine
 10
6772.8874420878
 20
5159.4803169603
 30
0.0
 11
6772.8874420878
 21
5158.4803169603
 31
0.0
  0
LINE
  5
1FF
330
1F
100
AcDbEntity
  8
0
  6
Continuous
 62
     7
370
    25
100
AcDbLine
 10
6772.8874420878
 20
5158.4803169603
 30
0.0
 11
6771.911450659
 21
5158.4803169603
 31
0.0
  0
LINE
  5
200
330
1F
100
AcDbEntity
  8
0
  6
Continuous
 62
     7
370
    25
100
AcDbLine
 10
6777.5150588393
 20
5158.4803169603
 30
0.0
 11
6772.8874420878
 21
5158.4803169603
 31
0.0
  0
LINE
  5
201
330
1F
100
AcDbEntity
  8
0
  6
Continuous
 62
     7
370
    25
100
AcDbLine
 10
6830.3866317145
 20
5147.4803169603
 30
0.0
 11
6850.3866317145
 21
5147.4803169603
 31
0.0
  0
ARC
  5
202
330
1F
100
AcDbEntity
  8
0
  6
Continuous
 62
     7
370
    25
100
AcDbCircle
 10
6840.3866317145
 20
5153.4803169603
 30
0.0
 40
3.0
100
AcDbArc
 50
180.0
 51
0.0
  0
LINE
  5
203
330
1F
100
AcDbEntity
  8
0
  6
Continuous
 62
     7
370
    25
100
AcDbLine
 10
6850.3866317145
 20
5147.4803169603
 30
0.0
 11
6850.3866317145
 21
5146.4803169603
 31
0.0
  0
LINE
  5
204
330
1F
100
AcDbEntity
  8
0
  6
Continuous
 62
     7
370
    25
100
AcDbLine
 10
6850.3866317145
 20
5146.4803169603
 30
0.0
 11
6830.3866317145
 21
5146.4803169603
 31
0.0
  0
LINE
  5
205
330
1F
100
AcDbEntity
  8
0
  6
Continuous
 62
     7
370
    25
100
AcDbLine
 10
6830.3866317145
 20
5147.4803169603
 30
0.0
 11
6830.3866317145
 21
5146.4803169603
 31
0.0
  0
LINE
  5
206
330
1F
100
AcDbEntity
  8
0
  6
Continuous
 62
     7
370
    25
100
AcDbLine
 10
6830.3866317145
 20
5147.4803169603
 30
0.0
 11
6829.3866317145
 21
5147.4803169603
 31
0.0
  0
LINE
  5
207
330
1F
100
AcDbEntity
  8
0
  6
Continuous
 62
     7
370
    25
100
AcDbLine
 10
6829.3866317145
 20
5147.4803169603
 30
0.0
 11
6829.3866317145
 21
5153.4803169603
 31
0.0
  0
ARC
  5
208
330
1F
100
AcDbEntity
  8
0
  6
Continuous
 62
     7
370
    25
100
AcDbCircle
 10
6830.3866317145
 20
5147.4803169603
 30
0.0
 40
1.0
100
AcDbArc
 50
180.0
 51
270.0
  0
LINE
  5
209
330
1F
100
AcDbEntity
  8
0
  6
Continuous
 62
     7
370
    25
100
AcDbLine
 10
6850.3866317145
 20
5147.4803169603
 30
0.0
 11
6851.3866317145
 21
5147.4803169603
 31
0.0
  0
ARC
  5
20A
330
1F
100
AcDbEntity
  8
0
  6
Continuous
 62
     7
370
    25
100
AcDbCircle
 10
6850.3866317145
 20
5147.4803169603
 30
0.0
 40
1.0
100
AcDbArc
 50
270.0
 51
0.0
  0
LINE
  5
20B
330
1F
100
AcDbEntity
  8
0
  6
Continuous
 62
     7
370
    25
100
AcDbLine
 10
6851.3866317145
 20
5153.4803169603
 30
0.0
 11
6851.3866317145
 21
5147.4803169603
 31
0.0
  0
LINE
  5
20C
330
1F
100
AcDbEntity
  8
0
  6
Continuous
 62
     7
370
    25
100
AcDbLine
 10
6907.5150588393
 20
5158.4803169603
 30
0.0
 11
6901.8582045898
 21
5158.4803169603
 31
0.0
  0
LINE
  5
20D
330
1F
100
AcDbEntity
  8
0
  6
Continuous
 62
     7
370
    25
100
AcDbLine
 10
6747.1866317145
 20
5088.0890126125
 30
0.0
 11
6747.8610503192
 21
5075.4803169603
 31
0.0
  0
LINE
  5
20E
330
1F
100
AcDbEntity
  8
0
  6
Continuous
 62
     7
370
    25
100
AcDbLine
 10
6748.0475818698
 20
5071.9929879707
 30
0.0
 11
6748.3249643036
 21
5066.8071424688
 31
0.0
  0
LINE
  5
20F
330
1F
100
AcDbEntity
  8
0
  6
Continuous
 62
     7
370
    25
100
AcDbLine
 10
6932.6239209515
 20
5070.0905070438
 30
0.0
 11
6932.5420717701
 21
5068.5602832169
 31
0.0
  0
LINE
  5
210
330
1F
100
AcDbEntity
  8
0
  6
Continuous
 62
     7
370
    25
100
AcDbLine
 10
6732.8866317145
 20
4929.4803169603
 30
0.0
 11
6733.8866317145
 21
4929.4803169603
 31
0.0
  0
LINE
  5
211
330
1F
100
AcDbEntity
  8
0
  6
Continuous
 62
     7
370
    25
100
AcDbLine
 10
6733.8866317145
 20
4929.4803169603
 30
0.0
 11
6733.8866317145
 21
4919.4803169603
 31
0.0
  0
LINE
  5
212
330
1F
100
AcDbEntity
  8
0
  6
Continuous
 62
     7
370
    25
100
AcDbLine
 10
6733.8866317145
 20
4919.4803169603
 30
0.0
 11
6732.8866317145
 21
4919.4803169603
 31
0.0
  0
LINE
  5
213
330
1F
100
AcDbEntity
  8
0
  6
Continuous
 62
     7
370
    25
100
AcDbLine
 10
6732.8866317145
 20
4919.4803169603
 30
0.0
 11
6732.8866317145
 21
4929.4803169603
 31
0.0
  0
LINE
  5
214
330
1F
100
AcDbEntity
  8
0
  6
Continuous
 62
     7
370
    25
100
AcDbLine
 10
6733.8866317145
 20
5157.6803169603
 30
0.0
 11
6732.8866317145
 21
5157.6803169603
 31
0.0
  0
LINE
  5
215
330
1F
100
AcDbEntity
  8
0
  6
Continuous
 62
     7
370
    25
100
AcDbLine
 10
6732.8866317145
 20
5157.6803169603
 30
0.0
 11
6732.8866317145
 21
4929.4803169603
 31
0.0
  0
LINE
  5
216
330
1F
100
AcDbEntity
  8
0
  6
Continuous
 62
     7
370
    25
100
AcDbLine
 10
6733.8866317145
 20
5157.6803169603
 30
0.0
 11
6733.8866317145
 21
4929.4803169603
 31
0.0
  0
LINE
  5
217
330
1F
100
AcDbEntity
  8
0
  6
Continuous
 62
     7
370
    25
100
AcDbLine
 10
6732.8866317145
 20
5167.6803169603
 30
0.0
 11
6733.8866317145
 21
5167.6803169603
 31
0.0
  0
LINE
  5
218
330
1F
100
AcDbEntity
  8
0
  6
Continuous
 62
     7
370
    25
100
AcDbLine
 10
6732.8866317145
 20
5157.6803169603
 30
0.0
 11
6732.8866317145
 21
5167.6803169603
 31
0.0
  0
LINE
  5
219
330
1F
100
AcDbEntity
  8
0
  6
Continuous
 62
     7
370
    25
100
AcDbLine
 10
6733.8866317145
 20
5167.6803169603
 30
0.0
 11
6733.8866317145
 21
5157.6803169603
 31
0.0
  0
LINE
  5
21A
330
1F
100
AcDbEntity
  8
0
  6
Continuous
 62
     7
370
    25
100
AcDbLine
 10
6734.6866317145
 20
4919.4803169603
 30
0.0
 11
6734.6866317145
 21
5167.6803169603
 31
0.0
  0
LINE
  5
21B
330
1F
100
AcDbEntity
  8
0
  6
Continuous
 62
     7
370
    25
100
AcDbLine
 10
6734.6866317145
 20
5167.6803169603
 30
0.0
 11
6733.8866317145
 21
5167.6803169603
 31
0.0
  0
LINE
  5
21C
330
1F
100
AcDbEntity
  8
0
  6
Continuous
 62
     7
370
    25
100
AcDbLine
 10
6733.8866317145
 20
4919.4803169603
 30
0.0
 11
6734.6866317145
 21
4919.4803169603
 31
0.0
  0
ARC
  5
21D
330
1F
100
AcDbEntity
  8
0
  6
Continuous
 62
     7
370
    25
100
AcDbCircle
 10
6966.5046113777
 20
4919.5387444512
 30
0.0
 40
18.61807134239017
100
AcDbArc
 50
180.1798067088
 51
185.7287175667
  0
LINE
  5
21E
330
1F
100
AcDbEntity
  8
0
  6
Continuous
 62
     7
370
    25
100
AcDbLine
 10
6734.6866317145
 20
4917.6803169603
 30
0.0
 11
6947.9795249333
 21
4917.6803169603
 31
0.0
  0
LINE
  5
21F
330
1F
100
AcDbEntity
  8
0
  6
Continuous
 62
     7
370
    25
100
AcDbLine
 10
6734.6866317145
 20
4917.6803169603
 30
0.0
 11
6734.6866317145
 21
4919.4803169603
 31
0.0
  0
LINE
  5
220
330
1F
100
AcDbEntity
  8
0
  6
Continuous
 62
     7
370
    25
100
AcDbLine
 10
6947.8866317145
 20
4919.4803169603
 30
0.0
 11
6734.6866317145
 21
4919.4803169603
 31
0.0
  0
CIRCLE
  5
221
330
1F
100
AcDbEntity
  8
0
  6
Continuous
 62
     7
370
    25
100
AcDbCircle
 10
6749.6866317145
 20
5069.4803169603
 30
0.0
 40
3.0
  0
CIRCLE
  5
222
330
1F
100
AcDbEntity
  8
0
  6
Continuous
 62
     7
370
    25
100
AcDbCircle
 10
6774.6866317145
 20
5159.4803169603
 30
0.0
 40
3.0
  0
LINE
  5
223
330
1F
100
AcDbEntity
  8
0
  6
Continuous
 62
     7
370
    25
100
AcDbLine
 10
6802.1866317145
 20
5075.4803169603
 30
0.0
 11
6802.1866317145
 21
5153.4803169603
 31
0.0
  0
LINE
  5
224
330
1F
100
AcDbEntity
  8
0
  6
Continuous
 62
     7
370
    25
100
AcDbLine
 10
6802.1866317145
 20
5153.4803169603
 30
0.0
 11
6747.1866317145
 21
5153.4803169603
 31
0.0
  0
LINE
  5
225
330
1F
100
AcDbEntity
  8
0
  6
Continuous
 62
     7
370
    25
100
AcDbLine
 10
6747.1866317145
 20
5153.4803169603
 30
0.0
 11
6747.1866317145
 21
5075.4803169603
 31
0.0
  0
LINE
  5
226
330
1F
100
AcDbEntity
  8
0
  6
Continuous
 62
     7
370
    25
100
AcDbLine
 10
6747.1866317145
 20
5075.4803169603
 30
0.0
 11
6802.1866317145
 21
5075.4803169603
 31
0.0
  0
CIRCLE
  5
227
330
1F
100
AcDbEntity
  8
0
  6
Continuous
 62
     7
370
    25
100
AcDbCircle
 10
6774.6866317145
 20
5054.4803169603
 30
0.0
 40
4.250000000000909
  0
CIRCLE
  5
228
330
1F
100
AcDbEntity
  8
0
  6
Continuous
 62
     7
370
    25
100
AcDbCircle
 10
6799.6866317145
 20
5069.4803169603
 30
0.0
 40
3.0
  0
LINE
  5
229
330
1F
100
AcDbEntity
  8
0
  6
Continuous
 62
     7
370
    25
100
AcDbLine
 10
6947.8866317145
 20
4919.4803169603
 30
0.0
 11
6947.8866317145
 21
5167.6803169603
 31
0.0
  0
LINE
  5
22A
330
1F
100
AcDbEntity
  8
0
  6
Continuous
 62
     7
370
    25
100
AcDbLine
 10
6947.8866317145
 20
5167.6803169603
 30
0.0
 11
6734.6866317145
 21
5167.6803169603
 31
0.0
  0
CIRCLE
  5
22B
330
1F
100
AcDbEntity
  8
0
  6
Continuous
 62
     7
370
    25
100
AcDbCircle
 10
6929.6866317145
 20
5069.4803169603
 30
0.0
 40
3.0
  0
CIRCLE
  5
22C
330
1F
100
AcDbEntity
  8
0
  6
Continuous
 62
     7
370
    25
100
AcDbCircle
 10
6904.6866317145
 20
5054.4803169603
 30
0.0
 40
4.250000000000909
  0
LINE
  5
22D
330
1F
100
AcDbEntity
  8
0
  6
Continuous
 62
     7
370
    25
100
AcDbLine
 10
6932.1866317145
 20
5153.4803169603
 30
0.0
 11
6877.1866317145
 21
5153.4803169603
 31
0.0
  0
LINE
  5
22E
330
1F
100
AcDbEntity
  8
0
  6
Continuous
 62
     7
370
    25
100
AcDbLine
 10
6877.1866317145
 20
5153.4803169603
 30
0.0
 11
6877.1866317145
 21
5075.4803169603
 31
0.0
  0
LINE
  5
22F
330
1F
100
AcDbEntity
  8
0
  6
Continuous
 62
     7
370
    25
100
AcDbLine
 10
6877.1866317145
 20
5075.4803169603
 30
0.0
 11
6932.1866317145
 21
5075.4803169603
 31
0.0
  0
LINE
  5
230
330
1F
100
AcDbEntity
  8
0
  6
Continuous
 62
     7
370
    25
100
AcDbLine
 10
6932.1866317145
 20
5075.4803169603
 30
0.0
 11
6932.1866317145
 21
5153.4803169603
 31
0.0
  0
CIRCLE
  5
231
330
1F
100
AcDbEntity
  8
0
  6
Continuous
 62
     7
370
    25
100
AcDbCircle
 10
6904.6866317145
 20
5159.4803169603
 30
0.0
 40
3.0
  0
CIRCLE
  5
232
330
1F
100
AcDbEntity
  8
0
  6
Continuous
 62
     7
370
    25
100
AcDbCircle
 10
6879.6866317145
 20
5069.4803169603
 30
0.0
 40
3.0
  0
CIRCLE
  5
233
330
1F
100
AcDbEntity
  8
0
  6
Continuous
 62
     7
370
    25
100
AcDbCircle
 10
6864.6866317145
 20
5069.4803169603
 30
0.0
 40
2.999999999999091
  0
CIRCLE
  5
234
330
1F
100
AcDbEntity
  8
0
  6
Continuous
 62
     7
370
    25
100
AcDbCircle
 10
6839.6866317145
 20
5054.4803169603
 30
0.0
 40
4.25
  0
LINE
  5
235
330
1F
100
AcDbEntity
  8
0
  6
Continuous
 62
     7
370
    25
100
AcDbLine
 10
6867.1866317145
 20
5075.4803169603
 30
0.0
 11
6867.1866317145
 21
5153.4803169603
 31
0.0
  0
LINE
  5
236
330
1F
100
AcDbEntity
  8
0
  6
Continuous
 62
     7
370
    25
100
AcDbLine
 10
6867.1866317145
 20
5153.4803169603
 30
0.0
 11
6812.1866317145
 21
5153.4803169603
 31
0.0
  0
LINE
  5
237
330
1F
100
AcDbEntity
  8
0
  6
Continuous
 62
     7
370
    25
100
AcDbLine
 10
6812.1866317145
 20
5153.4803169603
 30
0.0
 11
6812.1866317145
 21
5075.4803169603
 31
0.0
  0
LINE
  5
238
330
1F
100
AcDbEntity
  8
0
  6
Continuous
 62
     7
370
    25
100
AcDbLine
 10
6812.1866317145
 20
5075.4803169603
 30
0.0
 11
6867.1866317145
 21
5075.4803169603
 31
0.0
  0
CIRCLE
  5
239
330
1F
100
AcDbEntity
  8
0
  6
Continuous
 62
     7
370
    25
100
AcDbCircle
 10
6839.6866317145
 20
5159.4803169603
 30
0.0
 40
3.0
  0
CIRCLE
  5
23A
330
1F
100
AcDbEntity
  8
0
  6
Continuous
 62
     7
370
    25
100
AcDbCircle
 10
6814.6866317145
 20
5069.4803169603
 30
0.0
 40
3.0
  0
LINE
  5
23B
330
1F
100
AcDbEntity
  8
0
  6
Continuous
 62
     7
370
    25
100
AcDbLine
 10
6732.8866317145
 20
5169.4803169603
 30
0.0
 11
6733.0741801649
 21
5169.4803169603
 31
0.0
  0
LINE
  5
23C
330
1F
100
AcDbEntity
  8
0
  6
Continuous
 62
     7
370
    25
100
AcDbLine
 10
6733.0741801649
 20
5169.4803169603
 30
0.0
 11
6734.6866317145
 21
5169.4803169603
 31
0.0
  0
LINE
  5
23D
330
1F
100
AcDbEntity
  8
0
  6
Continuous
 62
     7
370
    25
100
AcDbLine
 10
6947.8866317145
 20
5169.4803169603
 30
0.0
 11
6734.6866317145
 21
5169.4803169603
 31
0.0
  0
LINE
  5
23E
330
1F
100
AcDbEntity
  8
0
  6
Continuous
 62
     7
370
    25
100
AcDbLine
 10
6947.8866317145
 20
5167.6803169603
 30
0.0
 11
6947.8866317145
 21
5169.4803169603
 31
0.0
  0
LINE
  5
23F
330
1F
100
AcDbEntity
  8
0
  6
Continuous
 62
     7
370
    25
100
AcDbLine
 10
6732.8866317145
 20
5167.6803169603
 30
0.0
 11
6732.8866317145
 21
5169.4803169603
 31
0.0
  0
LINE
  5
240
330
1F
100
AcDbEntity
  8
0
  6
Continuous
 62
     7
370
    25
100
AcDbLine
 10
6949.6866317145
 20
4919.3874237415
 30
0.0
 11
6949.6866317145
 21
5166.9732101791
 31
0.0
  0
ARC
  5
241
330
1F
100
AcDbEntity
  8
0
  6
Continuous
 62
     7
370
    25
100
AcDbCircle
 10
6947.8282042236
 20
4900.8623372969
 30
0.0
 40
18.61807134257302
100
AcDbArc
 50
84.2712824333
 51
89.8201932912
  0
ARC
  5
242
330
1F
100
AcDbEntity
  8
0
  6
Continuous
 62
     7
370
    25
100
AcDbCircle
 10
6947.8315041992
 20
5164.895405855
 30
0.0
 40
2.785456678461842
100
AcDbArc
 50
48.2405429228
 51
88.8659740352
  0
LINE
  5
243
330
1F
100
AcDbEntity
  8
0
  6
Continuous
 62
     7
370
    25
100
AcDbLine
 10
6948.6866317145
 20
4919.3874237415
 30
0.0
 11
6949.6866317145
 21
4919.3874237415
 31
0.0
  0
LINE
  5
244
330
1F
100
AcDbEntity
  8
0
  6
Continuous
 62
     7
370
    25
100
AcDbLine
 10
6947.9795249333
 20
4918.6803169603
 30
0.0
 11
6947.9795249333
 21
4917.6803169603
 31
0.0
  0
LINE
  5
245
330
1F
100
AcDbEntity
  8
0
  6
Continuous
 62
     7
370
    25
100
AcDbLine
 10
6949.6866317145
 20
5167.6803169603
 30
0.0
 11
6948.6866317145
 21
5167.6803169603
 31
0.0
  0
ARC
  5
246
330
1F
100
AcDbEntity
  8
0
  6
Continuous
 62
     7
370
    25
100
AcDbCircle
 10
6947.8866317145
 20
5167.6803169603
 30
0.0
 40
0.7999999999992724
100
AcDbArc
 50
359.9999999999
 51
90.0000000001
  0
ARC
  5
247
330
1F
100
AcDbEntity
  8
0
  6
Continuous
 62
     7
370
    25
100
AcDbCircle
 10
6947.8866317145
 20
5167.6803169603
 30
0.0
 40
1.80000000000291
100
AcDbArc
 50
0.0
 51
89.9999999999
  0
LINE
  5
248
330
1F
100
AcDbEntity
  8
0
  6
Continuous
 62
     7
370
    25
100
AcDbLine
 10
6733.8866317145
 20
5170.2803169603
 30
0.0
 11
6732.8866317145
 21
5170.2803169603
 31
0.0
  0
LINE
  5
249
330
1F
100
AcDbEntity
  8
0
  6
Continuous
 62
     7
370
    25
100
AcDbLine
 10
6732.8866317145
 20
5183.4803169603
 30
0.0
 11
6732.8866317145
 21
5170.2803169603
 31
0.0
  0
LINE
  5
24A
330
1F
100
AcDbEntity
  8
0
  6
Continuous
 62
     7
370
    25
100
AcDbLine
 10
6733.8866317145
 20
5183.4803169603
 30
0.0
 11
6732.8866317145
 21
5183.4803169603
 31
0.0
  0
LINE
  5
24B
330
1F
100
AcDbEntity
  8
0
  6
Continuous
 62
     7
370
    25
100
AcDbLine
 10
6733.8866317145
 20
5183.4803169603
 30
0.0
 11
6733.8866317145
 21
5170.2803169603
 31
0.0
  0
LINE
  5
24C
330
1F
100
AcDbEntity
  8
0
  6
Continuous
 62
     7
370
    25
100
AcDbLine
 10
6732.8866317145
 20
5193.4803169603
 30
0.0
 11
6733.8866317145
 21
5193.4803169603
 31
0.0
  0
LINE
  5
24D
330
1F
100
AcDbEntity
  8
0
  6
Continuous
 62
     7
370
    25
100
AcDbLine
 10
6733.8866317145
 20
5193.4803169603
 30
0.0
 11
6733.8866317145
 21
5183.4803169603
 31
0.0
  0
LINE
  5
24E
330
1F
100
AcDbEntity
  8
0
  6
Continuous
 62
     7
370
    25
100
AcDbLine
 10
6732.8866317145
 20
5183.4803169603
 30
0.0
 11
6732.8866317145
 21
5193.4803169603
 31
0.0
  0
ARC
  5
24F
330
1F
100
AcDbEntity
  8
0
  6
Continuous
 62
     7
370
    25
100
AcDbCircle
 10
6734.6866317145
 20
5170.2803169603
 30
0.0
 40
0.7999999999992724
100
AcDbArc
 50
180.0
 51
270.0000000001
  0
ARC
  5
250
330
1F
100
AcDbEntity
  8
0
  6
Continuous
 62
     7
370
    25
100
AcDbCircle
 10
6734.6866317145
 20
5170.2803169603
 30
0.0
 40
1.799999999999447
100
AcDbArc
 50
180.0
 51
206.3877999612
  0
LINE
  5
251
330
1F
100
AcDbEntity
  8
0
  6
Continuous
 62
     7
370
    25
100
AcDbLine
 10
6949.6866317145
 20
5166.9732101791
 30
0.0
 11
6949.6866317145
 21
5167.6803169603
 31
0.0
  0
LINE
  5
252
330
1F
100
AcDbEntity
  8
0
  6
Continuous
 62
     7
370
    25
100
AcDbLine
 10
6948.6866317145
 20
5167.6803169603
 30
0.0
 11
6948.6866317145
 21
5167.4696806091
 31
0.0
  0
LINE
  5
253
330
1F
100
AcDbEntity
  8
0
  6
Continuous
 62
     8
370
    25
100
AcDbLine
 10
6788.9281738715
 20
5207.5503812126
 30
0.0
 11
6790.5211014598
 21
5207.5503812126
 31
0.0
  0
LINE
  5
254
330
1F
100
AcDbEntity
  8
0
  6
Continuous
 62
     8
370
    25
100
AcDbLine
 10
6755.2521619692
 20
5207.5503812126
 30
0.0
 11
6788.9281738715
 21
5207.5503812126
 31
0.0
  0
LINE
  5
255
330
1F
100
AcDbEntity
  8
0
  6
Continuous
 62
     8
370
    25
100
AcDbLine
 10
6788.8058508235
 20
5207.89153753
 30
0.0
 11
6790.3866317145
 21
5207.89153753
 31
0.0
  0
LINE
  5
256
330
1F
100
AcDbEntity
  8
0
  6
Continuous
 62
     8
370
    25
100
AcDbLine
 10
6755.3866317145
 20
5207.89153753
 30
0.0
 11
6788.8058508235
 21
5207.89153753
 31
0.0
  0
LINE
  5
257
330
1F
100
AcDbEntity
  8
0
  6
Continuous
 62
     8
370
    25
100
AcDbLine
 10
6772.8874420878
 20
5159.4803169603
 30
0.0
 11
6772.8874420878
 21
5161.8809245265
 31
0.0
  0
LINE
  5
258
330
1F
100
AcDbEntity
  8
0
  6
Continuous
 62
     8
370
    25
100
AcDbLine
 10
6771.7189994996
 20
5159.4803169603
 30
0.0
 11
6772.8874420878
 21
5159.4803169603
 31
0.0
  0
LINE
  5
259
330
1F
100
AcDbEntity
  8
0
  6
Continuous
 62
     8
370
    25
100
AcDbLine
 10
6772.8874420878
 20
5159.4803169603
 30
0.0
 11
6777.6866317145
 21
5159.4803169603
 31
0.0
  0
LINE
  5
25A
330
1F
100
AcDbEntity
  8
0
  6
Continuous
 62
     8
370
    25
100
AcDbLine
 10
6850.3866317145
 20
5147.4803169603
 30
0.0
 11
6850.3866317145
 21
5153.4803169603
 31
0.0
  0
LINE
  5
25B
330
1F
100
AcDbEntity
  8
0
  6
Continuous
 62
     8
370
    25
100
AcDbLine
 10
6830.3866317145
 20
5153.4803169603
 30
0.0
 11
6830.3866317145
 21
5147.4803169603
 31
0.0
  0
LINE
  5
25C
330
1F
100
AcDbEntity
  8
0
  6
Continuous
 62
     8
370
    25
100
AcDbLine
 10
6901.6866317145
 20
5159.4803169603
 30
0.0
 11
6907.6866317145
 21
5159.4803169603
 31
0.0
  0
LINE
  5
25D
330
1F
100
AcDbEntity
  8
0
  6
Continuous
 62
     8
370
    25
100
AcDbLine
 10
6772.9563991564
 20
5158.4803169603
 30
0.0
 11
6772.9665707189
 21
5157.0223930048
 31
0.0
  0
LINE
  5
25E
330
1F
100
AcDbEntity
  8
0
  6
Continuous
 62
     8
370
    25
100
AcDbLine
 10
6772.9912828773
 20
5153.4803169603
 30
0.0
 11
6773.5354689238
 21
5075.4803169603
 31
0.0
  0
LINE
  5
25F
330
1F
100
AcDbEntity
  8
0
  6
Continuous
 62
     8
370
    25
100
AcDbLine
 10
6773.6532193025
 20
5058.6027626891
 30
0.0
 11
6773.710839599
 21
5050.3438535255
 31
0.0
  0
LINE
  5
260
330
1F
100
AcDbEntity
  8
0
  6
Continuous
 62
     8
370
    25
100
AcDbLine
 10
6907.7819805517
 20
5153.4803169603
 30
0.0
 11
6907.2377945052
 21
5075.4803169603
 31
0.0
  0
LINE
  5
261
330
1F
100
AcDbEntity
  8
0
  6
Continuous
 62
     8
370
    25
100
AcDbLine
 10
6907.1156141607
 20
5057.9678009067
 30
0.0
 11
6907.0667175128
 21
5050.959281375
 31
0.0
  0
LINE
  5
262
330
1F
100
AcDbEntity
  8
0
  6
Continuous
 62
     7
370
    25
100
AcDbLine
 10
6064.1735546086
 20
4631.9304850105
 30
0.0
 11
6065.1735546086
 21
4630.9304850105
 31
0.0
  0
LINE
  5
263
330
1F
100
AcDbEntity
  8
0
  6
Continuous
 62
     7
370
    25
100
AcDbLine
 10
6138.1735546086
 20
4630.9304850105
 30
0.0
 11
6139.1735546086
 21
4631.9304850105
 31
0.0
  0
LINE
  5
264
330
1F
100
AcDbEntity
  8
0
  6
Continuous
 62
     7
370
    25
100
AcDbLine
 10
6064.1735546086
 20
4634.9304850105
 30
0.0
 11
6064.1735546086
 21
4631.9304850105
 31
0.0
  0
LINE
  5
265
330
1F
100
AcDbEntity
  8
0
  6
Continuous
 62
     7
370
    25
100
AcDbLine
 10
6139.1735546086
 20
4631.9304850105
 30
0.0
 11
6139.1735546086
 21
4634.9304850105
 31
0.0
  0
LINE
  5
266
330
1F
100
AcDbEntity
  8
0
  6
Continuous
 62
     7
370
    25
100
AcDbLine
 10
6076.7735546086
 20
4472.9304850105
 30
0.0
 11
6077.7735546086
 21
4471.9304850105
 31
0.0
  0
LINE
  5
267
330
1F
100
AcDbEntity
  8
0
  6
Continuous
 62
     7
370
    25
100
AcDbLine
 10
6125.5735546086
 20
4471.9304850105
 30
0.0
 11
6126.5735546086
 21
4472.9304850105
 31
0.0
  0
LINE
  5
268
330
1F
100
AcDbEntity
  8
0
  6
Continuous
 62
     7
370
    25
100
AcDbLine
 10
6126.5735546086
 20
4472.9304850105
 30
0.0
 11
6126.5735546086
 21
4474.6304850105
 31
0.0
  0
LINE
  5
269
330
1F
100
AcDbEntity
  8
0
  6
Continuous
 62
     7
370
    25
100
AcDbLine
 10
6076.7735546086
 20
4474.6304850105
 30
0.0
 11
6076.7735546086
 21
4472.9304850105
 31
0.0
  0
LINE
  5
26A
330
1F
100
AcDbEntity
  8
0
  6
Continuous
 62
     7
370
    25
100
AcDbLine
 10
6126.5735546086
 20
4474.6304850105
 30
0.0
 11
6126.2735546086
 21
4474.9304850105
 31
0.0
  0
LINE
  5
26B
330
1F
100
AcDbEntity
  8
0
  6
Continuous
 62
     7
370
    25
100
AcDbLine
 10
6077.0735546086
 20
4474.9304850105
 30
0.0
 11
6076.7735546086
 21
4474.6304850105
 31
0.0
  0
LINE
  5
26C
330
1F
100
AcDbEntity
  8
0
  6
Continuous
 62
     7
370
    25
100
AcDbLine
 10
6126.4235546086
 20
4474.9304850105
 30
0.0
 11
6126.4235546086
 21
4630.9304850105
 31
0.0
  0
LINE
  5
26D
330
1F
100
AcDbEntity
  8
0
  6
Continuous
 62
     7
370
    25
100
AcDbLine
 10
6076.9235546086
 20
4630.9304850105
 30
0.0
 11
6076.9235546086
 21
4474.9304850105
 31
0.0
  0
LINE
  5
26E
330
1F
100
AcDbEntity
  8
0
  6
Continuous
 62
     7
370
    25
100
AcDbLine
 10
6064.1735546086
 20
4631.9304850105
 30
0.0
 11
6139.1735546086
 21
4631.9304850105
 31
0.0
  0
LINE
  5
26F
330
1F
100
AcDbEntity
  8
0
  6
Continuous
 62
     7
370
    25
100
AcDbLine
 10
6065.1735546086
 20
4630.9304850105
 30
0.0
 11
6138.1735546086
 21
4630.9304850105
 31
0.0
  0
LINE
  5
270
330
1F
100
AcDbEntity
  8
0
  6
Continuous
 62
     7
370
    25
100
AcDbLine
 10
6064.1735546086
 20
4634.9304850105
 30
0.0
 11
6139.1735546086
 21
4634.9304850105
 31
0.0
  0
LINE
  5
271
330
1F
100
AcDbEntity
  8
0
  6
Continuous
 62
     7
370
    25
100
AcDbLine
 10
6125.5735546086
 20
4471.9304850105
 30
0.0
 11
6077.7735546086
 21
4471.9304850105
 31
0.0
  0
LINE
  5
272
330
1F
100
AcDbEntity
  8
0
  6
Continuous
 62
     7
370
    25
100
AcDbLine
 10
6126.5735546086
 20
4472.9304850105
 30
0.0
 11
6076.7735546086
 21
4472.9304850105
 31
0.0
  0
LINE
  5
273
330
1F
100
AcDbEntity
  8
0
  6
Continuous
 62
     7
370
    25
100
AcDbLine
 10
6126.5735546086
 20
4474.6304850105
 30
0.0
 11
6076.7735546086
 21
4474.6304850105
 31
0.0
  0
LINE
  5
274
330
1F
100
AcDbEntity
  8
0
  6
Continuous
 62
     7
370
    25
100
AcDbLine
 10
6126.4235546086
 20
4474.9304850105
 30
0.0
 11
6076.9235546086
 21
4474.9304850105
 31
0.0
  0
LINE
  5
275
330
1F
100
AcDbEntity
  8
0
  6
Continuous
 62
     7
370
    25
100
AcDbLine
 10
6258.0758062962
 20
4649.4304850105
 30
0.0
 11
6258.0758062962
 21
4647.9304850105
 31
0.0
  0
LINE
  5
276
330
1F
100
AcDbEntity
  8
0
  6
Continuous
 62
     7
370
    25
100
AcDbLine
 10
6291.4091396296
 20
4649.4304850105
 30
0.0
 11
6258.0758062962
 21
4649.4304850105
 31
0.0
  0
LINE
  5
277
330
1F
100
AcDbEntity
  8
0
  6
Continuous
 62
     7
370
    25
100
AcDbLine
 10
6291.4091396296
 20
4649.4304850105
 30
0.0
 11
6291.4091396296
 21
4647.9304850105
 31
0.0
  0
LINE
  5
278
330
1F
100
AcDbEntity
  8
0
  6
Continuous
 62
     7
370
    25
100
AcDbLine
 10
6291.4091396296
 20
4647.9304850105
 30
0.0
 11
6258.0758062962
 21
4647.9304850105
 31
0.0
  0
LINE
  5
279
330
1F
100
AcDbEntity
  8
0
  6
Continuous
 62
     7
370
    25
100
AcDbLine
 10
6257.2424729629
 20
4649.4304850105
 30
0.0
 11
6257.2424729629
 21
4647.9304850105
 31
0.0
  0
LINE
  5
27A
330
1F
100
AcDbEntity
  8
0
  6
Continuous
 62
     7
370
    25
100
AcDbLine
 10
6258.0758062962
 20
4647.9304850105
 30
0.0
 11
6257.2424729629
 21
4647.9304850105
 31
0.0
  0
LINE
  5
27B
330
1F
100
AcDbEntity
  8
0
  6
Continuous
 62
     7
370
    25
100
AcDbLine
 10
6258.0758062962
 20
4649.4304850105
 30
0.0
 11
6257.2424729629
 21
4649.4304850105
 31
0.0
  0
LINE
  5
27C
330
1F
100
AcDbEntity
  8
0
  6
Continuous
 62
     7
370
    25
100
AcDbLine
 10
6292.2424729629
 20
4649.4304850105
 30
0.0
 11
6292.2424729629
 21
4647.9304850105
 31
0.0
  0
LINE
  5
27D
330
1F
100
AcDbEntity
  8
0
  6
Continuous
 62
     7
370
    25
100
AcDbLine
 10
6292.2424729629
 20
4647.9304850105
 30
0.0
 11
6291.4091396296
 21
4647.9304850105
 31
0.0
  0
LINE
  5
27E
330
1F
100
AcDbEntity
  8
0
  6
Continuous
 62
     7
370
    25
100
AcDbLine
 10
6292.2424729629
 20
4649.4304850105
 30
0.0
 11
6291.4091396296
 21
4649.4304850105
 31
0.0
  0
ARC
  5
27F
330
1F
100
AcDbEntity
  8
0
  6
Continuous
 62
     7
370
    25
100
AcDbCircle
 10
6274.0187553361
 20
4648.9304850105
 30
0.0
 40
13.25000000000032
100
AcDbArc
 50
184.3283254326
 51
355.6716745674
  0
ARC
  5
280
330
1F
100
AcDbEntity
  8
0
  6
Continuous
 62
     7
370
    25
100
AcDbCircle
 10
6274.0187553361
 20
4648.9304850105
 30
0.0
 40
13.25000000000053
100
AcDbArc
 50
2.1626183539
 51
177.8373816461
  0
ARC
  5
281
330
1F
100
AcDbEntity
  8
0
  6
Continuous
 62
     7
370
    25
100
AcDbCircle
 10
6274.0187553361
 20
4648.9304850105
 30
0.0
 40
13.7500000000001
100
AcDbArc
 50
184.1706479119
 51
355.8293520881
  0
ARC
  5
282
330
1F
100
AcDbEntity
  8
0
  6
Continuous
 62
     7
370
    25
100
AcDbCircle
 10
6274.0187553361
 20
4648.9304850105
 30
0.0
 40
13.75000000000036
100
AcDbArc
 50
2.0839423346
 51
177.9160576654
  0
ARC
  5
283
330
1F
100
AcDbEntity
  8
0
  6
Continuous
 62
     7
370
    25
100
AcDbCircle
 10
6264.5187553361
 20
4648.9304850105
 30
0.0
 40
0.9999999999992335
100
AcDbArc
 50
90.0
 51
150.0
  0
ARC
  5
284
330
1F
100
AcDbEntity
  8
0
  6
Continuous
 62
     7
370
    25
100
AcDbCircle
 10
6267.5187553361
 20
4648.9304850105
 30
0.0
 40
1.000000000000021
100
AcDbArc
 50
29.9999999999
 51
90.0
  0
LINE
  5
285
330
1F
100
AcDbEntity
  8
0
  6
Continuous
 62
     7
370
    25
100
AcDbLine
 10
6267.5187553361
 20
4649.9304850105
 30
0.0
 11
6264.5187553361
 21
4649.9304850105
 31
0.0
  0
ARC
  5
286
330
1F
100
AcDbEntity
  8
0
  6
Continuous
 62
     7
370
    25
100
AcDbCircle
 10
6274.0187553361
 20
4642.4304850105
 30
0.0
 40
1.0
100
AcDbArc
 50
0.0
 51
180.0
  0
LINE
  5
287
330
1F
100
AcDbEntity
  8
0
  6
Continuous
 62
     7
370
    25
100
AcDbLine
 10
6273.0187553361
 20
4642.4304850105
 30
0.0
 11
6273.0187553361
 21
4639.4304850105
 31
0.0
  0
ARC
  5
288
330
1F
100
AcDbEntity
  8
0
  6
Continuous
 62
     7
370
    25
100
AcDbCircle
 10
6274.0187553361
 20
4639.4304850105
 30
0.0
 40
1.0
100
AcDbArc
 50
180.0
 51
0.0
  0
LINE
  5
289
330
1F
100
AcDbEntity
  8
0
  6
Continuous
 62
     7
370
    25
100
AcDbLine
 10
6275.0187553361
 20
4639.4304850105
 30
0.0
 11
6275.0187553361
 21
4642.4304850105
 31
0.0
  0
ARC
  5
28A
330
1F
100
AcDbEntity
  8
0
  6
Continuous
 62
     7
370
    25
100
AcDbCircle
 10
6274.0187553361
 20
4658.4304850105
 30
0.0
 40
1.0
100
AcDbArc
 50
0.0
 51
180.0
  0
ARC
  5
28B
330
1F
100
AcDbEntity
  8
0
  6
Continuous
 62
     7
370
    25
100
AcDbCircle
 10
6280.5187553361
 20
4648.9304850105
 30
0.0
 40
0.9999999999992335
100
AcDbArc
 50
90.0
 51
150.0
  0
ARC
  5
28C
330
1F
100
AcDbEntity
  8
0
  6
Continuous
 62
     7
370
    25
100
AcDbCircle
 10
6283.5187553361
 20
4648.9304850105
 30
0.0
 40
0.9999999999992335
100
AcDbArc
 50
30.0
 51
90.0
  0
LINE
  5
28D
330
1F
100
AcDbEntity
  8
0
  6
Continuous
 62
     7
370
    25
100
AcDbLine
 10
6283.5187553361
 20
4649.9304850105
 30
0.0
 11
6280.5187553361
 21
4649.9304850105
 31
0.0
  0
LINE
  5
28E
330
1F
100
AcDbEntity
  8
0
  6
Continuous
 62
     7
370
    25
100
AcDbLine
 10
6275.0187553361
 20
4655.4304850105
 30
0.0
 11
6275.0187553361
 21
4658.4304850105
 31
0.0
  0
LINE
  5
28F
330
1F
100
AcDbEntity
  8
0
  6
Continuous
 62
     7
370
    25
100
AcDbLine
 10
6273.0187553361
 20
4658.4304850105
 30
0.0
 11
6273.0187553361
 21
4655.4304850105
 31
0.0
  0
ARC
  5
290
330
1F
100
AcDbEntity
  8
0
  6
Continuous
 62
     7
370
    25
100
AcDbCircle
 10
6274.0187553361
 20
4655.4304850105
 30
0.0
 40
1.0
100
AcDbArc
 50
180.0
 51
0.0
  0
CIRCLE
  5
291
330
1F
100
AcDbEntity
  8
0
  6
Continuous
 62
     7
370
    25
100
AcDbCircle
 10
6274.0187553361
 20
4630.9304850105
 30
0.0
 40
1.399999999999636
  0
CIRCLE
  5
292
330
1F
100
AcDbEntity
  8
0
  6
Continuous
 62
     7
370
    25
100
AcDbCircle
 10
6274.0187553361
 20
4648.9304850105
 30
0.0
 40
24.25
  0
CIRCLE
  5
293
330
1F
100
AcDbEntity
  8
0
  6
Continuous
 62
     7
370
    25
100
AcDbCircle
 10
6274.0187553361
 20
4648.9304850105
 30
0.0
 40
24.75
  0
ARC
  5
294
330
1F
100
AcDbEntity
  8
0
  6
Continuous
 62
     7
370
    25
100
AcDbCircle
 10
6274.0187553361
 20
4648.9304850105
 30
0.0
 40
14.50000000000001
100
AcDbArc
 50
1.9761082857
 51
178.0238917143
  0
ARC
  5
295
330
1F
100
AcDbEntity
  8
0
  6
Continuous
 62
     7
370
    25
100
AcDbCircle
 10
6274.0187553361
 20
4648.9304850105
 30
0.0
 40
14.49999999999999
100
AcDbArc
 50
183.9545721221
 51
356.0454278779
  0
CIRCLE
  5
296
330
1F
100
AcDbEntity
  8
0
  6
Continuous
 62
     7
370
    25
100
AcDbCircle
 10
6274.0187553361
 20
4630.9304850105
 30
0.0
 40
1.5
  0
ARC
  5
297
330
1F
100
AcDbEntity
  8
0
  6
Continuous
 62
     7
370
    25
100
AcDbCircle
 10
6274.0187553361
 20
4648.9304850105
 30
0.0
 40
13.99999999999988
100
AcDbArc
 50
2.0467130977
 51
177.9532869023
  0
ARC
  5
298
330
1F
100
AcDbEntity
  8
0
  6
Continuous
 62
     7
370
    25
100
AcDbCircle
 10
6274.0187553361
 20
4648.9304850105
 30
0.0
 40
14.00000000000067
100
AcDbArc
 50
184.0960437581
 51
355.9039562419
  0
CIRCLE
  5
299
330
1F
100
AcDbEntity
  8
0
  6
Continuous
 62
     7
370
    25
100
AcDbCircle
 10
6219.0187553361
 20
4571.9304850105
 30
0.0
 40
1.649999999999604
  0
CIRCLE
  5
29A
330
1F
100
AcDbEntity
  8
0
  6
Continuous
 62
     7
370
    25
100
AcDbCircle
 10
6329.0187553361
 20
4571.9304850105
 30
0.0
 40
1.649999999999636
  0
ARC
  5
29B
330
1F
100
AcDbEntity
  8
0
  6
Continuous
 62
     7
370
    25
100
AcDbCircle
 10
6295.5187553361
 20
4571.9304850105
 30
0.0
 40
2.999999999999965
100
AcDbArc
 50
70.9178751964
 51
289.0821248036
  0
ARC
  5
29C
330
1F
100
AcDbEntity
  8
0
  6
Continuous
 62
     7
370
    25
100
AcDbCircle
 10
6252.5187553361
 20
4571.9304850105
 30
0.0
 40
2.999999999999965
100
AcDbArc
 50
250.9178751964
 51
109.0821248036
  0
ARC
  5
29D
330
1F
100
AcDbEntity
  8
0
  6
Continuous
 62
     7
370
    25
100
AcDbCircle
 10
6274.0187553361
 20
4571.9304850105
 30
0.0
 40
9.9999999999999
100
AcDbArc
 50
150.4586394999
 51
209.5413605001
  0
ARC
  5
29E
330
1F
100
AcDbEntity
  8
0
  6
Continuous
 62
     7
370
    25
100
AcDbCircle
 10
6274.0187553361
 20
4571.9304850105
 30
0.0
 40
9.9999999999999
100
AcDbArc
 50
330.4586394999
 51
29.5413605001
  0
CIRCLE
  5
29F
330
1F
100
AcDbEntity
  8
0
  6
Continuous
 62
     7
370
    25
100
AcDbCircle
 10
6259.0187553361
 20
4571.9304850105
 30
0.0
 40
8.0
  0
CIRCLE
  5
2A0
330
1F
100
AcDbEntity
  8
0
  6
Continuous
 62
     7
370
    25
100
AcDbCircle
 10
6289.0187553361
 20
4571.9304850105
 30
0.0
 40
8.0
  0
LINE
  5
2A1
330
1F
100
AcDbEntity
  8
0
  6
Continuous
 62
     7
370
    25
100
AcDbLine
 10
6229.0187553361
 20
4526.9304850105
 30
0.0
 11
6319.0187553361
 21
4526.9304850105
 31
0.0
  0
LINE
  5
2A2
330
1F
100
AcDbEntity
  8
0
  6
Continuous
 62
     7
370
    25
100
AcDbLine
 10
6229.0187553361
 20
4616.9304850105
 30
0.0
 11
6229.0187553361
 21
4526.9304850105
 31
0.0
  0
LINE
  5
2A3
330
1F
100
AcDbEntity
  8
0
  6
Continuous
 62
     7
370
    25
100
AcDbLine
 10
6319.0187553361
 20
4616.9304850105
 30
0.0
 11
6229.0187553361
 21
4616.9304850105
 31
0.0
  0
LINE
  5
2A4
330
1F
100
AcDbEntity
  8
0
  6
Continuous
 62
     7
370
    25
100
AcDbLine
 10
6319.0187553361
 20
4526.9304850105
 30
0.0
 11
6319.0187553361
 21
4616.9304850105
 31
0.0
  0
CIRCLE
  5
2A5
330
1F
100
AcDbEntity
  8
0
  6
Continuous
 62
     7
370
    25
100
AcDbCircle
 10
6289.0187553361
 20
4571.9304850105
 30
0.0
 40
13.5
  0
CIRCLE
  5
2A6
330
1F
100
AcDbEntity
  8
0
  6
Continuous
 62
     7
370
    25
100
AcDbCircle
 10
6259.0187553361
 20
4571.9304850105
 30
0.0
 40
13.5
  0
LINE
  5
2A7
330
1F
100
AcDbEntity
  8
0
  6
Continuous
 62
     7
370
    25
100
AcDbLine
 10
6319.0187553361
 20
4616.9304850105
 30
0.0
 11
6320.8187553361
 21
4616.9304850105
 31
0.0
  0
LINE
  5
2A8
330
1F
100
AcDbEntity
  8
0
  6
Continuous
 62
     7
370
    25
100
AcDbLine
 10
6320.8187553361
 20
4526.9304850105
 30
0.0
 11
6320.8187553361
 21
4616.9304850105
 31
0.0
  0
LINE
  5
2A9
330
1F
100
AcDbEntity
  8
0
  6
Continuous
 62
     7
370
    25
100
AcDbLine
 10
6320.8187553361
 20
4526.9304850105
 30
0.0
 11
6319.0187553361
 21
4526.9304850105
 31
0.0
  0
LINE
  5
2AA
330
1F
100
AcDbEntity
  8
0
  6
Continuous
 62
     7
370
    25
100
AcDbLine
 10
6229.0187553361
 20
4526.9304850105
 30
0.0
 11
6227.2187553361
 21
4526.9304850105
 31
0.0
  0
LINE
  5
2AB
330
1F
100
AcDbEntity
  8
0
  6
Continuous
 62
     7
370
    25
100
AcDbLine
 10
6227.2187553361
 20
4616.9304850105
 30
0.0
 11
6227.2187553361
 21
4526.9304850105
 31
0.0
  0
LINE
  5
2AC
330
1F
100
AcDbEntity
  8
0
  6
Continuous
 62
     7
370
    25
100
AcDbLine
 10
6227.2187553361
 20
4616.9304850105
 30
0.0
 11
6229.0187553361
 21
4616.9304850105
 31
0.0
  0
LINE
  5
2AD
330
1F
100
AcDbEntity
  8
0
  6
Continuous
 62
     7
370
    25
100
AcDbLine
 10
6226.4187553361
 20
4526.9304850105
 30
0.0
 11
6227.2187553361
 21
4526.9304850105
 31
0.0
  0
LINE
  5
2AE
330
1F
100
AcDbEntity
  8
0
  6
Continuous
 62
     7
370
    25
100
AcDbLine
 10
6226.4187553361
 20
4616.9304850105
 30
0.0
 11
6226.4187553361
 21
4526.9304850105
 31
0.0
  0
LINE
  5
2AF
330
1F
100
AcDbEntity
  8
0
  6
Continuous
 62
     7
370
    25
100
AcDbLine
 10
6227.2187553361
 20
4616.9304850105
 30
0.0
 11
6226.4187553361
 21
4616.9304850105
 31
0.0
  0
LINE
  5
2B0
330
1F
100
AcDbEntity
  8
0
  6
Continuous
 62
     7
370
    25
100
AcDbLine
 10
6321.6187553361
 20
4616.9304850105
 30
0.0
 11
6320.8187553361
 21
4616.9304850105
 31
0.0
  0
LINE
  5
2B1
330
1F
100
AcDbEntity
  8
0
  6
Continuous
 62
     7
370
    25
100
AcDbLine
 10
6321.6187553361
 20
4526.9304850105
 30
0.0
 11
6321.6187553361
 21
4616.9304850105
 31
0.0
  0
LINE
  5
2B2
330
1F
100
AcDbEntity
  8
0
  6
Continuous
 62
     7
370
    25
100
AcDbLine
 10
6320.8187553361
 20
4526.9304850105
 30
0.0
 11
6321.6187553361
 21
4526.9304850105
 31
0.0
  0
LINE
  5
2B3
330
1F
100
AcDbEntity
  8
0
  6
Continuous
 62
     7
370
    25
100
AcDbLine
 10
6321.6187553361
 20
4616.9304850105
 30
0.0
 11
6331.8187553361
 21
4616.9304850105
 31
0.0
  0
ARC
  5
2B4
330
1F
100
AcDbEntity
  8
0
  6
Continuous
 62
     7
370
    25
100
AcDbCircle
 10
6331.8187553361
 20
4611.9304850105
 30
0.0
 40
5.000000000000909
100
AcDbArc
 50
0.0
 51
90.0
  0
LINE
  5
2B5
330
1F
100
AcDbEntity
  8
0
  6
Continuous
 62
     7
370
    25
100
AcDbLine
 10
6336.8187553361
 20
4611.9304850105
 30
0.0
 11
6336.8187553361
 21
4531.9304850105
 31
0.0
  0
ARC
  5
2B6
330
1F
100
AcDbEntity
  8
0
  6
Continuous
 62
     7
370
    25
100
AcDbCircle
 10
6331.8187553361
 20
4531.9304850105
 30
0.0
 40
5.000000000000909
100
AcDbArc
 50
270.0
 51
360.0
  0
LINE
  5
2B7
330
1F
100
AcDbEntity
  8
0
  6
Continuous
 62
     7
370
    25
100
AcDbLine
 10
6331.8187553361
 20
4526.9304850105
 30
0.0
 11
6321.6187553361
 21
4526.9304850105
 31
0.0
  0
CIRCLE
  5
2B8
330
1F
100
AcDbEntity
  8
0
  6
Continuous
 62
     7
370
    25
100
AcDbCircle
 10
6329.0187553361
 20
4571.9304850105
 30
0.0
 40
3.5
  0
ARC
  5
2B9
330
1F
100
AcDbEntity
  8
0
  6
Continuous
 62
     7
370
    25
100
AcDbCircle
 10
6216.2187553361
 20
4611.9304850105
 30
0.0
 40
5.0
100
AcDbArc
 50
90.0
 51
180.0
  0
LINE
  5
2BA
330
1F
100
AcDbEntity
  8
0
  6
Continuous
 62
     7
370
    25
100
AcDbLine
 10
6216.2187553361
 20
4616.9304850105
 30
0.0
 11
6226.4187553361
 21
4616.9304850105
 31
0.0
  0
LINE
  5
2BB
330
1F
100
AcDbEntity
  8
0
  6
Continuous
 62
     7
370
    25
100
AcDbLine
 10
6226.4187553361
 20
4526.9304850105
 30
0.0
 11
6216.2187553361
 21
4526.9304850105
 31
0.0
  0
ARC
  5
2BC
330
1F
100
AcDbEntity
  8
0
  6
Continuous
 62
     7
370
    25
100
AcDbCircle
 10
6216.2187553361
 20
4531.9304850105
 30
0.0
 40
5.000000000000909
100
AcDbArc
 50
180.0
 51
270.0
  0
LINE
  5
2BD
330
1F
100
AcDbEntity
  8
0
  6
Continuous
 62
     7
370
    25
100
AcDbLine
 10
6211.2187553361
 20
4531.9304850105
 30
0.0
 11
6211.2187553361
 21
4611.9304850105
 31
0.0
  0
CIRCLE
  5
2BE
330
1F
100
AcDbEntity
  8
0
  6
Continuous
 62
     7
370
    25
100
AcDbCircle
 10
6219.0187553361
 20
4571.9304850105
 30
0.0
 40
3.5
  0
CIRCLE
  5
2BF
330
1F
100
AcDbEntity
  8
0
  6
Continuous
 62
     7
370
    25
100
AcDbCircle
 10
6349.0187553361
 20
4482.9304850105
 30
0.0
 40
1.5
  0
CIRCLE
  5
2C0
330
1F
100
AcDbEntity
  8
0
  6
Continuous
 62
     7
370
    25
100
AcDbCircle
 10
6146.5187553361
 20
4521.4304850105
 30
0.0
 40
1.5
  0
CIRCLE
  5
2C1
330
1F
100
AcDbEntity
  8
0
  6
Continuous
 62
     7
370
    25
100
AcDbCircle
 10
6146.5187553361
 20
4641.4304850105
 30
0.0
 40
1.5
  0
CIRCLE
  5
2C2
330
1F
100
AcDbEntity
  8
0
  6
Continuous
 62
     7
370
    25
100
AcDbCircle
 10
6199.0187553361
 20
4679.9304850105
 30
0.0
 40
1.5
  0
CIRCLE
  5
2C3
330
1F
100
AcDbEntity
  8
0
  6
Continuous
 62
     7
370
    25
100
AcDbCircle
 10
6349.0187553361
 20
4679.9304850105
 30
0.0
 40
1.5
  0
CIRCLE
  5
2C4
330
1F
100
AcDbEntity
  8
0
  6
Continuous
 62
     7
370
    25
100
AcDbCircle
 10
6401.5187553361
 20
4641.4304850105
 30
0.0
 40
1.5
  0
CIRCLE
  5
2C5
330
1F
100
AcDbEntity
  8
0
  6
Continuous
 62
     7
370
    25
100
AcDbCircle
 10
6401.5187553361
 20
4521.4304850105
 30
0.0
 40
1.5
  0
CIRCLE
  5
2C6
330
1F
100
AcDbEntity
  8
0
  6
Continuous
 62
     7
370
    25
100
AcDbCircle
 10
6199.0187553361
 20
4482.9304850105
 30
0.0
 40
1.499999999999091
  0
LINE
  5
2C7
330
1F
100
AcDbEntity
  8
0
  6
Continuous
 62
     7
370
    25
100
AcDbLine
 10
6462.2187553361
 20
4688.9304850105
 30
0.0
 11
6462.2187553361
 21
4687.9304850105
 31
0.0
  0
LINE
  5
2C8
330
1F
100
AcDbEntity
  8
0
  6
Continuous
 62
     7
370
    25
100
AcDbLine
 10
6462.2187553361
 20
4687.9304850105
 30
0.0
 11
6452.2187553361
 21
4687.9304850105
 31
0.0
  0
LINE
  5
2C9
330
1F
100
AcDbEntity
  8
0
  6
Continuous
 62
     7
370
    25
100
AcDbLine
 10
6452.2187553361
 20
4687.9304850105
 30
0.0
 11
6452.2187553361
 21
4688.9304850105
 31
0.0
  0
LINE
  5
2CA
330
1F
100
AcDbEntity
  8
0
  6
Continuous
 62
     7
370
    25
100
AcDbLine
 10
6452.2187553361
 20
4688.9304850105
 30
0.0
 11
6462.2187553361
 21
4688.9304850105
 31
0.0
  0
LINE
  5
2CB
330
1F
100
AcDbEntity
  8
0
  6
Continuous
 62
     7
370
    25
100
AcDbLine
 10
6452.2187553361
 20
4687.9304850105
 30
0.0
 11
6095.8187553361
 21
4687.9304850105
 31
0.0
  0
LINE
  5
2CC
330
1F
100
AcDbEntity
  8
0
  6
Continuous
 62
     7
370
    25
100
AcDbLine
 10
6095.8187553361
 20
4688.9304850105
 30
0.0
 11
6095.8187553361
 21
4687.9304850105
 31
0.0
  0
LINE
  5
2CD
330
1F
100
AcDbEntity
  8
0
  6
Continuous
 62
     7
370
    25
100
AcDbLine
 10
6452.2187553361
 20
4688.9304850105
 30
0.0
 11
6095.8187553361
 21
4688.9304850105
 31
0.0
  0
LINE
  5
2CE
330
1F
100
AcDbEntity
  8
0
  6
Continuous
 62
     7
370
    25
100
AcDbLine
 10
6085.8187553361
 20
4687.9304850105
 30
0.0
 11
6085.8187553361
 21
4688.9304850105
 31
0.0
  0
LINE
  5
2CF
330
1F
100
AcDbEntity
  8
0
  6
Continuous
 62
     7
370
    25
100
AcDbLine
 10
6095.8187553361
 20
4687.9304850105
 30
0.0
 11
6085.8187553361
 21
4687.9304850105
 31
0.0
  0
LINE
  5
2D0
330
1F
100
AcDbEntity
  8
0
  6
Continuous
 62
     7
370
    25
100
AcDbLine
 10
6085.8187553361
 20
4688.9304850105
 30
0.0
 11
6095.8187553361
 21
4688.9304850105
 31
0.0
  0
LINE
  5
2D1
330
1F
100
AcDbEntity
  8
0
  6
Continuous
 62
     7
370
    25
100
AcDbLine
 10
6085.8187553361
 20
4687.9304850105
 30
0.0
 11
6085.8187553361
 21
4687.1304850105
 31
0.0
  0
LINE
  5
2D2
330
1F
100
AcDbEntity
  8
0
  6
Continuous
 62
     7
370
    25
100
AcDbLine
 10
6085.8187553361
 20
4687.1304850105
 30
0.0
 11
6462.2187553361
 21
4687.1304850105
 31
0.0
  0
LINE
  5
2D3
330
1F
100
AcDbEntity
  8
0
  6
Continuous
 62
     7
370
    25
100
AcDbLine
 10
6462.2187553361
 20
4687.1304850105
 30
0.0
 11
6462.2187553361
 21
4687.9304850105
 31
0.0
  0
LINE
  5
2D4
330
1F
100
AcDbEntity
  8
0
  6
Continuous
 62
     7
370
    25
100
AcDbLine
 10
6464.0187553361
 20
4688.9304850105
 30
0.0
 11
6464.0187553361
 21
4688.7429365602
 31
0.0
  0
LINE
  5
2D5
330
1F
100
AcDbEntity
  8
0
  6
Continuous
 62
     7
370
    25
100
AcDbLine
 10
6464.0187553361
 20
4688.7429365602
 30
0.0
 11
6464.0187553361
 21
4687.1304850105
 31
0.0
  0
LINE
  5
2D6
330
1F
100
AcDbEntity
  8
0
  6
Continuous
 62
     7
370
    25
100
AcDbLine
 10
6464.0187553361
 20
4473.9304850105
 30
0.0
 11
6464.0187553361
 21
4687.1304850105
 31
0.0
  0
LINE
  5
2D7
330
1F
100
AcDbEntity
  8
0
  6
Continuous
 62
     7
370
    25
100
AcDbLine
 10
6462.2187553361
 20
4473.9304850105
 30
0.0
 11
6464.0187553361
 21
4473.9304850105
 31
0.0
  0
LINE
  5
2D8
330
1F
100
AcDbEntity
  8
0
  6
Continuous
 62
     7
370
    25
100
AcDbLine
 10
6462.2187553361
 20
4473.9304850105
 30
0.0
 11
6462.2187553361
 21
4687.1304850105
 31
0.0
  0
LINE
  5
2D9
330
1F
100
AcDbEntity
  8
0
  6
Continuous
 62
     7
370
    25
100
AcDbLine
 10
6462.2187553361
 20
4688.9304850105
 30
0.0
 11
6464.0187553361
 21
4688.9304850105
 31
0.0
  0
CIRCLE
  5
2DA
330
1F
100
AcDbEntity
  8
0
  6
Continuous
 62
     7
370
    25
100
AcDbCircle
 10
6199.0187553361
 20
4482.9304850105
 30
0.0
 40
2.25
  0
CIRCLE
  5
2DB
330
1F
100
AcDbEntity
  8
0
  6
Continuous
 62
     7
370
    25
100
AcDbCircle
 10
6146.5187553361
 20
4641.4304850105
 30
0.0
 40
2.250000000000909
  0
CIRCLE
  5
2DC
330
1F
100
AcDbEntity
  8
0
  6
Continuous
 62
     7
370
    25
100
AcDbCircle
 10
6129.0187553361
 20
4667.1304850105
 30
0.0
 40
7.75
  0
CIRCLE
  5
2DD
330
1F
100
AcDbEntity
  8
0
  6
Continuous
 62
     7
370
    25
100
AcDbCircle
 10
6199.0187553361
 20
4679.9304850105
 30
0.0
 40
2.25
  0
CIRCLE
  5
2DE
330
1F
100
AcDbEntity
  8
0
  6
Continuous
 62
     7
370
    25
100
AcDbCircle
 10
6224.0187553361
 20
4648.9304850105
 30
0.0
 40
7.749999999999091
  0
CIRCLE
  5
2DF
330
1F
100
AcDbEntity
  8
0
  6
Continuous
 62
     7
370
    25
100
AcDbCircle
 10
6444.0187553361
 20
4673.9304850105
 30
0.0
 40
7.900000000000546
  0
CIRCLE
  5
2E0
330
1F
100
AcDbEntity
  8
0
  6
Continuous
 62
     7
370
    25
100
AcDbCircle
 10
6401.5187553361
 20
4641.4304850105
 30
0.0
 40
2.25
  0
CIRCLE
  5
2E1
330
1F
100
AcDbEntity
  8
0
  6
Continuous
 62
     7
370
    25
100
AcDbCircle
 10
6419.0187553361
 20
4667.1304850105
 30
0.0
 40
7.750000000000909
  0
CIRCLE
  5
2E2
330
1F
100
AcDbEntity
  8
0
  6
Continuous
 62
     7
370
    25
100
AcDbCircle
 10
6349.0187553361
 20
4679.9304850105
 30
0.0
 40
2.25
  0
CIRCLE
  5
2E3
330
1F
100
AcDbEntity
  8
0
  6
Continuous
 62
     7
370
    25
100
AcDbCircle
 10
6419.0187553361
 20
4602.1304850105
 30
0.0
 40
7.750000000000909
  0
CIRCLE
  5
2E4
330
1F
100
AcDbEntity
  8
0
  6
Continuous
 62
     7
370
    25
100
AcDbCircle
 10
6419.0187553361
 20
4537.1304850105
 30
0.0
 40
7.750000000000909
  0
CIRCLE
  5
2E5
330
1F
100
AcDbEntity
  8
0
  6
Continuous
 62
     7
370
    25
100
AcDbCircle
 10
6401.5187553361
 20
4521.4304850105
 30
0.0
 40
2.25
  0
CIRCLE
  5
2E6
330
1F
100
AcDbEntity
  8
0
  6
Continuous
 62
     7
370
    25
100
AcDbCircle
 10
6349.0187553361
 20
4482.9304850105
 30
0.0
 40
2.25
  0
ARC
  5
2E7
330
1F
100
AcDbEntity
  8
0
  6
Continuous
 62
     7
370
    25
100
AcDbCircle
 10
6129.0187553361
 20
4537.1304850105
 30
0.0
 40
7.749999999999965
100
AcDbArc
 50
250.4356948389
 51
109.5643051611
  0
CIRCLE
  5
2E8
330
1F
100
AcDbEntity
  8
0
  6
Continuous
 62
     7
370
    25
100
AcDbCircle
 10
6146.5187553361
 20
4521.4304850105
 30
0.0
 40
2.250000000000909
  0
ARC
  5
2E9
330
1F
100
AcDbEntity
  8
0
  6
Continuous
 62
     7
370
    25
100
AcDbCircle
 10
6129.0187553361
 20
4602.1304850105
 30
0.0
 40
7.749999999999965
100
AcDbArc
 50
250.4356948389
 51
109.5643051611
  0
LINE
  5
2EA
330
1F
100
AcDbEntity
  8
0
  6
Continuous
 62
     7
370
    25
100
AcDbLine
 10
6084.0187553361
 20
4634.9304850105
 30
0.0
 11
6084.0187553361
 21
4687.1304850105
 31
0.0
  0
LINE
  5
2EB
330
1F
100
AcDbEntity
  8
0
  6
Continuous
 62
     7
370
    25
100
AcDbLine
 10
6084.0187553361
 20
4687.1304850105
 30
0.0
 11
6084.0187553361
 21
4688.7429365602
 31
0.0
  0
LINE
  5
2EC
330
1F
100
AcDbEntity
  8
0
  6
Continuous
 62
     7
370
    25
100
AcDbLine
 10
6084.0187553361
 20
4688.7429365602
 30
0.0
 11
6084.0187553361
 21
4688.9304850105
 31
0.0
  0
LINE
  5
2ED
330
1F
100
AcDbEntity
  8
0
  6
Continuous
 62
     7
370
    25
100
AcDbLine
 10
6084.0187553361
 20
4688.9304850105
 30
0.0
 11
6085.8187553361
 21
4688.9304850105
 31
0.0
  0
ARC
  5
2EE
330
1F
100
AcDbEntity
  8
0
  6
Continuous
 62
     7
370
    25
100
AcDbCircle
 10
6459.4338442308
 20
4473.9856125259
 30
0.0
 40
2.785456678470116
100
AcDbArc
 50
318.2405429228
 51
358.8659740351
  0
LINE
  5
2EF
330
1F
100
AcDbEntity
  8
0
  6
Continuous
 62
     7
370
    25
100
AcDbLine
 10
6461.5116485549
 20
4472.1304850105
 30
0.0
 11
6125.7735546086
 21
4472.1304850105
 31
0.0
  0
LINE
  5
2F0
330
1F
100
AcDbEntity
  8
0
  6
Continuous
 62
     7
370
    25
100
AcDbLine
 10
6462.2187553361
 20
4472.1304850105
 30
0.0
 11
6462.2187553361
 21
4473.1304850105
 31
0.0
  0
ARC
  5
2F1
330
1F
100
AcDbEntity
  8
0
  6
Continuous
 62
     7
370
    25
100
AcDbCircle
 10
6462.2187553361
 20
4473.9304850105
 30
0.0
 40
0.8000000000010914
100
AcDbArc
 50
270.0000000001
 51
359.9999999999
  0
ARC
  5
2F2
330
1F
100
AcDbEntity
  8
0
  6
Continuous
 62
     7
370
    25
100
AcDbCircle
 10
6462.2187553361
 20
4473.9304850105
 30
0.0
 40
1.800000000001091
100
AcDbArc
 50
270.0
 51
360.0
  0
LINE
  5
2F3
330
1F
100
AcDbEntity
  8
0
  6
Continuous
 62
     7
370
    25
100
AcDbLine
 10
6464.8187553361
 20
4687.9304850105
 30
0.0
 11
6464.8187553361
 21
4688.9304850105
 31
0.0
  0
LINE
  5
2F4
330
1F
100
AcDbEntity
  8
0
  6
Continuous
 62
     7
370
    25
100
AcDbLine
 10
6478.0187553361
 20
4688.9304850105
 30
0.0
 11
6464.8187553361
 21
4688.9304850105
 31
0.0
  0
LINE
  5
2F5
330
1F
100
AcDbEntity
  8
0
  6
Continuous
 62
     7
370
    25
100
AcDbLine
 10
6478.0187553361
 20
4687.9304850105
 30
0.0
 11
6478.0187553361
 21
4688.9304850105
 31
0.0
  0
LINE
  5
2F6
330
1F
100
AcDbEntity
  8
0
  6
Continuous
 62
     7
370
    25
100
AcDbLine
 10
6478.0187553361
 20
4687.9304850105
 30
0.0
 11
6464.8187553361
 21
4687.9304850105
 31
0.0
  0
LINE
  5
2F7
330
1F
100
AcDbEntity
  8
0
  6
Continuous
 62
     7
370
    25
100
AcDbLine
 10
6488.0187553361
 20
4688.9304850105
 30
0.0
 11
6488.0187553361
 21
4687.9304850105
 31
0.0
  0
LINE
  5
2F8
330
1F
100
AcDbEntity
  8
0
  6
Continuous
 62
     7
370
    25
100
AcDbLine
 10
6488.0187553361
 20
4687.9304850105
 30
0.0
 11
6478.0187553361
 21
4687.9304850105
 31
0.0
  0
LINE
  5
2F9
330
1F
100
AcDbEntity
  8
0
  6
Continuous
 62
     7
370
    25
100
AcDbLine
 10
6478.0187553361
 20
4688.9304850105
 30
0.0
 11
6488.0187553361
 21
4688.9304850105
 31
0.0
  0
ARC
  5
2FA
330
1F
100
AcDbEntity
  8
0
  6
Continuous
 62
     7
370
    25
100
AcDbCircle
 10
6464.8187553361
 20
4687.1304850105
 30
0.0
 40
0.8000000000001819
100
AcDbArc
 50
90.0
 51
180.0
  0
ARC
  5
2FB
330
1F
100
AcDbEntity
  8
0
  6
Continuous
 62
     7
370
    25
100
AcDbCircle
 10
6464.8187553361
 20
4687.1304850105
 30
0.0
 40
1.800000000000256
100
AcDbArc
 50
90.0
 51
116.3877999613
  0
LINE
  5
2FC
330
1F
100
AcDbEntity
  8
0
  6
Continuous
 62
     7
370
    25
100
AcDbLine
 10
6070.0187553361
 20
4688.9304850105
 30
0.0
 11
6070.0187553361
 21
4687.9304850105
 31
0.0
  0
LINE
  5
2FD
330
1F
100
AcDbEntity
  8
0
  6
Continuous
 62
     7
370
    25
100
AcDbLine
 10
6070.0187553361
 20
4687.9304850105
 30
0.0
 11
6060.0187553361
 21
4687.9304850105
 31
0.0
  0
LINE
  5
2FE
330
1F
100
AcDbEntity
  8
0
  6
Continuous
 62
     7
370
    25
100
AcDbLine
 10
6060.0187553361
 20
4687.9304850105
 30
0.0
 11
6060.0187553361
 21
4688.9304850105
 31
0.0
  0
LINE
  5
2FF
330
1F
100
AcDbEntity
  8
0
  6
Continuous
 62
     7
370
    25
100
AcDbLine
 10
6060.0187553361
 20
4688.9304850105
 30
0.0
 11
6070.0187553361
 21
4688.9304850105
 31
0.0
  0
LINE
  5
300
330
1F
100
AcDbEntity
  8
0
  6
Continuous
 62
     7
370
    25
100
AcDbLine
 10
6083.2187553361
 20
4687.9304850105
 30
0.0
 11
6083.2187553361
 21
4688.9304850105
 31
0.0
  0
LINE
  5
301
330
1F
100
AcDbEntity
  8
0
  6
Continuous
 62
     7
370
    25
100
AcDbLine
 10
6083.2187553361
 20
4687.9304850105
 30
0.0
 11
6070.0187553361
 21
4687.9304850105
 31
0.0
  0
LINE
  5
302
330
1F
100
AcDbEntity
  8
0
  6
Continuous
 62
     7
370
    25
100
AcDbLine
 10
6083.2187553361
 20
4688.9304850105
 30
0.0
 11
6070.0187553361
 21
4688.9304850105
 31
0.0
  0
ARC
  5
303
330
1F
100
AcDbEntity
  8
0
  6
Continuous
 62
     7
370
    25
100
AcDbCircle
 10
6083.2187553361
 20
4687.1304850105
 30
0.0
 40
1.799999999999851
100
AcDbArc
 50
63.6122000387
 51
90.0
  0
ARC
  5
304
330
1F
100
AcDbEntity
  8
0
  6
Continuous
 62
     7
370
    25
100
AcDbCircle
 10
6083.2187553361
 20
4687.1304850105
 30
0.0
 40
0.8000000000001819
100
AcDbArc
 50
0.0
 51
90.0
  0
LINE
  5
305
330
1F
100
AcDbEntity
  8
0
  6
Continuous
 62
     7
370
    25
100
AcDbLine
 10
6461.5116485549
 20
4472.1304850105
 30
0.0
 11
6462.2187553361
 21
4472.1304850105
 31
0.0
  0
LINE
  5
306
330
1F
100
AcDbEntity
  8
0
  6
Continuous
 62
     7
370
    25
100
AcDbLine
 10
6462.0081189849
 20
4473.1304850105
 30
0.0
 11
6462.2187553361
 21
4473.1304850105
 31
0.0
  0
ARC
  5
307
330
1F
100
AcDbEntity
  8
0
  6
Continuous
 62
     7
370
    25
100
AcDbCircle
 10
6462.1874518814
 20
4477.598440466
 30
0.0
 40
3.760978949325505
100
AcDbArc
 50
270.4768908768
 51
282.7697600676
  0
LINE
  5
308
330
1F
100
AcDbEntity
  8
0
  6
Continuous
 62
     8
370
    25
100
AcDbLine
 10
6197.4446434946
 20
4678.3227935257
 30
0.0
 11
6200.5928671776
 21
4678.3227935257
 31
0.0
  0
LINE
  5
309
330
1F
100
AcDbEntity
  8
0
  6
Continuous
 62
     8
370
    25
100
AcDbLine
 10
6347.4446434946
 20
4678.3227935257
 30
0.0
 11
6350.5928671776
 21
4678.3227935257
 31
0.0
  0
LINE
  5
30A
330
1F
100
AcDbEntity
  8
0
  6
Continuous
 62
     8
370
    25
100
AcDbLine
 10
6350.5928671776
 20
4484.5381764953
 30
0.0
 11
6347.4446434946
 21
4484.5381764953
 31
0.0
  0
LINE
  5
30B
330
1F
100
AcDbEntity
  8
0
  6
Continuous
 62
     8
370
    25
100
AcDbLine
 10
6200.5928671776
 20
4484.5381764953
 30
0.0
 11
6197.4446434946
 21
4484.5381764953
 31
0.0
  0
LINE
  5
30C
330
1F
100
AcDbEntity
  8
0
  6
Continuous
 62
     8
370
    25
100
AcDbLine
 10
6126.5735546086
 20
4473.9304850105
 30
0.0
 11
6462.2187553361
 21
4473.9304850105
 31
0.0
  0
LINE
  5
30D
330
1F
100
AcDbEntity
  8
0
  6
Continuous
 62
     8
370
    25
100
AcDbLine
 10
6085.8187553361
 20
4634.9304850105
 30
0.0
 11
6085.8187553361
 21
4687.1304850105
 31
0.0
  0
LINE
  5
30E
330
1F
100
AcDbEntity
  8
0
  6
Continuous
 62
     8
370
    25
100
AcDbLine
 10
6462.2187553361
 20
4473.9304850105
 30
0.0
 11
6462.2187553361
 21
4473.8375917917
 31
0.0
  0
ENDSEC
  0
SECTION
  2
OBJECTS
  0
DICTIONARY
  5
C
330
0
100
AcDbDictionary
281
     1
  3
ACAD_GROUP
350
D
  3
ACAD_LAYOUT
350
1A
  3
ACAD_MLINESTYLE
350
17
  3
ACAD_PLOTSETTINGS
350
19
  3
ACAD_PLOTSTYLENAME
350
E
  3
ACAD_SCALELIST
350
47
  3
DWGPROPS
350
30F
  0
DICTIONARY
  5
D
102
{ACAD_REACTORS
330
C
102
}
330
C
100
AcDbDictionary
281
     1
  0
DICTIONARY
  5
1A
102
{ACAD_REACTORS
330
C
102
}
330
C
100
AcDbDictionary
281
     1
  3
Layout1
350
1E
  3
Layout2
350
26
  3
Model
350
22
  0
DICTIONARY
  5
17
102
{ACAD_REACTORS
330
C
102
}
330
C
100
AcDbDictionary
281
     1
  3
Standard
350
18
  0
DICTIONARY
  5
19
102
{ACAD_REACTORS
330
C
102
}
330
C
100
AcDbDictionary
281
     1
  0
ACDBDICTIONARYWDFLT
  5
E
102
{ACAD_REACTORS
330
C
102
}
330
C
100
AcDbDictionary
281
     1
  3
Normal
350
F
100
AcDbDictionaryWithDefault
340
F
  0
DICTIONARY
  5
47
102
{ACAD_REACTORS
330
C
102
}
330
C
100
AcDbDictionary
281
     1
  3
A0
350
48
  3
A1
350
49
  3
A2
350
4A
  3
A3
350
4B
  3
A4
350
4C
  3
A5
350
4D
  3
A6
350
4E
  3
A7
350
4F
  3
A8
350
50
  3
A9
350
51
  3
B0
350
52
  3
B1
350
53
  3
B2
350
54
  3
B3
350
55
  3
B4
350
56
  3
B5
350
57
  3
B6
350
58
  3
B7
350
59
  3
B8
350
5A
  3
B9
350
5B
  3
C0
350
5C
  3
C1
350
5D
  3
C2
350
5E
  3
C3
350
5F
  3
C4
350
60
  3
C5
350
61
  3
C6
350
62
  3
C7
350
63
  3
C8
350
64
  3
C9
350
65
  3
D0
350
66
  3
D1
350
67
  3
D2
350
68
  0
XRECORD
  5
30F
102
{ACAD_REACTORS
330
C
102
}
330
C
100
AcDbXrecord
280
     1
  1
DWGPROPS COOKIE
  2

  3

  4

  6

  7

  8
radek.stransky
  9

300
=
301
=
302
=
303
=
304
=
305
=
306
=
307
=
308
=
309
=
 40
0.0
 41
2459110.352303056
 42
2459110.352303345
  1

 90
        0
  0
LAYOUT
  5
1E
102
{ACAD_REACTORS
330
1A
102
}
330
1A
100
AcDbPlotSettings
  1

  2
none_device
  4

  6

 40
0.0
 41
0.0
 42
0.0
 43
0.0
 44
0.0
 45
0.0
 46
0.0
 47
0.0
 48
0.0
 49
0.0
140
0.0
141
0.0
142
1.0
143
1.0
 70
   688
 72
     1
 73
     0
 74
     5
  7

 75
    16
147
1.0
148
0.0
149
0.0
100
AcDbLayout
  1
Layout1
 70
     1
 71
     1
 10
0.0
 20
0.0
 11
420.0
 21
297.0
 12
0.0
 22
0.0
 32
0.0
 14
1.0000000000E+20
 24
1.0000000000E+20
 34
1.0000000000E+20
 15
-1.0000000000E+20
 25
-1.0000000000E+20
 35
-1.0000000000E+20
146
0.0
 13
0.0
 23
0.0
 33
0.0
 16
1.0
 26
0.0
 36
0.0
 17
0.0
 27
1.0
 37
0.0
 76
     0
330
1B
  0
LAYOUT
  5
26
102
{ACAD_REACTORS
330
1A
102
}
330
1A
100
AcDbPlotSettings
  1

  2
none_device
  4

  6

 40
0.0
 41
0.0
 42
0.0
 43
0.0
 44
0.0
 45
0.0
 46
0.0
 47
0.0
 48
0.0
 49
0.0
140
0.0
141
0.0
142
1.0
143
1.0
 70
   688
 72
     1
 73
     0
 74
     5
  7

 75
    16
147
1.0
148
0.0
149
0.0
100
AcDbLayout
  1
Layout2
 70
     1
 71
     2
 10
0.0
 20
0.0
 11
0.0
 21
0.0
 12
0.0
 22
0.0
 32
0.0
 14
0.0
 24
0.0
 34
0.0
 15
0.0
 25
0.0
 35
0.0
146
0.0
 13
0.0
 23
0.0
 33
0.0
 16
1.0
 26
0.0
 36
0.0
 17
0.0
 27
1.0
 37
0.0
 76
     0
330
23
  0
LAYOUT
  5
22
102
{ACAD_REACTORS
330
1A
102
}
330
1A
100
AcDbPlotSettings
  1

  2
none_device
  4
Letter_(8.50_x_11.00_Inches)
  6

 40
6.35
 41
6.35
 42
6.35000508
 43
6.35000508
 44
215.9
 45
279.4
 46
0.0
 47
0.0
 48
0.0
 49
0.0
140
0.0
141
0.0
142
1.0
143
1.0
 70
  1712
 72
     1
 73
     0
 74
     0
  7

 75
     0
147
1.0
148
0.0
149
0.0
100
AcDbLayout
  1
Model
 70
     1
 71
     0
 10
0.0
 20
0.0
 11
20000.0
 21
10000.0
 12
0.0
 22
0.0
 32
0.0
 14
0.0
 24
0.0
 34
0.0
 15
20000.0
 25
10000.0
 35
0.0
146
0.0
 13
0.0
 23
0.0
 33
0.0
 16
1.0
 26
0.0
 36
0.0
 17
0.0
 27
1.0
 37
0.0
 76
     0
330
1F
331
29
  0
MLINESTYLE
  5
18
102
{ACAD_REACTORS
330
17
102
}
330
17
100
AcDbMlineStyle
  2
Standard
 70
     0
  3

 62
   256
 51
90.0
 52
90.0
 71
     2
 49
0.5
 62
   256
  6
BYLAYER
 49
-0.5
 62
   256
  6
BYLAYER
  0
ACDBPLACEHOLDER
  5
F
102
{ACAD_REACTORS
330
E
102
}
330
E
  0
SCALE
  5
48
102
{ACAD_REACTORS
330
47
102
}
330
47
100
AcDbScale
 70
     0
300
1:1
140
1.0
141
1.0
290
     1
  0
SCALE
  5
49
102
{ACAD_REACTORS
330
47
102
}
330
47
100
AcDbScale
 70
     0
300
1:2
140
1.0
141
2.0
290
     0
  0
SCALE
  5
4A
102
{ACAD_REACTORS
330
47
102
}
330
47
100
AcDbScale
 70
     0
300
1:4
140
1.0
141
4.0
290
     0
  0
SCALE
  5
4B
102
{ACAD_REACTORS
330
47
102
}
330
47
100
AcDbScale
 70
     0
300
1:5
140
1.0
141
5.0
290
     0
  0
SCALE
  5
4C
102
{ACAD_REACTORS
330
47
102
}
330
47
100
AcDbScale
 70
     0
300
1:8
140
1.0
141
8.0
290
     0
  0
SCALE
  5
4D
102
{ACAD_REACTORS
330
47
102
}
330
47
100
AcDbScale
 70
     0
300
1:10
140
1.0
141
10.0
290
     0
  0
SCALE
  5
4E
102
{ACAD_REACTORS
330
47
102
}
330
47
100
AcDbScale
 70
     0
300
1:16
140
1.0
141
16.0
290
     0
  0
SCALE
  5
4F
102
{ACAD_REACTORS
330
47
102
}
330
47
100
AcDbScale
 70
     0
300
1:20
140
1.0
141
20.0
290
     0
  0
SCALE
  5
50
102
{ACAD_REACTORS
330
47
102
}
330
47
100
AcDbScale
 70
     0
300
1:30
140
1.0
141
30.0
290
     0
  0
SCALE
  5
51
102
{ACAD_REACTORS
330
47
102
}
330
47
100
AcDbScale
 70
     0
300
1:40
140
1.0
141
40.0
290
     0
  0
SCALE
  5
52
102
{ACAD_REACTORS
330
47
102
}
330
47
100
AcDbScale
 70
     0
300
1:50
140
1.0
141
50.0
290
     0
  0
SCALE
  5
53
102
{ACAD_REACTORS
330
47
102
}
330
47
100
AcDbScale
 70
     0
300
1:100
140
1.0
141
100.0
290
     0
  0
SCALE
  5
54
102
{ACAD_REACTORS
330
47
102
}
330
47
100
AcDbScale
 70
     0
300
2:1
140
2.0
141
1.0
290
     0
  0
SCALE
  5
55
102
{ACAD_REACTORS
330
47
102
}
330
47
100
AcDbScale
 70
     0
300
4:1
140
4.0
141
1.0
290
     0
  0
SCALE
  5
56
102
{ACAD_REACTORS
330
47
102
}
330
47
100
AcDbScale
 70
     0
300
8:1
140
8.0
141
1.0
290
     0
  0
SCALE
  5
57
102
{ACAD_REACTORS
330
47
102
}
330
47
100
AcDbScale
 70
     0
300
10:1
140
10.0
141
1.0
290
     0
  0
SCALE
  5
58
102
{ACAD_REACTORS
330
47
102
}
330
47
100
AcDbScale
 70
     0
300
100:1
140
100.0
141
1.0
290
     0
  0
SCALE
  5
59
102
{ACAD_REACTORS
330
47
102
}
330
47
100
AcDbScale
 70
     0
300
1/128" = 1'-0"
140
0.0078125
141
12.0
290
     0
  0
SCALE
  5
5A
102
{ACAD_REACTORS
330
47
102
}
330
47
100
AcDbScale
 70
     0
300
1/64" = 1'-0"
140
0.015625
141
12.0
290
     0
  0
SCALE
  5
5B
102
{ACAD_REACTORS
330
47
102
}
330
47
100
AcDbScale
 70
     0
300
1/32" = 1'-0"
140
0.03125
141
12.0
290
     0
  0
SCALE
  5
5C
102
{ACAD_REACTORS
330
47
102
}
330
47
100
AcDbScale
 70
     0
300
1/16" = 1'-0"
140
0.0625
141
12.0
290
     0
  0
SCALE
  5
5D
102
{ACAD_REACTORS
330
47
102
}
330
47
100
AcDbScale
 70
     0
300
3/32" = 1'-0"
140
0.09375
141
12.0
290
     0
  0
SCALE
  5
5E
102
{ACAD_REACTORS
330
47
102
}
330
47
100
AcDbScale
 70
     0
300
1/8" = 1'-0"
140
0.125
141
12.0
290
     0
  0
SCALE
  5
5F
102
{ACAD_REACTORS
330
47
102
}
330
47
100
AcDbScale
 70
     0
300
3/16" = 1'-0"
140
0.1875
141
12.0
290
     0
  0
SCALE
  5
60
102
{ACAD_REACTORS
330
47
102
}
330
47
100
AcDbScale
 70
     0
300
1/4" = 1'-0"
140
0.25
141
12.0
290
     0
  0
SCALE
  5
61
102
{ACAD_REACTORS
330
47
102
}
330
47
100
AcDbScale
 70
     0
300
3/8" = 1'-0"
140
0.375
141
12.0
290
     0
  0
SCALE
  5
62
102
{ACAD_REACTORS
330
47
102
}
330
47
100
AcDbScale
 70
     0
300
1/2" = 1'-0"
140
0.5
141
12.0
290
     0
  0
SCALE
  5
63
102
{ACAD_REACTORS
330
47
102
}
330
47
100
AcDbScale
 70
     0
300
3/4" = 1'-0"
140
0.75
141
12.0
290
     0
  0
SCALE
  5
64
102
{ACAD_REACTORS
330
47
102
}
330
47
100
AcDbScale
 70
     0
300
1" = 1'-0"
140
1.0
141
12.0
290
     0
  0
SCALE
  5
65
102
{ACAD_REACTORS
330
47
102
}
330
47
100
AcDbScale
 70
     0
300
1-1/2" = 1'-0"
140
1.5
141
12.0
290
     0
  0
SCALE
  5
66
102
{ACAD_REACTORS
330
47
102
}
330
47
100
AcDbScale
 70
     0
300
3" = 1'-0"
140
3.0
141
12.0
290
     0
  0
SCALE
  5
67
102
{ACAD_REACTORS
330
47
102
}
330
47
100
AcDbScale
 70
     0
300
6" = 1'-0"
140
6.0
141
12.0
290
     0
  0
SCALE
  5
68
102
{ACAD_REACTORS
330
47
102
}
330
47
100
AcDbScale
 70
     0
300
1'-0" = 1'-0"
140
12.0
141
12.0
290
     0
  0
ENDSEC
  0
EOF
