  0
SECTION
  2
HEADER
  9
$ACADVER
  1
AC1015
  9
$ACADMAINTVER
 70
     6
  9
$DWGCODEPAGE
  3
ANSI_1250
  9
$INSBASE
 10
0.0
 20
0.0
 30
0.0
  9
$EXTMIN
 10
5867.2494639009
 20
4836.1463521314
 30
0.0
  9
$EXTMAX
 10
6336.2687544576
 20
5310.1745386869
 30
0.0
  9
$LIMMIN
 10
0.0
 20
0.0
  9
$LIMMAX
 10
420.0
 20
297.0
  9
$ORTHOMODE
 70
     0
  9
$REGENMODE
 70
     1
  9
$FILLMODE
 70
     1
  9
$QTEXTMODE
 70
     0
  9
$MIRRTEXT
 70
     1
  9
$LTSCALE
 40
1.0
  9
$ATTMODE
 70
     1
  9
$TEXTSIZE
 40
3.5
  9
$TRACEWID
 40
1.0
  9
$TEXTSTYLE
  7
Standard
  9
$CLAYER
  8
0
  9
$CELTYPE
  6
ByLayer
  9
$CECOLOR
 62
   256
  9
$CELTSCALE
 40
1.0
  9
$DISPSILH
 70
     0
  9
$DIMSCALE
 40
1.0
  9
$DIMASZ
 40
3.302
  9
$DIMEXO
 40
0.0
  9
$DIMDLI
 40
3.75
  9
$DIMRND
 40
0.0
  9
$DIMDLE
 40
0.0
  9
$DIMEXE
 40
1.0
  9
$DIMTP
 40
0.0
  9
$DIMTM
 40
0.0
  9
$DIMTXT
 40
3.5
  9
$DIMCEN
 40
2.5
  9
$DIMTSZ
 40
0.0
  9
$DIMTOL
 70
     0
  9
$DIMLIM
 70
     0
  9
$DIMTIH
 70
     1
  9
$DIMTOH
 70
     1
  9
$DIMSE1
 70
     0
  9
$DIMSE2
 70
     0
  9
$DIMTAD
 70
     1
  9
$DIMZIN
 70
     0
  9
$DIMBLK
  1

  9
$DIMASO
 70
     1
  9
$DIMSHO
 70
     1
  9
$DIMPOST
  1

  9
$DIMAPOST
  1

  9
$DIMALT
 70
     0
  9
$DIMALTD
 70
     3
  9
$DIMALTF
 40
0.0393700787
  9
$DIMLFAC
 40
1.0
  9
$DIMTOFL
 70
     1
  9
$DIMTVP
 40
0.0
  9
$DIMTIX
 70
     0
  9
$DIMSOXD
 70
     0
  9
$DIMSAH
 70
     0
  9
$DIMBLK1
  1

  9
$DIMBLK2
  1

  9
$DIMSTYLE
  2
ISO-25
  9
$DIMCLRD
 70
     0
  9
$DIMCLRE
 70
     0
  9
$DIMCLRT
 70
     0
  9
$DIMTFAC
 40
1.0
  9
$DIMGAP
 40
1.524
  9
$DIMJUST
 70
     0
  9
$DIMSD1
 70
     0
  9
$DIMSD2
 70
     0
  9
$DIMTOLJ
 70
     0
  9
$DIMTZIN
 70
     0
  9
$DIMALTZ
 70
     0
  9
$DIMALTTZ
 70
     0
  9
$DIMUPT
 70
     0
  9
$DIMDEC
 70
     2
  9
$DIMTDEC
 70
     2
  9
$DIMALTU
 70
     2
  9
$DIMALTTD
 70
     3
  9
$DIMTXSTY
  7
Standard
  9
$DIMAUNIT
 70
     0
  9
$DIMADEC
 70
     2
  9
$DIMALTRND
 40
0.0
  9
$DIMAZIN
 70
     0
  9
$DIMDSEP
 70
    44
  9
$DIMATFIT
 70
     3
  9
$DIMFRAC
 70
     0
  9
$DIMLDRBLK
  1

  9
$DIMLUNIT
 70
     2
  9
$DIMLWD
 70
    -2
  9
$DIMLWE
 70
    -2
  9
$DIMTMOVE
 70
     0
  9
$LUNITS
 70
     2
  9
$LUPREC
 70
     2
  9
$SKETCHINC
 40
1.0
  9
$FILLETRAD
 40
10.0
  9
$AUNITS
 70
     0
  9
$AUPREC
 70
     2
  9
$MENU
  1
.
  9
$ELEVATION
 40
0.0
  9
$PELEVATION
 40
0.0
  9
$THICKNESS
 40
0.0
  9
$LIMCHECK
 70
     0
  9
$CHAMFERA
 40
0.0
  9
$CHAMFERB
 40
0.0
  9
$CHAMFERC
 40
0.0
  9
$CHAMFERD
 40
0.0
  9
$SKPOLY
 70
     0
  9
$TDCREATE
 40
2459103.456979444
  9
$TDUCREATE
 40
2459103.373646111
  9
$TDUPDATE
 40
2459103.457024907
  9
$TDUUPDATE
 40
2459103.373691574
  9
$TDINDWG
 40
0.0000000116
  9
$TDUSRTIMER
 40
0.0000000116
  9
$USRTIMER
 70
     1
  9
$ANGBASE
 50
0.0
  9
$ANGDIR
 70
     0
  9
$PDMODE
 70
     0
  9
$PDSIZE
 40
-1.0
  9
$PLINEWID
 40
0.0
  9
$SPLFRAME
 70
     0
  9
$SPLINETYPE
 70
     6
  9
$SPLINESEGS
 70
     8
  9
$HANDSEED
  5
36E
  9
$SURFTAB1
 70
     6
  9
$SURFTAB2
 70
     6
  9
$SURFTYPE
 70
     6
  9
$SURFU
 70
     6
  9
$SURFV
 70
     6
  9
$UCSBASE
  2

  9
$UCSNAME
  2

  9
$UCSORG
 10
0.0
 20
0.0
 30
0.0
  9
$UCSXDIR
 10
1.0
 20
0.0
 30
0.0
  9
$UCSYDIR
 10
0.0
 20
1.0
 30
0.0
  9
$UCSORTHOREF
  2

  9
$UCSORTHOVIEW
 70
     0
  9
$UCSORGTOP
 10
0.0
 20
0.0
 30
0.0
  9
$UCSORGBOTTOM
 10
0.0
 20
0.0
 30
0.0
  9
$UCSORGLEFT
 10
0.0
 20
0.0
 30
0.0
  9
$UCSORGRIGHT
 10
0.0
 20
0.0
 30
0.0
  9
$UCSORGFRONT
 10
0.0
 20
0.0
 30
0.0
  9
$UCSORGBACK
 10
0.0
 20
0.0
 30
0.0
  9
$PUCSBASE
  2

  9
$PUCSNAME
  2

  9
$PUCSORG
 10
0.0
 20
0.0
 30
0.0
  9
$PUCSXDIR
 10
1.0
 20
0.0
 30
0.0
  9
$PUCSYDIR
 10
0.0
 20
1.0
 30
0.0
  9
$PUCSORTHOREF
  2

  9
$PUCSORTHOVIEW
 70
     0
  9
$PUCSORGTOP
 10
0.0
 20
0.0
 30
0.0
  9
$PUCSORGBOTTOM
 10
0.0
 20
0.0
 30
0.0
  9
$PUCSORGLEFT
 10
0.0
 20
0.0
 30
0.0
  9
$PUCSORGRIGHT
 10
0.0
 20
0.0
 30
0.0
  9
$PUCSORGFRONT
 10
0.0
 20
0.0
 30
0.0
  9
$PUCSORGBACK
 10
0.0
 20
0.0
 30
0.0
  9
$USERI1
 70
     0
  9
$USERI2
 70
     0
  9
$USERI3
 70
     0
  9
$USERI4
 70
     0
  9
$USERI5
 70
     0
  9
$USERR1
 40
0.0
  9
$USERR2
 40
0.0
  9
$USERR3
 40
0.0
  9
$USERR4
 40
0.0
  9
$USERR5
 40
0.0
  9
$WORLDVIEW
 70
     1
  9
$SHADEDGE
 70
     3
  9
$SHADEDIF
 70
    70
  9
$TILEMODE
 70
     1
  9
$MAXACTVP
 70
    64
  9
$PINSBASE
 10
0.0
 20
0.0
 30
0.0
  9
$PLIMCHECK
 70
     0
  9
$PEXTMIN
 10
1.0000000000E+20
 20
1.0000000000E+20
 30
1.0000000000E+20
  9
$PEXTMAX
 10
-1.0000000000E+20
 20
-1.0000000000E+20
 30
-1.0000000000E+20
  9
$PLIMMIN
 10
0.0
 20
0.0
  9
$PLIMMAX
 10
420.0
 20
297.0
  9
$UNITMODE
 70
     0
  9
$VISRETAIN
 70
     1
  9
$PLINEGEN
 70
     0
  9
$PSLTSCALE
 70
     1
  9
$TREEDEPTH
 70
  3020
  9
$CMLSTYLE
  2
Standard
  9
$CMLJUST
 70
     0
  9
$CMLSCALE
 40
20.0
  9
$PROXYGRAPHICS
 70
     1
  9
$MEASUREMENT
 70
     1
  9
$CELWEIGHT
370
    -1
  9
$ENDCAPS
280
     0
  9
$JOINSTYLE
280
     0
  9
$LWDISPLAY
290
     1
  9
$INSUNITS
 70
     4
  9
$HYPERLINKBASE
  1

  9
$STYLESHEET
  1

  9
$XEDIT
290
     1
  9
$CEPSNTYPE
380
     0
  9
$PSTYLEMODE
290
     1
  9
$FINGERPRINTGUID
  2
{99648825-7400-4653-8b06-533f6b0f76a1}
  9
$VERSIONGUID
  2
{FAEB1C32-E019-11D5-929B-00C0DF256EC4}
  9
$EXTNAMES
290
     1
  9
$PSVPSCALE
 40
0.0
  9
$OLESTARTUP
290
     0
  0
ENDSEC
  0
SECTION
  2
CLASSES
  0
CLASS
  1
ACDBDICTIONARYWDFLT
  2
AcDbDictionaryWithDefault
  3
ObjectDBX Classes
 90
        0
280
     0
281
     0
  0
CLASS
  1
VISUALSTYLE
  2
AcDbVisualStyle
  3
ObjectDBX Classes
 90
     4095
280
     0
281
     0
  0
CLASS
  1
MATERIAL
  2
AcDbMaterial
  3
ObjectDBX Classes
 90
     1153
280
     0
281
     0
  0
CLASS
  1
SCALE
  2
AcDbScale
  3
ObjectDBX Classes
 90
     1153
280
     0
281
     0
  0
CLASS
  1
TABLESTYLE
  2
AcDbTableStyle
  3
ObjectDBX Classes
 90
     4095
280
     0
281
     0
  0
CLASS
  1
MLEADERSTYLE
  2
AcDbMLeaderStyle
  3
ACDB_MLEADERSTYLE_CLASS
 90
     4095
280
     0
281
     0
  0
CLASS
  1
SUN
  2
AcDbSun
  3
SCENEOE
 90
     1153
280
     0
281
     0
  0
CLASS
  1
ACDBPLACEHOLDER
  2
AcDbPlaceHolder
  3
ObjectDBX Classes
 90
        0
280
     0
281
     0
  0
CLASS
  1
LAYOUT
  2
AcDbLayout
  3
ObjectDBX Classes
 90
        0
280
     0
281
     0
  0
ENDSEC
  0
SECTION
  2
TABLES
  0
TABLE
  2
VPORT
  5
8
330
0
100
AcDbSymbolTable
 70
     1
  0
VPORT
  5
29
330
8
100
AcDbSymbolTableRecord
100
AcDbViewportTableRecord
  2
*Active
 70
     0
 10
0.0
 20
0.0
 11
1.0
 21
1.0
 12
6101.7591091792
 22
5073.1604454092
 13
0.0
 23
0.0
 14
10.0
 24
10.0
 15
10.0
 25
10.0
 16
0.0
 26
0.0
 36
1.0
 17
0.0
 27
0.0
 37
0.0
 40
483.5087502866
 41
0.9894333372
 42
50.0
 43
0.0
 44
0.0
 50
0.0
 51
0.0
 71
     0
 72
   100
 73
     1
 74
     3
 75
     0
 76
     0
 77
     0
 78
     0
281
     0
 65
     1
110
0.0
120
0.0
130
0.0
111
1.0
121
0.0
131
0.0
112
0.0
122
1.0
132
0.0
 79
     0
146
0.0
  0
ENDTAB
  0
TABLE
  2
LTYPE
  5
5
330
0
100
AcDbSymbolTable
 70
     6
  0
LTYPE
  5
14
330
5
100
AcDbSymbolTableRecord
100
AcDbLinetypeTableRecord
  2
ByBlock
 70
     0
  3

 72
    65
 73
     0
 40
0.0
  0
LTYPE
  5
15
330
5
100
AcDbSymbolTableRecord
100
AcDbLinetypeTableRecord
  2
ByLayer
 70
     0
  3

 72
    65
 73
     0
 40
0.0
  0
LTYPE
  5
16
330
5
100
AcDbSymbolTableRecord
100
AcDbLinetypeTableRecord
  2
Continuous
 70
     0
  3
Solid line
 72
    65
 73
     0
 40
0.0
  0
LTYPE
  5
6E
330
5
100
AcDbSymbolTableRecord
100
AcDbLinetypeTableRecord
  2
HIDDEN
 70
     0
  3
Hidden __ __ __ __ __ __ __ __ __ __ __ __ __ __
 72
    65
 73
     2
 40
1.905
 49
1.27
 74
     0
 49
-0.635
 74
     0
  0
LTYPE
  5
6F
330
5
100
AcDbSymbolTableRecord
100
AcDbLinetypeTableRecord
  2
PHANTOM
 70
     0
  3
Phantom ______  __  __  ______  __  __  ______
 72
    65
 73
     6
 40
12.7
 49
6.35
 74
     0
 49
-1.27
 74
     0
 49
1.27
 74
     0
 49
-1.27
 74
     0
 49
1.27
 74
     0
 49
-1.27
 74
     0
  0
LTYPE
  5
70
330
5
100
AcDbSymbolTableRecord
100
AcDbLinetypeTableRecord
  2
CENTER
 70
     0
  3
Center ____ _ ____ _ ____ _ ____ _ ____ _ ____
 72
    65
 73
     4
 40
10.16
 49
6.35
 74
     0
 49
-1.27
 74
     0
 49
1.27
 74
     0
 49
-1.27
 74
     0
  0
LTYPE
  5
71
330
5
100
AcDbSymbolTableRecord
100
AcDbLinetypeTableRecord
  2
CENTERX2
 70
     0
  3
Center (2x) ________  __  ________  __  _____
 72
    65
 73
     4
 40
20.32
 49
12.7
 74
     0
 49
-2.54
 74
     0
 49
2.54
 74
     0
 49
-2.54
 74
     0
  0
LTYPE
  5
72
330
5
100
AcDbSymbolTableRecord
100
AcDbLinetypeTableRecord
  2
DOT2
 70
     0
  3
Dot (.5x) ........................................
 72
    65
 73
     2
 40
0.635
 49
0.0
 74
     0
 49
-0.635
 74
     0
  0
ENDTAB
  0
TABLE
  2
LAYER
  5
2
330
0
100
AcDbSymbolTable
 70
     1
  0
LAYER
  5
10
330
2
100
AcDbSymbolTableRecord
100
AcDbLayerTableRecord
  2
0
 70
     0
 62
     7
  6
Continuous
370
    -3
390
F
  0
ENDTAB
  0
TABLE
  2
STYLE
  5
3
330
0
100
AcDbSymbolTable
 70
     1
  0
STYLE
  5
11
330
3
100
AcDbSymbolTableRecord
100
AcDbTextStyleTableRecord
  2
Standard
 70
     0
 40
0.0
 41
1.0
 50
0.0
 71
     0
 42
3.5
  3
txt
  4

  0
ENDTAB
  0
TABLE
  2
VIEW
  5
6
330
0
100
AcDbSymbolTable
 70
     0
  0
ENDTAB
  0
TABLE
  2
UCS
  5
7
330
0
100
AcDbSymbolTable
 70
     0
  0
ENDTAB
  0
TABLE
  2
APPID
  5
9
330
0
100
AcDbSymbolTable
 70
     1
  0
APPID
  5
12
330
9
100
AcDbSymbolTableRecord
100
AcDbRegAppTableRecord
  2
ACAD
 70
     0
  0
ENDTAB
  0
TABLE
  2
DIMSTYLE
  5
A
330
0
100
AcDbSymbolTable
 70
     1
100
AcDbDimStyleTable
  0
DIMSTYLE
105
27
330
A
100
AcDbSymbolTableRecord
100
AcDbDimStyleTableRecord
  2
ISO-25
 70
     0
 41
2.5
 42
0.625
 43
3.75
 44
1.25
 73
     0
 74
     0
 77
     1
 78
     8
140
2.5
141
2.5
143
0.0393700787
147
0.625
171
     3
172
     1
178
     0
271
     2
272
     2
274
     3
278
    44
283
     0
284
     8
340
11
  0
ENDTAB
  0
TABLE
  2
BLOCK_RECORD
  5
1
330
0
100
AcDbSymbolTable
 70
     1
  0
BLOCK_RECORD
  5
1F
330
1
100
AcDbSymbolTableRecord
100
AcDbBlockTableRecord
  2
*Model_Space
340
22
  0
BLOCK_RECORD
  5
1B
330
1
100
AcDbSymbolTableRecord
100
AcDbBlockTableRecord
  2
*Paper_Space
340
1E
  0
BLOCK_RECORD
  5
23
330
1
100
AcDbSymbolTableRecord
100
AcDbBlockTableRecord
  2
*Paper_Space0
340
26
  0
ENDTAB
  0
ENDSEC
  0
SECTION
  2
BLOCKS
  0
BLOCK
  5
20
330
1F
100
AcDbEntity
  8
0
100
AcDbBlockBegin
  2
*Model_Space
 70
     0
 10
0.0
 20
0.0
 30
0.0
  3
*Model_Space
  1

  0
ENDBLK
  5
21
330
1F
100
AcDbEntity
  8
0
100
AcDbBlockEnd
  0
BLOCK
  5
1C
330
1B
100
AcDbEntity
 67
     1
  8
0
100
AcDbBlockBegin
  2
*Paper_Space
 70
     0
 10
0.0
 20
0.0
 30
0.0
  3
*Paper_Space
  1

  0
ENDBLK
  5
1D
330
1B
100
AcDbEntity
 67
     1
  8
0
100
AcDbBlockEnd
  0
BLOCK
  5
24
330
23
100
AcDbEntity
  8
0
100
AcDbBlockBegin
  2
*Paper_Space0
 70
     0
 10
0.0
 20
0.0
 30
0.0
  3
*Paper_Space0
  1

  0
ENDBLK
  5
25
330
23
100
AcDbEntity
  8
0
100
AcDbBlockEnd
  0
ENDSEC
  0
SECTION
  2
ENTITIES
  0
ARC
  5
73
330
1F
100
AcDbEntity
  8
0
  6
Continuous
 62
     7
100
AcDbCircle
 10
6295.468756207
 20
5157.4185196192
 30
0.0
 40
0.8000000000004267
100
AcDbArc
 50
180.0000973312
 51
269.9999026689
  0
ARC
  5
74
330
1F
100
AcDbEntity
  8
0
  6
Continuous
 62
     7
100
AcDbCircle
 10
6307.0687552041
 20
5157.4185196192
 30
0.0
 40
0.8000000000002963
100
AcDbArc
 50
270.0000306316
 51
359.9999026687
  0
ARC
  5
75
330
1F
100
AcDbEntity
  8
0
  6
Continuous
 62
     7
100
AcDbCircle
 10
6324.2687559924
 20
5150.1745368988
 30
0.0
 40
10.00000000000022
100
AcDbArc
 50
269.9999959446
 51
359.999988047
  0
ARC
  5
76
330
1F
100
AcDbEntity
  8
0
  6
Continuous
 62
     7
100
AcDbCircle
 10
6324.2687559924
 20
5300.1745386869
 30
0.0
 40
10.00000000000093
100
AcDbArc
 50
359.9999692643
 51
90.0000040554
  0
CIRCLE
  5
77
330
1F
100
AcDbEntity
  8
0
  6
Continuous
 62
     7
100
AcDbCircle
 10
5952.2494741579
 20
5212.1745357339
 30
0.0
 40
12.50000000000091
  0
CIRCLE
  5
78
330
1F
100
AcDbEntity
  8
0
  6
Continuous
 62
     7
100
AcDbCircle
 10
5952.2494741579
 20
5212.1745357339
 30
0.0
 40
14.00000000000091
  0
ARC
  5
79
330
1F
100
AcDbEntity
  8
0
  6
Continuous
 62
     7
100
AcDbCircle
 10
5950.0685159415
 20
5220.87487432
 30
0.0
 40
1.617047437670879
100
AcDbArc
 50
1.143011934
 51
181.1430119341
  0
ARC
  5
7A
330
1F
100
AcDbEntity
  8
0
  6
Continuous
 62
     7
100
AcDbCircle
 10
5946.7931506598
 20
5211.4815862371
 30
0.0
 40
2.569012885872416
100
AcDbArc
 50
45.2374613653
 51
106.6370736859
  0
ARC
  5
7B
330
1F
100
AcDbEntity
  8
0
  6
Continuous
 62
     7
100
AcDbCircle
 10
5952.48702661
 20
5208.6491392722
 30
0.0
 40
6.322526241460064
100
AcDbArc
 50
181.1430081228
 51
271.1429726018
  0
ARC
  5
7C
330
1F
100
AcDbEntity
  8
0
  6
Continuous
 62
     7
100
AcDbCircle
 10
5954.8890232637
 20
5206.9297749169
 30
0.0
 40
4.555589483126918
100
AcDbArc
 50
271.1429778569
 51
1.1430237892
  0
ARC
  5
7D
330
1F
100
AcDbEntity
  8
0
  6
Continuous
 62
     7
100
AcDbCircle
 10
5957.9340360989
 20
5214.8288685503
 30
0.0
 40
1.353611246209137
100
AcDbArc
 50
1.1426562323
 51
91.1420256158
  0
ARC
  5
7E
330
1F
100
AcDbEntity
  8
0
  6
Continuous
 62
     7
100
AcDbCircle
 10
5957.4399267426
 20
5214.819010129
 30
0.0
 40
1.353611246209659
100
AcDbArc
 50
91.1432131601
 51
119.8795729556
  0
ARC
  5
7F
330
1F
100
AcDbEntity
  8
0
  6
Continuous
 62
     7
100
AcDbCircle
 10
5955.4381392593
 20
5215.7278387318
 30
0.0
 40
1.353611246208296
100
AcDbArc
 50
11.2835188889
 51
91.1427816673
  0
ARC
  5
80
330
1F
100
AcDbEntity
  8
0
  6
Continuous
 62
     7
100
AcDbCircle
 10
5954.8589369156
 20
5215.7162825311
 30
0.0
 40
1.353611246207493
100
AcDbArc
 50
91.143026873
 51
125.8870070981
  0
ARC
  5
81
330
1F
100
AcDbEntity
  8
0
  6
Continuous
 62
     7
100
AcDbCircle
 10
5952.8659153058
 20
5216.1857732932
 30
0.0
 40
1.35361124620885
100
AcDbArc
 50
27.6022903616
 51
91.1427643353
  0
ARC
  5
82
330
1F
100
AcDbEntity
  8
0
  6
Continuous
 62
     7
100
AcDbCircle
 10
5952.4093878461
 20
5216.1766644811
 30
0.0
 40
1.35361124620815
100
AcDbArc
 50
91.1427396006
 51
118.8636887188
  0
ARC
  5
83
330
1F
100
AcDbEntity
  8
0
  6
Continuous
 62
     7
100
AcDbCircle
 10
5951.4763478488
 20
5213.2305966137
 30
0.0
 40
0.6676229094022266
100
AcDbArc
 50
181.1430117146
 51
1.1430117146
  0
ARC
  5
84
330
1F
100
AcDbEntity
  8
0
  6
Continuous
 62
     7
100
AcDbCircle
 10
5952.325219488
 20
5216.1891501544
 30
0.0
 40
0.2401101162875173
100
AcDbArc
 50
91.1425815134
 51
181.1429161535
  0
ARC
  5
85
330
1F
100
AcDbEntity
  8
0
  6
Continuous
 62
     7
100
AcDbCircle
 10
5952.9495092706
 20
5216.2016059436
 30
0.0
 40
0.2401101162884926
100
AcDbArc
 50
1.1430768047
 51
91.1403698031
  0
ARC
  5
86
330
1F
100
AcDbEntity
  8
0
  6
Continuous
 62
     7
100
AcDbCircle
 10
5953.9157349915
 20
5213.279267415
 30
0.0
 40
0.6676154603341778
100
AcDbArc
 50
181.1430244697
 51
1.1430244697
  0
ARC
  5
87
330
1F
100
AcDbEntity
  8
0
  6
Continuous
 62
     7
100
AcDbCircle
 10
5954.7747617627
 20
5215.7287685346
 30
0.0
 40
0.2401101162882776
100
AcDbArc
 50
91.1425792969
 51
181.1430272581
  0
ARC
  5
88
330
1F
100
AcDbEntity
  8
0
  6
Continuous
 62
     7
100
AcDbCircle
 10
5955.5217328148
 20
5215.7436718397
 30
0.0
 40
0.2401101162887673
100
AcDbArc
 50
1.1430768045
 51
91.1403698272
  0
ARC
  5
89
330
1F
100
AcDbEntity
  8
0
  6
Continuous
 62
     7
100
AcDbCircle
 10
5956.4777959436
 20
5213.3303860813
 30
0.0
 40
0.6676154602850567
100
AcDbArc
 50
181.1430244698
 51
1.1430244698
  0
ARC
  5
8A
330
1F
100
AcDbEntity
  8
0
  6
Continuous
 62
     7
100
AcDbCircle
 10
5957.3551213395
 20
5214.863719172
 30
0.0
 40
0.2401101162885825
100
AcDbArc
 50
91.1461354422
 51
181.1430427072
  0
ARC
  5
8B
330
1F
100
AcDbEntity
  8
0
  6
Continuous
 62
     7
100
AcDbCircle
 10
5954.8890232637
 20
5206.9297749169
 30
0.0
 40
3.525996968946212
100
AcDbArc
 50
271.143043719
 51
1.1430295244
  0
ARC
  5
8C
330
1F
100
AcDbEntity
  8
0
  6
Continuous
 62
     7
100
AcDbCircle
 10
5952.48702661
 20
5208.6491392722
 30
0.0
 40
5.292934658392652
100
AcDbArc
 50
181.1430225805
 51
271.1430152539
  0
ARC
  5
8D
330
1F
100
AcDbEntity
  8
0
  6
Continuous
 62
     7
100
AcDbCircle
 10
5946.7931506598
 20
5211.4815862371
 30
0.0
 40
1.539410673768255
100
AcDbArc
 50
1.1430661503
 51
78.2570515265
  0
ARC
  5
8E
330
1F
100
AcDbEntity
  8
0
  6
Continuous
 62
     7
100
AcDbCircle
 10
5949.0387264937
 20
5209.5715816161
 30
0.0
 40
0.6676229105631737
100
AcDbArc
 50
181.1430167083
 51
1.1430167084
  0
ARC
  5
8F
330
1F
100
AcDbEntity
  8
0
  6
Continuous
 62
     7
100
AcDbCircle
 10
5950.0685159415
 20
5220.87487432
 30
0.0
 40
0.5874387099003272
100
AcDbArc
 50
1.1430255702
 51
181.1430255703
  0
ARC
  5
90
330
1F
100
AcDbEntity
  8
0
  6
Continuous
 62
     7
100
AcDbCircle
 10
5958.0170041417
 20
5214.8769250247
 30
0.0
 40
0.240110116288217
100
AcDbArc
 50
1.1409827328
 51
91.1397443239
  0
ARC
  5
91
330
1F
100
AcDbEntity
  8
0
  6
Continuous
 62
     7
100
AcDbCircle
 10
6027.2494731397
 20
5150.1745368988
 30
0.0
 40
10.00000000000022
100
AcDbArc
 50
270.0000119525
 51
359.999988047
  0
ARC
  5
92
330
1F
100
AcDbEntity
  8
0
  6
Continuous
 62
     7
100
AcDbCircle
 10
6027.2494731397
 20
5300.1745386869
 30
0.0
 40
10.00000000000022
100
AcDbArc
 50
359.9999692643
 51
89.9999880475
  0
ARC
  5
93
330
1F
100
AcDbEntity
  8
0
  6
Continuous
 62
     7
100
AcDbCircle
 10
5877.2494639009
 20
5150.1745368988
 30
0.0
 40
10.00000000000022
100
AcDbArc
 50
180.000011953
 51
270.0000307363
  0
ARC
  5
94
330
1F
100
AcDbEntity
  8
0
  6
Continuous
 62
     7
100
AcDbCircle
 10
5877.2494639009
 20
5300.1745386869
 30
0.0
 40
10.00000000000053
100
AcDbArc
 50
89.9999692637
 51
180.0000307358
  0
ARC
  5
95
330
1F
100
AcDbEntity
  8
0
  6
Continuous
 62
     7
100
AcDbCircle
 10
5877.2494639009
 20
4848.1463505966
 30
0.0
 40
10.00000000000002
100
AcDbArc
 50
179.9999959446
 51
270.0000307363
  0
ARC
  5
96
330
1F
100
AcDbEntity
  8
0
  6
Continuous
 62
     7
100
AcDbCircle
 10
6027.2494731397
 20
4848.1463505966
 30
0.0
 40
10.00000000000113
100
AcDbArc
 50
270.0000119525
 51
0.0000040554
  0
CIRCLE
  5
97
330
1F
100
AcDbEntity
  8
0
  6
Continuous
 62
     7
100
AcDbCircle
 10
5952.4061506179
 20
4895.1463517536
 30
0.0
 40
7.25000000000025
  0
CIRCLE
  5
98
330
1F
100
AcDbEntity
  8
0
  6
Continuous
 62
     7
100
AcDbCircle
 10
5952.4061506179
 20
4895.1463517536
 30
0.0
 40
6.249999999999074
  0
CIRCLE
  5
99
330
1F
100
AcDbEntity
  8
0
  6
Continuous
 62
     7
100
AcDbCircle
 10
5952.4061506179
 20
4895.1463517536
 30
0.0
 40
3.650000000000182
  0
ARC
  5
9A
330
1F
100
AcDbEntity
  8
0
  6
Continuous
 62
     7
100
AcDbCircle
 10
5952.4061506179
 20
4895.1463517536
 30
0.0
 40
13.22050065382223
100
AcDbArc
 50
77.7829904725
 51
167.7830190155
  0
CIRCLE
  5
9B
330
1F
100
AcDbEntity
  8
0
  6
Continuous
 62
     7
100
AcDbCircle
 10
5952.4061506179
 20
4895.1463517536
 30
0.0
 40
11.72049999999941
  0
CIRCLE
  5
9C
330
1F
100
AcDbEntity
  8
0
  6
Continuous
 62
     7
100
AcDbCircle
 10
5952.4061506179
 20
4895.1463517536
 30
0.0
 40
7.624999999999557
  0
LINE
  5
9D
330
1F
100
AcDbEntity
  8
0
  6
Continuous
 62
     7
100
AcDbLine
 10
6334.2687559924
 20
5198.1745361612
 30
0.0
 11
6334.768755143
 21
5198.1745361612
 31
0.0
  0
LINE
  5
9E
330
1F
100
AcDbEntity
  8
0
  6
Continuous
 62
     7
100
AcDbLine
 10
6334.768755143
 20
5226.1745360941
 30
0.0
 11
6334.2687559924
 21
5226.1745360941
 31
0.0
  0
LINE
  5
9F
330
1F
100
AcDbEntity
  8
0
  6
Continuous
 62
     7
100
AcDbLine
 10
6334.768755143
 20
5198.1745361612
 30
0.0
 11
6336.2687544576
 21
5199.6745354757
 31
0.0
  0
LINE
  5
A0
330
1F
100
AcDbEntity
  8
0
  6
Continuous
 62
     7
100
AcDbLine
 10
6336.2687544576
 20
5224.6745358484
 30
0.0
 11
6334.768755143
 21
5226.1745360941
 31
0.0
  0
LINE
  5
A1
330
1F
100
AcDbEntity
  8
0
  6
Continuous
 62
     7
100
AcDbLine
 10
6251.7687527141
 20
5158.318518594
 30
0.0
 11
6321.3687555543
 21
5158.318518594
 31
0.0
  0
LINE
  5
A2
330
1F
100
AcDbEntity
  8
0
  6
Continuous
 62
     7
100
AcDbLine
 10
6321.3687555543
 20
5289.3185158522
 30
0.0
 11
6251.7687527141
 21
5289.3185158522
 31
0.0
  0
LINE
  5
A3
330
1F
100
AcDbEntity
  8
0
  6
Continuous
 62
     7
100
AcDbLine
 10
6334.2750051669
 20
5165.5761626811
 30
0.0
 11
6334.2687559924
 21
5165.5761626811
 31
0.0
  0
LINE
  5
A4
330
1F
100
AcDbEntity
  8
0
  6
Continuous
 62
     7
100
AcDbLine
 10
6334.2687559924
 20
5165.6696749181
 30
0.0
 11
6334.2750051669
 21
5165.6696749181
 31
0.0
  0
LINE
  5
A5
330
1F
100
AcDbEntity
  8
0
  6
Continuous
 62
     7
100
AcDbLine
 10
6334.2687559924
 20
5160.3800867946
 30
0.0
 11
6334.2750051669
 21
5160.3800867946
 31
0.0
  0
LINE
  5
A6
330
1F
100
AcDbEntity
  8
0
  6
Continuous
 62
     7
100
AcDbLine
 10
6321.3549421779
 20
5160.343545422
 30
0.0
 11
6321.4137947797
 21
5160.2426049561
 31
0.0
  0
LINE
  5
A7
330
1F
100
AcDbEntity
  8
0
  6
Continuous
 62
     7
100
AcDbLine
 10
6321.5266994811
 20
5286.8573283107
 30
0.0
 11
6321.3687555543
 21
5287.1273149998
 31
0.0
  0
LINE
  5
A8
330
1F
100
AcDbEntity
  8
0
  6
Continuous
 62
     7
100
AcDbLine
 10
6321.3549421779
 20
5283.3435450942
 30
0.0
 11
6321.4137947797
 21
5283.2426046283
 31
0.0
  0
LINE
  5
A9
330
1F
100
AcDbEntity
  8
0
  6
Continuous
 62
     7
100
AcDbLine
 10
6294.668756207
 20
5158.318518594
 30
0.0
 11
6294.668756207
 21
5157.4185182602
 31
0.0
  0
LINE
  5
AA
330
1F
100
AcDbEntity
  8
0
  6
Continuous
 62
     7
100
AcDbLine
 10
6307.8687552041
 20
5157.4185182602
 30
0.0
 11
6307.8687552041
 21
5158.318518594
 31
0.0
  0
LINE
  5
AB
330
1F
100
AcDbEntity
  8
0
  6
Continuous
 62
     7
100
AcDbLine
 10
6290.1815062067
 20
5307.6262687594
 30
0.0
 11
6288.9892549864
 21
5308.8185181171
 31
0.0
  0
LINE
  5
AC
330
1F
100
AcDbEntity
  8
0
  6
Continuous
 62
     7
100
AcDbLine
 10
6264.1921376488
 20
5307.4624006898
 30
0.0
 11
6264.0482557616
 21
5307.3185150773
 31
0.0
  0
LINE
  5
AD
330
1F
100
AcDbEntity
  8
0
  6
Continuous
 62
     7
100
AcDbLine
 10
6265.5482550762
 20
5308.8185181171
 30
0.0
 11
6264.852095177
 21
5308.1223582178
 31
0.0
  0
LINE
  5
AE
330
1F
100
AcDbEntity
  8
0
  6
Continuous
 62
     7
100
AcDbLine
 10
6290.4892561636
 20
5306.1829944403
 30
0.0
 11
6290.4892561636
 21
5306.5796782524
 31
0.0
  0
LINE
  5
AF
330
1F
100
AcDbEntity
  8
0
  6
Continuous
 62
     7
100
AcDbLine
 10
6290.4892561636
 20
5304.5954917819
 30
0.0
 11
6290.4892561636
 21
5304.9921830446
 31
0.0
  0
LINE
  5
B0
330
1F
100
AcDbEntity
  8
0
  6
Continuous
 62
     7
100
AcDbLine
 10
6290.4892561636
 20
5303.0079891235
 30
0.0
 11
6290.4892561636
 21
5303.4046803863
 31
0.0
  0
LINE
  5
B1
330
1F
100
AcDbEntity
  8
0
  6
Continuous
 62
     7
100
AcDbLine
 10
6290.4892561636
 20
5301.4204939157
 30
0.0
 11
6290.4892561636
 21
5301.8171777279
 31
0.0
  0
LINE
  5
B2
330
1F
100
AcDbEntity
  8
0
  6
Continuous
 62
     7
100
AcDbLine
 10
6290.4892561636
 20
5299.8185222299
 30
0.0
 11
6290.4892561636
 21
5300.2296825201
 31
0.0
  0
LINE
  5
B3
330
1F
100
AcDbEntity
  8
0
  6
Continuous
 62
     7
100
AcDbLine
 10
6264.0482557616
 20
5301.0235865862
 30
0.0
 11
6264.0482557616
 21
5300.626709059
 31
0.0
  0
LINE
  5
B4
330
1F
100
AcDbEntity
  8
0
  6
Continuous
 62
     7
100
AcDbLine
 10
6264.0482557616
 20
5302.6110892446
 30
0.0
 11
6264.0482557616
 21
5302.2142117173
 31
0.0
  0
LINE
  5
B5
330
1F
100
AcDbEntity
  8
0
  6
Continuous
 62
     7
100
AcDbLine
 10
6264.0482557616
 20
5304.1985844523
 30
0.0
 11
6264.0482557616
 21
5303.8017069251
 31
0.0
  0
LINE
  5
B6
330
1F
100
AcDbEntity
  8
0
  6
Continuous
 62
     7
100
AcDbLine
 10
6264.0482557616
 20
5305.7860871107
 30
0.0
 11
6264.0482557616
 21
5305.3892095835
 31
0.0
  0
LINE
  5
B7
330
1F
100
AcDbEntity
  8
0
  6
Continuous
 62
     7
100
AcDbLine
 10
6264.0482557616
 20
5307.3185150773
 30
0.0
 11
6264.0482557616
 21
5306.9767122418
 31
0.0
  0
LINE
  5
B8
330
1F
100
AcDbEntity
  8
0
  6
Continuous
 62
     7
100
AcDbLine
 10
6264.9153580568
 20
5299.9413897545
 30
0.0
 11
6264.7254055045
 21
5299.8316501529
 31
0.0
  0
LINE
  5
B9
330
1F
100
AcDbEntity
  8
0
  6
Continuous
 62
     7
100
AcDbLine
 10
6264.9075386724
 20
5306.4812188298
 30
0.0
 11
6264.9075386724
 21
5306.286870435
 31
0.0
  0
LINE
  5
BA
330
1F
100
AcDbEntity
  8
0
  6
Continuous
 62
     7
100
AcDbLine
 10
6264.9075386724
 20
5304.893723622
 30
0.0
 11
6264.9075386724
 21
5304.6993752272
 31
0.0
  0
LINE
  5
BB
330
1F
100
AcDbEntity
  8
0
  6
Continuous
 62
     7
100
AcDbLine
 10
6264.9075386724
 20
5303.3062209637
 30
0.0
 11
6264.9075386724
 21
5303.1118725688
 31
0.0
  0
LINE
  5
BC
330
1F
100
AcDbEntity
  8
0
  6
Continuous
 62
     7
100
AcDbLine
 10
6264.9075386724
 20
5301.7187183053
 30
0.0
 11
6264.9075386724
 21
5301.5243699104
 31
0.0
  0
LINE
  5
BD
330
1F
100
AcDbEntity
  8
0
  6
Continuous
 62
     7
100
AcDbLine
 10
6264.9075386724
 20
5300.1312230975
 30
0.0
 11
6264.9075386724
 21
5299.9368747026
 31
0.0
  0
LINE
  5
BE
330
1F
100
AcDbEntity
  8
0
  6
Continuous
 62
     7
100
AcDbLine
 10
6289.6299713901
 20
5305.4890324623
 30
0.0
 11
6289.6299713901
 21
5305.682300523
 31
0.0
  0
LINE
  5
BF
330
1F
100
AcDbEntity
  8
0
  6
Continuous
 62
     7
100
AcDbLine
 10
6289.6299713901
 20
5303.9015298039
 30
0.0
 11
6289.6299713901
 21
5304.0947978646
 31
0.0
  0
LINE
  5
C0
330
1F
100
AcDbEntity
  8
0
  6
Continuous
 62
     7
100
AcDbLine
 10
6289.6299713901
 20
5302.3140345962
 30
0.0
 11
6289.6299713901
 21
5302.5072952063
 31
0.0
  0
LINE
  5
C1
330
1F
100
AcDbEntity
  8
0
  6
Continuous
 62
     7
100
AcDbLine
 10
6289.6299713901
 20
5300.7265319378
 30
0.0
 11
6289.6299713901
 21
5300.9197999985
 31
0.0
  0
LINE
  5
C2
330
1F
100
AcDbEntity
  8
0
  6
Continuous
 62
     7
100
AcDbLine
 10
6289.6299713901
 20
5307.0765351207
 30
0.0
 11
6289.6299713901
 21
5307.2697957308
 31
0.0
  0
LINE
  5
C3
330
1F
100
AcDbEntity
  8
0
  6
Continuous
 62
     7
100
AcDbLine
 10
6264.9075386724
 20
5308.0687214882
 30
0.0
 11
6264.9075386724
 21
5307.8743730933
 31
0.0
  0
LINE
  5
C4
330
1F
100
AcDbEntity
  8
0
  6
Continuous
 62
     7
100
AcDbLine
 10
6264.6478635869
 20
5139.7189115436
 30
0.0
 11
6265.5482550762
 21
5138.818516329
 31
0.0
  0
LINE
  5
C5
330
1F
100
AcDbEntity
  8
0
  6
Continuous
 62
     7
100
AcDbLine
 10
6288.9891972444
 20
5138.818516329
 30
0.0
 11
6290.4044927708
 21
5140.2337541134
 31
0.0
  0
LINE
  5
C6
330
1F
100
AcDbEntity
  8
0
  6
Continuous
 62
     7
100
AcDbLine
 10
6264.9144304595
 20
5139.9109428079
 30
0.0
 11
6264.6514212391
 21
5139.7590105683
 31
0.0
  0
LINE
  5
C7
330
1F
100
AcDbEntity
  8
0
  6
Continuous
 62
     7
100
AcDbLine
 10
6264.0482557616
 20
5140.9941603691
 30
0.0
 11
6264.0482557616
 21
5140.5974616558
 31
0.0
  0
LINE
  5
C8
330
1F
100
AcDbEntity
  8
0
  6
Continuous
 62
     7
100
AcDbLine
 10
6264.0482557616
 20
5142.5816630275
 30
0.0
 11
6264.0482557616
 21
5142.1849643142
 31
0.0
  0
LINE
  5
C9
330
1F
100
AcDbEntity
  8
0
  6
Continuous
 62
     7
100
AcDbLine
 10
6264.0482557616
 20
5144.1691656858
 30
0.0
 11
6264.0482557616
 21
5143.772459522
 31
0.0
  0
LINE
  5
CA
330
1F
100
AcDbEntity
  8
0
  6
Continuous
 62
     7
100
AcDbLine
 10
6264.0482557616
 20
5145.7566608936
 30
0.0
 11
6264.0482557616
 21
5145.3599621803
 31
0.0
  0
LINE
  5
CB
330
1F
100
AcDbEntity
  8
0
  6
Continuous
 62
     7
100
AcDbLine
 10
6264.0482557616
 20
5147.344163552
 30
0.0
 11
6264.0482557616
 21
5146.9474648387
 31
0.0
  0
LINE
  5
CC
330
1F
100
AcDbEntity
  8
0
  6
Continuous
 62
     7
100
AcDbLine
 10
6290.4892561636
 20
5147.7410410792
 30
0.0
 11
6290.4892561636
 21
5147.8185196669
 31
0.0
  0
LINE
  5
CD
330
1F
100
AcDbEntity
  8
0
  6
Continuous
 62
     7
100
AcDbLine
 10
6290.4892561636
 20
5146.1535384209
 30
0.0
 11
6290.4892561636
 21
5146.5506767184
 31
0.0
  0
LINE
  5
CE
330
1F
100
AcDbEntity
  8
0
  6
Continuous
 62
     7
100
AcDbLine
 10
6290.4892561636
 20
5144.5660357625
 30
0.0
 11
6290.4892561636
 21
5144.9631740601
 31
0.0
  0
LINE
  5
CF
330
1F
100
AcDbEntity
  8
0
  6
Continuous
 62
     7
100
AcDbLine
 10
6290.4892561636
 20
5142.9785405547
 30
0.0
 11
6290.4892561636
 21
5143.3756788523
 31
0.0
  0
LINE
  5
D0
330
1F
100
AcDbEntity
  8
0
  6
Continuous
 62
     7
100
AcDbLine
 10
6290.4892561636
 20
5141.3910378963
 30
0.0
 11
6290.4892561636
 21
5141.7881761939
 31
0.0
  0
LINE
  5
D1
330
1F
100
AcDbEntity
  8
0
  6
Continuous
 62
     7
100
AcDbLine
 10
6289.6299937419
 20
5142.2839899809
 30
0.0
 11
6289.6299937419
 21
5142.4784873874
 31
0.0
  0
LINE
  5
D2
330
1F
100
AcDbEntity
  8
0
  6
Continuous
 62
     7
100
AcDbLine
 10
6289.6299937419
 20
5143.8714926393
 30
0.0
 11
6289.6299937419
 21
5144.0659900457
 31
0.0
  0
LINE
  5
D3
330
1F
100
AcDbEntity
  8
0
  6
Continuous
 62
     7
100
AcDbLine
 10
6289.6299937419
 20
5145.4589952976
 30
0.0
 11
6289.6299937419
 21
5145.6534927041
 31
0.0
  0
LINE
  5
D4
330
1F
100
AcDbEntity
  8
0
  6
Continuous
 62
     7
100
AcDbLine
 10
6289.6299937419
 20
5147.0464905054
 30
0.0
 11
6289.6299937419
 21
5147.2409879119
 31
0.0
  0
LINE
  5
D5
330
1F
100
AcDbEntity
  8
0
  6
Continuous
 62
     7
100
AcDbLine
 10
6264.9075163207
 20
5141.6888003499
 30
0.0
 11
6264.9075163207
 21
5141.494451955
 31
0.0
  0
LINE
  5
D6
330
1F
100
AcDbEntity
  8
0
  6
Continuous
 62
     7
100
AcDbLine
 10
6264.9075163207
 20
5143.2762955577
 30
0.0
 11
6264.9075163207
 21
5143.0819471628
 31
0.0
  0
LINE
  5
D7
330
1F
100
AcDbEntity
  8
0
  6
Continuous
 62
     7
100
AcDbLine
 10
6264.9075163207
 20
5144.8637982161
 30
0.0
 11
6264.9075163207
 21
5144.6694498212
 31
0.0
  0
LINE
  5
D8
330
1F
100
AcDbEntity
  8
0
  6
Continuous
 62
     7
100
AcDbLine
 10
6264.9075163207
 20
5146.4513008744
 30
0.0
 11
6264.9075163207
 21
5146.2569524796
 31
0.0
  0
LINE
  5
D9
330
1F
100
AcDbEntity
  8
0
  6
Continuous
 62
     7
100
AcDbLine
 10
6264.9075163207
 20
5140.1012976915
 30
0.0
 11
6264.9075163207
 21
5139.9069492967
 31
0.0
  0
LINE
  5
DA
330
1F
100
AcDbEntity
  8
0
  6
Continuous
 62
     7
100
AcDbLine
 10
6289.6299937419
 20
5140.6964947731
 30
0.0
 11
6289.6299937419
 21
5140.8909921796
 31
0.0
  0
LINE
  5
DB
330
1F
100
AcDbEntity
  8
0
  6
Continuous
 62
     7
100
AcDbLine
 10
6334.768755143
 20
5198.1745361612
 30
0.0
 11
6334.768755143
 21
5226.1745360941
 31
0.0
  0
LINE
  5
DC
330
1F
100
AcDbEntity
  8
0
  6
Continuous
 62
     7
100
AcDbLine
 10
6336.2687544576
 20
5224.6745358484
 30
0.0
 11
6336.2687544576
 21
5199.6745354757
 31
0.0
  0
LINE
  5
DD
330
1F
100
AcDbEntity
  8
0
  6
Continuous
 62
     7
100
AcDbLine
 10
6321.3687555543
 20
5153.818516925
 30
0.0
 11
6324.2687552846
 21
5153.818516925
 31
0.0
  0
LINE
  5
DE
330
1F
100
AcDbEntity
  8
0
  6
Continuous
 62
     7
100
AcDbLine
 10
6321.3687555543
 20
5172.9410578758
 30
0.0
 11
6324.2687552846
 21
5172.9410578758
 31
0.0
  0
LINE
  5
DF
330
1F
100
AcDbEntity
  8
0
  6
Continuous
 62
     7
100
AcDbLine
 10
6321.3687555543
 20
5153.818516925
 30
0.0
 11
6321.3687555543
 21
5172.9410578758
 31
0.0
  0
LINE
  5
E0
330
1F
100
AcDbEntity
  8
0
  6
Continuous
 62
     7
100
AcDbLine
 10
6321.3687555543
 20
5274.6959765703
 30
0.0
 11
6324.2687552846
 21
5274.6959765703
 31
0.0
  0
LINE
  5
E1
330
1F
100
AcDbEntity
  8
0
  6
Continuous
 62
     7
100
AcDbLine
 10
6321.3687555543
 20
5274.6959765703
 30
0.0
 11
6321.3687555543
 21
5172.9410578758
 31
0.0
  0
LINE
  5
E2
330
1F
100
AcDbEntity
  8
0
  6
Continuous
 62
     7
100
AcDbLine
 10
6321.3687555543
 20
5293.8185175211
 30
0.0
 11
6324.2687552846
 21
5293.8185175211
 31
0.0
  0
LINE
  5
E3
330
1F
100
AcDbEntity
  8
0
  6
Continuous
 62
     7
100
AcDbLine
 10
6321.3687555543
 20
5293.8185175211
 30
0.0
 11
6321.3687555543
 21
5274.6959765703
 31
0.0
  0
LINE
  5
E4
330
1F
100
AcDbEntity
  8
0
  6
Continuous
 62
     7
100
AcDbLine
 10
6251.7687527141
 20
5165.1469459087
 30
0.0
 11
6251.7687527141
 21
5158.318518594
 31
0.0
  0
LINE
  5
E5
330
1F
100
AcDbEntity
  8
0
  6
Continuous
 62
     7
100
AcDbLine
 10
6321.3687555543
 20
5165.1469459087
 30
0.0
 11
6251.7687527141
 21
5165.1469459087
 31
0.0
  0
LINE
  5
E6
330
1F
100
AcDbEntity
  8
0
  6
Continuous
 62
     7
100
AcDbLine
 10
6321.3687555543
 20
5278.247452274
 30
0.0
 11
6251.7687527141
 21
5278.247452274
 31
0.0
  0
LINE
  5
E7
330
1F
100
AcDbEntity
  8
0
  6
Continuous
 62
     7
100
AcDbLine
 10
6321.3687555543
 20
5272.8332382888
 30
0.0
 11
6251.7687527141
 21
5272.8332382888
 31
0.0
  0
LINE
  5
E8
330
1F
100
AcDbEntity
  8
0
  6
Continuous
 62
     7
100
AcDbLine
 10
6251.7687527141
 20
5272.8332382888
 30
0.0
 11
6251.7687527141
 21
5278.247452274
 31
0.0
  0
LINE
  5
E9
330
1F
100
AcDbEntity
  8
0
  6
Continuous
 62
     7
100
AcDbLine
 10
6321.3687555543
 20
5169.3895858974
 30
0.0
 11
6251.7687527141
 21
5169.3895858974
 31
0.0
  0
LINE
  5
EA
330
1F
100
AcDbEntity
  8
0
  6
Continuous
 62
     7
100
AcDbLine
 10
6321.3687555543
 20
5174.8037998826
 30
0.0
 11
6251.7687527141
 21
5174.8037998826
 31
0.0
  0
LINE
  5
EB
330
1F
100
AcDbEntity
  8
0
  6
Continuous
 62
     7
100
AcDbLine
 10
6251.7687527141
 20
5174.8037998826
 30
0.0
 11
6251.7687527141
 21
5169.3895858974
 31
0.0
  0
LINE
  5
EC
330
1F
100
AcDbEntity
  8
0
  6
Continuous
 62
     7
100
AcDbLine
 10
6321.3687555543
 20
5282.4900885374
 30
0.0
 11
6251.7687527141
 21
5282.4900885374
 31
0.0
  0
LINE
  5
ED
330
1F
100
AcDbEntity
  8
0
  6
Continuous
 62
     7
100
AcDbLine
 10
6251.7687527141
 20
5282.4900885374
 30
0.0
 11
6251.7687527141
 21
5289.3185158522
 31
0.0
  0
LINE
  5
EE
330
1F
100
AcDbEntity
  8
0
  6
Continuous
 62
     7
100
AcDbLine
 10
6251.7687527141
 20
5174.8037998826
 30
0.0
 11
6251.7687527141
 21
5272.8332382888
 31
0.0
  0
LINE
  5
EF
330
1F
100
AcDbEntity
  8
0
  6
Continuous
 62
     7
100
AcDbLine
 10
6251.7687527141
 20
5278.247452274
 30
0.0
 11
6251.7687527141
 21
5282.4900885374
 31
0.0
  0
LINE
  5
F0
330
1F
100
AcDbEntity
  8
0
  6
Continuous
 62
     7
100
AcDbLine
 10
6251.7687527141
 20
5169.3895858974
 30
0.0
 11
6251.7687527141
 21
5165.1469459087
 31
0.0
  0
LINE
  5
F1
330
1F
100
AcDbEntity
  8
0
  6
Continuous
 62
     7
100
AcDbLine
 10
6321.3687555543
 20
5158.318518594
 30
0.0
 11
6251.7687527141
 21
5158.318518594
 31
0.0
  0
LINE
  5
F2
330
1F
100
AcDbEntity
  8
0
  6
Continuous
 62
     7
100
AcDbLine
 10
6321.3687555543
 20
5289.3185158522
 30
0.0
 11
6251.7687527141
 21
5289.3185158522
 31
0.0
  0
LINE
  5
F3
330
1F
100
AcDbEntity
  8
0
  6
Continuous
 62
     7
100
AcDbLine
 10
6324.195746114
 20
5151.5245353133
 30
0.0
 11
6324.2687552846
 21
5151.5245353133
 31
0.0
  0
LINE
  5
F4
330
1F
100
AcDbEntity
  8
0
  6
Continuous
 62
     7
100
AcDbLine
 10
6324.195746114
 20
5150.5245370121
 30
0.0
 11
6324.2687552846
 21
5150.5245370121
 31
0.0
  0
LINE
  5
F5
330
1F
100
AcDbEntity
  8
0
  6
Continuous
 62
     7
100
AcDbLine
 10
6324.195746114
 20
5150.5245370121
 30
0.0
 11
6324.195746114
 21
5151.5245353133
 31
0.0
  0
LINE
  5
F6
330
1F
100
AcDbEntity
  8
0
  6
Continuous
 62
     7
100
AcDbLine
 10
6324.2687559924
 20
5300.1745386869
 30
0.0
 11
6324.2687559924
 21
5150.1745368988
 31
0.0
  0
LINE
  5
F7
330
1F
100
AcDbEntity
  8
0
  6
Continuous
 62
     7
100
AcDbLine
 10
6324.2687559924
 20
5300.1745386869
 30
0.0
 11
6334.2687559924
 21
5300.1745333225
 31
0.0
  0
LINE
  5
F8
330
1F
100
AcDbEntity
  8
0
  6
Continuous
 62
     7
100
AcDbLine
 10
6334.2687559924
 20
5300.1745333225
 30
0.0
 11
6334.2687559924
 21
5150.1745348126
 31
0.0
  0
LINE
  5
F9
330
1F
100
AcDbEntity
  8
0
  6
Continuous
 62
     7
100
AcDbLine
 10
6324.2687559924
 20
5150.1745368988
 30
0.0
 11
6334.2687559924
 21
5150.1745348126
 31
0.0
  0
LINE
  5
FA
330
1F
100
AcDbEntity
  8
0
  6
Continuous
 62
     7
100
AcDbLine
 10
6324.2687552846
 20
5140.1745368988
 30
0.0
 11
6324.2687559924
 21
5150.1745368988
 31
0.0
  0
LINE
  5
FB
330
1F
100
AcDbEntity
  8
0
  6
Continuous
 62
     7
100
AcDbLine
 10
6324.2687559924
 20
5300.1745386869
 30
0.0
 11
6324.2687552846
 21
5310.1745386869
 31
0.0
  0
LINE
  5
FC
330
1F
100
AcDbEntity
  8
0
  6
Continuous
 62
     7
100
AcDbLine
 10
6298.0964796296
 20
5156.6185196192
 30
0.0
 11
6307.0687556318
 21
5156.6185196192
 31
0.0
  0
LINE
  5
FD
330
1F
100
AcDbEntity
  8
0
  6
Continuous
 62
     7
100
AcDbLine
 10
6295.468754848
 20
5156.6185196192
 30
0.0
 11
6298.0964796296
 21
5156.6185196192
 31
0.0
  0
LINE
  5
FE
330
1F
100
AcDbEntity
  8
0
  6
Continuous
 62
     7
100
AcDbLine
 10
6274.4711039267
 20
5307.3185150773
 30
0.0
 11
6264.0482557616
 21
5307.3185150773
 31
0.0
  0
LINE
  5
FF
330
1F
100
AcDbEntity
  8
0
  6
Continuous
 62
     7
100
AcDbLine
 10
6280.2237828872
 20
5308.8185181171
 30
0.0
 11
6288.9892549864
 21
5308.8185181171
 31
0.0
  0
LINE
  5
100
330
1F
100
AcDbEntity
  8
0
  6
Continuous
 62
     7
100
AcDbLine
 10
6265.5482550762
 20
5308.8185181171
 30
0.0
 11
6280.2237828872
 21
5308.8185181171
 31
0.0
  0
LINE
  5
101
330
1F
100
AcDbEntity
  8
0
  6
Continuous
 62
     7
100
AcDbLine
 10
6273.9413750968
 20
5299.8185222299
 30
0.0
 11
6273.9413750968
 21
5289.3185158522
 31
0.0
  0
LINE
  5
102
330
1F
100
AcDbEntity
  8
0
  6
Continuous
 62
     7
100
AcDbLine
 10
6262.9952577553
 20
5299.8185222299
 30
0.0
 11
6262.9952577553
 21
5289.3185158522
 31
0.0
  0
LINE
  5
103
330
1F
100
AcDbEntity
  8
0
  6
Continuous
 62
     7
100
AcDbLine
 10
6262.9952577553
 20
5299.8185222299
 30
0.0
 11
6267.1925460598
 21
5299.8185222299
 31
0.0
  0
LINE
  5
104
330
1F
100
AcDbEntity
  8
0
  6
Continuous
 62
     7
100
AcDbLine
 10
6269.777089139
 20
5299.8185222299
 30
0.0
 11
6273.9413750968
 21
5299.8185222299
 31
0.0
  0
LINE
  5
105
330
1F
100
AcDbEntity
  8
0
  6
Continuous
 62
     7
100
AcDbLine
 10
6264.0494888327
 20
5306.9732849748
 30
0.0
 11
6264.082215508
 21
5306.9681515247
 31
0.0
  0
LINE
  5
106
330
1F
100
AcDbEntity
  8
0
  6
Continuous
 62
     7
100
AcDbLine
 10
6264.0494888327
 20
5305.3857823164
 30
0.0
 11
6264.082215508
 21
5305.3806563169
 31
0.0
  0
LINE
  5
107
330
1F
100
AcDbEntity
  8
0
  6
Continuous
 62
     7
100
AcDbLine
 10
6264.0494888327
 20
5303.798279658
 30
0.0
 11
6264.082215508
 21
5303.7931536586
 31
0.0
  0
LINE
  5
108
330
1F
100
AcDbEntity
  8
0
  6
Continuous
 62
     7
100
AcDbLine
 10
6264.0494888327
 20
5302.2107844502
 30
0.0
 11
6264.082215508
 21
5302.2056510002
 31
0.0
  0
LINE
  5
109
330
1F
100
AcDbEntity
  8
0
  6
Continuous
 62
     7
100
AcDbLine
 10
6264.0494888327
 20
5300.6232817919
 30
0.0
 11
6264.082215508
 21
5300.6181557924
 31
0.0
  0
LINE
  5
10A
330
1F
100
AcDbEntity
  8
0
  6
Continuous
 62
     7
100
AcDbLine
 10
6290.475921487
 20
5299.8330136091
 30
0.0
 11
6290.4682511142
 21
5299.8185222299
 31
0.0
  0
LINE
  5
10B
330
1F
100
AcDbEntity
  8
0
  6
Continuous
 62
     7
100
AcDbLine
 10
6288.6795399389
 20
5299.8185222299
 30
0.0
 11
6290.4682511142
 21
5299.8185222299
 31
0.0
  0
LINE
  5
10C
330
1F
100
AcDbEntity
  8
0
  6
Continuous
 62
     7
100
AcDbLine
 10
6287.4035032145
 20
5299.8185222299
 30
0.0
 11
6287.4035032145
 21
5289.3185158522
 31
0.0
  0
LINE
  5
10D
330
1F
100
AcDbEntity
  8
0
  6
Continuous
 62
     7
100
AcDbLine
 10
6273.9413750968
 20
5299.8185222299
 30
0.0
 11
6287.4035032145
 21
5299.8185222299
 31
0.0
  0
LINE
  5
10E
330
1F
100
AcDbEntity
  8
0
  6
Continuous
 62
     7
100
AcDbLine
 10
6291.5422523073
 20
5299.8185222299
 30
0.0
 11
6291.5422523073
 21
5289.3185158522
 31
0.0
  0
LINE
  5
10F
330
1F
100
AcDbEntity
  8
0
  6
Continuous
 62
     7
100
AcDbLine
 10
6290.4682511142
 20
5299.8185222299
 30
0.0
 11
6291.5422523073
 21
5299.8185222299
 31
0.0
  0
LINE
  5
110
330
1F
100
AcDbEntity
  8
0
  6
Continuous
 62
     7
100
AcDbLine
 10
6287.4035032145
 20
5299.8185222299
 30
0.0
 11
6288.6795399389
 21
5299.8185222299
 31
0.0
  0
LINE
  5
111
330
1F
100
AcDbEntity
  8
0
  6
Continuous
 62
     7
100
AcDbLine
 10
6290.7441349379
 20
5147.8185196669
 30
0.0
 11
6277.2196491859
 21
5147.8185196669
 31
0.0
  0
LINE
  5
112
330
1F
100
AcDbEntity
  8
0
  6
Continuous
 62
     7
100
AcDbLine
 10
6277.2196491859
 20
5147.8185196669
 30
0.0
 11
6277.2196491859
 21
5158.318518594
 31
0.0
  0
LINE
  5
113
330
1F
100
AcDbEntity
  8
0
  6
Continuous
 62
     7
100
AcDbLine
 10
6290.7441349379
 20
5147.8185196669
 30
0.0
 11
6290.7441349379
 21
5158.318518594
 31
0.0
  0
LINE
  5
114
330
1F
100
AcDbEntity
  8
0
  6
Continuous
 62
     7
100
AcDbLine
 10
6263.744268348
 20
5147.8185196669
 30
0.0
 11
6263.744268348
 21
5158.318518594
 31
0.0
  0
LINE
  5
115
330
1F
100
AcDbEntity
  8
0
  6
Continuous
 62
     7
100
AcDbLine
 10
6277.2196491859
 20
5147.8185196669
 30
0.0
 11
6263.744268348
 21
5147.8185196669
 31
0.0
  0
LINE
  5
116
330
1F
100
AcDbEntity
  8
0
  6
Continuous
 62
     7
100
AcDbLine
 10
6288.9891972444
 20
5138.818516329
 30
0.0
 11
6265.5482550762
 21
5138.818516329
 31
0.0
  0
LINE
  5
117
330
1F
100
AcDbEntity
  8
0
  6
Continuous
 62
     7
100
AcDbLine
 10
6264.0753013692
 20
5140.9941603691
 30
0.0
 11
6264.0511205099
 21
5140.9992863686
 31
0.0
  0
LINE
  5
118
330
1F
100
AcDbEntity
  8
0
  6
Continuous
 62
     7
100
AcDbLine
 10
6264.0753013692
 20
5142.5816630275
 30
0.0
 11
6264.0511205099
 21
5142.5867890269
 31
0.0
  0
LINE
  5
119
330
1F
100
AcDbEntity
  8
0
  6
Continuous
 62
     7
100
AcDbLine
 10
6264.0753013692
 20
5144.1691656858
 30
0.0
 11
6264.0511205099
 21
5144.1742916853
 31
0.0
  0
LINE
  5
11A
330
1F
100
AcDbEntity
  8
0
  6
Continuous
 62
     7
100
AcDbLine
 10
6264.0753013692
 20
5145.7566608936
 30
0.0
 11
6264.0511205099
 21
5145.7617868931
 31
0.0
  0
LINE
  5
11B
330
1F
100
AcDbEntity
  8
0
  6
Continuous
 62
     7
100
AcDbLine
 10
6264.0753013692
 20
5147.344163552
 30
0.0
 11
6264.0511205099
 21
5147.3492895514
 31
0.0
  0
LINE
  5
11C
330
1F
100
AcDbEntity
  8
0
  6
Continuous
 62
     7
100
AcDbLine
 10
6290.7932417146
 20
5147.8185196669
 30
0.0
 11
6290.7932417146
 21
5158.318518594
 31
0.0
  0
LINE
  5
11D
330
1F
100
AcDbEntity
  8
0
  6
Continuous
 62
     7
100
AcDbLine
 10
6290.7932417146
 20
5147.8185196669
 30
0.0
 11
6290.7441349379
 21
5147.8185196669
 31
0.0
  0
LINE
  5
11E
330
1F
100
AcDbEntity
  8
0
  6
Continuous
 62
     7
100
AcDbLine
 10
6297.658923795
 20
5157.4185182602
 30
0.0
 11
6307.8687552041
 21
5157.4185182602
 31
0.0
  0
LINE
  5
11F
330
1F
100
AcDbEntity
  8
0
  6
Continuous
 62
     7
100
AcDbLine
 10
6294.668756207
 20
5157.4185182602
 30
0.0
 11
6297.658923795
 21
5157.4185182602
 31
0.0
  0
LINE
  5
120
330
1F
100
AcDbEntity
  8
0
  6
Continuous
 62
     7
100
AcDbLine
 10
5939.5249236673
 20
5139.9792497308
 30
0.0
 11
5940.6856496185
 21
5138.818516329
 31
0.0
  0
LINE
  5
121
330
1F
100
AcDbEntity
  8
0
  6
Continuous
 62
     7
100
AcDbLine
 10
5965.3329450935
 20
5140.0248174817
 30
0.0
 11
5965.4826719612
 21
5140.1745368988
 31
0.0
  0
LINE
  5
122
330
1F
100
AcDbEntity
  8
0
  6
Continuous
 62
     7
100
AcDbLine
 10
5964.1266513914
 20
5138.818516329
 30
0.0
 11
5964.777683124
 21
5139.4695480616
 31
0.0
  0
LINE
  5
123
330
1F
100
AcDbEntity
  8
0
  6
Continuous
 62
     7
100
AcDbLine
 10
5964.7673864216
 20
5139.5059888513
 30
0.0
 11
5964.7673864216
 21
5139.7003670485
 31
0.0
  0
LINE
  5
124
330
1F
100
AcDbEntity
  8
0
  6
Continuous
 62
     7
100
AcDbLine
 10
5951.7559625283
 20
5217.3621174577
 30
0.0
 11
5951.6852416173
 21
5220.9071311797
 31
0.0
  0
LINE
  5
125
330
1F
100
AcDbEntity
  8
0
  6
Continuous
 62
     7
100
AcDbLine
 10
5948.4517902657
 20
5220.8426174602
 30
0.0
 11
5948.6021727845
 21
5213.3056657749
 31
0.0
  0
LINE
  5
126
330
1F
100
AcDbEntity
  8
0
  6
Continuous
 62
     7
100
AcDbLine
 10
5946.0576206967
 20
5213.9430538646
 30
0.0
 11
5946.1657584235
 21
5208.5230179491
 31
0.0
  0
LINE
  5
127
330
1F
100
AcDbEntity
  8
0
  6
Continuous
 62
     7
100
AcDbLine
 10
5952.6131440143
 20
5202.3278710075
 30
0.0
 11
5954.9798954467
 21
5202.375091856
 31
0.0
  0
LINE
  5
128
330
1F
100
AcDbEntity
  8
0
  6
Continuous
 62
     7
100
AcDbLine
 10
5959.4437062517
 20
5207.0206507512
 30
0.0
 11
5959.2873781696
 21
5214.8558619835
 31
0.0
  0
LINE
  5
129
330
1F
100
AcDbEntity
  8
0
  6
Continuous
 62
     7
100
AcDbLine
 10
5957.907057561
 20
5216.182210918
 30
0.0
 11
5957.4129201546
 21
5216.1723519373
 31
0.0
  0
LINE
  5
12A
330
1F
100
AcDbEntity
  8
0
  6
Continuous
 62
     7
100
AcDbLine
 10
5955.4111428633
 20
5217.0811807434
 30
0.0
 11
5954.8319347277
 21
5217.0696244272
 31
0.0
  0
LINE
  5
12B
330
1F
100
AcDbEntity
  8
0
  6
Continuous
 62
     7
100
AcDbLine
 10
5952.8389193192
 20
5217.539115313
 30
0.0
 11
5952.3823924437
 21
5217.5300065125
 31
0.0
  0
LINE
  5
12C
330
1F
100
AcDbEntity
  8
0
  6
Continuous
 62
     7
100
AcDbLine
 10
5952.0851571411
 20
5216.1843608395
 30
0.0
 11
5952.1438379139
 21
5213.2439143519
 31
0.0
  0
LINE
  5
12D
330
1F
100
AcDbEntity
  8
0
  6
Continuous
 62
     7
100
AcDbLine
 10
5952.9447306246
 20
5216.4416685031
 30
0.0
 11
5952.3204315752
 21
5216.4292125293
 31
0.0
  0
LINE
  5
12E
330
1F
100
AcDbEntity
  8
0
  6
Continuous
 62
     7
100
AcDbLine
 10
5953.2482523769
 20
5213.2659496768
 30
0.0
 11
5953.1895716041
 21
5216.2063959316
 31
0.0
  0
LINE
  5
12F
330
1F
100
AcDbEntity
  8
0
  6
Continuous
 62
     7
100
AcDbLine
 10
5954.5346994251
 20
5215.7239787542
 30
0.0
 11
5954.583217606
 21
5213.2925851532
 31
0.0
  0
LINE
  5
130
330
1F
100
AcDbEntity
  8
0
  6
Continuous
 62
     7
100
AcDbLine
 10
5955.5169541687
 20
5215.9837343992
 30
0.0
 11
5954.7699738592
 21
5215.9688309097
 31
0.0
  0
LINE
  5
131
330
1F
100
AcDbEntity
  8
0
  6
Continuous
 62
     7
100
AcDbLine
 10
5955.8103133291
 20
5213.3170683431
 30
0.0
 11
5955.7617951483
 21
5215.7484618277
 31
0.0
  0
LINE
  5
132
330
1F
100
AcDbEntity
  8
0
  6
Continuous
 62
     7
100
AcDbLine
 10
5957.1150590032
 20
5214.8589293268
 30
0.0
 11
5957.1452785581
 21
5213.3437038195
 31
0.0
  0
LINE
  5
133
330
1F
100
AcDbEntity
  8
0
  6
Continuous
 62
     7
100
AcDbLine
 10
5958.0122281164
 20
5215.1169876364
 30
0.0
 11
5957.3503185362
 21
5215.1037812494
 31
0.0
  0
LINE
  5
134
330
1F
100
AcDbEntity
  8
0
  6
Continuous
 62
     7
100
AcDbLine
 10
5952.592610369
 20
5203.357257814
 30
0.0
 11
5954.9593618014
 21
5203.4044795938
 31
0.0
  0
LINE
  5
135
330
1F
100
AcDbEntity
  8
0
  6
Continuous
 62
     7
100
AcDbLine
 10
5947.1064534539
 20
5212.9887778579
 30
0.0
 11
5947.1951451653
 21
5208.5435548366
 31
0.0
  0
LINE
  5
136
330
1F
100
AcDbEntity
  8
0
  6
Continuous
 62
     7
100
AcDbLine
 10
5948.3712364286
 20
5209.5582638197
 30
0.0
 11
5948.3322549909
 21
5211.5122958552
 31
0.0
  0
LINE
  5
137
330
1F
100
AcDbEntity
  8
0
  6
Continuous
 62
     7
100
AcDbLine
 10
5949.4811941236
 20
5220.8631559537
 30
0.0
 11
5949.7062165588
 21
5209.5848994125
 31
0.0
  0
LINE
  5
138
330
1F
100
AcDbEntity
  8
0
  6
Continuous
 62
     7
100
AcDbLine
 10
5950.8088577837
 20
5213.2172788755
 30
0.0
 11
5950.6558377594
 21
5220.8865926862
 31
0.0
  0
LINE
  5
139
330
1F
100
AcDbEntity
  8
0
  6
Continuous
 62
     7
100
AcDbLine
 10
5958.4143186042
 20
5207.0001125812
 30
0.0
 11
5958.2570666501
 21
5214.8817062388
 31
0.0
  0
LINE
  5
13A
330
1F
100
AcDbEntity
  8
0
  6
Continuous
 62
     7
100
AcDbLine
 10
6027.2494731397
 20
5150.1745368988
 30
0.0
 11
6027.2494731397
 21
5300.1745386869
 31
0.0
  0
LINE
  5
13B
330
1F
100
AcDbEntity
  8
0
  6
Continuous
 62
     7
100
AcDbLine
 10
6027.2494731397
 20
5300.1745386869
 30
0.0
 11
6037.2494731397
 21
5300.1745333225
 31
0.0
  0
LINE
  5
13C
330
1F
100
AcDbEntity
  8
0
  6
Continuous
 62
     7
100
AcDbLine
 10
6037.2494731397
 20
5150.1745348126
 30
0.0
 11
6037.2494731397
 21
5300.1745333225
 31
0.0
  0
LINE
  5
13D
330
1F
100
AcDbEntity
  8
0
  6
Continuous
 62
     7
100
AcDbLine
 10
6027.2494731397
 20
5150.1745368988
 30
0.0
 11
6037.2494731397
 21
5150.1745348126
 31
0.0
  0
LINE
  5
13E
330
1F
100
AcDbEntity
  8
0
  6
Continuous
 62
     7
100
AcDbLine
 10
6027.2494731397
 20
5150.1745368988
 30
0.0
 11
6027.2494752258
 21
5140.1745368988
 31
0.0
  0
LINE
  5
13F
330
1F
100
AcDbEntity
  8
0
  6
Continuous
 62
     7
100
AcDbLine
 10
6027.2494731397
 20
5300.1745386869
 30
0.0
 11
6027.2494752258
 21
5310.1745386869
 31
0.0
  0
LINE
  5
140
330
1F
100
AcDbEntity
  8
0
  6
Continuous
 62
     7
100
AcDbLine
 10
6009.0563420504
 20
5166.0212007613
 30
0.0
 11
6008.9604605287
 21
5166.021338597
 31
0.0
  0
LINE
  5
141
330
1F
100
AcDbEntity
  8
0
  6
Continuous
 62
     7
100
AcDbLine
 10
6007.8003902286
 20
5164.749073729
 30
0.0
 11
6007.7878807038
 21
5163.8709445745
 31
0.0
  0
LINE
  5
142
330
1F
100
AcDbEntity
  8
0
  6
Continuous
 62
     7
100
AcDbLine
 10
6007.7878807038
 20
5163.8709445745
 30
0.0
 11
6007.3540408462
 21
5163.8715815992
 31
0.0
  0
LINE
  5
143
330
1F
100
AcDbEntity
  8
0
  6
Continuous
 62
     7
100
AcDbLine
 10
6007.3540408462
 20
5163.8715815992
 30
0.0
 11
6007.2321567983
 21
5163.870873794
 31
0.0
  0
LINE
  5
144
330
1F
100
AcDbEntity
  8
0
  6
Continuous
 62
     7
100
AcDbLine
 10
6007.2321567983
 20
5163.870873794
 30
0.0
 11
6007.3543314189
 21
5163.4938669652
 31
0.0
  0
LINE
  5
145
330
1F
100
AcDbEntity
  8
0
  6
Continuous
 62
     7
100
AcDbLine
 10
6007.3543314189
 20
5163.4938669652
 30
0.0
 11
6007.4575890154
 21
5163.1722179503
 31
0.0
  0
LINE
  5
146
330
1F
100
AcDbEntity
  8
0
  6
Continuous
 62
     7
100
AcDbLine
 10
6007.4575890154
 20
5163.1722179503
 30
0.0
 11
6007.7574972361
 21
5163.1847349257
 31
0.0
  0
LINE
  5
147
330
1F
100
AcDbEntity
  8
0
  6
Continuous
 62
     7
100
AcDbLine
 10
6007.7574972361
 20
5163.1847349257
 30
0.0
 11
6007.753324911
 21
5160.9098603279
 31
0.0
  0
LINE
  5
148
330
1F
100
AcDbEntity
  8
0
  6
Continuous
 62
     7
100
AcDbLine
 10
6007.753324911
 20
5160.9098603279
 30
0.0
 11
6008.4352318496
 21
5160.9097448439
 31
0.0
  0
LINE
  5
149
330
1F
100
AcDbEntity
  8
0
  6
Continuous
 62
     7
100
AcDbLine
 10
6008.4352318496
 20
5160.9097448439
 30
0.0
 11
6008.4436882585
 21
5163.167311743
 31
0.0
  0
LINE
  5
14A
330
1F
100
AcDbEntity
  8
0
  6
Continuous
 62
     7
100
AcDbLine
 10
6008.4436882585
 20
5163.167311743
 30
0.0
 11
6008.9951876849
 21
5163.1673489959
 31
0.0
  0
LINE
  5
14B
330
1F
100
AcDbEntity
  8
0
  6
Continuous
 62
     7
100
AcDbLine
 10
6008.9951876849
 20
5163.1673489959
 30
0.0
 11
6009.5249984712
 21
5163.1674570293
 31
0.0
  0
LINE
  5
14C
330
1F
100
AcDbEntity
  8
0
  6
Continuous
 62
     7
100
AcDbLine
 10
6009.5249984712
 20
5163.1674570293
 30
0.0
 11
6009.5251474828
 21
5160.9098789544
 31
0.0
  0
LINE
  5
14D
330
1F
100
AcDbEntity
  8
0
  6
Continuous
 62
     7
100
AcDbLine
 10
6009.5251474828
 20
5160.9098789544
 30
0.0
 11
6010.2156672925
 21
5160.9097113163
 31
0.0
  0
LINE
  5
14E
330
1F
100
AcDbEntity
  8
0
  6
Continuous
 62
     7
100
AcDbLine
 10
6010.2156672925
 20
5160.9097113163
 30
0.0
 11
6010.2283183783
 21
5164.8224097938
 31
0.0
  0
LINE
  5
14F
330
1F
100
AcDbEntity
  8
0
  6
Continuous
 62
     7
100
AcDbLine
 10
5997.4686701149
 20
5166.033836946
 30
0.0
 11
5997.4081415981
 21
5166.0287742764
 31
0.0
  0
LINE
  5
150
330
1F
100
AcDbEntity
  8
0
  6
Continuous
 62
     7
100
AcDbLine
 10
5997.4081415981
 20
5166.0287742764
 30
0.0
 11
5997.3692644686
 21
5166.0288338811
 31
0.0
  0
LINE
  5
151
330
1F
100
AcDbEntity
  8
0
  6
Continuous
 62
     7
100
AcDbLine
 10
5996.2143946737
 20
5164.7608232946
 30
0.0
 11
5996.2010432333
 21
5163.8835807592
 31
0.0
  0
LINE
  5
152
330
1F
100
AcDbEntity
  8
0
  6
Continuous
 62
     7
100
AcDbLine
 10
5996.2010432333
 20
5163.8835807592
 30
0.0
 11
5995.6323255152
 21
5163.8835695834
 31
0.0
  0
LINE
  5
153
330
1F
100
AcDbEntity
  8
0
  6
Continuous
 62
     7
100
AcDbLine
 10
5995.6323255152
 20
5163.8835695834
 30
0.0
 11
5995.8629060835
 21
5163.1848653109
 31
0.0
  0
LINE
  5
154
330
1F
100
AcDbEntity
  8
0
  6
Continuous
 62
     7
100
AcDbLine
 10
5995.8629060835
 20
5163.1848653109
 30
0.0
 11
5996.1662937254
 21
5163.1801155657
 31
0.0
  0
LINE
  5
155
330
1F
100
AcDbEntity
  8
0
  6
Continuous
 62
     7
100
AcDbLine
 10
5996.1662937254
 20
5163.1801155657
 30
0.0
 11
5996.1664278358
 21
5160.9130417258
 31
0.0
  0
LINE
  5
156
330
1F
100
AcDbEntity
  8
0
  6
Continuous
 62
     7
100
AcDbLine
 10
5996.1664278358
 20
5160.9130417258
 30
0.0
 11
5996.8353856653
 21
5160.9215540142
 31
0.0
  0
LINE
  5
157
330
1F
100
AcDbEntity
  8
0
  6
Continuous
 62
     7
100
AcDbLine
 10
5996.8353856653
 20
5160.9215540142
 30
0.0
 11
5996.8352217525
 21
5163.1713276059
 31
0.0
  0
LINE
  5
158
330
1F
100
AcDbEntity
  8
0
  6
Continuous
 62
     7
100
AcDbLine
 10
5996.8352217525
 20
5163.1713276059
 30
0.0
 11
5997.4091399759
 21
5163.175678745
 31
0.0
  0
LINE
  5
159
330
1F
100
AcDbEntity
  8
0
  6
Continuous
 62
     7
100
AcDbLine
 10
5997.4091399759
 20
5163.175678745
 30
0.0
 11
5997.9381162971
 21
5163.180093214
 31
0.0
  0
LINE
  5
15A
330
1F
100
AcDbEntity
  8
0
  6
Continuous
 62
     7
100
AcDbLine
 10
5997.9381162971
 20
5163.180093214
 30
0.0
 11
5997.9296077341
 21
5160.91303055
 31
0.0
  0
LINE
  5
15B
330
1F
100
AcDbEntity
  8
0
  6
Continuous
 62
     7
100
AcDbLine
 10
5997.9296077341
 20
5160.91303055
 30
0.0
 11
5998.6158732623
 21
5160.9215204865
 31
0.0
  0
LINE
  5
15C
330
1F
100
AcDbEntity
  8
0
  6
Continuous
 62
     7
100
AcDbLine
 10
5998.6158732623
 20
5160.9215204865
 30
0.0
 11
5998.6242253631
 21
5164.8351130337
 31
0.0
  0
LINE
  5
15D
330
1F
100
AcDbEntity
  8
0
  6
Continuous
 62
     7
100
AcDbLine
 10
5877.2494639009
 20
5150.1745368988
 30
0.0
 11
6027.2494731397
 21
5150.1745368988
 31
0.0
  0
LINE
  5
15E
330
1F
100
AcDbEntity
  8
0
  6
Continuous
 62
     7
100
AcDbLine
 10
5877.2494639009
 20
5300.1745386869
 30
0.0
 11
5877.2494639009
 21
5150.1745368988
 31
0.0
  0
LINE
  5
15F
330
1F
100
AcDbEntity
  8
0
  6
Continuous
 62
     7
100
AcDbLine
 10
6027.2494731397
 20
5300.1745386869
 30
0.0
 11
5877.2494639009
 21
5300.1745386869
 31
0.0
  0
LINE
  5
160
330
1F
100
AcDbEntity
  8
0
  6
Continuous
 62
     7
100
AcDbLine
 10
5992.6748622507
 20
5161.6683927626
 30
0.0
 11
5994.1424478144
 21
5161.6688137204
 31
0.0
  0
LINE
  5
161
330
1F
100
AcDbEntity
  8
0
  6
Continuous
 62
     7
100
AcDbLine
 10
5992.6746387333
 20
5160.9086645097
 30
0.0
 11
5992.6748622507
 21
5161.6683927626
 31
0.0
  0
LINE
  5
162
330
1F
100
AcDbEntity
  8
0
  6
Continuous
 62
     7
100
AcDbLine
 10
5994.2078937143
 20
5160.90898861
 30
0.0
 11
5992.6746387333
 21
5160.9086645097
 31
0.0
  0
LINE
  5
163
330
1F
100
AcDbEntity
  8
0
  6
Continuous
 62
     7
100
AcDbLine
 10
5997.4087227434
 20
5166.4332849235
 30
0.0
 11
5994.6153063625
 21
5166.4373790175
 31
0.0
  0
LINE
  5
164
330
1F
100
AcDbEntity
  8
0
  6
Continuous
 62
     7
100
AcDbLine
 10
6002.0552549809
 20
5166.4290492684
 30
0.0
 11
5997.4087227434
 21
5166.4332849235
 31
0.0
  0
LINE
  5
165
330
1F
100
AcDbEntity
  8
0
  6
Continuous
 62
     7
100
AcDbLine
 10
6007.3534820527
 20
5166.4290492684
 30
0.0
 11
6002.0552549809
 21
5166.4290492684
 31
0.0
  0
LINE
  5
166
330
1F
100
AcDbEntity
  8
0
  6
Continuous
 62
     7
100
AcDbLine
 10
6008.9956570715
 20
5166.4249551744
 30
0.0
 11
6007.3534820527
 21
5166.4290492684
 31
0.0
  0
LINE
  5
167
330
1F
100
AcDbEntity
  8
0
  6
Continuous
 62
     7
100
AcDbLine
 10
6010.4719002098
 20
5166.4253649563
 30
0.0
 11
6008.9956570715
 21
5166.4249551744
 31
0.0
  0
LINE
  5
168
330
1F
100
AcDbEntity
  8
0
  6
Continuous
 62
     7
100
AcDbLine
 10
6010.4720641226
 20
5167.1721366496
 30
0.0
 11
6010.4719002098
 21
5166.4253649563
 31
0.0
  0
LINE
  5
169
330
1F
100
AcDbEntity
  8
0
  6
Continuous
 62
     7
100
AcDbLine
 10
6008.9948971123
 20
5167.1716858894
 30
0.0
 11
6010.4720641226
 21
5167.1721366496
 31
0.0
  0
LINE
  5
16A
330
1F
100
AcDbEntity
  8
0
  6
Continuous
 62
     7
100
AcDbLine
 10
6007.3536459655
 20
5167.172360167
 30
0.0
 11
6008.9948971123
 21
5167.1716858894
 31
0.0
  0
LINE
  5
16B
330
1F
100
AcDbEntity
  8
0
  6
Continuous
 62
     7
100
AcDbLine
 10
6002.0554561466
 20
5167.1714772732
 30
0.0
 11
6007.3536459655
 21
5167.172360167
 31
0.0
  0
LINE
  5
16C
330
1F
100
AcDbEntity
  8
0
  6
Continuous
 62
     7
100
AcDbLine
 10
5997.4080819935
 20
5167.1670628042
 30
0.0
 11
6002.0554561466
 21
5167.1714772732
 31
0.0
  0
LINE
  5
16D
330
1F
100
AcDbEntity
  8
0
  6
Continuous
 62
     7
100
AcDbLine
 10
5994.563673839
 20
5167.1669249684
 30
0.0
 11
5997.4080819935
 21
5167.1670628042
 31
0.0
  0
LINE
  5
16E
330
1F
100
AcDbEntity
  8
0
  6
Continuous
 62
     7
100
AcDbLine
 10
6004.9346585125
 20
5163.1854092032
 30
0.0
 11
6003.4014556855
 21
5163.1936942489
 31
0.0
  0
LINE
  5
16F
330
1F
100
AcDbEntity
  8
0
  6
Continuous
 62
     7
100
AcDbLine
 10
6004.6955097765
 20
5163.9100414962
 30
0.0
 11
6004.9346585125
 21
5163.1854092032
 31
0.0
  0
LINE
  5
170
330
1F
100
AcDbEntity
  8
0
  6
Continuous
 62
     7
100
AcDbLine
 10
6003.4491021484
 20
5163.9101383538
 30
0.0
 11
6004.6955097765
 21
5163.9100414962
 31
0.0
  0
LINE
  5
171
330
1F
100
AcDbEntity
  8
0
  6
Continuous
 62
     7
100
AcDbLine
 10
6003.4493033141
 20
5165.2005602867
 30
0.0
 11
6003.4491021484
 21
5163.9101383538
 31
0.0
  0
LINE
  5
172
330
1F
100
AcDbEntity
  8
0
  6
Continuous
 62
     7
100
AcDbLine
 10
6004.7302294821
 20
5165.2004150004
 30
0.0
 11
6003.4493033141
 21
5165.2005602867
 31
0.0
  0
LINE
  5
173
330
1F
100
AcDbEntity
  8
0
  6
Continuous
 62
     7
100
AcDbLine
 10
6004.7303710431
 20
5165.9298827202
 30
0.0
 11
6004.7302294821
 21
5165.2004150004
 31
0.0
  0
LINE
  5
174
330
1F
100
AcDbEntity
  8
0
  6
Continuous
 62
     7
100
AcDbLine
 10
6002.7589250654
 20
5165.9293127508
 30
0.0
 11
6004.7303710431
 21
5165.9298827202
 31
0.0
  0
LINE
  5
175
330
1F
100
AcDbEntity
  8
0
  6
Continuous
 62
     7
100
AcDbLine
 10
6002.7594093531
 20
5163.8973457069
 30
0.0
 11
6002.7589250654
 21
5165.9293127508
 31
0.0
  0
LINE
  5
176
330
1F
100
AcDbEntity
  8
0
  6
Continuous
 62
     7
100
AcDbLine
 10
6002.2114489526
 20
5163.8972637505
 30
0.0
 11
6002.7594093531
 21
5163.8973457069
 31
0.0
  0
LINE
  5
177
330
1F
100
AcDbEntity
  8
0
  6
Continuous
 62
     7
100
AcDbLine
 10
6002.2075075954
 20
5165.9292754979
 30
0.0
 11
6002.2114489526
 21
5163.8972637505
 31
0.0
  0
LINE
  5
178
330
1F
100
AcDbEntity
  8
0
  6
Continuous
 62
     7
100
AcDbLine
 10
6002.0553667396
 20
5165.9294990153
 30
0.0
 11
6002.2075075954
 21
5165.9292754979
 31
0.0
  0
LINE
  5
179
330
1F
100
AcDbEntity
  8
0
  6
Continuous
 62
     7
100
AcDbLine
 10
6001.4080230445
 20
5165.9295623452
 30
0.0
 11
6002.0553667396
 21
5165.9294990153
 31
0.0
  0
LINE
  5
17A
330
1F
100
AcDbEntity
  8
0
  6
Continuous
 62
     7
100
AcDbLine
 10
6001.4080826491
 20
5164.2139059753
 30
0.0
 11
6001.4080230445
 21
5165.9295623452
 31
0.0
  0
LINE
  5
17B
330
1F
100
AcDbEntity
  8
0
  6
Continuous
 62
     7
100
AcDbLine
 10
5999.1799120158
 20
5165.9941886813
 30
0.0
 11
6001.4080826491
 21
5164.2139059753
 31
0.0
  0
LINE
  5
17C
330
1F
100
AcDbEntity
  8
0
  6
Continuous
 62
     7
100
AcDbLine
 10
5999.1854626984
 20
5160.908616081
 30
0.0
 11
5999.1799120158
 21
5165.9941886813
 31
0.0
  0
LINE
  5
17D
330
1F
100
AcDbEntity
  8
0
  6
Continuous
 62
     7
100
AcDbLine
 10
5999.9010909647
 20
5160.9092978091
 30
0.0
 11
5999.1854626984
 21
5160.908616081
 31
0.0
  0
LINE
  5
17E
330
1F
100
AcDbEntity
  8
0
  6
Continuous
 62
     7
100
AcDbLine
 10
5999.9103892893
 20
5164.3181023449
 30
0.0
 11
5999.9010909647
 21
5160.9092978091
 31
0.0
  0
LINE
  5
17F
330
1F
100
AcDbEntity
  8
0
  6
Continuous
 62
     7
100
AcDbLine
 10
6001.4212403745
 20
5163.167222336
 30
0.0
 11
5999.9103892893
 21
5164.3181023449
 31
0.0
  0
LINE
  5
180
330
1F
100
AcDbEntity
  8
0
  6
Continuous
 62
     7
100
AcDbLine
 10
6001.4213744849
 20
5160.8966877014
 30
0.0
 11
6001.4212403745
 21
5163.167222336
 31
0.0
  0
LINE
  5
181
330
1F
100
AcDbEntity
  8
0
  6
Continuous
 62
     7
100
AcDbLine
 10
6002.0549271554
 20
5160.9044102282
 30
0.0
 11
6001.4213744849
 21
5160.8966877014
 31
0.0
  0
LINE
  5
182
330
1F
100
AcDbEntity
  8
0
  6
Continuous
 62
     7
100
AcDbLine
 10
6002.1949608177
 20
5160.9093946666
 30
0.0
 11
6002.0549271554
 21
5160.9044102282
 31
0.0
  0
LINE
  5
183
330
1F
100
AcDbEntity
  8
0
  6
Continuous
 62
     7
100
AcDbLine
 10
6002.1818701476
 20
5163.1807935686
 30
0.0
 11
6002.1949608177
 21
5160.9093946666
 31
0.0
  0
LINE
  5
184
330
1F
100
AcDbEntity
  8
0
  6
Continuous
 62
     7
100
AcDbLine
 10
6002.7765084356
 20
5163.1808084697
 30
0.0
 11
6002.1818701476
 21
5163.1807935686
 31
0.0
  0
LINE
  5
185
330
1F
100
AcDbEntity
  8
0
  6
Continuous
 62
     7
100
AcDbLine
 10
6002.7766574472
 20
5160.9223847539
 30
0.0
 11
6002.7765084356
 21
5163.1808084697
 31
0.0
  0
LINE
  5
186
330
1F
100
AcDbEntity
  8
0
  6
Continuous
 62
     7
100
AcDbLine
 10
6004.6962771863
 20
5160.9221463353
 30
0.0
 11
6002.7766574472
 21
5160.9223847539
 31
0.0
  0
LINE
  5
187
330
1F
100
AcDbEntity
  8
0
  6
Continuous
 62
     7
100
AcDbLine
 10
6004.6956662387
 20
5161.6568071098
 30
0.0
 11
6004.6962771863
 21
5160.9221463353
 31
0.0
  0
LINE
  5
188
330
1F
100
AcDbEntity
  8
0
  6
Continuous
 62
     7
100
AcDbLine
 10
6003.4017388076
 20
5161.6561291069
 30
0.0
 11
6004.6956662387
 21
5161.6568071098
 31
0.0
  0
LINE
  5
189
330
1F
100
AcDbEntity
  8
0
  6
Continuous
 62
     7
100
AcDbLine
 10
6003.4014556855
 20
5163.1936942489
 30
0.0
 11
6003.4017388076
 21
5161.6561291069
 31
0.0
  0
LINE
  5
18A
330
1F
100
AcDbEntity
  8
0
  6
Continuous
 62
     7
100
AcDbLine
 10
6005.9378717393
 20
5165.9298454673
 30
0.0
 11
6005.9340644926
 21
5161.5477976651
 31
0.0
  0
LINE
  5
18B
330
1F
100
AcDbEntity
  8
0
  6
Continuous
 62
     7
100
AcDbLine
 10
6005.195436284
 20
5165.9257401974
 30
0.0
 11
6005.9378717393
 21
5165.9298454673
 31
0.0
  0
LINE
  5
18C
330
1F
100
AcDbEntity
  8
0
  6
Continuous
 62
     7
100
AcDbLine
 10
6005.2043844313
 20
5160.9135930688
 30
0.0
 11
6005.195436284
 21
5165.9257401974
 31
0.0
  0
LINE
  5
18D
330
1F
100
AcDbEntity
  8
0
  6
Continuous
 62
     7
100
AcDbLine
 10
6007.3539141864
 20
5160.9095995576
 30
0.0
 11
6005.2043844313
 21
5160.9135930688
 31
0.0
  0
LINE
  5
18E
330
1F
100
AcDbEntity
  8
0
  6
Continuous
 62
     7
100
AcDbLine
 10
6007.4706498832
 20
5160.9094281942
 30
0.0
 11
6007.3539141864
 21
5160.9095995576
 31
0.0
  0
LINE
  5
18F
330
1F
100
AcDbEntity
  8
0
  6
Continuous
 62
     7
100
AcDbLine
 10
6007.4750531763
 20
5161.5524617285
 30
0.0
 11
6007.4706498832
 21
5160.9094281942
 31
0.0
  0
LINE
  5
190
330
1F
100
AcDbEntity
  8
0
  6
Continuous
 62
     7
100
AcDbLine
 10
6007.3541004509
 20
5161.5517949016
 30
0.0
 11
6007.4750531763
 21
5161.5524617285
 31
0.0
  0
LINE
  5
191
330
1F
100
AcDbEntity
  8
0
  6
Continuous
 62
     7
100
AcDbLine
 10
6005.9340644926
 20
5161.5477976651
 30
0.0
 11
6007.3541004509
 21
5161.5517949016
 31
0.0
  0
LINE
  5
192
330
1F
100
AcDbEntity
  8
0
  6
Continuous
 62
     7
100
AcDbLine
 10
6016.3646985144
 20
5167.910865441
 30
0.0
 11
6016.3606453985
 21
5167.9108728916
 31
0.0
  0
LINE
  5
193
330
1F
100
AcDbEntity
  8
0
  6
Continuous
 62
     7
100
AcDbLine
 10
6016.3606826514
 20
5166.781491533
 30
0.0
 11
6016.36489968
 21
5166.7814840824
 31
0.0
  0
LINE
  5
194
330
1F
100
AcDbEntity
  8
0
  6
Continuous
 62
     7
100
AcDbLine
 10
6014.1676117033
 20
5165.0139306933
 30
0.0
 11
6014.1632158607
 21
5165.0095497519
 31
0.0
  0
LINE
  5
195
330
1F
100
AcDbEntity
  8
0
  6
Continuous
 62
     7
100
AcDbLine
 10
6014.0680793971
 20
5164.8871329875
 30
0.0
 11
6013.9417995066
 21
5164.995229736
 31
0.0
  0
LINE
  5
196
330
1F
100
AcDbEntity
  8
0
  6
Continuous
 62
     7
100
AcDbLine
 10
6015.0433305949
 20
5165.4306230397
 30
0.0
 11
6015.0550578088
 21
5165.4260483832
 31
0.0
  0
LINE
  5
197
330
1F
100
AcDbEntity
  8
0
  6
Continuous
 62
     7
100
AcDbLine
 10
6015.0550578088
 20
5165.4260483832
 30
0.0
 11
6015.060116753
 21
5165.4234220535
 31
0.0
  0
LINE
  5
198
330
1F
100
AcDbEntity
  8
0
  6
Continuous
 62
     7
100
AcDbLine
 10
6015.060116753
 20
5165.4234220535
 30
0.0
 11
6015.0647733659
 21
5165.4331227095
 31
0.0
  0
LINE
  5
199
330
1F
100
AcDbEntity
  8
0
  6
Continuous
 62
     7
100
AcDbLine
 10
6013.1120357961
 20
5167.198526606
 30
0.0
 11
6013.085869357
 21
5167.1940078289
 31
0.0
  0
LINE
  5
19A
330
1F
100
AcDbEntity
  8
0
  6
Continuous
 62
     7
100
AcDbLine
 10
6012.734537229
 20
5167.1678935439
 30
0.0
 11
6012.6994598955
 21
5167.1939854772
 31
0.0
  0
LINE
  5
19B
330
1F
100
AcDbEntity
  8
0
  6
Continuous
 62
     7
100
AcDbLine
 10
6011.0059727281
 20
5167.893270895
 30
0.0
 11
6011.0059503764
 21
5167.8801876754
 31
0.0
  0
LINE
  5
19C
330
1F
100
AcDbEntity
  8
0
  6
Continuous
 62
     7
100
AcDbLine
 10
6011.0059503764
 20
5167.8801876754
 30
0.0
 11
6011.005957827
 21
5167.6543643028
 31
0.0
  0
LINE
  5
19D
330
1F
100
AcDbEntity
  8
0
  6
Continuous
 62
     7
100
AcDbLine
 10
6011.1961935014
 20
5165.6287451536
 30
0.0
 11
6011.1728359312
 21
5165.5864519329
 31
0.0
  0
LINE
  5
19E
330
1F
100
AcDbEntity
  8
0
  6
Continuous
 62
     7
100
AcDbLine
 10
6011.2276871055
 20
5165.5212519021
 30
0.0
 11
6011.2463359088
 21
5165.5188192875
 31
0.0
  0
LINE
  5
19F
330
1F
100
AcDbEntity
  8
0
  6
Continuous
 62
     7
100
AcDbLine
 10
6013.1123263687
 20
5160.3103679866
 30
0.0
 11
6013.1603528112
 21
5160.3103828878
 31
0.0
  0
LINE
  5
1A0
330
1F
100
AcDbEntity
  8
0
  6
Continuous
 62
     7
100
AcDbLine
 10
6015.2925376147
 20
5162.6383950264
 30
0.0
 11
6015.292567417
 21
5162.7731462271
 31
0.0
  0
LINE
  5
1A1
330
1F
100
AcDbEntity
  8
0
  6
Continuous
 62
     7
100
AcDbLine
 10
5877.2494692654
 20
5140.1745368988
 30
0.0
 11
6027.2494752258
 21
5140.1745368988
 31
0.0
  0
LINE
  5
1A2
330
1F
100
AcDbEntity
  8
0
  6
Continuous
 62
     7
100
AcDbLine
 10
5877.2494692654
 20
5140.1745368988
 30
0.0
 11
5877.2494639009
 21
5150.1745368988
 31
0.0
  0
LINE
  5
1A3
330
1F
100
AcDbEntity
  8
0
  6
Continuous
 62
     7
100
AcDbLine
 10
5877.2494692654
 20
5310.1745386869
 30
0.0
 11
5877.2494639009
 21
5300.1745386869
 31
0.0
  0
LINE
  5
1A4
330
1F
100
AcDbEntity
  8
0
  6
Continuous
 62
     7
100
AcDbLine
 10
6027.2494752258
 20
5310.1745386869
 30
0.0
 11
5877.2494692654
 21
5310.1745386869
 31
0.0
  0
LINE
  5
1A5
330
1F
100
AcDbEntity
  8
0
  6
Continuous
 62
     7
100
AcDbLine
 10
6016.4778355807
 20
5167.3027714045
 30
0.0
 11
6016.4344881028
 21
5167.3246984632
 31
0.0
  0
LINE
  5
1A6
330
1F
100
AcDbEntity
  8
0
  6
Continuous
 62
     7
100
AcDbLine
 10
6016.395402357
 20
5167.611184463
 30
0.0
 11
6016.3737956733
 21
5167.6112142653
 31
0.0
  0
LINE
  5
1A7
330
1F
100
AcDbEntity
  8
0
  6
Continuous
 62
     7
100
AcDbLine
 10
6016.3737956733
 20
5167.6112142653
 30
0.0
 11
6016.1696199626
 21
5167.6111770124
 31
0.0
  0
LINE
  5
1A8
330
1F
100
AcDbEntity
  8
0
  6
Continuous
 62
     7
100
AcDbLine
 10
6016.1696199626
 20
5167.6111770124
 30
0.0
 11
6016.1697093696
 21
5167.0944084675
 31
0.0
  0
LINE
  5
1A9
330
1F
100
AcDbEntity
  8
0
  6
Continuous
 62
     7
100
AcDbLine
 10
6016.1697093696
 20
5167.0944084675
 30
0.0
 11
6016.2389178127
 21
5167.094389841
 31
0.0
  0
LINE
  5
1AA
330
1F
100
AcDbEntity
  8
0
  6
Continuous
 62
     7
100
AcDbLine
 10
6016.2389178127
 20
5167.094389841
 30
0.0
 11
6016.2389103621
 21
5167.3202169389
 31
0.0
  0
LINE
  5
1AB
330
1F
100
AcDbEntity
  8
0
  6
Continuous
 62
     7
100
AcDbLine
 10
6016.2389103621
 20
5167.3202169389
 30
0.0
 11
6016.3171563596
 21
5167.3201834113
 31
0.0
  0
LINE
  5
1AC
330
1F
100
AcDbEntity
  8
0
  6
Continuous
 62
     7
100
AcDbLine
 10
6016.3171563596
 20
5167.3201834113
 30
0.0
 11
6016.3518462628
 21
5167.3202169389
 31
0.0
  0
LINE
  5
1AD
330
1F
100
AcDbEntity
  8
0
  6
Continuous
 62
     7
100
AcDbLine
 10
6016.3518462628
 20
5167.3202169389
 30
0.0
 11
6016.3736913651
 21
5167.3114513309
 31
0.0
  0
LINE
  5
1AE
330
1F
100
AcDbEntity
  8
0
  6
Continuous
 62
     7
100
AcDbLine
 10
6016.3736913651
 20
5167.3114513309
 30
0.0
 11
6016.3823787421
 21
5167.3069660813
 31
0.0
  0
LINE
  5
1AF
330
1F
100
AcDbEntity
  8
0
  6
Continuous
 62
     7
100
AcDbLine
 10
6016.3823787421
 20
5167.3069660813
 30
0.0
 11
6016.4170239419
 21
5167.2723506839
 31
0.0
  0
LINE
  5
1B0
330
1F
100
AcDbEntity
  8
0
  6
Continuous
 62
     7
100
AcDbLine
 10
6016.4691631049
 20
5167.2027659864
 30
0.0
 11
6016.5387291759
 21
5167.0943712146
 31
0.0
  0
LINE
  5
1B1
330
1F
100
AcDbEntity
  8
0
  6
Continuous
 62
     7
100
AcDbLine
 10
6016.5387291759
 20
5167.0943712146
 30
0.0
 11
6016.621192202
 21
5167.094337687
 31
0.0
  0
LINE
  5
1B2
330
1F
100
AcDbEntity
  8
0
  6
Continuous
 62
     7
100
AcDbLine
 10
6016.621192202
 20
5167.094337687
 30
0.0
 11
6016.5342960805
 21
5167.2376980335
 31
0.0
  0
LINE
  5
1B3
330
1F
100
AcDbEntity
  8
0
  6
Continuous
 62
     7
100
AcDbLine
 10
6016.4953146428
 20
5167.4200286419
 30
0.0
 11
6016.4562736005
 21
5167.389488712
 31
0.0
  0
LINE
  5
1B4
330
1F
100
AcDbEntity
  8
0
  6
Continuous
 62
     7
100
AcDbLine
 10
6016.3824085444
 20
5167.3809466214
 30
0.0
 11
6016.3737137169
 21
5167.3809577972
 31
0.0
  0
LINE
  5
1B5
330
1F
100
AcDbEntity
  8
0
  6
Continuous
 62
     7
100
AcDbLine
 10
6016.3737062663
 20
5167.5504436047
 30
0.0
 11
6016.399701342
 21
5167.5504883081
 31
0.0
  0
LINE
  5
1B6
330
1F
100
AcDbEntity
  8
0
  6
Continuous
 62
     7
100
AcDbLine
 10
6016.5082115978
 20
5167.4680774362
 30
0.0
 11
6016.4953146428
 21
5167.4200286419
 31
0.0
  0
LINE
  5
1B7
330
1F
100
AcDbEntity
  8
0
  6
Continuous
 62
     7
100
AcDbLine
 10
6016.2389103621
 20
5167.550473407
 30
0.0
 11
6016.3737062663
 21
5167.5504436047
 31
0.0
  0
LINE
  5
1B8
330
1F
100
AcDbEntity
  8
0
  6
Continuous
 62
     7
100
AcDbLine
 10
6016.3737137169
 20
5167.3809577972
 30
0.0
 11
6016.2389178127
 21
5167.3809875996
 31
0.0
  0
LINE
  5
1B9
330
1F
100
AcDbEntity
  8
0
  6
Continuous
 62
     7
100
AcDbLine
 10
6016.2389178127
 20
5167.3809875996
 30
0.0
 11
6016.2389103621
 21
5167.550473407
 31
0.0
  0
LINE
  5
1BA
330
1F
100
AcDbEntity
  8
0
  6
Continuous
 62
     7
100
AcDbLine
 10
6011.2460378856
 20
5165.6603244395
 30
0.0
 11
6011.2434227318
 21
5165.6587672681
 31
0.0
  0
LINE
  5
1BB
330
1F
100
AcDbEntity
  8
0
  6
Continuous
 62
     7
100
AcDbLine
 10
6013.1121028513
 20
5166.2039001734
 30
0.0
 11
6013.1643388718
 21
5166.199519232
 31
0.0
  0
LINE
  5
1BC
330
1F
100
AcDbEntity
  8
0
  6
Continuous
 62
     7
100
AcDbLine
 10
6013.8376701921
 20
5166.4514084608
 30
0.0
 11
6013.8591353148
 21
5166.4687645883
 31
0.0
  0
LINE
  5
1BD
330
1F
100
AcDbEntity
  8
0
  6
Continuous
 62
     7
100
AcDbLine
 10
6013.1599430293
 20
5166.077981636
 30
0.0
 11
6013.1120879501
 21
5166.0779667348
 31
0.0
  0
LINE
  5
1BE
330
1F
100
AcDbEntity
  8
0
  6
Continuous
 62
     7
100
AcDbLine
 10
6013.911520347
 20
5164.9531972856
 30
0.0
 11
6013.9147389978
 21
5164.9577086122
 31
0.0
  0
LINE
  5
1BF
330
1F
100
AcDbEntity
  8
0
  6
Continuous
 62
     7
100
AcDbLine
 10
6013.6598248333
 20
5162.2429442853
 30
0.0
 11
6013.6860657781
 21
5162.2389395983
 31
0.0
  0
LINE
  5
1C0
330
1F
100
AcDbEntity
  8
0
  6
Continuous
 62
     7
100
AcDbLine
 10
6013.2598255128
 20
5165.0614318699
 30
0.0
 11
6013.3598421067
 21
5165.0614542217
 31
0.0
  0
LINE
  5
1C1
330
1F
100
AcDbEntity
  8
0
  6
Continuous
 62
     7
100
AcDbLine
 10
6013.3598272055
 20
5165.1659486145
 30
0.0
 11
6013.1120954007
 21
5165.1658890099
 31
0.0
  0
LINE
  5
1C2
330
1F
100
AcDbEntity
  8
0
  6
Continuous
 62
     7
100
AcDbLine
 10
6013.1120954007
 20
5165.1658890099
 30
0.0
 11
6012.9603345245
 21
5165.1658145041
 31
0.0
  0
LINE
  5
1C3
330
1F
100
AcDbEntity
  8
0
  6
Continuous
 62
     7
100
AcDbLine
 10
6012.9603568763
 20
5165.0613238365
 30
0.0
 11
6013.0559850782
 21
5165.0613499135
 31
0.0
  0
LINE
  5
1C4
330
1F
100
AcDbEntity
  8
0
  6
Continuous
 62
     7
100
AcDbLine
 10
6013.1034974307
 20
5167.1289903373
 30
0.0
 11
6013.1121028513
 21
5167.1289791615
 31
0.0
  0
LINE
  5
1C5
330
1F
100
AcDbEntity
  8
0
  6
Continuous
 62
     7
100
AcDbLine
 10
6013.850641653
 20
5166.5468094201
 30
0.0
 11
6013.8376254886
 21
5166.5339571685
 31
0.0
  0
LINE
  5
1C6
330
1F
100
AcDbEntity
  8
0
  6
Continuous
 62
     7
100
AcDbLine
 10
6013.164353773
 20
5166.2647639663
 30
0.0
 11
6013.1121103019
 21
5166.2690629513
 31
0.0
  0
LINE
  5
1C7
330
1F
100
AcDbEntity
  8
0
  6
Continuous
 62
     7
100
AcDbLine
 10
6013.9330972284
 20
5167.0028557331
 30
0.0
 11
6013.9115054458
 21
5167.0160544366
 31
0.0
  0
LINE
  5
1C8
330
1F
100
AcDbEntity
  8
0
  6
Continuous
 62
     7
100
AcDbLine
 10
6013.8376180381
 20
5167.0506437571
 30
0.0
 11
6013.7984726876
 21
5167.0636561961
 31
0.0
  0
LINE
  5
1C9
330
1F
100
AcDbEntity
  8
0
  6
Continuous
 62
     7
100
AcDbLine
 10
6013.7984726876
 20
5167.0636561961
 30
0.0
 11
6013.8376031369
 21
5167.0984988362
 31
0.0
  0
LINE
  5
1CA
330
1F
100
AcDbEntity
  8
0
  6
Continuous
 62
     7
100
AcDbLine
 10
6013.1167743653
 20
5162.134478733
 30
0.0
 11
6013.1123338193
 21
5162.1039723308
 31
0.0
  0
LINE
  5
1CB
330
1F
100
AcDbEntity
  8
0
  6
Continuous
 62
     7
100
AcDbLine
 10
6013.1121103019
 20
5164.7141118795
 30
0.0
 11
6013.1427470893
 21
5164.709973082
 31
0.0
  0
LINE
  5
1CC
330
1F
100
AcDbEntity
  8
0
  6
Continuous
 62
     7
100
AcDbLine
 10
6013.6857752055
 20
5165.6697904021
 30
0.0
 11
6013.6811334938
 21
5165.669712171
 31
0.0
  0
LINE
  5
1CD
330
1F
100
AcDbEntity
  8
0
  6
Continuous
 62
     7
100
AcDbLine
 10
6013.681058988
 20
5165.9649600536
 30
0.0
 11
6013.6857006997
 21
5165.9650382847
 31
0.0
  0
LINE
  5
1CE
330
1F
100
AcDbEntity
  8
0
  6
Continuous
 62
     7
100
AcDbLine
 10
6012.7041463107
 20
5160.42757307
 30
0.0
 11
6012.6998473257
 21
5160.4320508689
 31
0.0
  0
LINE
  5
1CF
330
1F
100
AcDbEntity
  8
0
  6
Continuous
 62
     7
100
AcDbLine
 10
6011.5316633433
 20
5166.4078598172
 30
0.0
 11
6011.4790547937
 21
5166.3340394647
 31
0.0
  0
LINE
  5
1D0
330
1F
100
AcDbEntity
  8
0
  6
Continuous
 62
     7
100
AcDbLine
 10
6009.5687110275
 20
5164.1405810863
 30
0.0
 11
6009.5683384985
 21
5163.8847505004
 31
0.0
  0
LINE
  5
1D1
330
1F
100
AcDbEntity
  8
0
  6
Continuous
 62
     7
100
AcDbLine
 10
6008.9953143448
 20
5163.8847057969
 30
0.0
 11
6008.4171343893
 21
5163.8847095222
 31
0.0
  0
LINE
  5
1D2
330
1F
100
AcDbEntity
  8
0
  6
Continuous
 62
     7
100
AcDbLine
 10
6008.4171343893
 20
5163.8847095222
 30
0.0
 11
6008.4174994677
 21
5164.1318862588
 31
0.0
  0
LINE
  5
1D3
330
1F
100
AcDbEntity
  8
0
  6
Continuous
 62
     7
100
AcDbLine
 10
6008.9472953528
 20
5165.3308001608
 30
0.0
 11
6008.9948971123
 21
5165.3307293803
 31
0.0
  0
LINE
  5
1D4
330
1F
100
AcDbEntity
  8
0
  6
Continuous
 62
     7
100
AcDbLine
 10
6008.9948971123
 20
5165.3307293803
 30
0.0
 11
6009.1771979183
 21
5165.3218110353
 31
0.0
  0
LINE
  5
1D5
330
1F
100
AcDbEntity
  8
0
  6
Continuous
 62
     7
100
AcDbLine
 10
6009.5683384985
 20
5163.8847505004
 30
0.0
 11
6008.9953143448
 21
5163.8847057969
 31
0.0
  0
LINE
  5
1D6
330
1F
100
AcDbEntity
  8
0
  6
Continuous
 62
     7
100
AcDbLine
 10
5997.981873557
 20
5164.153217271
 30
0.0
 11
5997.9771945924
 21
5163.8965484948
 31
0.0
  0
LINE
  5
1D7
330
1F
100
AcDbEntity
  8
0
  6
Continuous
 62
     7
100
AcDbLine
 10
5997.9771945924
 20
5163.8965484948
 30
0.0
 11
5997.4084694237
 21
5163.8964963407
 31
0.0
  0
LINE
  5
1D8
330
1F
100
AcDbEntity
  8
0
  6
Continuous
 62
     7
100
AcDbLine
 10
5997.4084694237
 20
5163.8964963407
 30
0.0
 11
5996.8311388344
 21
5163.8964963407
 31
0.0
  0
LINE
  5
1D9
330
1F
100
AcDbEntity
  8
0
  6
Continuous
 62
     7
100
AcDbLine
 10
5996.8311388344
 20
5163.8964963407
 30
0.0
 11
5996.8306172937
 21
5164.1445634217
 31
0.0
  0
LINE
  5
1DA
330
1F
100
AcDbEntity
  8
0
  6
Continuous
 62
     7
100
AcDbLine
 10
5997.3691154569
 20
5165.3434214444
 30
0.0
 11
5997.4088568539
 21
5165.3390591294
 31
0.0
  0
LINE
  5
1DB
330
1F
100
AcDbEntity
  8
0
  6
Continuous
 62
     7
100
AcDbLine
 10
5997.4088568539
 20
5165.3390591294
 30
0.0
 11
5997.5903529972
 21
5165.3301445097
 31
0.0
  0
LINE
  5
1DC
330
1F
100
AcDbEntity
  8
0
  6
Continuous
 62
     7
100
AcDbLine
 10
5867.2494639009
 20
5300.1745333225
 30
0.0
 11
5867.2494639009
 21
5150.1745348126
 31
0.0
  0
LINE
  5
1DD
330
1F
100
AcDbEntity
  8
0
  6
Continuous
 62
     7
100
AcDbLine
 10
5867.2494639009
 20
5300.1745333225
 30
0.0
 11
5877.2494639009
 21
5300.1745386869
 31
0.0
  0
LINE
  5
1DE
330
1F
100
AcDbEntity
  8
0
  6
Continuous
 62
     7
100
AcDbLine
 10
5867.2494639009
 20
5150.1745348126
 30
0.0
 11
5877.2494639009
 21
5150.1745368988
 31
0.0
  0
LINE
  5
1DF
330
1F
100
AcDbEntity
  8
0
  6
Continuous
 62
     7
100
AcDbLine
 10
5952.3692328781
 20
5138.818516329
 30
0.0
 11
5940.6856496185
 21
5138.818516329
 31
0.0
  0
LINE
  5
1E0
330
1F
100
AcDbEntity
  8
0
  6
Continuous
 62
     7
100
AcDbLine
 10
5964.1266513914
 20
5138.818516329
 30
0.0
 11
5952.3692328781
 21
5138.818516329
 31
0.0
  0
LINE
  5
1E1
330
1F
100
AcDbEntity
  8
0
  6
Continuous
 62
     7
100
AcDbLine
 10
5938.2494736761
 20
4838.1463505966
 30
0.0
 11
5938.2494736761
 21
4837.6463514459
 31
0.0
  0
LINE
  5
1E2
330
1F
100
AcDbEntity
  8
0
  6
Continuous
 62
     7
100
AcDbLine
 10
5966.2494708151
 20
4837.6463514459
 30
0.0
 11
5966.2494708151
 21
4838.1463505966
 31
0.0
  0
LINE
  5
1E3
330
1F
100
AcDbEntity
  8
0
  6
Continuous
 62
     7
100
AcDbLine
 10
5938.2494736761
 20
4837.6463514459
 30
0.0
 11
5939.7494692654
 21
4836.1463521314
 31
0.0
  0
LINE
  5
1E4
330
1F
100
AcDbEntity
  8
0
  6
Continuous
 62
     7
100
AcDbLine
 10
5964.7494752258
 20
4836.1463521314
 30
0.0
 11
5966.2494708151
 21
4837.6463514459
 31
0.0
  0
LINE
  5
1E5
330
1F
100
AcDbEntity
  8
0
  6
Continuous
 62
     7
100
AcDbLine
 10
6017.906149134
 20
4851.0463510347
 30
0.0
 11
6017.906149134
 21
4920.6463538748
 31
0.0
  0
LINE
  5
1E6
330
1F
100
AcDbEntity
  8
0
  6
Continuous
 62
     7
100
AcDbLine
 10
5886.9061518759
 20
4920.6463538748
 30
0.0
 11
5886.9061518759
 21
4851.0463510347
 31
0.0
  0
LINE
  5
1E7
330
1F
100
AcDbEntity
  8
0
  6
Continuous
 62
     7
100
AcDbLine
 10
6016.5821511597
 20
4838.1401014221
 30
0.0
 11
6016.5821511597
 21
4838.1463505966
 31
0.0
  0
LINE
  5
1E8
330
1F
100
AcDbEntity
  8
0
  6
Continuous
 62
     7
100
AcDbLine
 10
6013.8288934082
 20
4838.1401014221
 30
0.0
 11
6013.8288934082
 21
4838.1463505966
 31
0.0
  0
LINE
  5
1E9
330
1F
100
AcDbEntity
  8
0
  6
Continuous
 62
     7
100
AcDbLine
 10
6012.8471751064
 20
4838.1401014221
 30
0.0
 11
6012.8471751064
 21
4838.1463505966
 31
0.0
  0
LINE
  5
1EA
330
1F
100
AcDbEntity
  8
0
  6
Continuous
 62
     7
100
AcDbLine
 10
6013.4205196351
 20
4838.1401014221
 30
0.0
 11
6013.4205196351
 21
4838.1463505966
 31
0.0
  0
LINE
  5
1EB
330
1F
100
AcDbEntity
  8
0
  6
Continuous
 62
     7
100
AcDbLine
 10
6013.2057193965
 20
4838.1463505966
 30
0.0
 11
6013.2057193965
 21
4838.1401014221
 31
0.0
  0
LINE
  5
1EC
330
1F
100
AcDbEntity
  8
0
  6
Continuous
 62
     7
100
AcDbLine
 10
6012.8051761836
 20
4838.1401014221
 30
0.0
 11
6012.8051761836
 21
4838.1463505966
 31
0.0
  0
LINE
  5
1ED
330
1F
100
AcDbEntity
  8
0
  6
Continuous
 62
     7
100
AcDbLine
 10
6015.2925376147
 20
4838.1401014221
 30
0.0
 11
6015.2925376147
 21
4838.1463505966
 31
0.0
  0
LINE
  5
1EE
330
1F
100
AcDbEntity
  8
0
  6
Continuous
 62
     7
100
AcDbLine
 10
6013.1110150665
 20
4838.1463505966
 30
0.0
 11
6013.1110150665
 21
4838.1401014221
 31
0.0
  0
LINE
  5
1EF
330
1F
100
AcDbEntity
  8
0
  6
Continuous
 62
     7
100
AcDbLine
 10
5966.2466842979
 20
4837.6463514459
 30
0.0
 11
5966.2494708151
 21
4837.6463514459
 31
0.0
  0
LINE
  5
1F0
330
1F
100
AcDbEntity
  8
0
  6
Continuous
 62
     7
100
AcDbLine
 10
5938.2494736761
 20
4837.6463514459
 30
0.0
 11
5966.2466842979
 21
4837.6463514459
 31
0.0
  0
LINE
  5
1F1
330
1F
100
AcDbEntity
  8
0
  6
Continuous
 62
     7
100
AcDbLine
 10
5964.7494752258
 20
4836.1463521314
 30
0.0
 11
5939.7494692654
 21
4836.1463521314
 31
0.0
  0
LINE
  5
1F2
330
1F
100
AcDbEntity
  8
0
  6
Continuous
 62
     7
100
AcDbLine
 10
6003.2836098522
 20
4851.0463510347
 30
0.0
 11
6003.2836098522
 21
4848.1463513044
 31
0.0
  0
LINE
  5
1F3
330
1F
100
AcDbEntity
  8
0
  6
Continuous
 62
     7
100
AcDbLine
 10
6022.406150803
 20
4851.0463510347
 30
0.0
 11
6022.406150803
 21
4848.1463513044
 31
0.0
  0
LINE
  5
1F4
330
1F
100
AcDbEntity
  8
0
  6
Continuous
 62
     7
100
AcDbLine
 10
6003.2836098522
 20
4851.0463510347
 30
0.0
 11
6022.406150803
 21
4851.0463510347
 31
0.0
  0
LINE
  5
1F5
330
1F
100
AcDbEntity
  8
0
  6
Continuous
 62
     7
100
AcDbLine
 10
5882.4061502069
 20
4851.0463510347
 30
0.0
 11
5882.4061502069
 21
4848.1463513044
 31
0.0
  0
LINE
  5
1F6
330
1F
100
AcDbEntity
  8
0
  6
Continuous
 62
     7
100
AcDbLine
 10
5901.5286911577
 20
4851.0463510347
 30
0.0
 11
5901.5286911577
 21
4848.1463513044
 31
0.0
  0
LINE
  5
1F7
330
1F
100
AcDbEntity
  8
0
  6
Continuous
 62
     7
100
AcDbLine
 10
5901.5286911577
 20
4851.0463510347
 30
0.0
 11
5882.4061502069
 21
4851.0463510347
 31
0.0
  0
LINE
  5
1F8
330
1F
100
AcDbEntity
  8
0
  6
Continuous
 62
     7
100
AcDbLine
 10
6003.2836098522
 20
4851.0463510347
 30
0.0
 11
5901.5286911577
 21
4851.0463510347
 31
0.0
  0
LINE
  5
1F9
330
1F
100
AcDbEntity
  8
0
  6
Continuous
 62
     7
100
AcDbLine
 10
5903.3914257139
 20
4851.0463510347
 30
0.0
 11
5903.3914257139
 21
4920.6463538748
 31
0.0
  0
LINE
  5
1FA
330
1F
100
AcDbEntity
  8
0
  6
Continuous
 62
     7
100
AcDbLine
 10
5897.9772229046
 20
4851.0463510347
 30
0.0
 11
5897.9772229046
 21
4920.6463538748
 31
0.0
  0
LINE
  5
1FB
330
1F
100
AcDbEntity
  8
0
  6
Continuous
 62
     7
100
AcDbLine
 10
5897.9772229046
 20
4920.6463538748
 30
0.0
 11
5903.3914257139
 21
4920.6463538748
 31
0.0
  0
LINE
  5
1FC
330
1F
100
AcDbEntity
  8
0
  6
Continuous
 62
     7
100
AcDbLine
 10
6001.4208678454
 20
4851.0463510347
 30
0.0
 11
6001.4208678454
 21
4920.6463538748
 31
0.0
  0
LINE
  5
1FD
330
1F
100
AcDbEntity
  8
0
  6
Continuous
 62
     7
100
AcDbLine
 10
6006.8350855559
 20
4851.0463510347
 30
0.0
 11
6006.8350855559
 21
4920.6463538748
 31
0.0
  0
LINE
  5
1FE
330
1F
100
AcDbEntity
  8
0
  6
Continuous
 62
     7
100
AcDbLine
 10
6006.8350855559
 20
4920.6463538748
 30
0.0
 11
6001.4208678454
 21
4920.6463538748
 31
0.0
  0
LINE
  5
1FF
330
1F
100
AcDbEntity
  8
0
  6
Continuous
 62
     7
100
AcDbLine
 10
5903.3914257139
 20
4920.6463538748
 30
0.0
 11
6001.4208678454
 21
4920.6463538748
 31
0.0
  0
LINE
  5
200
330
1F
100
AcDbEntity
  8
0
  6
Continuous
 62
     7
100
AcDbLine
 10
6011.0777218193
 20
4851.0463510347
 30
0.0
 11
6011.0777218193
 21
4920.6463538748
 31
0.0
  0
LINE
  5
201
330
1F
100
AcDbEntity
  8
0
  6
Continuous
 62
     7
100
AcDbLine
 10
6017.906149134
 20
4920.6463538748
 30
0.0
 11
6011.0777218193
 21
4920.6463538748
 31
0.0
  0
LINE
  5
202
330
1F
100
AcDbEntity
  8
0
  6
Continuous
 62
     7
100
AcDbLine
 10
5893.7345791906
 20
4851.0463510347
 30
0.0
 11
5893.7345791906
 21
4920.6463538748
 31
0.0
  0
LINE
  5
203
330
1F
100
AcDbEntity
  8
0
  6
Continuous
 62
     7
100
AcDbLine
 10
5886.9061518759
 20
4920.6463538748
 30
0.0
 11
5893.7345791906
 21
4920.6463538748
 31
0.0
  0
LINE
  5
204
330
1F
100
AcDbEntity
  8
0
  6
Continuous
 62
     7
100
AcDbLine
 10
5893.7345791906
 20
4920.6463538748
 30
0.0
 11
5897.9772229046
 21
4920.6463538748
 31
0.0
  0
LINE
  5
205
330
1F
100
AcDbEntity
  8
0
  6
Continuous
 62
     7
100
AcDbLine
 10
6011.0777218193
 20
4920.6463538748
 30
0.0
 11
6006.8350855559
 21
4920.6463538748
 31
0.0
  0
LINE
  5
206
330
1F
100
AcDbEntity
  8
0
  6
Continuous
 62
     7
100
AcDbLine
 10
5886.9061518759
 20
4851.0463510347
 30
0.0
 11
5886.9061518759
 21
4920.6463538748
 31
0.0
  0
LINE
  5
207
330
1F
100
AcDbEntity
  8
0
  6
Continuous
 62
     7
100
AcDbLine
 10
6017.906149134
 20
4851.0463510347
 30
0.0
 11
6017.906149134
 21
4920.6463538748
 31
0.0
  0
LINE
  5
208
330
1F
100
AcDbEntity
  8
0
  6
Continuous
 62
     7
100
AcDbLine
 10
6022.406150803
 20
4848.219360475
 30
0.0
 11
6027.2494752258
 21
4848.219360475
 31
0.0
  0
LINE
  5
209
330
1F
100
AcDbEntity
  8
0
  6
Continuous
 62
     7
100
AcDbLine
 10
6027.2494752258
 20
4848.219360475
 30
0.0
 11
6027.2494731397
 21
4848.1463505966
 31
0.0
  0
LINE
  5
20A
330
1F
100
AcDbEntity
  8
0
  6
Continuous
 62
     7
100
AcDbLine
 10
5877.2494692654
 20
4848.219360475
 30
0.0
 11
5877.2494639009
 21
4848.1463505966
 31
0.0
  0
LINE
  5
20B
330
1F
100
AcDbEntity
  8
0
  6
Continuous
 62
     7
100
AcDbLine
 10
5882.4061502069
 20
4848.219360475
 30
0.0
 11
5877.2494692654
 21
4848.219360475
 31
0.0
  0
LINE
  5
20C
330
1F
100
AcDbEntity
  8
0
  6
Continuous
 62
     7
100
AcDbLine
 10
6027.2494752258
 20
4838.1463505966
 30
0.0
 11
5877.2494692654
 21
4838.1463505966
 31
0.0
  0
LINE
  5
20D
330
1F
100
AcDbEntity
  8
0
  6
Continuous
 62
     7
100
AcDbLine
 10
5877.2494639009
 20
4848.1463505966
 30
0.0
 11
5877.2494692654
 21
4838.1463505966
 31
0.0
  0
LINE
  5
20E
330
1F
100
AcDbEntity
  8
0
  6
Continuous
 62
     7
100
AcDbLine
 10
6027.2494752258
 20
4838.1463505966
 30
0.0
 11
6027.2494731397
 21
4848.1463505966
 31
0.0
  0
LINE
  5
20F
330
1F
100
AcDbEntity
  8
0
  6
Continuous
 62
     7
100
AcDbLine
 10
6027.2494731397
 20
4848.1463505966
 30
0.0
 11
5877.2494639009
 21
4848.1463505966
 31
0.0
  0
LINE
  5
210
330
1F
100
AcDbEntity
  8
0
  6
Continuous
 62
     7
100
AcDbLine
 10
5867.2494639009
 20
4848.1463513044
 30
0.0
 11
5877.2494639009
 21
4848.1463505966
 31
0.0
  0
LINE
  5
211
330
1F
100
AcDbEntity
  8
0
  6
Continuous
 62
     7
100
AcDbLine
 10
6027.2494731397
 20
4848.1463505966
 30
0.0
 11
6037.2494731397
 21
4848.1463513044
 31
0.0
  0
LINE
  5
212
330
1F
100
AcDbEntity
  8
0
  6
Continuous
 62
     7
100
AcDbLine
 10
5959.6847046465
 20
4893.8634798569
 30
0.0
 11
5959.1953356117
 21
4891.8249078733
 31
0.0
  0
LINE
  5
213
330
1F
100
AcDbEntity
  8
0
  6
Continuous
 62
     7
100
AcDbLine
 10
5963.7163032144
 20
4905.2810997409
 30
0.0
 11
5958.9068640322
 21
4906.6055410248
 31
0.0
  0
LINE
  5
214
330
1F
100
AcDbEntity
  8
0
  6
Continuous
 62
     7
100
AcDbLine
 10
5952.5125969499
 20
4908.366422419
 30
0.0
 11
5948.6873049587
 21
4909.4198488337
 31
0.0
  0
LINE
  5
215
330
1F
100
AcDbEntity
  8
0
  6
Continuous
 62
     7
100
AcDbLine
 10
5967.2237534374
 20
4891.8189734859
 30
0.0
 11
5963.7163032144
 21
4905.2810997409
 31
0.0
  0
LINE
  5
216
330
1F
100
AcDbEntity
  8
0
  6
Continuous
 62
     7
100
AcDbLine
 10
5963.7942213863
 20
4888.4366110605
 30
0.0
 11
5967.2237534374
 21
4891.8189734859
 31
0.0
  0
LINE
  5
217
330
1F
100
AcDbEntity
  8
0
  6
Continuous
 62
     7
100
AcDbLine
 10
5948.6873049587
 20
4909.4198488337
 30
0.0
 11
5945.8623726219
 21
4906.6337600988
 31
0.0
  0
LINE
  5
218
330
1F
100
AcDbEntity
  8
0
  6
Continuous
 62
     7
100
AcDbLine
 10
5941.0959977955
 20
4885.0116033745
 30
0.0
 11
5945.7296479792
 21
4883.7355666501
 31
0.0
  0
LINE
  5
219
330
1F
100
AcDbEntity
  8
0
  6
Continuous
 62
     7
100
AcDbLine
 10
5937.5885475725
 20
4898.4737314922
 30
0.0
 11
5941.0959977955
 21
4885.0116033745
 31
0.0
  0
LINE
  5
21A
330
1F
100
AcDbEntity
  8
0
  6
Continuous
 62
     7
100
AcDbLine
 10
5941.0104651302
 20
4901.848580007
 30
0.0
 11
5937.5885475725
 21
4898.4737314922
 31
0.0
  0
LINE
  5
21B
330
1F
100
AcDbEntity
  8
0
  6
Continuous
 62
     7
100
AcDbLine
 10
5952.2273887247
 20
4881.9461942357
 30
0.0
 11
5956.1249960512
 21
4880.8728542817
 31
0.0
  0
LINE
  5
21C
330
1F
100
AcDbEntity
  8
0
  6
Continuous
 62
     7
100
AcDbLine
 10
5956.1249960512
 20
4880.8728542817
 30
0.0
 11
5959.1358501762
 21
4883.8422980798
 31
0.0
  0
LWPOLYLINE
  5
21D
330
1F
100
AcDbEntity
  8
0
  6
Continuous
 62
     7
100
AcDbPolyline
 90
        3
 70
   128
 43
0.0
 10
6264.0533447266
 20
5306.9682111294
 10
6264.5326907549
 20
5306.6926043899
 10
6264.9075386724
 20
5306.4760481269
  0
LWPOLYLINE
  5
21E
330
1F
100
AcDbEntity
  8
0
  6
Continuous
 62
     7
100
AcDbPolyline
 90
        3
 70
   128
 43
0.0
 10
6264.0533447266
 20
5305.3807159216
 10
6264.5326895726
 20
5305.1051029632
 10
6264.9075386724
 20
5304.8885454685
  0
LWPOLYLINE
  5
21F
330
1F
100
AcDbEntity
  8
0
  6
Continuous
 62
     7
100
AcDbPolyline
 90
        3
 70
   128
 43
0.0
 10
6264.0533447266
 20
5303.7932132632
 10
6264.5326907549
 20
5303.5176065238
 10
6264.9075386724
 20
5303.3010502607
  0
LWPOLYLINE
  5
220
330
1F
100
AcDbEntity
  8
0
  6
Continuous
 62
     7
100
AcDbPolyline
 90
        3
 70
   128
 43
0.0
 10
6264.0533447266
 20
5302.2057106049
 10
6264.5326907549
 20
5301.9301038654
 10
6264.9075386724
 20
5301.7135476024
  0
LWPOLYLINE
  5
221
330
1F
100
AcDbEntity
  8
0
  6
Continuous
 62
     7
100
AcDbPolyline
 90
        3
 70
   128
 43
0.0
 10
6264.0533447266
 20
5300.6182153971
 10
6264.5326895726
 20
5300.3426024387
 10
6264.9075386724
 20
5300.126044944
  0
LWPOLYLINE
  5
222
330
1F
100
AcDbEntity
  8
0
  6
Continuous
 62
     7
100
AcDbPolyline
 90
        3
 70
   128
 43
0.0
 10
6289.6194458008
 20
5305.67777057
 10
6290.1036048375
 20
5305.9559195696
 10
6290.4819061658
 20
5306.1744635255
  0
LWPOLYLINE
  5
223
330
1F
100
AcDbEntity
  8
0
  6
Continuous
 62
     7
100
AcDbPolyline
 90
        3
 70
   128
 43
0.0
 10
6289.6194458008
 20
5304.0902679116
 10
6290.103602452
 20
5304.3684210406
 10
6290.4819061658
 20
5304.5869608671
  0
LWPOLYLINE
  5
224
330
1F
100
AcDbEntity
  8
0
  6
Continuous
 62
     7
100
AcDbPolyline
 90
        3
 70
   128
 43
0.0
 10
6289.6194458008
 20
5302.5027727038
 10
6290.1036048375
 20
5302.7809217034
 10
6290.4819061658
 20
5302.9994656593
  0
LWPOLYLINE
  5
225
330
1F
100
AcDbEntity
  8
0
  6
Continuous
 62
     7
100
AcDbPolyline
 90
        3
 70
   128
 43
0.0
 10
6289.6194458008
 20
5300.9152700455
 10
6290.103602452
 20
5301.1934231744
 10
6290.4819061658
 20
5301.411963001
  0
LWPOLYLINE
  5
226
330
1F
100
AcDbEntity
  8
0
  6
Continuous
 62
     7
100
AcDbPolyline
 90
        3
 70
   128
 43
0.0
 10
6289.6194458008
 20
5307.2652657778
 10
6289.9262002539
 20
5307.4409330591
 10
6290.1651112041
 20
5307.5789575727
  0
LWPOLYLINE
  5
227
330
1F
100
AcDbEntity
  8
0
  6
Continuous
 62
     7
100
AcDbPolyline
 90
        3
 70
   128
 43
0.0
 10
6264.9116516113
 20
5306.2913854868
 10
6264.4338862868
 20
5306.0132380064
 10
6264.0555834076
 20
5305.7946999819
  0
LWPOLYLINE
  5
228
330
1F
100
AcDbEntity
  8
0
  6
Continuous
 62
     7
100
AcDbPolyline
 90
        3
 70
   128
 43
0.0
 10
6264.9116516113
 20
5304.703890279
 10
6264.4338862868
 20
5304.4257427986
 10
6264.0555834076
 20
5304.2072047741
  0
LWPOLYLINE
  5
229
330
1F
100
AcDbEntity
  8
0
  6
Continuous
 62
     7
100
AcDbPolyline
 90
        3
 70
   128
 43
0.0
 10
6264.9116516113
 20
5303.1163876206
 10
6264.4338862868
 20
5302.8382401402
 10
6264.0555834076
 20
5302.6197021157
  0
LWPOLYLINE
  5
22A
330
1F
100
AcDbEntity
  8
0
  6
Continuous
 62
     7
100
AcDbPolyline
 90
        3
 70
   128
 43
0.0
 10
6264.9116516113
 20
5301.5288849623
 10
6264.4338862868
 20
5301.2507374819
 10
6264.0555834076
 20
5301.0321994574
  0
LWPOLYLINE
  5
22B
330
1F
100
AcDbEntity
  8
0
  6
Continuous
 62
     7
100
AcDbPolyline
 90
        3
 70
   128
 43
0.0
 10
6290.4815673828
 20
5305.000952378
 10
6290.0048296667
 20
5305.2765642293
 10
6289.6299713901
 20
5305.4931228311
  0
LWPOLYLINE
  5
22C
330
1F
100
AcDbEntity
  8
0
  6
Continuous
 62
     7
100
AcDbPolyline
 90
        3
 70
   128
 43
0.0
 10
6290.4815673828
 20
5303.4134497196
 10
6290.0048296667
 20
5303.689061571
 10
6289.6299713901
 20
5303.9056201727
  0
LWPOLYLINE
  5
22D
330
1F
100
AcDbEntity
  8
0
  6
Continuous
 62
     7
100
AcDbPolyline
 90
        3
 70
   128
 43
0.0
 10
6290.4815673828
 20
5301.8259545118
 10
6290.0048296667
 20
5302.1015663632
 10
6289.6299713901
 20
5302.3181249649
  0
LWPOLYLINE
  5
22E
330
1F
100
AcDbEntity
  8
0
  6
Continuous
 62
     7
100
AcDbPolyline
 90
        3
 70
   128
 43
0.0
 10
6290.4815673828
 20
5300.2384518535
 10
6290.0048296667
 20
5300.5140637048
 10
6289.6299713901
 20
5300.7306223065
  0
LWPOLYLINE
  5
22F
330
1F
100
AcDbEntity
  8
0
  6
Continuous
 62
     7
100
AcDbPolyline
 90
        3
 70
   128
 43
0.0
 10
6290.4815673828
 20
5306.5884475858
 10
6290.0048308491
 20
5306.8640656561
 10
6289.6299713901
 20
5307.0806254894
  0
LWPOLYLINE
  5
230
330
1F
100
AcDbEntity
  8
0
  6
Continuous
 62
     7
100
AcDbPolyline
 90
        3
 70
   128
 43
0.0
 10
6264.9116516113
 20
5307.8788881452
 10
6264.523896753
 20
5307.6527382573
 10
6264.2163185081
 20
5307.4750517756
  0
LWPOLYLINE
  5
231
330
1F
100
AcDbEntity
  8
0
  6
Continuous
 62
     7
100
AcDbPolyline
 90
        3
 70
   128
 43
0.0
 10
6290.4815673828
 20
5141.7955671699
 10
6290.0052274068
 20
5142.0714390224
 10
6289.6299937419
 20
5142.2881995589
  0
LWPOLYLINE
  5
232
330
1F
100
AcDbEntity
  8
0
  6
Continuous
 62
     7
100
AcDbPolyline
 90
        3
 70
   128
 43
0.0
 10
6290.4815673828
 20
5143.3830623776
 10
6290.0052285903
 20
5143.6589404512
 10
6289.6299937419
 20
5143.8757022173
  0
LWPOLYLINE
  5
233
330
1F
100
AcDbEntity
  8
0
  6
Continuous
 62
     7
100
AcDbPolyline
 90
        3
 70
   128
 43
0.0
 10
6290.4815673828
 20
5144.970565036
 10
6290.0052274068
 20
5145.2464368885
 10
6289.6299937419
 20
5145.4631974251
  0
LWPOLYLINE
  5
234
330
1F
100
AcDbEntity
  8
0
  6
Continuous
 62
     7
100
AcDbPolyline
 90
        3
 70
   128
 43
0.0
 10
6290.4815673828
 20
5146.5580676944
 10
6290.0052274068
 20
5146.8339395469
 10
6289.6299937419
 20
5147.0507000834
  0
LWPOLYLINE
  5
235
330
1F
100
AcDbEntity
  8
0
  6
Continuous
 62
     7
100
AcDbPolyline
 90
        3
 70
   128
 43
0.0
 10
6264.9116516113
 20
5141.4984454662
 10
6264.4329859528
 20
5141.2203304143
 10
6264.0547079644
 20
5141.0018121154
  0
LWPOLYLINE
  5
236
330
1F
100
AcDbEntity
  8
0
  6
Continuous
 62
     7
100
AcDbPolyline
 90
        3
 70
   128
 43
0.0
 10
6264.9116516113
 20
5143.085940674
 10
6264.4329871455
 20
5142.8078277297
 10
6264.0547079644
 20
5142.5893147737
  0
LWPOLYLINE
  5
237
330
1F
100
AcDbEntity
  8
0
  6
Continuous
 62
     7
100
AcDbPolyline
 90
        3
 70
   128
 43
0.0
 10
6264.9116516113
 20
5144.6734433324
 10
6264.4329871455
 20
5144.3953303881
 10
6264.0547079644
 20
5144.1768174321
  0
LWPOLYLINE
  5
238
330
1F
100
AcDbEntity
  8
0
  6
Continuous
 62
     7
100
AcDbPolyline
 90
        3
 70
   128
 43
0.0
 10
6264.9116516113
 20
5146.2609459908
 10
6264.4329859528
 20
5145.9828309389
 10
6264.0547079644
 20
5145.7643126399
  0
LWPOLYLINE
  5
239
330
1F
100
AcDbEntity
  8
0
  6
Continuous
 62
     7
100
AcDbPolyline
 90
        3
 70
   128
 43
0.0
 10
6264.8620605469
 20
5147.8185196669
 10
6264.410194025
 20
5147.5571617698
 10
6264.0547079644
 20
5147.3518152983
  0
LWPOLYLINE
  5
23A
330
1F
100
AcDbEntity
  8
0
  6
Continuous
 62
     7
100
AcDbPolyline
 90
        3
 70
   128
 43
0.0
 10
6290.3823852539
 20
5140.265381828
 10
6289.9615679582
 20
5140.5091566181
 10
6289.6299937419
 20
5140.7006969006
  0
LWPOLYLINE
  5
23B
330
1F
100
AcDbEntity
  8
0
  6
Continuous
 62
     7
100
AcDbPolyline
 90
        3
 70
   128
 43
0.0
 10
6289.6194458008
 20
5142.4745013268
 10
6290.1045218046
 20
5142.7526139624
 10
6290.4827983729
 20
5142.971127227
  0
LWPOLYLINE
  5
23C
330
1F
100
AcDbEntity
  8
0
  6
Continuous
 62
     7
100
AcDbPolyline
 90
        3
 70
   128
 43
0.0
 10
6289.6194458008
 20
5144.0619965345
 10
6290.1045218046
 20
5144.3401091702
 10
6290.4827983729
 20
5144.5586224348
  0
LWPOLYLINE
  5
23D
330
1F
100
AcDbEntity
  8
0
  6
Continuous
 62
     7
100
AcDbPolyline
 90
        3
 70
   128
 43
0.0
 10
6289.6194458008
 20
5145.6494991929
 10
6290.1045218046
 20
5145.9276118286
 10
6290.4827983729
 20
5146.1461250932
  0
LWPOLYLINE
  5
23E
330
1F
100
AcDbEntity
  8
0
  6
Continuous
 62
     7
100
AcDbPolyline
 90
        3
 70
   128
 43
0.0
 10
6289.6194458008
 20
5147.2370018513
 10
6290.1045206119
 20
5147.5151123794
 10
6290.4827983729
 20
5147.733620301
  0
LWPOLYLINE
  5
23F
330
1F
100
AcDbEntity
  8
0
  6
Continuous
 62
     7
100
AcDbPolyline
 90
        3
 70
   128
 43
0.0
 10
6264.0533447266
 20
5142.1773721725
 10
6264.5322833255
 20
5141.901500012
 10
6264.9075163207
 20
5141.6847397835
  0
LWPOLYLINE
  5
240
330
1F
100
AcDbEntity
  8
0
  6
Continuous
 62
     7
100
AcDbPolyline
 90
        3
 70
   128
 43
0.0
 10
6264.0533447266
 20
5143.7648748309
 10
6264.5322833255
 20
5143.4890026703
 10
6264.9075163207
 20
5143.2722424418
  0
LWPOLYLINE
  5
241
330
1F
100
AcDbEntity
  8
0
  6
Continuous
 62
     7
100
AcDbPolyline
 90
        3
 70
   128
 43
0.0
 10
6264.0533447266
 20
5145.3523700387
 10
6264.532284509
 20
5145.0765040993
 10
6264.9075163207
 20
5144.8597451002
  0
LWPOLYLINE
  5
242
330
1F
100
AcDbEntity
  8
0
  6
Continuous
 62
     7
100
AcDbPolyline
 90
        3
 70
   128
 43
0.0
 10
6264.0533447266
 20
5146.9398726971
 10
6264.5322833255
 20
5146.6640005365
 10
6264.9075163207
 20
5146.447240308
  0
LWPOLYLINE
  5
243
330
1F
100
AcDbEntity
  8
0
  6
Continuous
 62
     7
100
AcDbPolyline
 90
        3
 70
   128
 43
0.0
 10
6264.0533447266
 20
5140.5898769648
 10
6264.5322833255
 20
5140.3140048042
 10
6264.9075163207
 20
5140.0972445757
  0
LWPOLYLINE
  5
244
330
1F
100
AcDbEntity
  8
0
  6
Continuous
 62
     7
100
AcDbPolyline
 90
        3
 70
   128
 43
0.0
 10
6289.6194458008
 20
5140.8869986684
 10
6290.1045218046
 20
5141.1651113041
 10
6290.4827983729
 20
5141.3836245687
  0
LWPOLYLINE
  5
245
330
1F
100
AcDbEntity
  8
0
  6
Continuous
 62
     7
100
AcDbPolyline
 90
        7
 70
   128
 43
0.0
 10
6274.4674682617
 20
5307.3185150773
 10
6288.9825992628
 20
5307.532078085
 10
6290.1384429657
 20
5307.5866442369
 10
6290.1650133183
 20
5307.5958509126
 10
6290.1655418111
 20
5307.5981495478
 10
6290.164602921
 20
5307.6004474548
 10
6290.1602795026
 20
5307.6050420553
  0
LWPOLYLINE
  5
246
330
1F
100
AcDbEntity
  8
0
  6
Continuous
 62
     7
100
AcDbPolyline
 90
        3
 70
   128
 43
0.0
 10
6264.8658752441
 20
5308.1082617194
 10
6265.2431254065
 20
5308.1472925038
 10
6266.0888878307
 20
5308.1777756364
  0
LWPOLYLINE
  5
247
330
1F
100
AcDbEntity
  8
0
  6
Continuous
 62
     7
100
AcDbPolyline
 90
        5
 70
   128
 43
0.0
 10
6273.0903625488
 20
5308.1777756364
 10
6266.79237587
 20
5307.8077064752
 10
6264.9358463253
 20
5307.6256916217
 10
6264.4028457457
 20
5307.538563938
 10
6264.2055747709
 20
5307.4489598424
  0
LINE
  5
248
330
1F
100
AcDbEntity
  8
0
  6
Continuous
 62
     7
100
AcDbLine
 10
6266.0865783691
 20
5308.1777756364
 30
0.0
 11
6273.0923963389
 21
5308.1777756364
 31
0.0
  0
LWPOLYLINE
  5
249
330
1F
100
AcDbEntity
  8
0
  6
Continuous
 62
     7
100
AcDbPolyline
 90
        3
 70
   128
 43
0.0
 10
6274.4674682617
 20
5307.3185150773
 10
6266.3388452155
 20
5307.1265310152
 10
6264.0668151579
 20
5306.9767122418
  0
LWPOLYLINE
  5
24A
330
1F
100
AcDbEntity
  8
0
  6
Continuous
 62
     7
100
AcDbPolyline
 90
        3
 70
   128
 43
0.0
 10
6290.4090881348
 20
5306.1742847116
 10
6274.6003076284
 20
5305.7336031319
 10
6264.0668151579
 20
5305.3892095835
  0
LWPOLYLINE
  5
24B
330
1F
100
AcDbEntity
  8
0
  6
Continuous
 62
     7
100
AcDbPolyline
 90
        3
 70
   128
 43
0.0
 10
6290.4090881348
 20
5304.5867895038
 10
6274.6003076906
 20
5304.1461003938
 10
6264.0668151579
 20
5303.8017069251
  0
LWPOLYLINE
  5
24C
330
1F
100
AcDbEntity
  8
0
  6
Continuous
 62
     7
100
AcDbPolyline
 90
        3
 70
   128
 43
0.0
 10
6290.4090881348
 20
5302.9992868454
 10
6274.6003076116
 20
5302.5586060302
 10
6264.0668151579
 20
5302.2142117173
  0
LWPOLYLINE
  5
24D
330
1F
100
AcDbEntity
  8
0
  6
Continuous
 62
     7
100
AcDbPolyline
 90
        3
 70
   128
 43
0.0
 10
6290.4090881348
 20
5301.411784187
 10
6274.6003076284
 20
5300.9711026099
 10
6264.0668151579
 20
5300.626709059
  0
LWPOLYLINE
  5
24E
330
1F
100
AcDbEntity
  8
0
  6
Continuous
 62
     7
100
AcDbPolyline
 90
       13
 70
   128
 43
0.0
 10
6289.5889282227
 20
5307.2651242167
 10
6289.6041106177
 20
5307.2589561664
 10
6289.606627696
 20
5307.2566346399
 10
6289.606764845
 20
5307.2543067378
 10
6289.561648961
 20
5307.2402338936
 10
6288.5280277825
 20
5307.1658135368
 10
6277.0584725769
 20
5306.8732031392
 10
6265.837330158
 20
5306.5774581089
 10
6264.9747007283
 20
5306.5059091109
 10
6264.9667566698
 20
5306.4997436244
 10
6264.9667175892
 20
5306.4950841858
 10
6264.9703807173
 20
5306.4904026529
 10
6264.9838773212
 20
5306.481002763
  0
LWPOLYLINE
  5
24F
330
1F
100
AcDbEntity
  8
0
  6
Continuous
 62
     7
100
AcDbPolyline
 90
       13
 70
   128
 43
0.0
 10
6289.5889282227
 20
5305.6776215584
 10
6289.6041106179
 20
5305.6714534889
 10
6289.6066276956
 20
5305.6691320378
 10
6289.6067648435
 20
5305.6668042726
 10
6289.5616489465
 20
5305.6527332311
 10
6288.5280277754
 20
5305.5783131722
 10
6277.0584725706
 20
5305.2857003915
 10
6265.8373301604
 20
5304.9899546726
 10
6264.97470072
 20
5304.9184135488
 10
6264.966756664
 20
5304.91224683
 10
6264.9667175851
 20
5304.907586154
 10
6264.9703807146
 20
5304.9029031877
 10
6264.9838773212
 20
5304.8935001046
  0
LWPOLYLINE
  5
250
330
1F
100
AcDbEntity
  8
0
  6
Continuous
 62
     7
100
AcDbPolyline
 90
       13
 70
   128
 43
0.0
 10
6289.5889282227
 20
5304.0901189
 10
6289.6041106217
 20
5304.0839575165
 10
6289.6066276995
 20
5304.0816381249
 10
6289.6067648476
 20
5304.0793120788
 10
6289.5616489512
 20
5304.0652452571
 10
6288.5280277788
 20
5303.990808324
 10
6277.0584726489
 20
5303.6981979777
 10
6265.8373302118
 20
5303.4024521747
 10
6264.9747007273
 20
5303.3309113891
 10
6264.966756668
 20
5303.3247460738
 10
6264.9667175874
 20
5303.3200866438
 10
6264.9703807159
 20
5303.3154050444
 10
6264.9838773212
 20
5303.3060048968
  0
LWPOLYLINE
  5
251
330
1F
100
AcDbEntity
  8
0
  6
Continuous
 62
     7
100
AcDbPolyline
 90
       13
 70
   128
 43
0.0
 10
6289.5889282227
 20
5302.5026236922
 10
6289.6041106177
 20
5302.4964556418
 10
6289.606627696
 20
5302.4941341157
 10
6289.6067648449
 20
5302.4918062142
 10
6289.5616489608
 20
5302.4777333776
 10
6288.5280277843
 20
5302.4033129405
 10
6277.0584725766
 20
5302.1107024434
 10
6265.8373301628
 20
5301.8149571784
 10
6264.9747007285
 20
5301.7434085739
 10
6264.9667566702
 20
5301.7372430726
 10
6264.9667175895
 20
5301.7325836333
 10
6264.9703807176
 20
5301.7279021061
 10
6264.9838773212
 20
5301.7185022385
  0
LWPOLYLINE
  5
252
330
1F
100
AcDbEntity
  8
0
  6
Continuous
 62
     7
100
AcDbPolyline
 90
       13
 70
   128
 43
0.0
 10
6289.5889282227
 20
5300.9151210339
 10
6289.6041106217
 20
5300.90895965
 10
6289.6066276995
 20
5300.9066402597
 10
6289.6067648476
 20
5300.9043142161
 10
6289.5616489507
 20
5300.8902474226
 10
6288.5280277831
 20
5300.8158101917
 10
6277.0584726383
 20
5300.5232005458
 10
6265.8373302122
 20
5300.2274543013
 10
6264.9747007273
 20
5300.1559135227
 10
6264.966756668
 20
5300.1497482072
 10
6264.9667175874
 20
5300.1450887771
 10
6264.9703807159
 20
5300.1404071779
 10
6264.9838773212
 20
5300.1310070307
  0
LWPOLYLINE
  5
253
330
1F
100
AcDbEntity
  8
0
  6
Continuous
 62
     7
100
AcDbPolyline
 90
        8
 70
   128
 43
0.0
 10
6290.4205322266
 20
5306.5796782524
 10
6290.4615348466
 20
5306.5656491684
 10
6290.4628556714
 20
5306.5632974506
 10
6290.4619323588
 20
5306.5609398209
 10
6290.448769485
 20
5306.5546269241
 10
6289.4739849918
 20
5306.4790214793
 10
6277.267932935
 20
5306.1830242347
 10
6264.0668151579
 20
5305.7860871107
  0
LWPOLYLINE
  5
254
330
1F
100
AcDbEntity
  8
0
  6
Continuous
 62
     7
100
AcDbPolyline
 90
        8
 70
   128
 43
0.0
 10
6290.4205322266
 20
5304.9921830446
 10
6290.4615348449
 20
5304.9781472857
 10
6290.4628556711
 20
5304.9757946812
 10
6290.4619323601
 20
5304.9734362644
 10
6290.4487694918
 20
5304.9671217357
 10
6289.4739850028
 20
5304.8915239391
 10
6277.2679328874
 20
5304.5955278271
 10
6264.0668151579
 20
5304.1985844523
  0
LWPOLYLINE
  5
255
330
1F
100
AcDbEntity
  8
0
  6
Continuous
 62
     7
100
AcDbPolyline
 90
        8
 70
   128
 43
0.0
 10
6290.4205322266
 20
5303.4046803863
 10
6290.4615348455
 20
5303.3906445339
 10
6290.4628556709
 20
5303.3882920411
 10
6290.4619323589
 20
5303.3859337916
 10
6290.4487694863
 20
5303.3796199463
 10
6289.4739849945
 20
5303.3040250368
 10
6277.2679329597
 20
5303.0080247581
 10
6264.0668151579
 20
5302.6110892446
  0
LWPOLYLINE
  5
256
330
1F
100
AcDbEntity
  8
0
  6
Continuous
 62
     7
100
AcDbPolyline
 90
        8
 70
   128
 43
0.0
 10
6290.4205322266
 20
5301.8171777279
 10
6290.4615348466
 20
5301.8031486439
 10
6290.4628556714
 20
5301.8007969261
 10
6290.4619323588
 20
5301.7984392964
 10
6290.448769485
 20
5301.7921263996
 10
6289.4739849917
 20
5301.7165209548
 10
6277.2679329333
 20
5301.4205237111
 10
6264.0668151579
 20
5301.0235865862
  0
LWPOLYLINE
  5
257
330
1F
100
AcDbEntity
  8
0
  6
Continuous
 62
     7
100
AcDbPolyline
 90
        7
 70
   128
 43
0.0
 10
6290.4205322266
 20
5300.2296825201
 10
6290.4619999932
 20
5300.2151408593
 10
6290.4628363789
 20
5300.2127024654
 10
6290.4612538918
 20
5300.2102578708
 10
6290.445653401
 20
5300.2037124649
 10
6289.4021616302
 20
5300.1255079009
 10
6276.5238320134
 20
5299.8185222299
  0
LINE
  5
258
330
1F
100
AcDbEntity
  8
0
  6
Continuous
 62
     7
100
AcDbLine
 10
6267.1890258789
 20
5299.8185222299
 30
0.0
 11
6269.777089139
 21
5299.8185222299
 31
0.0
  0
LWPOLYLINE
  5
259
330
1F
100
AcDbEntity
  8
0
  6
Continuous
 62
     7
100
AcDbPolyline
 90
        7
 70
   128
 43
0.0
 10
6273.0903625488
 20
5308.1777756364
 10
6265.5889002673
 20
5307.9524292653
 10
6264.9819303801
 20
5307.8977624835
 10
6264.9747515593
 20
5307.8930409735
 10
6264.9736962516
 20
5307.8894735344
 10
6264.975348543
 20
5307.8858896409
 10
6264.9831657908
 20
5307.8786944301
  0
LWPOLYLINE
  5
25A
330
1F
100
AcDbEntity
  8
0
  6
Continuous
 62
     7
100
AcDbPolyline
 90
       13
 70
   128
 43
0.0
 10
6289.5660400391
 20
5307.0763041527
 10
6289.6035013068
 20
5307.0624213178
 10
6289.6051757764
 20
5307.0600951315
 10
6289.6048485504
 20
5307.0577633549
 10
6289.5941712428
 20
5307.0515198778
 10
6288.7101182979
 20
5306.9766858082
 10
6277.5013512812
 20
5306.6839482558
 10
6266.0106940153
 20
5306.387622072
 10
6265.0016697822
 20
5306.3159709693
 10
6264.981030936
 20
5306.3098737219
 10
6264.9738130995
 20
5306.3036952096
 10
6264.9761106087
 20
5306.297458132
 10
6264.9831657908
 20
5306.2911917717
  0
LWPOLYLINE
  5
25B
330
1F
100
AcDbEntity
  8
0
  6
Continuous
 62
     7
100
AcDbPolyline
 90
       13
 70
   128
 43
0.0
 10
6289.5660400391
 20
5305.4888014943
 10
6289.6035013087
 20
5305.4749250992
 10
6289.6051757771
 20
5305.4725997834
 10
6289.6048485494
 20
5305.4702687851
 10
6289.5941712362
 20
5305.4640269399
 10
6288.7101182828
 20
5305.3891858394
 10
6277.5013513187
 20
5305.0964477877
 10
6266.0106940441
 20
5304.8001231118
 10
6265.0016697955
 20
5304.7284668289
 10
6264.981030943
 20
5304.722371144
 10
6264.9738131021
 20
5304.716194755
 10
6264.9761106094
 20
5304.7099602008
 10
6264.9831657908
 20
5304.7036965639
  0
LWPOLYLINE
  5
25C
330
1F
100
AcDbEntity
  8
0
  6
Continuous
 62
     7
100
AcDbPolyline
 90
       13
 70
   128
 43
0.0
 10
6289.5660400391
 20
5303.9013062865
 10
6289.603501307
 20
5303.8874234218
 10
6289.6051757764
 20
5303.88509726
 10
6289.6048485501
 20
5303.882765521
 10
6289.594171241
 20
5303.8765221985
 10
6288.7101183349
 20
5303.8016840059
 10
6277.5013512906
 20
5303.5089501929
 10
6266.0106940144
 20
5303.2126259281
 10
6265.0016697925
 20
5303.140964673
 10
6264.9810309432
 20
5303.1348684707
 10
6264.9738131036
 20
5303.1286918895
 10
6264.9761106105
 20
5303.1224573797
 10
6264.9831657908
 20
5303.1161939055
  0
LWPOLYLINE
  5
25D
330
1F
100
AcDbEntity
  8
0
  6
Continuous
 62
     7
100
AcDbPolyline
 90
       13
 70
   128
 43
0.0
 10
6289.5660400391
 20
5302.3138036282
 10
6289.6035013076
 20
5302.2999206738
 10
6289.6051757765
 20
5302.2975945855
 10
6289.6048485495
 20
5302.2952629599
 10
6289.5941712374
 20
5302.2890201231
 10
6288.7101182784
 20
5302.2141894119
 10
6277.5013512825
 20
5301.9214476915
 10
6266.0106940154
 20
5301.6251215474
 10
6265.0016697822
 20
5301.5534704448
 10
6264.981030936
 20
5301.5473731974
 10
6264.9738130995
 20
5301.5411946851
 10
6264.9761106087
 20
5301.5349576074
 10
6264.9831657908
 20
5301.5286912472
  0
LWPOLYLINE
  5
25E
330
1F
100
AcDbEntity
  8
0
  6
Continuous
 62
     7
100
AcDbPolyline
 90
       13
 70
   128
 43
0.0
 10
6289.5660400391
 20
5300.7263009698
 10
6289.6035013087
 20
5300.7124245747
 10
6289.6051757771
 20
5300.7100992589
 10
6289.6048485494
 20
5300.7077682606
 10
6289.5941712362
 20
5300.7015264154
 10
6288.7101182828
 20
5300.6266853148
 10
6277.5013513187
 20
5300.3339472632
 10
6266.0106940441
 20
5300.0376225873
 10
6265.0016697955
 20
5299.9659663044
 10
6264.981030943
 20
5299.9598706195
 10
6264.9738131021
 20
5299.9536942305
 10
6264.9761106094
 20
5299.9474596763
 10
6264.9831657908
 20
5299.9411960394
  0
LWPOLYLINE
  5
25F
330
1F
100
AcDbEntity
  8
0
  6
Continuous
 62
     7
100
AcDbPolyline
 90
       15
 70
   128
 43
0.0
 10
6290.3709411621
 20
5140.2486776263
 10
6290.4086051657
 20
5140.2401697526
 10
6290.4089750108
 20
5140.2394599673
 10
6290.4088147255
 20
5140.2387499785
 10
6290.4069414255
 20
5140.237329295
 10
6290.3923359127
 20
5140.2335349026
 10
6289.5255761732
 20
5140.186494028
 10
6277.6733339179
 20
5139.9969068157
 10
6265.5824708308
 20
5139.8052160504
 10
6264.6641666795
 20
5139.7561461713
 10
6264.6486022969
 20
5139.7521854363
 10
6264.6464058153
 20
5139.7507089229
 10
6264.6460419712
 20
5139.7499724402
 10
6264.646124315
 20
5139.7492370354
 10
6264.6694218419
 20
5139.7404660732
  0
LWPOLYLINE
  5
260
330
1F
100
AcDbEntity
  8
0
  6
Continuous
 62
     7
100
AcDbPolyline
 90
       10
 70
   128
 43
0.0
 10
6264.0686035156
 20
5141.0019164235
 10
6277.4753773881
 20
5141.395015071
 10
6289.4936015477
 20
5141.6899091139
 10
6290.4690817842
 20
5141.7641356417
 10
6290.4896175495
 20
5141.7701638357
 10
6290.4933542607
 20
5141.7724206033
 10
6290.4948031963
 20
5141.7746755329
 10
6290.4943400183
 20
5141.7763656158
 10
6290.4925105586
 20
5141.7780548151
 10
6290.4551269165
 20
5141.7881761939
  0
LWPOLYLINE
  5
261
330
1F
100
AcDbEntity
  8
0
  6
Continuous
 62
     7
100
AcDbPolyline
 90
       10
 70
   128
 43
0.0
 10
6264.0686035156
 20
5142.5894190819
 10
6277.475377516
 20
5142.9825110057
 10
6289.4936015481
 20
5143.277414369
 10
6290.4690817716
 20
5143.3516235795
 10
6290.4896175369
 20
5143.357652419
 10
6290.4933542484
 20
5143.3599098918
 10
6290.4948031846
 20
5143.3621658102
 10
6290.4943400072
 20
5143.3638568327
 10
6290.4925105482
 20
5143.3655471507
 10
6290.4551269165
 20
5143.3756788523
  0
LWPOLYLINE
  5
262
330
1F
100
AcDbEntity
  8
0
  6
Continuous
 62
     7
100
AcDbPolyline
 90
       10
 70
   128
 43
0.0
 10
6264.0686035156
 20
5144.1769142897
 10
6277.4753773743
 20
5144.5700135466
 10
6289.4936015561
 20
5144.8649062529
 10
6290.4690817833
 20
5144.9391335933
 10
6290.489617549
 20
5144.9451617486
 10
6290.4933542603
 20
5144.9474185031
 10
6290.4948031961
 20
5144.9496734211
 10
6290.4943400181
 20
5144.9513634964
 10
6290.4925105585
 20
5144.9530526895
 10
6290.4551269165
 20
5144.9631740601
  0
LWPOLYLINE
  5
263
330
1F
100
AcDbEntity
  8
0
  6
Continuous
 62
     7
100
AcDbPolyline
 90
       10
 70
   128
 43
0.0
 10
6264.0686035156
 20
5145.764416948
 10
6277.4753775264
 20
5146.1575082618
 10
6289.4936015476
 20
5146.4524096437
 10
6290.4690817843
 20
5146.5266361656
 10
6290.4896175496
 20
5146.5326643598
 10
6290.4933542607
 20
5146.5349211275
 10
6290.4948031963
 20
5146.5371760572
 10
6290.4943400183
 20
5146.5388661402
 10
6290.4925105586
 20
5146.5405553395
 10
6290.4551269165
 20
5146.5506767184
  0
LWPOLYLINE
  5
264
330
1F
100
AcDbEntity
  8
0
  6
Continuous
 62
     7
100
AcDbPolyline
 90
        3
 70
   128
 43
0.0
 10
6264.0686035156
 20
5147.3519196064
 10
6270.8756670255
 20
5147.6129534293
 10
6281.277864953
 20
5147.8185196669
  0
LWPOLYLINE
  5
265
330
1F
100
AcDbEntity
  8
0
  6
Continuous
 62
     7
100
AcDbPolyline
 90
       10
 70
   128
 43
0.0
 10
6264.9803161621
 20
5139.9111216218
 10
6264.979175228
 20
5139.917025607
 10
6264.9785806769
 20
5139.9229470329
 10
6265.0047466631
 20
5139.9349113919
 10
6265.9987610788
 20
5140.0097970797
 10
6277.473171047
 20
5140.3037227053
 10
6288.7053858724
 20
5140.5984330199
 10
6289.5445260521
 20
5140.6727332963
 10
6289.5627468306
 20
5140.6845969549
 10
6289.5664868555
 20
5140.696390465
  0
LWPOLYLINE
  5
266
330
1F
100
AcDbEntity
  8
0
  6
Continuous
 62
     7
100
AcDbPolyline
 90
       10
 70
   128
 43
0.0
 10
6264.9803161621
 20
5141.4986242802
 10
6264.9791752306
 20
5141.5045256401
 10
6264.9785806822
 20
5141.5104447011
 10
6265.0047466732
 20
5141.5224061426
 10
6265.9987610971
 20
5141.5972988681
 10
6277.4731711618
 20
5141.8912196973
 10
6288.7053858701
 20
5142.1859358225
 10
6289.5445260514
 20
5142.2602360013
 10
6289.56274683
 20
5142.2720996498
 10
6289.5664868555
 20
5142.2838931233
  0
LWPOLYLINE
  5
267
330
1F
100
AcDbEntity
  8
0
  6
Continuous
 62
     7
100
AcDbPolyline
 90
       10
 70
   128
 43
0.0
 10
6264.9803161621
 20
5143.086119488
 10
6264.9791752293
 20
5143.0920232945
 10
6264.9785806788
 20
5143.0979446388
 10
6265.0047466612
 20
5143.1099095097
 10
6265.9987610345
 20
5143.1848009515
 10
6277.4731710032
 20
5143.4787227689
 10
6288.7053858161
 20
5143.7734382368
 10
6289.5445260573
 20
5143.847730512
 10
6289.5627468346
 20
5143.8595943118
 10
6289.5664868555
 20
5143.8713883311
  0
LWPOLYLINE
  5
268
330
1F
100
AcDbEntity
  8
0
  6
Continuous
 62
     7
100
AcDbPolyline
 90
       10
 70
   128
 43
0.0
 10
6264.9803161621
 20
5144.6736221463
 10
6264.979175228
 20
5144.6795261316
 10
6264.9785806769
 20
5144.6854475575
 10
6265.0047466631
 20
5144.6974119164
 10
6265.9987610791
 20
5144.7722976082
 10
6277.4731711647
 20
5145.0662174554
 10
6288.7053858722
 20
5145.3609335416
 10
6289.5445260521
 20
5145.4352338199
 10
6289.5627468306
 20
5145.4470974787
 10
6289.5664868555
 20
5145.4588909895
  0
LWPOLYLINE
  5
269
330
1F
100
AcDbEntity
  8
0
  6
Continuous
 62
     7
100
AcDbPolyline
 90
       10
 70
   128
 43
0.0
 10
6264.9803161621
 20
5146.2611173541
 10
6264.9791752293
 20
5146.2670211597
 10
6264.9785806788
 20
5146.2729425036
 10
6265.0047466616
 20
5146.2849073773
 10
6265.9987610431
 20
5146.3597987645
 10
6277.4731710844
 20
5146.6537202194
 10
6288.7053858593
 20
5146.9484368047
 10
6289.5445260635
 20
5147.0227305265
 10
6289.5627468365
 20
5147.0345968591
 10
6289.5664868555
 20
5147.0463936479
  0
LWPOLYLINE
  5
26A
330
1F
100
AcDbEntity
  8
0
  6
Continuous
 62
     7
100
AcDbPolyline
 90
       11
 70
   128
 43
0.0
 10
6264.1220092773
 20
5140.5974616558
 10
6264.1157541694
 20
5140.6064026828
 10
6264.1136817776
 20
5140.6108854049
 10
6264.1151128587
 20
5140.6153827775
 10
6264.1244892753
 20
5140.6214105043
 10
6265.059702223
 20
5140.6967231863
 10
6277.2690909452
 20
5140.994239952
 10
6289.4810401116
 20
5141.2919851939
 10
6290.397558494
 20
5141.3671170929
 10
6290.4175319501
 20
5141.379113282
 10
6290.4215769521
 20
5141.3910378963
  0
LWPOLYLINE
  5
26B
330
1F
100
AcDbEntity
  8
0
  6
Continuous
 62
     7
100
AcDbPolyline
 90
       11
 70
   128
 43
0.0
 10
6264.1220092773
 20
5142.1849643142
 10
6264.1157541672
 20
5142.1939056734
 10
6264.1136817747
 20
5142.1983884942
 10
6264.1151128557
 20
5142.2028858844
 10
6264.1244892733
 20
5142.2089134621
 10
6265.0597022694
 20
5142.2842189949
 10
6277.2690910009
 20
5142.5817396162
 10
6289.4810401638
 20
5142.8794805469
 10
6290.3975584892
 20
5142.9546204023
 10
6290.4175319462
 20
5142.9666164552
 10
6290.4215769521
 20
5142.9785405547
  0
LWPOLYLINE
  5
26C
330
1F
100
AcDbEntity
  8
0
  6
Continuous
 62
     7
100
AcDbPolyline
 90
       11
 70
   128
 43
0.0
 10
6264.1220092773
 20
5143.772459522
 10
6264.1157541685
 20
5143.7814006382
 10
6264.1136817765
 20
5143.7858833869
 10
6264.1151128575
 20
5143.7903807642
 10
6264.1244892745
 20
5143.796408451
 10
6265.059702205
 20
5143.8717228946
 10
6277.2690909546
 20
5144.1692372877
 10
6289.481040107
 20
5144.4669832428
 10
6290.3975584804
 20
5144.5421211825
 10
6290.4175319423
 20
5144.5541146383
 10
6290.4215769521
 20
5144.5660357625
  0
LWPOLYLINE
  5
26D
330
1F
100
AcDbEntity
  8
0
  6
Continuous
 62
     7
100
AcDbPolyline
 90
       11
 70
   128
 43
0.0
 10
6264.1220092773
 20
5145.3599621803
 10
6264.1157541694
 20
5145.3689032073
 10
6264.1136817776
 20
5145.3733859294
 10
6264.1151128587
 20
5145.377883302
 10
6264.1244892753
 20
5145.3839110288
 10
6265.059702223
 20
5145.4592237109
 10
6277.2690909452
 20
5145.7567404765
 10
6289.4810401116
 20
5146.0544857184
 10
6290.397558494
 20
5146.1296176174
 10
6290.4175319501
 20
5146.1416138065
 10
6290.4215769521
 20
5146.1535384209
  0
LWPOLYLINE
  5
26E
330
1F
100
AcDbEntity
  8
0
  6
Continuous
 62
     7
100
AcDbPolyline
 90
       11
 70
   128
 43
0.0
 10
6264.1220092773
 20
5146.9474648387
 10
6264.1157541672
 20
5146.956406198
 10
6264.1136817747
 20
5146.9608890188
 10
6264.1151128557
 20
5146.965386409
 10
6264.1244892733
 20
5146.9714139866
 10
6265.0597022694
 20
5147.0467195194
 10
6277.2690910009
 20
5147.3442401408
 10
6289.4810401638
 20
5147.6419810714
 10
6290.3975584892
 20
5147.7171209268
 10
6290.4175319462
 20
5147.7291169797
 10
6290.4215769521
 20
5147.7410410792
  0
LWPOLYLINE
  5
26F
330
1F
100
AcDbEntity
  8
0
  6
Continuous
 62
     7
100
AcDbPolyline
 90
       11
 70
   128
 43
0.0
 10
6264.9765014648
 20
5140.1013498456
 10
6264.9706807057
 20
5140.1101975034
 10
6264.9686851618
 20
5140.1146330325
 10
6264.9698592963
 20
5140.1190826017
 10
6264.9781815717
 20
5140.12504529
 10
6265.8330249867
 20
5140.1995223283
 10
6277.0617995338
 20
5140.4940693333
 10
6288.541100188
 20
5140.7882591322
 10
6289.5138941289
 20
5140.8630181303
 10
6289.5424346148
 20
5140.874935317
 10
6289.5503339968
 20
5140.8867527992
  0
LWPOLYLINE
  5
270
330
1F
100
AcDbEntity
  8
0
  6
Continuous
 62
     7
100
AcDbPolyline
 90
       11
 70
   128
 43
0.0
 10
6264.9765014648
 20
5141.688852504
 10
6264.97068071
 20
5141.6976971094
 10
6264.9686851682
 20
5141.7021312609
 10
6264.9698593043
 20
5141.7065796308
 10
6264.9781815814
 20
5141.7125411001
 10
6265.8330249924
 20
5141.7870243793
 10
6277.061799437
 20
5142.0815729627
 10
6288.5411001221
 20
5142.3757629963
 10
6289.5138941306
 20
5142.4505131372
 10
6289.5424346167
 20
5142.4624302376
 10
6289.5503339968
 20
5142.474248007
  0
LWPOLYLINE
  5
271
330
1F
100
AcDbEntity
  8
0
  6
Continuous
 62
     7
100
AcDbPolyline
 90
       11
 70
   128
 43
0.0
 10
6264.9765014648
 20
5143.2763477118
 10
6264.9706807059
 20
5143.2851953518
 10
6264.9686851621
 20
5143.2896308755
 10
6264.9698592966
 20
5143.2940804436
 10
6264.9781815719
 20
5143.3000431393
 10
6265.8330249906
 20
5143.3745198753
 10
6277.0617993503
 20
5143.6690762821
 10
6288.5411001882
 20
5143.9632570047
 10
6289.5138941289
 20
5144.0380159968
 10
6289.5424346148
 20
5144.0499331835
 10
6289.5503339968
 20
5144.0617506654
  0
LWPOLYLINE
  5
272
330
1F
100
AcDbEntity
  8
0
  6
Continuous
 62
     7
100
AcDbPolyline
 90
       11
 70
   128
 43
0.0
 10
6264.9765014648
 20
5144.8638503701
 10
6264.9706807057
 20
5144.8726980279
 10
6264.9686851618
 20
5144.8771335569
 10
6264.9698592962
 20
5144.8815831262
 10
6264.9781815715
 20
5144.8875458144
 10
6265.8330249796
 20
5144.9620228525
 10
6277.0617994598
 20
5145.2565698569
 10
6288.5411001343
 20
5145.5507592986
 10
6289.5138941176
 20
5145.6255178282
 10
6289.5424346102
 20
5145.6374320168
 10
6289.5503339968
 20
5145.6492458732
  0
LWPOLYLINE
  5
273
330
1F
100
AcDbEntity
  8
0
  6
Continuous
 62
     7
100
AcDbPolyline
 90
       11
 70
   128
 43
0.0
 10
6264.9765014648
 20
5146.4513530285
 10
6264.97068071
 20
5146.4601976339
 10
6264.9686851682
 20
5146.4646317854
 10
6264.9698593043
 20
5146.4690801554
 10
6264.9781815814
 20
5146.4750416246
 10
6265.8330249924
 20
5146.549524904
 10
6277.0617994423
 20
5146.8440732248
 10
6288.5411001448
 20
5147.1382615978
 10
6289.5138941316
 20
5147.2130135806
 10
6289.5424346181
 20
5147.2249306462
 10
6289.5503339968
 20
5147.2367485315
  0
LWPOLYLINE
  5
274
330
1F
100
AcDbEntity
  8
0
  6
Continuous
 62
     7
100
AcDbPolyline
 90
        3
 70
   128
 43
0.0
 10
5939.8193359375
 20
5140.1745368988
 10
5939.6510434257
 20
5140.0762995869
 10
5939.5174283832
 20
5139.9991129786
  0
LWPOLYLINE
  5
275
330
1F
100
AcDbEntity
  8
0
  6
Continuous
 62
     7
100
AcDbPolyline
 90
        3
 70
   128
 43
0.0
 10
5964.7598266602
 20
5139.6963735373
 10
5965.0573486063
 20
5139.8678709738
 10
5965.2906108946
 20
5140.0026147515
  0
LWPOLYLINE
  5
276
330
1F
100
AcDbEntity
  8
0
  6
Continuous
 62
     7
100
AcDbPolyline
 90
        3
 70
   128
 43
0.0
 10
6010.2272033691
 20
5164.8224097938
 10
6009.8188276843
 20
5165.756227712
 10
6009.0563420504
 20
5166.0212007613
  0
LWPOLYLINE
  5
277
330
1F
100
AcDbEntity
  8
0
  6
Continuous
 62
     7
100
AcDbPolyline
 90
        3
 70
   128
 43
0.0
 10
6008.9569091797
 20
5166.021338597
 10
6008.0549488565
 20
5165.5308623215
 10
6007.8003902286
 20
5164.749073729
  0
LWPOLYLINE
  5
278
330
1F
100
AcDbEntity
  8
0
  6
Continuous
 62
     7
100
AcDbPolyline
 90
        3
 70
   128
 43
0.0
 10
5998.6228942871
 20
5164.8351130337
 10
5998.2242690786
 20
5165.7656260729
 10
5997.4686701149
 20
5166.033836946
  0
LWPOLYLINE
  5
279
330
1F
100
AcDbEntity
  8
0
  6
Continuous
 62
     7
100
AcDbPolyline
 90
        3
 70
   128
 43
0.0
 10
5997.3678588867
 20
5166.0288338811
 10
5996.4665863613
 20
5165.5408921617
 10
5996.2143946737
 20
5164.7608232946
  0
LWPOLYLINE
  5
27A
330
1F
100
AcDbEntity
  8
0
  6
Continuous
 62
     7
100
AcDbPolyline
 90
        3
 70
   128
 43
0.0
 10
5994.8196411133
 20
5162.4551927001
 10
5994.3488548232
 20
5163.2995199872
 10
5993.8345302194
 20
5163.8749790639
  0
LWPOLYLINE
  5
27B
330
1F
100
AcDbEntity
  8
0
  6
Continuous
 62
     7
100
AcDbPolyline
 90
        3
 70
   128
 43
0.0
 10
5994.140625
 20
5161.6688137204
 10
5994.7208341074
 20
5161.9406694393
 10
5994.8203612417
 20
5162.4551927001
  0
LWPOLYLINE
  5
27C
330
1F
100
AcDbEntity
  8
0
  6
Continuous
 62
     7
100
AcDbPolyline
 90
        3
 70
   128
 43
0.0
 10
5995.5863952637
 20
5162.0858897717
 10
5995.0040943658
 20
5161.1985078756
 10
5994.2078937143
 20
5160.90898861
  0
LWPOLYLINE
  5
27D
330
1F
100
AcDbEntity
  8
0
  6
Continuous
 62
     7
100
AcDbPolyline
 90
        3
 70
   128
 43
0.0
 10
5995.1553344727
 20
5163.5757190437
 10
5995.5717708984
 20
5162.7876553877
 10
5995.5890376419
 20
5162.0858897717
  0
LWPOLYLINE
  5
27E
330
1F
100
AcDbEntity
  8
0
  6
Continuous
 62
     7
100
AcDbPolyline
 90
        3
 70
   128
 43
0.0
 10
5994.4496154785
 20
5164.3485975713
 10
5994.8666983238
 20
5163.9333285265
 10
5995.1590795368
 20
5163.5757190437
  0
LWPOLYLINE
  5
27F
330
1F
100
AcDbEntity
  8
0
  6
Continuous
 62
     7
100
AcDbPolyline
 90
        3
 70
   128
 43
0.0
 10
5993.724822998
 20
5165.720439449
 10
5993.9706458884
 20
5164.8673888999
 10
5994.450618729
 20
5164.3485975713
  0
LWPOLYLINE
  5
280
330
1F
100
AcDbEntity
  8
0
  6
Continuous
 62
     7
100
AcDbPolyline
 90
        3
 70
   128
 43
0.0
 10
5994.6136474609
 20
5166.4373790175
 10
5993.9366587738
 20
5166.2277339202
 10
5993.7257666439
 20
5165.720439449
  0
LWPOLYLINE
  5
281
330
1F
100
AcDbEntity
  8
0
  6
Continuous
 62
     7
100
AcDbPolyline
 90
        3
 70
   128
 43
0.0
 10
5992.9389953613
 20
5165.7725748867
 10
5993.5671842225
 20
5166.8922689257
 10
5994.563673839
 20
5167.1669249684
  0
LWPOLYLINE
  5
282
330
1F
100
AcDbEntity
  8
0
  6
Continuous
 62
     7
100
AcDbPolyline
 90
        3
 70
   128
 43
0.0
 10
5993.8316345215
 20
5163.8749790639
 10
5993.08393326
 20
5164.8339351933
 10
5992.9393280596
 20
5165.7725748867
  0
LWPOLYLINE
  5
283
330
1F
100
AcDbEntity
  8
0
  6
Continuous
 62
     7
100
AcDbPolyline
 90
        3
 70
   128
 43
0.0
 10
6016.9296264648
 20
5167.3419093043
 10
6016.7234953593
 20
5167.7777945
 10
6016.3646985144
 20
5167.910865441
  0
LWPOLYLINE
  5
284
330
1F
100
AcDbEntity
  8
0
  6
Continuous
 62
     7
100
AcDbPolyline
 90
        3
 70
   128
 43
0.0
 10
6016.357421875
 20
5167.9108728916
 10
6015.9266923977
 20
5167.7026851975
 10
6015.8002052754
 20
5167.3419167549
  0
LWPOLYLINE
  5
285
330
1F
100
AcDbEntity
  8
0
  6
Continuous
 62
     7
100
AcDbPolyline
 90
        3
 70
   128
 43
0.0
 10
6015.796661377
 20
5167.3419167549
 10
6016.0036040528
 20
5166.9092188976
 10
6016.3606826514
 20
5166.781491533
  0
LWPOLYLINE
  5
286
330
1F
100
AcDbEntity
  8
0
  6
Continuous
 62
     7
100
AcDbPolyline
 90
        3
 70
   128
 43
0.0
 10
6016.3612365723
 20
5166.7814840824
 10
6016.7989586426
 20
5166.9851363179
 10
6016.9297132939
 20
5167.3419093043
  0
LWPOLYLINE
  5
287
330
1F
100
AcDbEntity
  8
0
  6
Continuous
 62
     7
100
AcDbPolyline
 90
        3
 70
   128
 43
0.0
 10
6015.2893066406
 20
5162.7731462271
 10
6014.8902460571
 20
5164.1419121429
 10
6014.1676117033
 20
5165.0139306933
  0
LWPOLYLINE
  5
288
330
1F
100
AcDbEntity
  8
0
  6
Continuous
 62
     7
100
AcDbPolyline
 90
        3
 70
   128
 43
0.0
 10
6014.16015625
 20
5165.0095497519
 10
6014.1049955809
 20
5164.9448227205
 10
6014.0680793971
 20
5164.8871329875
  0
LWPOLYLINE
  5
289
330
1F
100
AcDbEntity
  8
0
  6
Continuous
 62
     7
100
AcDbPolyline
 90
        3
 70
   128
 43
0.0
 10
6013.9389038086
 20
5164.995229736
 10
6014.0566636352
 20
5165.1315094052
 10
6014.163193509
 20
5165.2223346085
  0
LWPOLYLINE
  5
28A
330
1F
100
AcDbEntity
  8
0
  6
Continuous
 62
     7
100
AcDbPolyline
 90
        3
 70
   128
 43
0.0
 10
6014.16015625
 20
5165.2223346085
 10
6014.6409555928
 20
5165.4022340697
 10
6015.0433305949
 20
5165.4306230397
  0
LWPOLYLINE
  5
28B
330
1F
100
AcDbEntity
  8
0
  6
Continuous
 62
     7
100
AcDbPolyline
 90
        3
 70
   128
 43
0.0
 10
6015.064239502
 20
5165.4331227095
 10
6015.0787823271
 20
5165.57078309
 10
6015.0406483859
 20
5165.6740074307
  0
LWPOLYLINE
  5
28C
330
1F
100
AcDbEntity
  8
0
  6
Continuous
 62
     7
100
AcDbPolyline
 90
        3
 70
   128
 43
0.0
 10
6015.0375366211
 20
5165.6740074307
 10
6014.9168276472
 20
5166.0269883469
 10
6014.771190688
 20
5166.2819487304
  0
LWPOLYLINE
  5
28D
330
1F
100
AcDbEntity
  8
0
  6
Continuous
 62
     7
100
AcDbPolyline
 90
        3
 70
   128
 43
0.0
 10
6014.7705078125
 20
5166.2819487304
 10
6015.1650299303
 20
5167.1551969046
 10
6015.2574602813
 20
5167.9019806237
  0
LWPOLYLINE
  5
28E
330
1F
100
AcDbEntity
  8
0
  6
Continuous
 62
     7
100
AcDbPolyline
 90
        3
 70
   128
 43
0.0
 10
6015.2549743652
 20
5167.9019806237
 10
6014.6343283004
 20
5167.7942855013
 10
6014.1630146951
 20
5167.6371162087
  0
LWPOLYLINE
  5
28F
330
1F
100
AcDbEntity
  8
0
  6
Continuous
 62
     7
100
AcDbPolyline
 90
        3
 70
   128
 43
0.0
 10
6014.16015625
 20
5167.6371162087
 10
6014.0205982543
 20
5167.5746307629
 10
6013.9113191813
 20
5167.5199521036
  0
LWPOLYLINE
  5
290
330
1F
100
AcDbEntity
  8
0
  6
Continuous
 62
     7
100
AcDbPolyline
 90
        3
 70
   128
 43
0.0
 10
6013.9083862305
 20
5167.5199521036
 10
6013.8697139936
 20
5167.4960990545
 10
6013.837655291
 20
5167.4762954266
  0
LWPOLYLINE
  5
291
330
1F
100
AcDbEntity
  8
0
  6
Continuous
 62
     7
100
AcDbPolyline
 90
        3
 70
   128
 43
0.0
 10
6013.8359069824
 20
5167.4762954266
 10
6013.7512685383
 20
5167.4248325669
 10
6013.6857528538
 20
5167.3806784005
  0
LWPOLYLINE
  5
292
330
1F
100
AcDbEntity
  8
0
  6
Continuous
 62
     7
100
AcDbPolyline
 90
        3
 70
   128
 43
0.0
 10
6013.6833190918
 20
5167.3806784005
 10
6013.5347910752
 20
5167.270037052
 10
6013.4249750823
 20
5167.1722409577
  0
LWPOLYLINE
  5
293
330
1F
100
AcDbEntity
  8
0
  6
Continuous
 62
     7
100
AcDbPolyline
 90
        3
 70
   128
 43
0.0
 10
6013.4239196777
 20
5167.1722409577
 10
6013.2504881246
 20
5167.1960682309
 10
6013.1120357961
 20
5167.198526606
  0
LWPOLYLINE
  5
294
330
1F
100
AcDbEntity
  8
0
  6
Continuous
 62
     7
100
AcDbPolyline
 90
        3
 70
   128
 43
0.0
 10
6013.0844116211
 20
5167.1940078289
 10
6012.8884857221
 20
5167.1864727371
 10
6012.734537229
 20
5167.1678935439
  0
LWPOLYLINE
  5
295
330
1F
100
AcDbEntity
  8
0
  6
Continuous
 62
     7
100
AcDbPolyline
 90
        3
 70
   128
 43
0.0
 10
6012.6991271973
 20
5167.1939854772
 10
6012.226558015
 20
5167.4909903619
 10
6011.8308041543
 20
5167.6803742797
  0
LWPOLYLINE
  5
296
330
1F
100
AcDbEntity
  8
0
  6
Continuous
 62
     7
100
AcDbPolyline
 90
        3
 70
   128
 43
0.0
 10
6011.8293762207
 20
5167.6803742797
 10
6011.3761408323
 20
5167.828663416
 10
6011.0059727281
 20
5167.893270895
  0
LWPOLYLINE
  5
297
330
1F
100
AcDbEntity
  8
0
  6
Continuous
 62
     7
100
AcDbPolyline
 90
        3
 70
   128
 43
0.0
 10
6011.0054016113
 20
5167.6543643028
 10
6011.1714373212
 20
5166.8570338365
 10
6011.4401478618
 20
5166.2775044591
  0
LWPOLYLINE
  5
298
330
1F
100
AcDbEntity
  8
0
  6
Continuous
 62
     7
100
AcDbPolyline
 90
        3
 70
   128
 43
0.0
 10
6011.4364624023
 20
5166.2775044591
 10
6011.2805718199
 20
5165.9225087648
 10
6011.1961935014
 20
5165.6287451536
  0
LWPOLYLINE
  5
299
330
1F
100
AcDbEntity
  8
0
  6
Continuous
 62
     7
100
AcDbPolyline
 90
        3
 70
   128
 43
0.0
 10
6011.1694335938
 20
5165.5864519329
 10
6011.16164257
 20
5165.5553191561
 10
6011.1537624449
 20
5165.5306433589
  0
LWPOLYLINE
  5
29A
330
1F
100
AcDbEntity
  8
0
  6
Continuous
 62
     7
100
AcDbPolyline
 90
        3
 70
   128
 43
0.0
 10
6011.1503601074
 20
5165.5306433589
 10
6011.1951863031
 20
5165.5255881636
 10
6011.2276871055
 20
5165.5212519021
  0
LWPOLYLINE
  5
29B
330
1F
100
AcDbEntity
  8
0
  6
Continuous
 62
     7
100
AcDbPolyline
 90
        3
 70
   128
 43
0.0
 10
6011.2457275391
 20
5165.5188192875
 10
6011.579597138
 20
5165.4485977638
 10
6011.8309457153
 20
5165.3569591493
  0
LWPOLYLINE
  5
29C
330
1F
100
AcDbEntity
  8
0
  6
Continuous
 62
     7
100
AcDbPolyline
 90
        3
 70
   128
 43
0.0
 10
6011.8293762207
 20
5165.3569591493
 10
6012.2600672907
 20
5164.952034099
 10
6012.2437600345
 20
5164.488251254
  0
LWPOLYLINE
  5
29D
330
1F
100
AcDbEntity
  8
0
  6
Continuous
 62
     7
100
AcDbPolyline
 90
        3
 70
   128
 43
0.0
 10
6012.2413635254
 20
5164.488251254
 10
6012.029083214
 20
5164.0179647338
 10
6011.8309904188
 20
5163.6634161026
  0
LWPOLYLINE
  5
29E
330
1F
100
AcDbEntity
  8
0
  6
Continuous
 62
     7
100
AcDbPolyline
 90
        3
 70
   128
 43
0.0
 10
6011.8293762207
 20
5163.6634161026
 10
6011.5719220089
 20
5163.0255164218
 10
6011.4271838516
 20
5162.5035246164
  0
LWPOLYLINE
  5
29F
330
1F
100
AcDbEntity
  8
0
  6
Continuous
 62
     7
100
AcDbPolyline
 90
        3
 70
   128
 43
0.0
 10
6011.4250183105
 20
5162.5035246164
 10
6011.4422927112
 20
5161.5164861056
 10
6011.8311617822
 20
5160.8400707395
  0
LWPOLYLINE
  5
2A0
330
1F
100
AcDbEntity
  8
0
  6
Continuous
 62
     7
100
AcDbPolyline
 90
        3
 70
   128
 43
0.0
 10
6011.8293762207
 20
5160.8400707395
 10
6012.2831225156
 20
5160.5037152267
 10
6012.6998994798
 20
5160.3539352567
  0
LWPOLYLINE
  5
2A1
330
1F
100
AcDbEntity
  8
0
  6
Continuous
 62
     7
100
AcDbPolyline
 90
        3
 70
   128
 43
0.0
 10
6012.6991271973
 20
5160.3539352567
 10
6012.9297305531
 20
5160.3181947922
 10
6013.1123263687
 20
5160.3103679866
  0
LWPOLYLINE
  5
2A2
330
1F
100
AcDbEntity
  8
0
  6
Continuous
 62
     7
100
AcDbPolyline
 90
        3
 70
   128
 43
0.0
 10
6013.1568908691
 20
5160.3103828878
 10
6013.4570312519
 20
5160.3369560345
 10
6013.6861328334
 20
5160.3846465499
  0
LWPOLYLINE
  5
2A3
330
1F
100
AcDbEntity
  8
0
  6
Continuous
 62
     7
100
AcDbPolyline
 90
        3
 70
   128
 43
0.0
 10
6013.6833190918
 20
5160.3846465499
 10
6013.7717673145
 20
5160.4067534178
 10
6013.8380427212
 20
5160.4276401252
  0
LWPOLYLINE
  5
2A4
330
1F
100
AcDbEntity
  8
0
  6
Continuous
 62
     7
100
AcDbPolyline
 90
        3
 70
   128
 43
0.0
 10
6013.8359069824
 20
5160.4276401252
 10
6013.8794676446
 20
5160.4419358995
 10
6013.9117662162
 20
5160.4538661689
  0
LWPOLYLINE
  5
2A5
330
1F
100
AcDbEntity
  8
0
  6
Continuous
 62
     7
100
AcDbPolyline
 90
        3
 70
   128
 43
0.0
 10
6013.9083862305
 20
5160.4538661689
 10
6014.0538210992
 20
5160.5146121216
 10
6014.1634542793
 20
5160.5667275638
  0
LWPOLYLINE
  5
2A6
330
1F
100
AcDbEntity
  8
0
  6
Continuous
 62
     7
100
AcDbPolyline
 90
        3
 70
   128
 43
0.0
 10
6014.16015625
 20
5160.5667275638
 10
6015.0131849072
 20
5161.4343706309
 10
6015.2751703113
 20
5162.3649475426
  0
LWPOLYLINE
  5
2A7
330
1F
100
AcDbEntity
  8
0
  6
Continuous
 62
     7
100
AcDbPolyline
 90
        3
 70
   128
 43
0.0
 10
6015.2740478516
 20
5162.3649475426
 10
6015.2880839538
 20
5162.5178865918
 10
6015.2925376147
 20
5162.6383950264
  0
LWPOLYLINE
  5
2A8
330
1F
100
AcDbEntity
  8
0
  6
Continuous
 62
     7
100
AcDbPolyline
 90
        7
 70
   128
 43
0.0
 10
5995.9564208984
 20
5140.2622078807
 10
5997.5402492862
 20
5140.3328557536
 10
5998.0495665775
 20
5140.4739069804
 10
5998.2476474271
 20
5140.7052188989
 10
5998.1256600107
 20
5141.0063126721
 10
5997.7172087391
 20
5141.3257236676
 10
5996.2494720072
 20
5141.6945596487
  0
LWPOLYLINE
  5
2A9
330
1F
100
AcDbEntity
  8
0
  6
Continuous
 62
     7
100
AcDbPolyline
 90
        7
 70
   128
 43
0.0
 10
5996.2463378906
 20
5141.6945596487
 10
5994.7528741403
 20
5141.3090728329
 10
5994.3518830813
 20
5140.9798997597
 10
5994.2572147228
 20
5140.6753165214
 10
5994.3829646691
 20
5140.5135396548
 10
5994.6601733727
 20
5140.3945528844
 10
5995.9584076256
 20
5140.2622078807
  0
LWPOLYLINE
  5
2AA
330
1F
100
AcDbEntity
  8
0
  6
Continuous
 62
     7
100
AcDbPolyline
 90
        7
 70
   128
 43
0.0
 10
5907.9551696777
 20
5140.2622078807
 10
5909.5402515307
 20
5140.3328551691
 10
5910.0495675242
 20
5140.4739062119
 10
5910.2476405857
 20
5140.7052184466
 10
5910.1256603467
 20
5141.0063119344
 10
5909.7172047446
 20
5141.325722517
 10
5908.249472484
 20
5141.6945596487
  0
LWPOLYLINE
  5
2AB
330
1F
100
AcDbEntity
  8
0
  6
Continuous
 62
     7
100
AcDbPolyline
 90
        7
 70
   128
 43
0.0
 10
5908.2489013672
 20
5141.6945596487
 10
5906.7528746171
 20
5141.3090728329
 10
5906.3518835581
 20
5140.9798997597
 10
5906.2572151998
 20
5140.6753165213
 10
5906.3829651464
 20
5140.5135396547
 10
5906.6601738471
 20
5140.394552885
 10
5907.9584081024
 20
5140.2622078807
  0
LWPOLYLINE
  5
2AC
330
1F
100
AcDbEntity
  8
0
  6
Continuous
 62
     7
100
AcDbPolyline
 90
        3
 70
   128
 43
0.0
 10
6016.5328979492
 20
5167.2376980335
 10
6016.504299637
 20
5167.2755720483
 10
6016.4778355807
 20
5167.3027714045
  0
LWPOLYLINE
  5
2AD
330
1F
100
AcDbEntity
  8
0
  6
Continuous
 62
     7
100
AcDbPolyline
 90
        3
 70
   128
 43
0.0
 10
6016.4337158203
 20
5167.3246984632
 10
6016.4990893651
 20
5167.3435509534
 10
6016.5432665795
 20
5167.3721437604
  0
LWPOLYLINE
  5
2AE
330
1F
100
AcDbEntity
  8
0
  6
Continuous
 62
     7
100
AcDbPolyline
 90
        3
 70
   128
 43
0.0
 10
6016.5405273438
 20
5167.3721437604
 10
6016.5749418355
 20
5167.4220726062
 10
6016.5821511597
 20
5167.4680550844
  0
LWPOLYLINE
  5
2AF
330
1F
100
AcDbEntity
  8
0
  6
Continuous
 62
     7
100
AcDbPolyline
 90
        3
 70
   128
 43
0.0
 10
6016.5786743164
 20
5167.4680550844
 10
6016.5749691241
 20
5167.5131007747
 10
6016.5606562346
 20
5167.5459471793
  0
LWPOLYLINE
  5
2B0
330
1F
100
AcDbEntity
  8
0
  6
Continuous
 62
     7
100
AcDbPolyline
 90
        3
 70
   128
 43
0.0
 10
6016.5596008301
 20
5167.5459471793
 10
6016.5300719196
 20
5167.5774292119
 10
6016.4997849912
 20
5167.5938953907
  0
LWPOLYLINE
  5
2B1
330
1F
100
AcDbEntity
  8
0
  6
Continuous
 62
     7
100
AcDbPolyline
 90
        3
 70
   128
 43
0.0
 10
6016.4985656738
 20
5167.5938953907
 10
6016.4421165619
 20
5167.6081977872
 10
6016.395402357
 20
5167.611184463
  0
LWPOLYLINE
  5
2B2
330
1F
100
AcDbEntity
  8
0
  6
Continuous
 62
     7
100
AcDbPolyline
 90
        3
 70
   128
 43
0.0
 10
6016.414642334
 20
5167.2723506839
 10
6016.4473661669
 20
5167.2342429971
 10
6016.4691631049
 20
5167.2027659864
  0
LWPOLYLINE
  5
2B3
330
1F
100
AcDbEntity
  8
0
  6
Continuous
 62
     7
100
AcDbPolyline
 90
        3
 70
   128
 43
0.0
 10
6016.3612365723
 20
5166.8467288167
 10
6015.9801538736
 20
5167.025600938
 10
6015.8657927364
 20
5167.341905579
  0
LWPOLYLINE
  5
2B4
330
1F
100
AcDbEntity
  8
0
  6
Continuous
 62
     7
100
AcDbPolyline
 90
        3
 70
   128
 43
0.0
 10
6015.8653259277
 20
5167.341905579
 10
6016.0459896937
 20
5167.7298712732
 10
6016.3647730202
 20
5167.8454083652
  0
LWPOLYLINE
  5
2B5
330
1F
100
AcDbEntity
  8
0
  6
Continuous
 62
     7
100
AcDbPolyline
 90
        3
 70
   128
 43
0.0
 10
6016.3612365723
 20
5167.8454083652
 10
6016.7504350102
 20
5167.6612683088
 10
6016.864550516
 20
5167.3419204802
  0
LWPOLYLINE
  5
2B6
330
1F
100
AcDbEntity
  8
0
  6
Continuous
 62
     7
100
AcDbPolyline
 90
        3
 70
   128
 43
0.0
 10
6016.8609619141
 20
5167.3419204802
 10
6016.6809114063
 20
5166.9604535071
 10
6016.3648251742
 20
5166.8467288167
  0
LWPOLYLINE
  5
2B7
330
1F
100
AcDbEntity
  8
0
  6
Continuous
 62
     7
100
AcDbPolyline
 90
        3
 70
   128
 43
0.0
 10
6016.4527893066
 20
5167.389488712
 10
6016.4151505893
 20
5167.3826196412
 10
6016.3824085444
 20
5167.3809466214
  0
LWPOLYLINE
  5
2B8
330
1F
100
AcDbEntity
  8
0
  6
Continuous
 62
     7
100
AcDbPolyline
 90
        3
 70
   128
 43
0.0
 10
6016.4794921875
 20
5167.5285910518
 10
6016.50348639
 20
5167.4974102761
 10
6016.5082115978
 20
5167.4680774362
  0
LWPOLYLINE
  5
2B9
330
1F
100
AcDbEntity
  8
0
  6
Continuous
 62
     7
100
AcDbPolyline
 90
        3
 70
   128
 43
0.0
 10
6016.3993835449
 20
5167.5504883081
 10
6016.4480014693
 20
5167.5448904768
 10
6016.4822165221
 20
5167.5285910518
  0
LWPOLYLINE
  5
2BA
330
1F
100
AcDbEntity
  8
0
  6
Continuous
 62
     7
100
AcDbPolyline
 90
        3
 70
   128
 43
0.0
 10
6011.8293762207
 20
5165.8520390541
 10
6011.4640264212
 20
5165.6853562197
 10
6011.1806217879
 20
5165.5441512615
  0
LWPOLYLINE
  5
2BB
330
1F
100
AcDbEntity
  8
0
  6
Continuous
 62
     7
100
AcDbPolyline
 90
        3
 70
   128
 43
0.0
 10
6011.1770629883
 20
5165.5441512615
 10
6011.2100128951
 20
5165.6131714305
 10
6011.2460378856
 20
5165.6603244395
  0
LWPOLYLINE
  5
2BC
330
1F
100
AcDbEntity
  8
0
  6
Continuous
 62
     7
100
AcDbPolyline
 90
        3
 70
   128
 43
0.0
 10
6011.2419128418
 20
5165.6587672681
 10
6011.5656160529
 20
5165.9358304644
 10
6011.8308190554
 20
5166.1386330873
  0
LWPOLYLINE
  5
2BD
330
1F
100
AcDbEntity
  8
0
  6
Continuous
 62
     7
100
AcDbPolyline
 90
        3
 70
   128
 43
0.0
 10
6011.8293762207
 20
5166.1386330873
 10
6012.171533051
 20
5166.3625088807
 10
6012.4523464888
 20
5166.5166159422
  0
LWPOLYLINE
  5
2BE
330
1F
100
AcDbEntity
  8
0
  6
Continuous
 62
     7
100
AcDbPolyline
 90
        3
 70
   128
 43
0.0
 10
6012.451171875
 20
5166.5166159422
 10
6012.583475822
 20
5166.4023053648
 10
6012.6994598955
 20
5166.3297628314
  0
LWPOLYLINE
  5
2BF
330
1F
100
AcDbEntity
  8
0
  6
Continuous
 62
     7
100
AcDbPolyline
 90
        3
 70
   128
 43
0.0
 10
6012.6991271973
 20
5166.3297628314
 10
6012.9237580028
 20
5166.2364197281
 10
6013.1121028513
 20
5166.2039001734
  0
LWPOLYLINE
  5
2C0
330
1F
100
AcDbEntity
  8
0
  6
Continuous
 62
     7
100
AcDbPolyline
 90
        3
 70
   128
 43
0.0
 10
6013.1607055664
 20
5166.199519232
 10
6013.467999644
 20
5166.2299305302
 10
6013.6857230514
 20
5166.3253632636
  0
LWPOLYLINE
  5
2C1
330
1F
100
AcDbEntity
  8
0
  6
Continuous
 62
     7
100
AcDbPolyline
 90
        3
 70
   128
 43
0.0
 10
6013.6833190918
 20
5166.3253632636
 10
6013.7723687189
 20
5166.3940828618
 10
6013.8376701921
 20
5166.4514084608
  0
LWPOLYLINE
  5
2C2
330
1F
100
AcDbEntity
  8
0
  6
Continuous
 62
     7
100
AcDbPolyline
 90
        3
 70
   128
 43
0.0
 10
6013.858795166
 20
5166.4687645883
 10
6013.8895517691
 20
5166.4590974668
 10
6013.911520347
 20
5166.4470796735
  0
LWPOLYLINE
  5
2C3
330
1F
100
AcDbEntity
  8
0
  6
Continuous
 62
     7
100
AcDbPolyline
 90
        3
 70
   128
 43
0.0
 10
6013.9083862305
 20
5166.4470796735
 10
6014.0527530772
 20
5166.3795055298
 10
6014.1632009596
 20
5166.3253371865
  0
LWPOLYLINE
  5
2C4
330
1F
100
AcDbEntity
  8
0
  6
Continuous
 62
     7
100
AcDbPolyline
 90
        3
 70
   128
 43
0.0
 10
6014.16015625
 20
5166.3253371865
 10
6014.7013784658
 20
5165.9883599845
 10
6015.0379587263
 20
5165.6204563827
  0
LWPOLYLINE
  5
2C5
330
1F
100
AcDbEntity
  8
0
  6
Continuous
 62
     7
100
AcDbPolyline
 90
        3
 70
   128
 43
0.0
 10
6015.0375366211
 20
5165.6204563827
 10
6015.0580419042
 20
5165.5268332513
 10
6015.0433678478
 20
5165.4541296215
  0
LWPOLYLINE
  5
2C6
330
1F
100
AcDbEntity
  8
0
  6
Continuous
 62
     7
100
AcDbPolyline
 90
        3
 70
   128
 43
0.0
 10
6014.16015625
 20
5165.9303632826
 10
6014.0228459286
 20
5165.9713650169
 10
6013.9115352482
 20
5165.9998622984
  0
LWPOLYLINE
  5
2C7
330
1F
100
AcDbEntity
  8
0
  6
Continuous
 62
     7
100
AcDbPolyline
 90
        3
 70
   128
 43
0.0
 10
6013.9083862305
 20
5165.9998622984
 10
6013.8702332025
 20
5166.0074134942
 10
6013.8376999945
 20
5166.012882188
  0
LWPOLYLINE
  5
2C8
330
1F
100
AcDbEntity
  8
0
  6
Continuous
 62
     7
100
AcDbPolyline
 90
        3
 70
   128
 43
0.0
 10
6013.8359069824
 20
5166.012882188
 10
6013.7529208204
 20
5166.0293505303
 10
6013.685730502
 20
5166.0388511867
  0
LWPOLYLINE
  5
2C9
330
1F
100
AcDbEntity
  8
0
  6
Continuous
 62
     7
100
AcDbPolyline
 90
        3
 70
   128
 43
0.0
 10
6013.6833190918
 20
5166.0388511867
 10
6013.3920037055
 20
5166.0708479556
 10
6013.1599430293
 20
5166.077981636
  0
LWPOLYLINE
  5
2CA
330
1F
100
AcDbEntity
  8
0
  6
Continuous
 62
     7
100
AcDbPolyline
 90
        3
 70
   128
 43
0.0
 10
6013.111114502
 20
5166.0779667348
 10
6012.8807858622
 20
5166.0734224984
 10
6012.6994896978
 20
5166.0604243428
  0
LWPOLYLINE
  5
2CB
330
1F
100
AcDbEntity
  8
0
  6
Continuous
 62
     7
100
AcDbPolyline
 90
        3
 70
   128
 43
0.0
 10
6012.6991271973
 20
5166.0604243428
 10
6012.2048624097
 20
5165.9763156204
 10
6011.8309084624
 20
5165.8520390541
  0
LWPOLYLINE
  5
2CC
330
1F
100
AcDbEntity
  8
0
  6
Continuous
 62
     7
100
AcDbPolyline
 90
        3
 70
   128
 43
0.0
 10
6015.0413513184
 20
5165.4541296215
 10
6014.5769570722
 20
5165.7695787251
 10
6014.1632158607
 20
5165.9303632826
  0
LWPOLYLINE
  5
2CD
330
1F
100
AcDbEntity
  8
0
  6
Continuous
 62
     7
100
AcDbPolyline
 90
        3
 70
   128
 43
0.0
 10
6015.1901245117
 20
5162.2519259603
 10
6014.784951888
 20
5161.2465046605
 10
6014.1634393782
 20
5160.671136275
  0
LWPOLYLINE
  5
2CE
330
1F
100
AcDbEntity
  8
0
  6
Continuous
 62
     7
100
AcDbPolyline
 90
        3
 70
   128
 43
0.0
 10
6014.16015625
 20
5160.671136275
 10
6014.0240277015
 20
5160.5998083324
 10
6013.9117364138
 20
5160.5494980962
  0
LWPOLYLINE
  5
2CF
330
1F
100
AcDbEntity
  8
0
  6
Continuous
 62
     7
100
AcDbPolyline
 90
        3
 70
   128
 43
0.0
 10
6013.9083862305
 20
5160.5494980962
 10
6013.870725237
 20
5160.531837427
 10
6013.8380874246
 20
5160.5189656169
  0
LWPOLYLINE
  5
2D0
330
1F
100
AcDbEntity
  8
0
  6
Continuous
 62
     7
100
AcDbPolyline
 90
        3
 70
   128
 43
0.0
 10
6013.8359069824
 20
5160.5189656169
 10
6013.7531658826
 20
5160.489364515
 10
6013.6861700863
 20
5160.4669009597
  0
LWPOLYLINE
  5
2D1
330
1F
100
AcDbEntity
  8
0
  6
Continuous
 62
     7
100
AcDbPolyline
 90
        3
 70
   128
 43
0.0
 10
6013.6833190918
 20
5160.4669009597
 10
6013.5960482889
 20
5160.4397527136
 10
6013.5250587314
 20
5160.4190272541
  0
LWPOLYLINE
  5
2D2
330
1F
100
AcDbEntity
  8
0
  6
Continuous
 62
     7
100
AcDbPolyline
 90
        3
 70
   128
 43
0.0
 10
6013.5231018066
 20
5160.4190272541
 10
6013.463130179
 20
5162.6244130644
 10
6013.6423979253
 20
5164.3493798823
  0
LWPOLYLINE
  5
2D3
330
1F
100
AcDbEntity
  8
0
  6
Continuous
 62
     7
100
AcDbPolyline
 90
        3
 70
   128
 43
0.0
 10
6013.6413574219
 20
5164.3493798823
 10
6013.6669172066
 20
5164.4151466708
 10
6013.6858720631
 20
5164.4669351429
  0
LWPOLYLINE
  5
2D4
330
1F
100
AcDbEntity
  8
0
  6
Continuous
 62
     7
100
AcDbPolyline
 90
        3
 70
   128
 43
0.0
 10
6013.6833190918
 20
5164.4669351429
 10
6013.7647137717
 20
5164.6689413768
 10
6013.8378117532
 20
5164.8228158504
  0
LWPOLYLINE
  5
2D5
330
1F
100
AcDbEntity
  8
0
  6
Continuous
 62
     7
100
AcDbPolyline
 90
        3
 70
   128
 43
0.0
 10
6013.8359069824
 20
5164.8228158504
 10
6013.8773862123
 20
5164.8968011228
 10
6013.911520347
 20
5164.9531972856
  0
LWPOLYLINE
  5
2D6
330
1F
100
AcDbEntity
  8
0
  6
Continuous
 62
     7
100
AcDbPolyline
 90
        3
 70
   128
 43
0.0
 10
6013.9122009277
 20
5164.9577086122
 10
6013.9883724823
 20
5164.895799179
 10
6014.0459064692
 20
5164.8467769176
  0
LWPOLYLINE
  5
2D7
330
1F
100
AcDbEntity
  8
0
  6
Continuous
 62
     7
100
AcDbPolyline
 90
        3
 70
   128
 43
0.0
 10
6014.045715332
 20
5164.8467769176
 10
6013.9646348878
 20
5164.6655979626
 10
6013.9116470069
 20
5164.5188098104
  0
LWPOLYLINE
  5
2D8
330
1F
100
AcDbEntity
  8
0
  6
Continuous
 62
     7
100
AcDbPolyline
 90
        3
 70
   128
 43
0.0
 10
6013.9083862305
 20
5164.5188098104
 10
6013.8689029006
 20
5164.3708531008
 10
6013.8377446979
 20
5164.253926769
  0
LWPOLYLINE
  5
2D9
330
1F
100
AcDbEntity
  8
0
  6
Continuous
 62
     7
100
AcDbPolyline
 90
        3
 70
   128
 43
0.0
 10
6013.8359069824
 20
5164.253926769
 10
6013.7407912878
 20
5163.8013346592
 10
6013.6858869642
 20
5163.4417948575
  0
LWPOLYLINE
  5
2DA
330
1F
100
AcDbEntity
  8
0
  6
Continuous
 62
     7
100
AcDbPolyline
 90
        3
 70
   128
 43
0.0
 10
6013.6833190918
 20
5163.4417948575
 10
6013.6043174655
 20
5162.1763516335
 10
6013.6860359758
 20
5161.1834121198
  0
LWPOLYLINE
  5
2DB
330
1F
100
AcDbEntity
  8
0
  6
Continuous
 62
     7
100
AcDbPolyline
 90
        3
 70
   128
 43
0.0
 10
6013.6833190918
 20
5161.1834121198
 10
6013.7076448395
 20
5161.0642503388
 10
6013.7248087973
 20
5160.9706570656
  0
LWPOLYLINE
  5
2DC
330
1F
100
AcDbEntity
  8
0
  6
Continuous
 62
     7
100
AcDbPolyline
 90
        3
 70
   128
 43
0.0
 10
6013.7214660645
 20
5160.9706570656
 10
6013.7046640595
 20
5161.3550344495
 10
6013.6859763712
 20
5161.6568816156
  0
LWPOLYLINE
  5
2DD
330
1F
100
AcDbEntity
  8
0
  6
Continuous
 62
     7
100
AcDbPolyline
 90
        3
 70
   128
 43
0.0
 10
6013.6833190918
 20
5161.6568816156
 10
6013.667763691
 20
5161.9849218799
 10
6013.6598248333
 20
5162.2429442853
  0
LWPOLYLINE
  5
2DE
330
1F
100
AcDbEntity
  8
0
  6
Continuous
 62
     7
100
AcDbPolyline
 90
        3
 70
   128
 43
0.0
 10
6013.6833190918
 20
5162.2389395983
 10
6013.7707967589
 20
5162.2181056838
 10
6013.8378564566
 20
5162.2038585395
  0
LWPOLYLINE
  5
2DF
330
1F
100
AcDbEntity
  8
0
  6
Continuous
 62
     7
100
AcDbPolyline
 90
        3
 70
   128
 43
0.0
 10
6013.8359069824
 20
5162.2038585395
 10
6013.8793034051
 20
5162.1944548135
 10
6013.9117736667
 20
5162.1866588742
  0
LWPOLYLINE
  5
2E0
330
1F
100
AcDbEntity
  8
0
  6
Continuous
 62
     7
100
AcDbPolyline
 90
        3
 70
   128
 43
0.0
 10
6013.9083862305
 20
5162.1866588742
 10
6014.0523241871
 20
5162.164575115
 10
6014.1634170264
 20
5162.1521477849
  0
LWPOLYLINE
  5
2E1
330
1F
100
AcDbEntity
  8
0
  6
Continuous
 62
     7
100
AcDbPolyline
 90
        3
 70
   128
 43
0.0
 10
6014.16015625
 20
5162.1521477849
 10
6014.7434238045
 20
5162.1694759975
 10
6015.1926253289
 20
5162.2519259603
  0
LWPOLYLINE
  5
2E2
330
1F
100
AcDbEntity
  8
0
  6
Continuous
 62
     7
100
AcDbPolyline
 90
        3
 70
   128
 43
0.0
 10
6012.1765136719
 20
5165.2699363679
 10
6011.9868108122
 20
5165.3667602049
 10
6011.8308786601
 20
5165.430857733
  0
LWPOLYLINE
  5
2E3
330
1F
100
AcDbEntity
  8
0
  6
Continuous
 62
     7
100
AcDbPolyline
 90
        3
 70
   128
 43
0.0
 10
6011.8293762207
 20
5165.430857733
 10
6011.5338743335
 20
5165.5172355149
 10
6011.29280518
 20
5165.5479547829
  0
LWPOLYLINE
  5
2E4
330
1F
100
AcDbEntity
  8
0
  6
Continuous
 62
     7
100
AcDbPolyline
 90
        3
 70
   128
 43
0.0
 10
6011.2915039062
 20
5165.5479547829
 10
6011.5949203716
 20
5165.5727617747
 10
6011.8308637589
 20
5165.5348007829
  0
LWPOLYLINE
  5
2E5
330
1F
100
AcDbEntity
  8
0
  6
Continuous
 62
     7
100
AcDbPolyline
 90
        3
 70
   128
 43
0.0
 10
6011.8293762207
 20
5165.5348007829
 10
6012.2655940716
 20
5165.4000650501
 10
6012.5953454822
 20
5165.2614315302
  0
LWPOLYLINE
  5
2E6
330
1F
100
AcDbEntity
  8
0
  6
Continuous
 62
     7
100
AcDbPolyline
 90
        3
 70
   128
 43
0.0
 10
6012.5923156738
 20
5165.2614315302
 10
6012.6535443395
 20
5165.3466035052
 10
6012.6995493025
 20
5165.4133339674
  0
LWPOLYLINE
  5
2E7
330
1F
100
AcDbEntity
  8
0
  6
Continuous
 62
     7
100
AcDbPolyline
 90
        3
 70
   128
 43
0.0
 10
6012.6991271973
 20
5165.4133339674
 10
6012.9043861236
 20
5165.6194612915
 10
6013.1120506972
 20
5165.7087383122
  0
LWPOLYLINE
  5
2E8
330
1F
100
AcDbEntity
  8
0
  6
Continuous
 62
     7
100
AcDbPolyline
 90
        3
 70
   128
 43
0.0
 10
6013.111114502
 20
5165.7087383122
 10
6013.4683484477
 20
5165.6074281859
 10
6013.6858944148
 20
5165.404885009
  0
LWPOLYLINE
  5
2E9
330
1F
100
AcDbEntity
  8
0
  6
Continuous
 62
     7
100
AcDbPolyline
 90
        3
 70
   128
 43
0.0
 10
6013.6833190918
 20
5165.404885009
 10
6013.7245829415
 20
5165.3537951336
 10
6013.7548867911
 20
5165.3135818691
  0
LWPOLYLINE
  5
2EA
330
1F
100
AcDbEntity
  8
0
  6
Continuous
 62
     7
100
AcDbPolyline
 90
        3
 70
   128
 43
0.0
 10
6013.7519836426
 20
5165.3135818691
 10
6013.8015734958
 20
5165.3348984478
 10
6013.8378341049
 20
5165.352540955
  0
LWPOLYLINE
  5
2EB
330
1F
100
AcDbEntity
  8
0
  6
Continuous
 62
     7
100
AcDbPolyline
 90
        3
 70
   128
 43
0.0
 10
6013.8359069824
 20
5165.352540955
 10
6013.8787358682
 20
5165.3704382114
 10
6013.9114756435
 20
5165.3830287308
  0
LWPOLYLINE
  5
2EC
330
1F
100
AcDbEntity
  8
0
  6
Continuous
 62
     7
100
AcDbPolyline
 90
        3
 70
   128
 43
0.0
 10
6013.9083862305
 20
5165.3830287308
 10
6014.0509106297
 20
5165.4360885304
 10
6014.1631339043
 20
5165.4699360282
  0
LWPOLYLINE
  5
2ED
330
1F
100
AcDbEntity
  8
0
  6
Continuous
 62
     7
100
AcDbPolyline
 90
        3
 70
   128
 43
0.0
 10
6014.16015625
 20
5165.4699360282
 10
6014.5907014164
 20
5165.5251695806
 10
6014.9275262207
 20
5165.4875119478
  0
LWPOLYLINE
  5
2EE
330
1F
100
AcDbEntity
  8
0
  6
Continuous
 62
     7
100
AcDbPolyline
 90
        3
 70
   128
 43
0.0
 10
6014.9269104004
 20
5165.4875119478
 10
6014.4907944834
 20
5165.4260261279
 10
6014.1631562561
 20
5165.3137010784
  0
LWPOLYLINE
  5
2EF
330
1F
100
AcDbEntity
  8
0
  6
Continuous
 62
     7
100
AcDbPolyline
 90
        3
 70
   128
 43
0.0
 10
6014.16015625
 20
5165.3137010784
 10
6014.02125123
 20
5165.2449127324
 10
6013.9114458412
 20
5165.1875068695
  0
LWPOLYLINE
  5
2F0
330
1F
100
AcDbEntity
  8
0
  6
Continuous
 62
     7
100
AcDbPolyline
 90
        3
 70
   128
 43
0.0
 10
6013.9083862305
 20
5165.1875068695
 10
6013.8713336397
 20
5165.1591121464
 10
6013.8377745003
 20
5165.1400094182
  0
LWPOLYLINE
  5
2F1
330
1F
100
AcDbEntity
  8
0
  6
Continuous
 62
     7
100
AcDbPolyline
 90
        3
 70
   128
 43
0.0
 10
6013.8359069824
 20
5165.1400094182
 10
6013.752716161
 20
5165.0815494546
 10
6013.6858571619
 20
5165.0356565864
  0
LWPOLYLINE
  5
2F2
330
1F
100
AcDbEntity
  8
0
  6
Continuous
 62
     7
100
AcDbPolyline
 90
        3
 70
   128
 43
0.0
 10
6013.6833190918
 20
5165.0356565864
 10
6013.4506254087
 20
5164.9127086182
 10
6013.2427040786
 20
5164.900961265
  0
LWPOLYLINE
  5
2F3
330
1F
100
AcDbEntity
  8
0
  6
Continuous
 62
     7
100
AcDbPolyline
 90
        6
 70
   128
 43
0.0
 10
6013.240814209
 20
5164.900961265
 10
6013.2217170519
 20
5164.913579133
 10
6013.2111390296
 20
5164.9365033127
 10
6013.2060279374
 20
5164.9867679788
 10
6013.218921064
 20
5165.035482663
 10
6013.2598255128
 20
5165.0614318699
  0
LWPOLYLINE
  5
2F4
330
1F
100
AcDbEntity
  8
0
  6
Continuous
 62
     7
100
AcDbPolyline
 90
        3
 70
   128
 43
0.0
 10
6013.3590698242
 20
5165.0614542217
 10
6013.4042646609
 20
5165.0798712125
 10
6013.4205196351
 20
5165.113738671
  0
LWPOLYLINE
  5
2F5
330
1F
100
AcDbEntity
  8
0
  6
Continuous
 62
     7
100
AcDbPolyline
 90
        3
 70
   128
 43
0.0
 10
6013.4201049805
 20
5165.113738671
 10
6013.3959431577
 20
5165.1541941412
 10
6013.3598272055
 20
5165.1659486145
  0
LWPOLYLINE
  5
2F6
330
1F
100
AcDbEntity
  8
0
  6
Continuous
 62
     7
100
AcDbPolyline
 90
        3
 70
   128
 43
0.0
 10
6012.9585266113
 20
5165.1658145041
 10
6012.9173072618
 20
5165.1460490229
 10
6012.89932172
 20
5165.1137014181
  0
LWPOLYLINE
  5
2F7
330
1F
100
AcDbEntity
  8
0
  6
Continuous
 62
     7
100
AcDbPolyline
 90
        3
 70
   128
 43
0.0
 10
6012.8974914551
 20
5165.1137014181
 10
6012.9229632273
 20
5165.0716582104
 10
6012.9603568763
 20
5165.0613238365
  0
LWPOLYLINE
  5
2F8
330
1F
100
AcDbEntity
  8
0
  6
Continuous
 62
     7
100
AcDbPolyline
 90
        7
 70
   128
 43
0.0
 10
6013.053894043
 20
5165.0613499135
 10
6013.0785868001
 20
5165.0524020711
 10
6013.0925087803
 20
5165.0318912647
 10
6013.1014485213
 20
5164.9833698882
 10
6013.0925200827
 20
5164.9348465839
 10
6013.078606017
 20
5164.9143299205
 10
6013.05600743
 20
5164.9053720088
  0
LWPOLYLINE
  5
2F9
330
1F
100
AcDbEntity
  8
0
  6
Continuous
 62
     7
100
AcDbPolyline
 90
        3
 70
   128
 43
0.0
 10
6013.053894043
 20
5164.9053720088
 10
6012.8519311822
 20
5164.942264645
 10
6012.6996238083
 20
5165.0008064956
  0
LWPOLYLINE
  5
2FA
330
1F
100
AcDbEntity
  8
0
  6
Continuous
 62
     7
100
AcDbPolyline
 90
        3
 70
   128
 43
0.0
 10
6012.6991271973
 20
5165.0008064956
 10
6012.4060289169
 20
5165.1483201893
 10
6012.1783066839
 20
5165.2699363679
  0
LWPOLYLINE
  5
2FB
330
1F
100
AcDbEntity
  8
0
  6
Continuous
 62
     7
100
AcDbPolyline
 90
        3
 70
   128
 43
0.0
 10
6015.1863098145
 20
5162.9294482321
 10
6014.6241474563
 20
5162.7843520663
 10
6014.1633425206
 20
5162.7903309912
  0
LWPOLYLINE
  5
2FC
330
1F
100
AcDbEntity
  8
0
  6
Continuous
 62
     7
100
AcDbPolyline
 90
        3
 70
   128
 43
0.0
 10
6014.16015625
 20
5162.7903309912
 10
6014.0218383406
 20
5162.8087964683
 10
6013.9116172046
 20
5162.8293608577
  0
LWPOLYLINE
  5
2FD
330
1F
100
AcDbEntity
  8
0
  6
Continuous
 62
     7
100
AcDbPolyline
 90
        3
 70
   128
 43
0.0
 10
6013.9083862305
 20
5162.8293608577
 10
6013.8700160891
 20
5162.8376723496
 10
6013.8379607648
 20
5162.8468138427
  0
LWPOLYLINE
  5
2FE
330
1F
100
AcDbEntity
  8
0
  6
Continuous
 62
     7
100
AcDbPolyline
 90
        3
 70
   128
 43
0.0
 10
6013.8359069824
 20
5162.8468138427
 10
6013.7594734453
 20
5162.8669741121
 10
6013.6986647099
 20
5162.8858437092
  0
LWPOLYLINE
  5
2FF
330
1F
100
AcDbEntity
  8
0
  6
Continuous
 62
     7
100
AcDbPolyline
 90
        3
 70
   128
 43
0.0
 10
6013.6985778809
 20
5162.8858437092
 10
6013.7184613651
 20
5163.1895750914
 10
6013.7637678832
 20
5163.4242934436
  0
LWPOLYLINE
  5
300
330
1F
100
AcDbEntity
  8
0
  6
Continuous
 62
     7
100
AcDbPolyline
 90
        3
 70
   128
 43
0.0
 10
6013.7634277344
 20
5163.4242934436
 10
6013.8057383253
 20
5163.4137662693
 10
6013.8379309625
 20
5163.4028283209
  0
LWPOLYLINE
  5
301
330
1F
100
AcDbEntity
  8
0
  6
Continuous
 62
     7
100
AcDbPolyline
 90
        3
 70
   128
 43
0.0
 10
6013.8359069824
 20
5163.4028283209
 10
6013.8791245546
 20
5163.3928035593
 10
6013.9115874022
 20
5163.3853343577
  0
LWPOLYLINE
  5
302
330
1F
100
AcDbEntity
  8
0
  6
Continuous
 62
     7
100
AcDbPolyline
 90
        3
 70
   128
 43
0.0
 10
6013.9083862305
 20
5163.3853343577
 10
6014.0520198668
 20
5163.3632938233
 10
6014.1634095758
 20
5163.3550030441
  0
LWPOLYLINE
  5
303
330
1F
100
AcDbEntity
  8
0
  6
Continuous
 62
     7
100
AcDbPolyline
 90
        3
 70
   128
 43
0.0
 10
6014.16015625
 20
5163.3550030441
 10
6014.6932272992
 20
5163.3714560547
 10
6015.0926385373
 20
5163.4808396251
  0
LWPOLYLINE
  5
304
330
1F
100
AcDbEntity
  8
0
  6
Continuous
 62
     7
100
AcDbPolyline
 90
        3
 70
   128
 43
0.0
 10
6015.0909423828
 20
5163.4808396251
 10
6015.1647141872
 20
5163.1749581539
 10
6015.1881326288
 20
5162.9294482321
  0
LWPOLYLINE
  5
305
330
1F
100
AcDbEntity
  8
0
  6
Continuous
 62
     7
100
AcDbPolyline
 90
        3
 70
   128
 43
0.0
 10
6011.2991333008
 20
5165.7911566348
 10
6011.54203715
 20
5166.3157949561
 10
6011.830915913
 20
5166.6642231197
  0
LWPOLYLINE
  5
306
330
1F
100
AcDbEntity
  8
0
  6
Continuous
 62
     7
100
AcDbPolyline
 90
        3
 70
   128
 43
0.0
 10
6011.8293762207
 20
5166.6642231197
 10
6012.2884549847
 20
5166.9621310064
 10
6012.6994673461
 20
5167.0853969903
  0
LWPOLYLINE
  5
307
330
1F
100
AcDbEntity
  8
0
  6
Continuous
 62
     7
100
AcDbPolyline
 90
        3
 70
   128
 43
0.0
 10
6012.6991271973
 20
5167.0853969903
 10
6012.9248791591
 20
5167.1179834081
 10
6013.1034974307
 20
5167.1289903373
  0
LWPOLYLINE
  5
308
330
1F
100
AcDbEntity
  8
0
  6
Continuous
 62
     7
100
AcDbPolyline
 90
        3
 70
   128
 43
0.0
 10
6013.111114502
 20
5167.1289791615
 10
6013.4373309806
 20
5167.108347707
 10
6013.6857677549
 20
5167.046434179
  0
LWPOLYLINE
  5
309
330
1F
100
AcDbEntity
  8
0
  6
Continuous
 62
     7
100
AcDbPolyline
 90
        3
 70
   128
 43
0.0
 10
6013.6833190918
 20
5167.046434179
 10
6013.7715892987
 20
5167.0168428915
 10
6013.8376180381
 20
5166.9898693711
  0
LWPOLYLINE
  5
30A
330
1F
100
AcDbEntity
  8
0
  6
Continuous
 62
     7
100
AcDbPolyline
 90
        3
 70
   128
 43
0.0
 10
6013.8359069824
 20
5166.9898693711
 10
6013.8798726578
 20
5166.9722909448
 10
6013.9115054458
 20
5166.9551980943
  0
LWPOLYLINE
  5
30B
330
1F
100
AcDbEntity
  8
0
  6
Continuous
 62
     7
100
AcDbPolyline
 90
        3
 70
   128
 43
0.0
 10
6013.9083862305
 20
5166.9551980943
 10
6014.055270816
 20
5166.8824807709
 10
6014.1631637067
 20
5166.8162782938
  0
LWPOLYLINE
  5
30C
330
1F
100
AcDbEntity
  8
0
  6
Continuous
 62
     7
100
AcDbPolyline
 90
        3
 70
   128
 43
0.0
 10
6014.16015625
 20
5166.4080535323
 10
6014.0230705801
 20
5166.4731793823
 10
6013.9114607424
 20
5166.5208925755
  0
LWPOLYLINE
  5
30D
330
1F
100
AcDbEntity
  8
0
  6
Continuous
 62
     7
100
AcDbPolyline
 90
        3
 70
   128
 43
0.0
 10
6013.9083862305
 20
5166.5208925755
 10
6013.8776321181
 20
5166.5359481522
 10
6013.850641653
 20
5166.5468094201
  0
LWPOLYLINE
  5
30E
330
1F
100
AcDbEntity
  8
0
  6
Continuous
 62
     7
100
AcDbPolyline
 90
        3
 70
   128
 43
0.0
 10
6013.8359069824
 20
5166.5339571685
 10
6013.7556192985
 20
5166.4596890618
 10
6013.685678348
 20
5166.4080796093
  0
LWPOLYLINE
  5
30F
330
1F
100
AcDbEntity
  8
0
  6
Continuous
 62
     7
100
AcDbPolyline
 90
        3
 70
   128
 43
0.0
 10
6013.6833190918
 20
5166.4080796093
 10
6013.4042389219
 20
5166.2883305818
 10
6013.164353773
 20
5166.2647639663
  0
LWPOLYLINE
  5
310
330
1F
100
AcDbEntity
  8
0
  6
Continuous
 62
     7
100
AcDbPolyline
 90
        3
 70
   128
 43
0.0
 10
6013.111114502
 20
5166.2690629513
 10
6012.8720665253
 20
5166.3216440322
 10
6012.6994896978
 20
5166.4079641253
  0
LWPOLYLINE
  5
311
330
1F
100
AcDbEntity
  8
0
  6
Continuous
 62
     7
100
AcDbPolyline
 90
        3
 70
   128
 43
0.0
 10
6012.6991271973
 20
5166.4079641253
 10
6012.5693689981
 20
5166.5028003174
 10
6012.4779392332
 20
5166.5901382715
  0
LWPOLYLINE
  5
312
330
1F
100
AcDbEntity
  8
0
  6
Continuous
 62
     7
100
AcDbPolyline
 90
        3
 70
   128
 43
0.0
 10
6012.4778747559
 20
5166.5901382715
 10
6012.105070892
 20
5166.4019861019
 10
6011.8308563084
 20
5166.2213494331
  0
LWPOLYLINE
  5
313
330
1F
100
AcDbEntity
  8
0
  6
Continuous
 62
     7
100
AcDbPolyline
 90
        3
 70
   128
 43
0.0
 10
6011.8293762207
 20
5166.2213494331
 10
6011.528646363
 20
5165.9872912112
 10
6011.3011796326
 20
5165.7911566348
  0
LWPOLYLINE
  5
314
330
1F
100
AcDbEntity
  8
0
  6
Continuous
 62
     7
100
AcDbPolyline
 90
        3
 70
   128
 43
0.0
 10
6014.8773193359
 20
5165.9042452723
 10
6014.5008789157
 20
5166.2182469209
 10
6014.1631562561
 20
5166.4080535323
  0
LWPOLYLINE
  5
315
330
1F
100
AcDbEntity
  8
0
  6
Continuous
 62
     7
100
AcDbPolyline
 90
        3
 70
   128
 43
0.0
 10
6014.16015625
 20
5166.8162782938
 10
6014.6456735086
 20
5166.3657415118
 10
6014.8797754496
 20
5165.9042452723
  0
LWPOLYLINE
  5
316
330
1F
100
AcDbEntity
  8
0
  6
Continuous
 62
     7
100
AcDbPolyline
 90
        3
 70
   128
 43
0.0
 10
6014.16015625
 20
5164.4625206739
 10
6014.3729228365
 20
5164.4816141398
 10
6014.5365644544
 20
5164.5058644266
  0
LWPOLYLINE
  5
317
330
1F
100
AcDbEntity
  8
0
  6
Continuous
 62
     7
100
AcDbPolyline
 90
        3
 70
   128
 43
0.0
 10
6014.16015625
 20
5163.9715795667
 10
6014.0219492462
 20
5163.9852437388
 10
6013.9116470069
 20
5164.0020375401
  0
LWPOLYLINE
  5
318
330
1F
100
AcDbEntity
  8
0
  6
Continuous
 62
     7
100
AcDbPolyline
 90
        3
 70
   128
 43
0.0
 10
6013.9083862305
 20
5164.0020375401
 10
6013.8775780144
 20
5164.0069491781
 10
6013.8508055657
 20
5164.0107807965
  0
LWPOLYLINE
  5
319
330
1F
100
AcDbEntity
  8
0
  6
Continuous
 62
     7
100
AcDbPolyline
 90
        3
 70
   128
 43
0.0
 10
6013.8473510742
 20
5164.0107807965
 10
6013.8812971053
 20
5164.1720928867
 10
6013.911661908
 20
5164.2974567861
  0
LWPOLYLINE
  5
31A
330
1F
100
AcDbEntity
  8
0
  6
Continuous
 62
     7
100
AcDbPolyline
 90
        3
 70
   128
 43
0.0
 10
6013.9083862305
 20
5164.2974567861
 10
6013.9421388964
 20
5164.3902512818
 10
6013.9678616375
 20
5164.4625542016
  0
LWPOLYLINE
  5
31B
330
1F
100
AcDbEntity
  8
0
  6
Continuous
 62
     7
100
AcDbPolyline
 90
        3
 70
   128
 43
0.0
 10
6013.9656066895
 20
5164.4625542016
 10
6014.0772995396
 20
5164.4592459497
 10
6014.1632605642
 20
5164.4625206739
  0
LWPOLYLINE
  5
31C
330
1F
100
AcDbEntity
  8
0
  6
Continuous
 62
     7
100
AcDbPolyline
 90
        3
 70
   128
 43
0.0
 10
6014.533996582
 20
5164.5058644266
 10
6014.716693979
 20
5164.2838776163
 10
6014.8276511878
 20
5164.0890267939
  0
LWPOLYLINE
  5
31D
330
1F
100
AcDbEntity
  8
0
  6
Continuous
 62
     7
100
AcDbPolyline
 90
        3
 70
   128
 43
0.0
 10
6014.8239135742
 20
5164.0890267939
 10
6014.4620081454
 20
5163.9823569715
 10
6014.1632978171
 20
5163.9715795667
  0
LWPOLYLINE
  5
31E
330
1F
100
AcDbEntity
  8
0
  6
Continuous
 62
     7
100
AcDbPolyline
 90
        3
 70
   128
 43
0.0
 10
6015.209197998
 20
5167.823552087
 10
6015.0404086913
 20
5166.9712811648
 10
6014.7321421951
 20
5166.3602059037
  0
LWPOLYLINE
  5
31F
330
1F
100
AcDbEntity
  8
0
  6
Continuous
 62
     7
100
AcDbPolyline
 90
        3
 70
   128
 43
0.0
 10
6014.7285461426
 20
5166.3602059037
 10
6014.6868272293
 20
5166.4354117841
 10
6014.6451417655
 20
5166.4904010744
  0
LWPOLYLINE
  5
320
330
1F
100
AcDbEntity
  8
0
  6
Continuous
 62
     7
100
AcDbPolyline
 90
        3
 70
   128
 43
0.0
 10
6014.6446228027
 20
5166.4904010744
 10
6014.9536448658
 20
5167.1215726208
 10
6015.0580827445
 20
5167.6631112844
  0
LWPOLYLINE
  5
321
330
1F
100
AcDbEntity
  8
0
  6
Continuous
 62
     7
100
AcDbPolyline
 90
        3
 70
   128
 43
0.0
 10
6014.16015625
 20
5167.2069494874
 10
6014.0319207457
 20
5167.095303674
 10
6013.9330972284
 20
5167.0028557331
  0
LWPOLYLINE
  5
322
330
1F
100
AcDbEntity
  8
0
  6
Continuous
 62
     7
100
AcDbPolyline
 90
        3
 70
   128
 43
0.0
 10
6013.9083862305
 20
5167.0160544366
 10
6013.8697714809
 20
5167.0346684272
 10
6013.8376180381
 20
5167.0506437571
  0
LWPOLYLINE
  5
323
330
1F
100
AcDbEntity
  8
0
  6
Continuous
 62
     7
100
AcDbPolyline
 90
        3
 70
   128
 43
0.0
 10
6013.8359069824
 20
5167.0984988362
 10
6013.8795985521
 20
5167.1367469986
 10
6013.9114756435
 20
5167.1679829509
  0
LWPOLYLINE
  5
324
330
1F
100
AcDbEntity
  8
0
  6
Continuous
 62
     7
100
AcDbPolyline
 90
        3
 70
   128
 43
0.0
 10
6013.9083862305
 20
5167.1679829509
 10
6014.0508150538
 20
5167.2841193066
 10
6014.163051948
 20
5167.3719574959
  0
LWPOLYLINE
  5
325
330
1F
100
AcDbEntity
  8
0
  6
Continuous
 62
     7
100
AcDbPolyline
 90
        3
 70
   128
 43
0.0
 10
6014.16015625
 20
5167.3719574959
 10
6014.7189074577
 20
5167.6978871105
 10
6015.2097393125
 20
5167.823552087
  0
LWPOLYLINE
  5
326
330
1F
100
AcDbEntity
  8
0
  6
Continuous
 62
     7
100
AcDbPolyline
 90
        3
 70
   128
 43
0.0
 10
6015.0566101074
 20
5167.6631112844
 10
6014.529677891
 20
5167.4593577295
 10
6014.1630593985
 20
5167.2069494874
  0
LWPOLYLINE
  5
327
330
1F
100
AcDbEntity
  8
0
  6
Continuous
 62
     7
100
AcDbPolyline
 90
        3
 70
   128
 43
0.0
 10
6013.4658813477
 20
5160.4106267244
 10
6013.2945899966
 20
5160.3825780123
 10
6013.1560612768
 20
5160.375549391
  0
LWPOLYLINE
  5
328
330
1F
100
AcDbEntity
  8
0
  6
Continuous
 62
     7
100
AcDbPolyline
 90
        3
 70
   128
 43
0.0
 10
6013.1530761719
 20
5160.375549391
 10
6013.1236746132
 20
5161.3603332255
 10
6013.1167743653
 20
5162.134478733
  0
LWPOLYLINE
  5
329
330
1F
100
AcDbEntity
  8
0
  6
Continuous
 62
     7
100
AcDbPolyline
 90
        3
 70
   128
 43
0.0
 10
6013.111114502
 20
5162.1039723308
 10
6013.0575164482
 20
5161.1391496426
 10
6013.0822111219
 20
5160.3800867946
  0
LWPOLYLINE
  5
32A
330
1F
100
AcDbEntity
  8
0
  6
Continuous
 62
     7
100
AcDbPolyline
 90
        3
 70
   128
 43
0.0
 10
6013.0805969238
 20
5160.3800867946
 10
6012.9110340668
 20
5160.3924724047
 10
6012.7779815644
 20
5160.4145904333
  0
LWPOLYLINE
  5
32B
330
1F
100
AcDbEntity
  8
0
  6
Continuous
 62
     7
100
AcDbPolyline
 90
        3
 70
   128
 43
0.0
 10
6012.7754211426
 20
5160.4145904333
 10
6012.8012433474
 20
5162.3355486033
 10
6012.6996089071
 20
5163.8413359673
  0
LWPOLYLINE
  5
32C
330
1F
100
AcDbEntity
  8
0
  6
Continuous
 62
     7
100
AcDbPolyline
 90
        3
 70
   128
 43
0.0
 10
6012.6991271973
 20
5163.8413359673
 10
6012.5495328752
 20
5164.6037931556
 10
6012.2697849125
 20
5165.1399870665
  0
LWPOLYLINE
  5
32D
330
1F
100
AcDbEntity
  8
0
  6
Continuous
 62
     7
100
AcDbPolyline
 90
        3
 70
   128
 43
0.0
 10
6012.2680664062
 20
5165.1399870665
 10
6012.5193146824
 20
5165.0254520348
 10
6012.6996536106
 20
5164.9053012282
  0
LWPOLYLINE
  5
32E
330
1F
100
AcDbEntity
  8
0
  6
Continuous
 62
     7
100
AcDbPolyline
 90
        3
 70
   128
 43
0.0
 10
6012.6991271973
 20
5164.9053012282
 10
6012.9208403862
 20
5164.7759535164
 10
6013.1121103019
 20
5164.7141118795
  0
LWPOLYLINE
  5
32F
330
1F
100
AcDbEntity
  8
0
  6
Continuous
 62
     7
100
AcDbPolyline
 90
        3
 70
   128
 43
0.0
 10
6013.1416320801
 20
5164.709973082
 10
6013.4619223047
 20
5164.8113507509
 10
6013.685909316
 20
5164.9532755167
  0
LWPOLYLINE
  5
330
330
1F
100
AcDbEntity
  8
0
  6
Continuous
 62
     7
100
AcDbPolyline
 90
        3
 70
   128
 43
0.0
 10
6013.6833190918
 20
5164.9532755167
 10
6013.7707268793
 20
5165.0095167142
 10
6013.8378117532
 20
5165.0530313403
  0
LWPOLYLINE
  5
331
330
1F
100
AcDbEntity
  8
0
  6
Continuous
 62
     7
100
AcDbPolyline
 90
        3
 70
   128
 43
0.0
 10
6013.8359069824
 20
5165.0530313403
 10
6013.8788158286
 20
5165.0779060205
 10
6013.9114830941
 20
5165.0966880173
  0
LWPOLYLINE
  5
332
330
1F
100
AcDbEntity
  8
0
  6
Continuous
 62
     7
100
AcDbPolyline
 90
        3
 70
   128
 43
0.0
 10
6013.9083862305
 20
5165.0966880173
 10
6013.9450697209
 20
5165.1120360997
 10
6013.9721233696
 20
5165.1225117297
  0
LWPOLYLINE
  5
333
330
1F
100
AcDbEntity
  8
0
  6
Continuous
 62
     7
100
AcDbPolyline
 90
        3
 70
   128
 43
0.0
 10
6013.9694213867
 20
5165.1225117297
 10
6013.9380869109
 20
5165.0883861908
 10
6013.9115128964
 20
5165.0614057929
  0
LWPOLYLINE
  5
334
330
1F
100
AcDbEntity
  8
0
  6
Continuous
 62
     7
100
AcDbPolyline
 90
        3
 70
   128
 43
0.0
 10
6013.9083862305
 20
5165.0614057929
 10
6013.8693229558
 20
5165.0087707622
 10
6013.8377745003
 20
5164.9661799223
  0
LWPOLYLINE
  5
335
330
1F
100
AcDbEntity
  8
0
  6
Continuous
 62
     7
100
AcDbPolyline
 90
        3
 70
   128
 43
0.0
 10
6013.8359069824
 20
5164.9661799223
 10
6013.7448009729
 20
5164.8123037963
 10
6013.6859391183
 20
5164.6838550717
  0
LWPOLYLINE
  5
336
330
1F
100
AcDbEntity
  8
0
  6
Continuous
 62
     7
100
AcDbPolyline
 90
        3
 70
   128
 43
0.0
 10
6013.6833190918
 20
5164.6838550717
 10
6013.3976804096
 20
5162.3020269203
 10
6013.4687472433
 20
5160.4106267244
  0
LWPOLYLINE
  5
337
330
1F
100
AcDbEntity
  8
0
  6
Continuous
 62
     7
100
AcDbPolyline
 90
        3
 70
   128
 43
0.0
 10
6013.6795043945
 20
5165.669712171
 10
6013.5698624791
 20
5165.7242448594
 10
6013.5376129598
 20
5165.8172932715
  0
LWPOLYLINE
  5
338
330
1F
100
AcDbEntity
  8
0
  6
Continuous
 62
     7
100
AcDbPolyline
 90
        3
 70
   128
 43
0.0
 10
6013.5345458984
 20
5165.8172932715
 10
6013.5889441087
 20
5165.9304675699
 10
6013.681058988
 20
5165.9649600536
  0
LWPOLYLINE
  5
339
330
1F
100
AcDbEntity
  8
0
  6
Continuous
 62
     7
100
AcDbPolyline
 90
        3
 70
   128
 43
0.0
 10
6013.8282775879
 20
5165.8172895462
 10
6013.7770420105
 20
5165.7053737141
 10
6013.6857752055
 20
5165.6697904021
  0
LWPOLYLINE
  5
33A
330
1F
100
AcDbEntity
  8
0
  6
Continuous
 62
     7
100
AcDbPolyline
 90
        3
 70
   128
 43
0.0
 10
6013.6833190918
 20
5165.9650382847
 10
6013.7977070986
 20
5165.9111729305
 10
6013.8288934082
 20
5165.8172895462
  0
LWPOLYLINE
  5
33B
330
1F
100
AcDbEntity
  8
0
  6
Continuous
 62
     7
100
AcDbPolyline
 90
        3
 70
   128
 43
0.0
 10
6013.744354248
 20
5167.0854230673
 10
6013.7125107941
 20
5167.0979722584
 10
6013.6857752055
 20
5167.1070372016
  0
LWPOLYLINE
  5
33C
330
1F
100
AcDbEntity
  8
0
  6
Continuous
 62
     7
100
AcDbPolyline
 90
        3
 70
   128
 43
0.0
 10
6013.6833190918
 20
5167.1070372016
 10
6013.5815467976
 20
5167.1384244093
 10
6013.4986389727
 20
5167.1594296844
  0
LWPOLYLINE
  5
33D
330
1F
100
AcDbEntity
  8
0
  6
Continuous
 62
     7
100
AcDbPolyline
 90
        3
 70
   128
 43
0.0
 10
6013.4963989258
 20
5167.1594296844
 10
6013.6027018423
 20
5167.2429424406
 10
6013.685730502
 20
5167.3069511802
  0
LWPOLYLINE
  5
33E
330
1F
100
AcDbEntity
  8
0
  6
Continuous
 62
     7
100
AcDbPolyline
 90
        3
 70
   128
 43
0.0
 10
6013.6833190918
 20
5167.3069511802
 10
6013.7699573528
 20
5167.3642583531
 10
6013.8376329392
 20
5167.4070013017
  0
LWPOLYLINE
  5
33F
330
1F
100
AcDbEntity
  8
0
  6
Continuous
 62
     7
100
AcDbPolyline
 90
        3
 70
   128
 43
0.0
 10
6013.8359069824
 20
5167.1852273197
 10
6013.7862772729
 20
5167.1294715049
 10
6013.7461770624
 20
5167.0854230673
  0
LWPOLYLINE
  5
340
330
1F
100
AcDbEntity
  8
0
  6
Continuous
 62
     7
100
AcDbPolyline
 90
        3
 70
   128
 43
0.0
 10
6014.5225524902
 20
5167.6848260016
 10
6014.3164912291
 20
5167.569010079
 10
6014.1630146951
 20
5167.4632010312
  0
LWPOLYLINE
  5
341
330
1F
100
AcDbEntity
  8
0
  6
Continuous
 62
     7
100
AcDbPolyline
 90
        3
 70
   128
 43
0.0
 10
6013.9083862305
 20
5167.2592674644
 10
6013.8699604669
 20
5167.2179235121
 10
6013.8376478404
 20
5167.1852273197
  0
LWPOLYLINE
  5
342
330
1F
100
AcDbEntity
  8
0
  6
Continuous
 62
     7
100
AcDbPolyline
 90
        3
 70
   128
 43
0.0
 10
6014.16015625
 20
5167.4632010312
 10
6014.0185617753
 20
5167.353307342
 10
6013.9113564342
 20
5167.2592674644
  0
LWPOLYLINE
  5
343
330
1F
100
AcDbEntity
  8
0
  6
Continuous
 62
     7
100
AcDbPolyline
 90
        3
 70
   128
 43
0.0
 10
6014.16015625
 20
5167.5721247942
 10
6014.362483624
 20
5167.6433541668
 10
6014.5235780925
 20
5167.6848260016
  0
LWPOLYLINE
  5
344
330
1F
100
AcDbEntity
  8
0
  6
Continuous
 62
     7
100
AcDbPolyline
 90
        3
 70
   128
 43
0.0
 10
6013.8359069824
 20
5167.4070013017
 10
6013.8792981477
 20
5167.4306676355
 10
6013.9113862366
 20
5167.4503599555
  0
LWPOLYLINE
  5
345
330
1F
100
AcDbEntity
  8
0
  6
Continuous
 62
     7
100
AcDbPolyline
 90
        3
 70
   128
 43
0.0
 10
6013.9083862305
 20
5167.4503599555
 10
6014.0507991225
 20
5167.5217637234
 10
6014.1630892009
 20
5167.5721247942
  0
LWPOLYLINE
  5
346
330
1F
100
AcDbEntity
  8
0
  6
Continuous
 62
     7
100
AcDbPolyline
 90
        5
 70
   128
 43
0.0
 10
6012.8440856934
 20
5165.8171666116
 10
6012.8026280815
 20
5165.714096065
 10
6012.6994823485
 20
5165.669674986
 10
6012.5963787387
 20
5165.714230785
 10
6012.5516776294
 20
5165.8172597439
  0
LWPOLYLINE
  5
347
330
1F
100
AcDbEntity
  8
0
  6
Continuous
 62
     7
100
AcDbPolyline
 90
        3
 70
   128
 43
0.0
 10
6012.5503540039
 20
5165.8172597439
 10
6012.6071056732
 20
5165.9276089862
 10
6012.6995120496
 20
5165.9606163651
  0
LWPOLYLINE
  5
348
330
1F
100
AcDbEntity
  8
0
  6
Continuous
 62
     7
100
AcDbPolyline
 90
        3
 70
   128
 43
0.0
 10
6012.6991271973
 20
5165.9606163651
 10
6012.8119235166
 20
5165.9085481319
 10
6012.8471751064
 20
5165.8171666116
  0
LWPOLYLINE
  5
349
330
1F
100
AcDbEntity
  8
0
  6
Continuous
 62
     7
100
AcDbPolyline
 90
        3
 70
   128
 43
0.0
 10
6012.6991271973
 20
5160.4320508689
 10
6012.1766442861
 20
5160.6837851097
 10
6011.8311096281
 20
5160.9795083553
  0
LWPOLYLINE
  5
34A
330
1F
100
AcDbEntity
  8
0
  6
Continuous
 62
     7
100
AcDbPolyline
 90
        3
 70
   128
 43
0.0
 10
6011.8293762207
 20
5160.9795083553
 10
6011.495492693
 20
5162.3366212998
 10
6011.8310425729
 20
5163.4114672691
  0
LWPOLYLINE
  5
34B
330
1F
100
AcDbEntity
  8
0
  6
Continuous
 62
     7
100
AcDbPolyline
 90
        3
 70
   128
 43
0.0
 10
6012.3901367188
 20
5164.8054820747
 10
6012.6255008041
 20
5163.8530040969
 10
6012.6996834129
 20
5163.0858284683
  0
LWPOLYLINE
  5
34C
330
1F
100
AcDbEntity
  8
0
  6
Continuous
 62
     7
100
AcDbPolyline
 90
        3
 70
   128
 43
0.0
 10
6011.8293762207
 20
5163.4114672691
 10
6012.0399974061
 20
5163.8335124349
 10
6012.2090999335
 20
5164.162623629
  0
LWPOLYLINE
  5
34D
330
1F
100
AcDbEntity
  8
0
  6
Continuous
 62
     7
100
AcDbPolyline
 90
        3
 70
   128
 43
0.0
 10
6012.6991271973
 20
5163.0858284683
 10
6012.7142863694
 20
5161.5972154641
 10
6012.7041463107
 20
5160.42757307
  0
LWPOLYLINE
  5
34E
330
1F
100
AcDbEntity
  8
0
  6
Continuous
 62
     7
100
AcDbPolyline
 90
        3
 70
   128
 43
0.0
 10
6012.20703125
 20
5164.162623629
 10
6012.3503305064
 20
5164.5125148725
 10
6012.3912591785
 20
5164.8054820747
  0
LWPOLYLINE
  5
34F
330
1F
100
AcDbEntity
  8
0
  6
Continuous
 62
     7
100
AcDbPolyline
 90
        3
 70
   128
 43
0.0
 10
6011.4784240723
 20
5166.3340394647
 10
6011.1513212684
 20
5167.1354375804
 10
6011.0840101093
 20
5167.8105247468
  0
LWPOLYLINE
  5
350
330
1F
100
AcDbEntity
  8
0
  6
Continuous
 62
     7
100
AcDbPolyline
 90
        3
 70
   128
 43
0.0
 10
6011.0816955566
 20
5167.8105247468
 10
6011.5185215632
 20
5167.6849995929
 10
6011.8309010118
 20
5167.5151949079
  0
LWPOLYLINE
  5
351
330
1F
100
AcDbEntity
  8
0
  6
Continuous
 62
     7
100
AcDbPolyline
 90
        3
 70
   128
 43
0.0
 10
6011.8293762207
 20
5167.3328382225
 10
6011.4889899364
 20
5167.555884709
 10
6011.1971024722
 20
5167.6889834256
  0
LWPOLYLINE
  5
352
330
1F
100
AcDbEntity
  8
0
  6
Continuous
 62
     7
100
AcDbPolyline
 90
        3
 70
   128
 43
0.0
 10
6011.1961364746
 20
5167.6889834256
 10
6011.3046999586
 20
5166.9495421339
 10
6011.5316633433
 20
5166.4078598172
  0
LWPOLYLINE
  5
353
330
1F
100
AcDbEntity
  8
0
  6
Continuous
 62
     7
100
AcDbPolyline
 90
        3
 70
   128
 43
0.0
 10
6011.8293762207
 20
5167.5151949079
 10
6012.1401517002
 20
5167.2715998296
 10
6012.3566512317
 20
5167.0505767018
  0
LWPOLYLINE
  5
354
330
1F
100
AcDbEntity
  8
0
  6
Continuous
 62
     7
100
AcDbPolyline
 90
        3
 70
   128
 43
0.0
 10
6012.3558044434
 20
5167.0505767018
 10
6012.275461732
 20
5167.016046491
 10
6012.2132350057
 20
5166.9854996056
  0
LWPOLYLINE
  5
355
330
1F
100
AcDbEntity
  8
0
  6
Continuous
 62
     7
100
AcDbPolyline
 90
        3
 70
   128
 43
0.0
 10
6012.2108459473
 20
5166.9854996056
 10
6012.0046013113
 20
5167.1860980979
 10
6011.8308861107
 20
5167.3328382225
  0
LWPOLYLINE
  5
356
330
1F
100
AcDbEntity
  8
0
  6
Continuous
 62
     7
100
AcDbPolyline
 90
        3
 70
   128
 43
0.0
 10
6012.3977661133
 20
5167.0723733754
 10
6012.1032262211
 20
5167.3796638809
 10
6011.8308190554
 20
5167.5760512502
  0
LWPOLYLINE
  5
357
330
1F
100
AcDbEntity
  8
0
  6
Continuous
 62
     7
100
AcDbPolyline
 90
        3
 70
   128
 43
0.0
 10
6011.8293762207
 20
5167.5760512502
 10
6011.64773765
 20
5167.6745081124
 10
6011.4968095273
 20
5167.7369502635
  0
LWPOLYLINE
  5
358
330
1F
100
AcDbEntity
  8
0
  6
Continuous
 62
     7
100
AcDbPolyline
 90
        3
 70
   128
 43
0.0
 10
6011.4936828613
 20
5167.7369502635
 10
6011.6868927904
 20
5167.6883002232
 10
6011.8307296485
 20
5167.632474497
  0
LWPOLYLINE
  5
359
330
1F
100
AcDbEntity
  8
0
  6
Continuous
 62
     7
100
AcDbPolyline
 90
        3
 70
   128
 43
0.0
 10
6011.8293762207
 20
5167.632474497
 10
6012.3205351269
 20
5167.3857343297
 10
6012.6818392724
 20
5167.1505001635
  0
LWPOLYLINE
  5
35A
330
1F
100
AcDbEntity
  8
0
  6
Continuous
 62
     7
100
AcDbPolyline
 90
        3
 70
   128
 43
0.0
 10
6012.6800537109
 20
5167.1505001635
 10
6012.5217553763
 20
5167.1147273025
 10
6012.4000657648
 20
5167.0723733754
  0
LWPOLYLINE
  5
35B
330
1F
100
AcDbEntity
  8
0
  6
Continuous
 62
     7
100
AcDbPolyline
 90
        4
 70
   128
 43
0.0
 10
6008.415222168
 20
5164.1318862588
 10
6008.4910940676
 20
5164.8485100245
 10
6008.6374333202
 20
5165.1737977906
 10
6008.9472953528
 20
5165.3308001608
  0
LWPOLYLINE
  5
35C
330
1F
100
AcDbEntity
  8
0
  6
Continuous
 62
     7
100
AcDbPolyline
 90
        5
 70
   128
 43
0.0
 10
6009.1743469238
 20
5165.3218110353
 10
6009.3398652214
 20
5165.2820760772
 10
6009.4457938322
 20
5165.1502089797
 10
6009.5367201121
 20
5164.8231250943
 10
6009.5687110275
 20
5164.1405810863
  0
LWPOLYLINE
  5
35D
330
1F
100
AcDbEntity
  8
0
  6
Continuous
 62
     7
100
AcDbPolyline
 90
        5
 70
   128
 43
0.0
 10
5997.5891113281
 20
5165.3301445097
 10
5997.7529242071
 20
5165.2921017653
 10
5997.8584273458
 20
5165.160473827
 10
5997.94832396
 20
5164.8339323202
 10
5997.981873557
 20
5164.153217271
  0
LWPOLYLINE
  5
35E
330
1F
100
AcDbEntity
  8
0
  6
Continuous
 62
     7
100
AcDbPolyline
 90
        4
 70
   128
 43
0.0
 10
5996.8299865723
 20
5164.1445634217
 10
5996.9026393948
 20
5164.8654103909
 10
5997.0546370291
 20
5165.1900120917
 10
5997.3691154569
 20
5165.3434214444
  0
LWPOLYLINE
  5
35F
330
1F
100
AcDbEntity
  8
0
  6
Continuous
 62
     7
100
AcDbPolyline
 90
        3
 70
   128
 43
0.0
 10
5994.8883056641
 20
5141.3699229509
 10
5996.4243259146
 20
5141.2705190338
 10
5997.597729072
 20
5141.3693418056
  0
LWPOLYLINE
  5
360
330
1F
100
AcDbEntity
  8
0
  6
Continuous
 62
     7
100
AcDbPolyline
 90
        3
 70
   128
 43
0.0
 10
5906.8870544434
 20
5141.3699229509
 10
5908.4243263915
 20
5141.2705190338
 10
5909.5977295488
 20
5141.3693418056
  0
LWPOLYLINE
  5
361
330
1F
100
AcDbEntity
  8
0
  6
Continuous
 62
     7
100
AcDbPolyline
 90
        8
 70
   128
 43
0.0
 10
5946.9566345215
 20
5140.1745368988
 10
5939.9994329004
 20
5140.0375874759
 10
5939.5122750086
 20
5140.003196963
 10
5939.5060848792
 20
5140.0003952299
 10
5939.5058547982
 20
5139.9998707118
 10
5939.5059308175
 20
5139.9993464366
 10
5939.5070211804
 20
5139.9982985957
 10
5939.5376939625
 20
5139.9920274765
  0
LWPOLYLINE
  5
362
330
1F
100
AcDbEntity
  8
0
  6
Continuous
 62
     7
100
AcDbPolyline
 90
        5
 70
   128
 43
0.0
 10
5964.7560119629
 20
5139.488956824
 10
5964.7725824601
 20
5139.4834857889
 10
5964.7731659013
 20
5139.4825706977
 10
5964.7729185733
 20
5139.4816541056
 10
5964.5471919626
 20
5139.4592588098
  0
LWPOLYLINE
  5
363
330
1F
100
AcDbEntity
  8
0
  6
Continuous
 62
     7
100
AcDbPolyline
 90
        3
 70
   128
 43
0.0
 10
5959.3467712402
 20
5139.4592588098
 10
5963.9735737019
 20
5139.7859917579
 10
5965.3187740892
 20
5140.038988486
  0
LINE
  5
364
330
1F
100
AcDbEntity
  8
0
  6
Continuous
 62
     7
100
AcDbLine
 10
5964.5462036133
 20
5139.4592588098
 30
0.0
 11
5959.3487132639
 21
5139.4592588098
 31
0.0
  0
LWPOLYLINE
  5
365
330
1F
100
AcDbEntity
  8
0
  6
Continuous
 62
     7
100
AcDbPolyline
 90
        7
 70
   128
 43
0.0
 10
5959.3467712402
 20
5139.4592588098
 10
5964.3321870688
 20
5139.6373201755
 10
5964.7289267476
 20
5139.6819417638
 10
5964.7322780778
 20
5139.6855683693
 10
5964.7310386718
 20
5139.6882770216
 10
5964.7271711644
 20
5139.69097777
 10
5964.7150535435
 20
5139.6963660867
  0
LWPOLYLINE
  5
366
330
1F
100
AcDbEntity
  8
0
  6
Continuous
 62
     7
100
AcDbPolyline
 90
        3
 70
   128
 43
0.0
 10
5956.6421508789
 20
4889.0925117475
 10
5958.8193446714
 20
4891.4743805494
 10
5959.6847046465
 20
4893.8634798569
  0
LWPOLYLINE
  5
367
330
1F
100
AcDbEntity
  8
0
  6
Continuous
 62
     7
100
AcDbPolyline
 90
        3
 70
   128
 43
0.0
 10
5948.8525390625
 20
4888.4954371196
 10
5953.3227079526
 20
4887.7339622474
 10
5956.6457320303
 20
4889.0925117475
  0
LWPOLYLINE
  5
368
330
1F
100
AcDbEntity
  8
0
  6
Continuous
 62
     7
100
AcDbPolyline
 90
        9
 70
   128
 43
0.0
 10
5939.4836425781
 20
4897.944000965
 10
5940.5307387482
 20
4889.5803383515
 10
5946.4483915963
 20
4883.581230702
 10
5954.7981936742
 20
4882.4668742492
 10
5962.0541250611
 20
4886.7406687827
 10
5965.0826044856
 20
4894.5954572164
 10
5962.5294702518
 20
4902.6147605984
 10
5955.4941979783
 20
4907.2285858514
 10
5947.1325476021
 20
4906.3262187582
  0
LWPOLYLINE
  5
369
330
1F
100
AcDbEntity
  8
0
  6
Continuous
 62
     7
100
AcDbPolyline
 90
        3
 70
   128
 43
0.0
 10
5940.7691955566
 20
4899.32271025
 10
5947.3051816456
 20
4906.9406091444
 10
5955.2038062662
 20
4908.0674492461
  0
LWPOLYLINE
  5
36A
330
1F
100
AcDbEntity
  8
0
  6
Continuous
 62
     7
100
AcDbPolyline
 90
        3
 70
   128
 43
0.0
 10
5947.1321105957
 20
4906.3262187582
 10
5942.8754824041
 20
4903.0160358343
 10
5940.7717932314
 20
4899.32271025
  0
ARC
  5
36B
330
1F
100
AcDbEntity
  8
0
  6
Continuous
 62
     7
100
AcDbCircle
 10
5952.454676577
 20
4895.1522395958
 30
0.0
 40
13.20380677825113
100
AcDbArc
 50
186.8783179708
 51
77.9987004193
  0
LWPOLYLINE
  5
36C
330
1F
100
AcDbEntity
  8
0
  6
Continuous
 62
     7
100
AcDbPolyline
 90
        3
 70
   128
 43
0.0
 10
5940.7691955566
 20
4899.32271025
 10
5943.2425683703
 20
4903.4333970569
 10
5946.1906601042
 20
4905.8022529525
  0
ENDSEC
  0
SECTION
  2
OBJECTS
  0
DICTIONARY
  5
C
330
0
100
AcDbDictionary
281
     1
  3
ACAD_GROUP
350
D
  3
ACAD_LAYOUT
350
1A
  3
ACAD_MLINESTYLE
350
17
  3
ACAD_PLOTSETTINGS
350
19
  3
ACAD_PLOTSTYLENAME
350
E
  3
ACAD_SCALELIST
350
47
  3
DWGPROPS
350
36D
  0
DICTIONARY
  5
D
102
{ACAD_REACTORS
330
C
102
}
330
C
100
AcDbDictionary
281
     1
  0
DICTIONARY
  5
1A
102
{ACAD_REACTORS
330
C
102
}
330
C
100
AcDbDictionary
281
     1
  3
Layout1
350
1E
  3
Layout2
350
26
  3
Model
350
22
  0
DICTIONARY
  5
17
102
{ACAD_REACTORS
330
C
102
}
330
C
100
AcDbDictionary
281
     1
  3
Standard
350
18
  0
DICTIONARY
  5
19
102
{ACAD_REACTORS
330
C
102
}
330
C
100
AcDbDictionary
281
     1
  0
ACDBDICTIONARYWDFLT
  5
E
102
{ACAD_REACTORS
330
C
102
}
330
C
100
AcDbDictionary
281
     1
  3
Normal
350
F
100
AcDbDictionaryWithDefault
340
F
  0
DICTIONARY
  5
47
102
{ACAD_REACTORS
330
C
102
}
330
C
100
AcDbDictionary
281
     1
  3
A0
350
48
  3
A1
350
49
  3
A2
350
4A
  3
A3
350
4B
  3
A4
350
4C
  3
A5
350
4D
  3
A6
350
4E
  3
A7
350
4F
  3
A8
350
50
  3
A9
350
51
  3
B0
350
52
  3
B1
350
53
  3
B2
350
54
  3
B3
350
55
  3
B4
350
56
  3
B5
350
57
  3
B6
350
58
  3
B7
350
59
  3
B8
350
5A
  3
B9
350
5B
  3
C0
350
5C
  3
C1
350
5D
  3
C2
350
5E
  3
C3
350
5F
  3
C4
350
60
  3
C5
350
61
  3
C6
350
62
  3
C7
350
63
  3
C8
350
64
  3
C9
350
65
  3
D0
350
66
  3
D1
350
67
  3
D2
350
68
  0
XRECORD
  5
36D
102
{ACAD_REACTORS
330
C
102
}
330
C
100
AcDbXrecord
280
     1
  1
DWGPROPS COOKIE
  2

  3

  4

  6

  7

  8
radek.stransky
  9

300
=
301
=
302
=
303
=
304
=
305
=
306
=
307
=
308
=
309
=
 40
0.0
 41
2459103.373646111
 42
2459103.373691574
  1

 90
        0
  0
LAYOUT
  5
1E
102
{ACAD_REACTORS
330
1A
102
}
330
1A
100
AcDbPlotSettings
  1

  2
none_device
  4

  6

 40
0.0
 41
0.0
 42
0.0
 43
0.0
 44
0.0
 45
0.0
 46
0.0
 47
0.0
 48
0.0
 49
0.0
140
0.0
141
0.0
142
1.0
143
1.0
 70
   688
 72
     1
 73
     0
 74
     5
  7

 75
    16
147
1.0
148
0.0
149
0.0
100
AcDbLayout
  1
Layout1
 70
     1
 71
     1
 10
0.0
 20
0.0
 11
420.0
 21
297.0
 12
0.0
 22
0.0
 32
0.0
 14
1.0000000000E+20
 24
1.0000000000E+20
 34
1.0000000000E+20
 15
-1.0000000000E+20
 25
-1.0000000000E+20
 35
-1.0000000000E+20
146
0.0
 13
0.0
 23
0.0
 33
0.0
 16
1.0
 26
0.0
 36
0.0
 17
0.0
 27
1.0
 37
0.0
 76
     0
330
1B
  0
LAYOUT
  5
26
102
{ACAD_REACTORS
330
1A
102
}
330
1A
100
AcDbPlotSettings
  1

  2
none_device
  4

  6

 40
0.0
 41
0.0
 42
0.0
 43
0.0
 44
0.0
 45
0.0
 46
0.0
 47
0.0
 48
0.0
 49
0.0
140
0.0
141
0.0
142
1.0
143
1.0
 70
   688
 72
     1
 73
     0
 74
     5
  7

 75
    16
147
1.0
148
0.0
149
0.0
100
AcDbLayout
  1
Layout2
 70
     1
 71
     2
 10
0.0
 20
0.0
 11
0.0
 21
0.0
 12
0.0
 22
0.0
 32
0.0
 14
0.0
 24
0.0
 34
0.0
 15
0.0
 25
0.0
 35
0.0
146
0.0
 13
0.0
 23
0.0
 33
0.0
 16
1.0
 26
0.0
 36
0.0
 17
0.0
 27
1.0
 37
0.0
 76
     0
330
23
  0
LAYOUT
  5
22
102
{ACAD_REACTORS
330
1A
102
}
330
1A
100
AcDbPlotSettings
  1

  2
none_device
  4
ANSI_A_(11.00_x_8.50_Inches)
  6

 40
6.35
 41
19.05
 42
6.35000508
 43
19.05000254
 44
279.4
 45
215.9
 46
-2617.9549475728
 47
-2198.6061401802
 48
0.0
 49
0.0
140
0.0
141
0.0
142
0.0177521089
143
1.0
 70
  1696
 72
     0
 73
     0
 74
     0
  7

 75
     0
147
0.0179189148
148
-1300.4909072572
149
0.0
100
AcDbLayout
  1
Model
 70
     1
 71
     0
 10
0.0
 20
0.0
 11
420.0
 21
297.0
 12
0.0
 22
0.0
 32
0.0
 14
5867.2494639009
 24
4836.1463521314
 34
0.0
 15
6336.2687544576
 25
5310.1745386869
 35
0.0
146
0.0
 13
0.0
 23
0.0
 33
0.0
 16
1.0
 26
0.0
 36
0.0
 17
0.0
 27
1.0
 37
0.0
 76
     0
330
1F
331
29
  0
MLINESTYLE
  5
18
102
{ACAD_REACTORS
330
17
102
}
330
17
100
AcDbMlineStyle
  2
Standard
 70
     0
  3

 62
   256
 51
90.0
 52
90.0
 71
     2
 49
0.5
 62
   256
  6
BYLAYER
 49
-0.5
 62
   256
  6
BYLAYER
  0
ACDBPLACEHOLDER
  5
F
102
{ACAD_REACTORS
330
E
102
}
330
E
  0
SCALE
  5
48
102
{ACAD_REACTORS
330
47
102
}
330
47
100
AcDbScale
 70
     0
300
1:1
140
1.0
141
1.0
290
     1
  0
SCALE
  5
49
102
{ACAD_REACTORS
330
47
102
}
330
47
100
AcDbScale
 70
     0
300
1:2
140
1.0
141
2.0
290
     0
  0
SCALE
  5
4A
102
{ACAD_REACTORS
330
47
102
}
330
47
100
AcDbScale
 70
     0
300
1:4
140
1.0
141
4.0
290
     0
  0
SCALE
  5
4B
102
{ACAD_REACTORS
330
47
102
}
330
47
100
AcDbScale
 70
     0
300
1:5
140
1.0
141
5.0
290
     0
  0
SCALE
  5
4C
102
{ACAD_REACTORS
330
47
102
}
330
47
100
AcDbScale
 70
     0
300
1:8
140
1.0
141
8.0
290
     0
  0
SCALE
  5
4D
102
{ACAD_REACTORS
330
47
102
}
330
47
100
AcDbScale
 70
     0
300
1:10
140
1.0
141
10.0
290
     0
  0
SCALE
  5
4E
102
{ACAD_REACTORS
330
47
102
}
330
47
100
AcDbScale
 70
     0
300
1:16
140
1.0
141
16.0
290
     0
  0
SCALE
  5
4F
102
{ACAD_REACTORS
330
47
102
}
330
47
100
AcDbScale
 70
     0
300
1:20
140
1.0
141
20.0
290
     0
  0
SCALE
  5
50
102
{ACAD_REACTORS
330
47
102
}
330
47
100
AcDbScale
 70
     0
300
1:30
140
1.0
141
30.0
290
     0
  0
SCALE
  5
51
102
{ACAD_REACTORS
330
47
102
}
330
47
100
AcDbScale
 70
     0
300
1:40
140
1.0
141
40.0
290
     0
  0
SCALE
  5
52
102
{ACAD_REACTORS
330
47
102
}
330
47
100
AcDbScale
 70
     0
300
1:50
140
1.0
141
50.0
290
     0
  0
SCALE
  5
53
102
{ACAD_REACTORS
330
47
102
}
330
47
100
AcDbScale
 70
     0
300
1:100
140
1.0
141
100.0
290
     0
  0
SCALE
  5
54
102
{ACAD_REACTORS
330
47
102
}
330
47
100
AcDbScale
 70
     0
300
2:1
140
2.0
141
1.0
290
     0
  0
SCALE
  5
55
102
{ACAD_REACTORS
330
47
102
}
330
47
100
AcDbScale
 70
     0
300
4:1
140
4.0
141
1.0
290
     0
  0
SCALE
  5
56
102
{ACAD_REACTORS
330
47
102
}
330
47
100
AcDbScale
 70
     0
300
8:1
140
8.0
141
1.0
290
     0
  0
SCALE
  5
57
102
{ACAD_REACTORS
330
47
102
}
330
47
100
AcDbScale
 70
     0
300
10:1
140
10.0
141
1.0
290
     0
  0
SCALE
  5
58
102
{ACAD_REACTORS
330
47
102
}
330
47
100
AcDbScale
 70
     0
300
100:1
140
100.0
141
1.0
290
     0
  0
SCALE
  5
59
102
{ACAD_REACTORS
330
47
102
}
330
47
100
AcDbScale
 70
     0
300
1/128" = 1'-0"
140
0.0078125
141
12.0
290
     0
  0
SCALE
  5
5A
102
{ACAD_REACTORS
330
47
102
}
330
47
100
AcDbScale
 70
     0
300
1/64" = 1'-0"
140
0.015625
141
12.0
290
     0
  0
SCALE
  5
5B
102
{ACAD_REACTORS
330
47
102
}
330
47
100
AcDbScale
 70
     0
300
1/32" = 1'-0"
140
0.03125
141
12.0
290
     0
  0
SCALE
  5
5C
102
{ACAD_REACTORS
330
47
102
}
330
47
100
AcDbScale
 70
     0
300
1/16" = 1'-0"
140
0.0625
141
12.0
290
     0
  0
SCALE
  5
5D
102
{ACAD_REACTORS
330
47
102
}
330
47
100
AcDbScale
 70
     0
300
3/32" = 1'-0"
140
0.09375
141
12.0
290
     0
  0
SCALE
  5
5E
102
{ACAD_REACTORS
330
47
102
}
330
47
100
AcDbScale
 70
     0
300
1/8" = 1'-0"
140
0.125
141
12.0
290
     0
  0
SCALE
  5
5F
102
{ACAD_REACTORS
330
47
102
}
330
47
100
AcDbScale
 70
     0
300
3/16" = 1'-0"
140
0.1875
141
12.0
290
     0
  0
SCALE
  5
60
102
{ACAD_REACTORS
330
47
102
}
330
47
100
AcDbScale
 70
     0
300
1/4" = 1'-0"
140
0.25
141
12.0
290
     0
  0
SCALE
  5
61
102
{ACAD_REACTORS
330
47
102
}
330
47
100
AcDbScale
 70
     0
300
3/8" = 1'-0"
140
0.375
141
12.0
290
     0
  0
SCALE
  5
62
102
{ACAD_REACTORS
330
47
102
}
330
47
100
AcDbScale
 70
     0
300
1/2" = 1'-0"
140
0.5
141
12.0
290
     0
  0
SCALE
  5
63
102
{ACAD_REACTORS
330
47
102
}
330
47
100
AcDbScale
 70
     0
300
3/4" = 1'-0"
140
0.75
141
12.0
290
     0
  0
SCALE
  5
64
102
{ACAD_REACTORS
330
47
102
}
330
47
100
AcDbScale
 70
     0
300
1" = 1'-0"
140
1.0
141
12.0
290
     0
  0
SCALE
  5
65
102
{ACAD_REACTORS
330
47
102
}
330
47
100
AcDbScale
 70
     0
300
1-1/2" = 1'-0"
140
1.5
141
12.0
290
     0
  0
SCALE
  5
66
102
{ACAD_REACTORS
330
47
102
}
330
47
100
AcDbScale
 70
     0
300
3" = 1'-0"
140
3.0
141
12.0
290
     0
  0
SCALE
  5
67
102
{ACAD_REACTORS
330
47
102
}
330
47
100
AcDbScale
 70
     0
300
6" = 1'-0"
140
6.0
141
12.0
290
     0
  0
SCALE
  5
68
102
{ACAD_REACTORS
330
47
102
}
330
47
100
AcDbScale
 70
     0
300
1'-0" = 1'-0"
140
12.0
141
12.0
290
     0
  0
ENDSEC
  0
EOF
