  0
SECTION
  2
HEADER
  9
$ACADVER
  1
AC1015
  9
$ACADMAINTVER
 70
     6
  9
$DWGCODEPAGE
  3
ANSI_1250
  9
$INSBASE
 10
0.0
 20
0.0
 30
0.0
  9
$EXTMIN
 10
6163.9995110825
 20
4299.1106034562
 30
0.0
  9
$EXTMAX
 10
6769.7389303456
 20
5738.9091057617
 30
0.0
  9
$LIMMIN
 10
0.0
 20
0.0
  9
$LIMMAX
 10
420.0
 20
297.0
  9
$ORTHOMODE
 70
     0
  9
$REGENMODE
 70
     1
  9
$FILLMODE
 70
     1
  9
$QTEXTMODE
 70
     0
  9
$MIRRTEXT
 70
     1
  9
$LTSCALE
 40
1.0
  9
$ATTMODE
 70
     1
  9
$TEXTSIZE
 40
3.5
  9
$TRACEWID
 40
1.0
  9
$TEXTSTYLE
  7
Standard
  9
$CLAYER
  8
0
  9
$CELTYPE
  6
ByLayer
  9
$CECOLOR
 62
   256
  9
$CELTSCALE
 40
1.0
  9
$DISPSILH
 70
     0
  9
$DIMSCALE
 40
1.0
  9
$DIMASZ
 40
3.302
  9
$DIMEXO
 40
0.0
  9
$DIMDLI
 40
3.75
  9
$DIMRND
 40
0.0
  9
$DIMDLE
 40
0.0
  9
$DIMEXE
 40
1.0
  9
$DIMTP
 40
0.0
  9
$DIMTM
 40
0.0
  9
$DIMTXT
 40
3.5
  9
$DIMCEN
 40
2.5
  9
$DIMTSZ
 40
0.0
  9
$DIMTOL
 70
     0
  9
$DIMLIM
 70
     0
  9
$DIMTIH
 70
     1
  9
$DIMTOH
 70
     1
  9
$DIMSE1
 70
     0
  9
$DIMSE2
 70
     0
  9
$DIMTAD
 70
     1
  9
$DIMZIN
 70
     0
  9
$DIMBLK
  1

  9
$DIMASO
 70
     1
  9
$DIMSHO
 70
     1
  9
$DIMPOST
  1

  9
$DIMAPOST
  1

  9
$DIMALT
 70
     0
  9
$DIMALTD
 70
     3
  9
$DIMALTF
 40
0.0393700787
  9
$DIMLFAC
 40
1.0
  9
$DIMTOFL
 70
     1
  9
$DIMTVP
 40
0.0
  9
$DIMTIX
 70
     0
  9
$DIMSOXD
 70
     0
  9
$DIMSAH
 70
     0
  9
$DIMBLK1
  1

  9
$DIMBLK2
  1

  9
$DIMSTYLE
  2
ISO-25
  9
$DIMCLRD
 70
     0
  9
$DIMCLRE
 70
     0
  9
$DIMCLRT
 70
     0
  9
$DIMTFAC
 40
1.0
  9
$DIMGAP
 40
1.524
  9
$DIMJUST
 70
     0
  9
$DIMSD1
 70
     0
  9
$DIMSD2
 70
     0
  9
$DIMTOLJ
 70
     0
  9
$DIMTZIN
 70
     0
  9
$DIMALTZ
 70
     0
  9
$DIMALTTZ
 70
     0
  9
$DIMUPT
 70
     0
  9
$DIMDEC
 70
     2
  9
$DIMTDEC
 70
     2
  9
$DIMALTU
 70
     2
  9
$DIMALTTD
 70
     3
  9
$DIMTXSTY
  7
Standard
  9
$DIMAUNIT
 70
     0
  9
$DIMADEC
 70
     2
  9
$DIMALTRND
 40
0.0
  9
$DIMAZIN
 70
     0
  9
$DIMDSEP
 70
    44
  9
$DIMATFIT
 70
     3
  9
$DIMFRAC
 70
     0
  9
$DIMLDRBLK
  1

  9
$DIMLUNIT
 70
     2
  9
$DIMLWD
 70
    -2
  9
$DIMLWE
 70
    -2
  9
$DIMTMOVE
 70
     0
  9
$LUNITS
 70
     2
  9
$LUPREC
 70
     2
  9
$SKETCHINC
 40
1.0
  9
$FILLETRAD
 40
10.0
  9
$AUNITS
 70
     0
  9
$AUPREC
 70
     2
  9
$MENU
  1
.
  9
$ELEVATION
 40
0.0
  9
$PELEVATION
 40
0.0
  9
$THICKNESS
 40
0.0
  9
$LIMCHECK
 70
     0
  9
$CHAMFERA
 40
0.0
  9
$CHAMFERB
 40
0.0
  9
$CHAMFERC
 40
0.0
  9
$CHAMFERD
 40
0.0
  9
$SKPOLY
 70
     0
  9
$TDCREATE
 40
2459103.465505463
  9
$TDUCREATE
 40
2459103.38217213
  9
$TDUPDATE
 40
2459103.465634167
  9
$TDUUPDATE
 40
2459103.382300833
  9
$TDINDWG
 40
0.0000000116
  9
$TDUSRTIMER
 40
0.0000000116
  9
$USRTIMER
 70
     1
  9
$ANGBASE
 50
0.0
  9
$ANGDIR
 70
     0
  9
$PDMODE
 70
     0
  9
$PDSIZE
 40
-1.0
  9
$PLINEWID
 40
0.0
  9
$SPLFRAME
 70
     0
  9
$SPLINETYPE
 70
     6
  9
$SPLINESEGS
 70
     8
  9
$HANDSEED
  5
5B2
  9
$SURFTAB1
 70
     6
  9
$SURFTAB2
 70
     6
  9
$SURFTYPE
 70
     6
  9
$SURFU
 70
     6
  9
$SURFV
 70
     6
  9
$UCSBASE
  2

  9
$UCSNAME
  2

  9
$UCSORG
 10
0.0
 20
0.0
 30
0.0
  9
$UCSXDIR
 10
1.0
 20
0.0
 30
0.0
  9
$UCSYDIR
 10
0.0
 20
1.0
 30
0.0
  9
$UCSORTHOREF
  2

  9
$UCSORTHOVIEW
 70
     0
  9
$UCSORGTOP
 10
0.0
 20
0.0
 30
0.0
  9
$UCSORGBOTTOM
 10
0.0
 20
0.0
 30
0.0
  9
$UCSORGLEFT
 10
0.0
 20
0.0
 30
0.0
  9
$UCSORGRIGHT
 10
0.0
 20
0.0
 30
0.0
  9
$UCSORGFRONT
 10
0.0
 20
0.0
 30
0.0
  9
$UCSORGBACK
 10
0.0
 20
0.0
 30
0.0
  9
$PUCSBASE
  2

  9
$PUCSNAME
  2

  9
$PUCSORG
 10
0.0
 20
0.0
 30
0.0
  9
$PUCSXDIR
 10
1.0
 20
0.0
 30
0.0
  9
$PUCSYDIR
 10
0.0
 20
1.0
 30
0.0
  9
$PUCSORTHOREF
  2

  9
$PUCSORTHOVIEW
 70
     0
  9
$PUCSORGTOP
 10
0.0
 20
0.0
 30
0.0
  9
$PUCSORGBOTTOM
 10
0.0
 20
0.0
 30
0.0
  9
$PUCSORGLEFT
 10
0.0
 20
0.0
 30
0.0
  9
$PUCSORGRIGHT
 10
0.0
 20
0.0
 30
0.0
  9
$PUCSORGFRONT
 10
0.0
 20
0.0
 30
0.0
  9
$PUCSORGBACK
 10
0.0
 20
0.0
 30
0.0
  9
$USERI1
 70
     0
  9
$USERI2
 70
     0
  9
$USERI3
 70
     0
  9
$USERI4
 70
     0
  9
$USERI5
 70
     0
  9
$USERR1
 40
0.0
  9
$USERR2
 40
0.0
  9
$USERR3
 40
0.0
  9
$USERR4
 40
0.0
  9
$USERR5
 40
0.0
  9
$WORLDVIEW
 70
     1
  9
$SHADEDGE
 70
     3
  9
$SHADEDIF
 70
    70
  9
$TILEMODE
 70
     1
  9
$MAXACTVP
 70
    64
  9
$PINSBASE
 10
0.0
 20
0.0
 30
0.0
  9
$PLIMCHECK
 70
     0
  9
$PEXTMIN
 10
1.0000000000E+20
 20
1.0000000000E+20
 30
1.0000000000E+20
  9
$PEXTMAX
 10
-1.0000000000E+20
 20
-1.0000000000E+20
 30
-1.0000000000E+20
  9
$PLIMMIN
 10
0.0
 20
0.0
  9
$PLIMMAX
 10
420.0
 20
297.0
  9
$UNITMODE
 70
     0
  9
$VISRETAIN
 70
     1
  9
$PLINEGEN
 70
     0
  9
$PSLTSCALE
 70
     1
  9
$TREEDEPTH
 70
  3020
  9
$CMLSTYLE
  2
Standard
  9
$CMLJUST
 70
     0
  9
$CMLSCALE
 40
20.0
  9
$PROXYGRAPHICS
 70
     1
  9
$MEASUREMENT
 70
     1
  9
$CELWEIGHT
370
    -1
  9
$ENDCAPS
280
     0
  9
$JOINSTYLE
280
     0
  9
$LWDISPLAY
290
     1
  9
$INSUNITS
 70
     4
  9
$HYPERLINKBASE
  1

  9
$STYLESHEET
  1

  9
$XEDIT
290
     1
  9
$CEPSNTYPE
380
     0
  9
$PSTYLEMODE
290
     1
  9
$FINGERPRINTGUID
  2
{9cd16987-8e7f-440c-a9e5-90567aed9cf4}
  9
$VERSIONGUID
  2
{FAEB1C32-E019-11D5-929B-00C0DF256EC4}
  9
$EXTNAMES
290
     1
  9
$PSVPSCALE
 40
0.0
  9
$OLESTARTUP
290
     0
  0
ENDSEC
  0
SECTION
  2
CLASSES
  0
CLASS
  1
ACDBDICTIONARYWDFLT
  2
AcDbDictionaryWithDefault
  3
ObjectDBX Classes
 90
        0
280
     0
281
     0
  0
CLASS
  1
VISUALSTYLE
  2
AcDbVisualStyle
  3
ObjectDBX Classes
 90
     4095
280
     0
281
     0
  0
CLASS
  1
MATERIAL
  2
AcDbMaterial
  3
ObjectDBX Classes
 90
     1153
280
     0
281
     0
  0
CLASS
  1
SCALE
  2
AcDbScale
  3
ObjectDBX Classes
 90
     1153
280
     0
281
     0
  0
CLASS
  1
TABLESTYLE
  2
AcDbTableStyle
  3
ObjectDBX Classes
 90
     4095
280
     0
281
     0
  0
CLASS
  1
MLEADERSTYLE
  2
AcDbMLeaderStyle
  3
ACDB_MLEADERSTYLE_CLASS
 90
     4095
280
     0
281
     0
  0
CLASS
  1
SUN
  2
AcDbSun
  3
SCENEOE
 90
     1153
280
     0
281
     0
  0
CLASS
  1
ACDBPLACEHOLDER
  2
AcDbPlaceHolder
  3
ObjectDBX Classes
 90
        0
280
     0
281
     0
  0
CLASS
  1
LAYOUT
  2
AcDbLayout
  3
ObjectDBX Classes
 90
        0
280
     0
281
     0
  0
ENDSEC
  0
SECTION
  2
TABLES
  0
TABLE
  2
VPORT
  5
8
330
0
100
AcDbSymbolTable
 70
     1
  0
VPORT
  5
29
330
8
100
AcDbSymbolTableRecord
100
AcDbViewportTableRecord
  2
*Active
 70
     0
 10
0.0
 20
0.0
 11
1.0
 21
1.0
 12
6466.8692207141
 22
5019.009854609
 13
0.0
 23
0.0
 14
10.0
 24
10.0
 15
10.0
 25
10.0
 16
0.0
 26
0.0
 36
1.0
 17
0.0
 27
0.0
 37
0.0
 40
1468.5944723516
 41
0.4207112442
 42
50.0
 43
0.0
 44
0.0
 50
0.0
 51
0.0
 71
     0
 72
   100
 73
     1
 74
     3
 75
     0
 76
     0
 77
     0
 78
     0
281
     0
 65
     1
110
0.0
120
0.0
130
0.0
111
1.0
121
0.0
131
0.0
112
0.0
122
1.0
132
0.0
 79
     0
146
0.0
  0
ENDTAB
  0
TABLE
  2
LTYPE
  5
5
330
0
100
AcDbSymbolTable
 70
     6
  0
LTYPE
  5
14
330
5
100
AcDbSymbolTableRecord
100
AcDbLinetypeTableRecord
  2
ByBlock
 70
     0
  3

 72
    65
 73
     0
 40
0.0
  0
LTYPE
  5
15
330
5
100
AcDbSymbolTableRecord
100
AcDbLinetypeTableRecord
  2
ByLayer
 70
     0
  3

 72
    65
 73
     0
 40
0.0
  0
LTYPE
  5
16
330
5
100
AcDbSymbolTableRecord
100
AcDbLinetypeTableRecord
  2
Continuous
 70
     0
  3
Solid line
 72
    65
 73
     0
 40
0.0
  0
LTYPE
  5
6E
330
5
100
AcDbSymbolTableRecord
100
AcDbLinetypeTableRecord
  2
HIDDEN
 70
     0
  3
Hidden __ __ __ __ __ __ __ __ __ __ __ __ __ __
 72
    65
 73
     2
 40
1.905
 49
1.27
 74
     0
 49
-0.635
 74
     0
  0
LTYPE
  5
6F
330
5
100
AcDbSymbolTableRecord
100
AcDbLinetypeTableRecord
  2
PHANTOM
 70
     0
  3
Phantom ______  __  __  ______  __  __  ______
 72
    65
 73
     6
 40
12.7
 49
6.35
 74
     0
 49
-1.27
 74
     0
 49
1.27
 74
     0
 49
-1.27
 74
     0
 49
1.27
 74
     0
 49
-1.27
 74
     0
  0
LTYPE
  5
70
330
5
100
AcDbSymbolTableRecord
100
AcDbLinetypeTableRecord
  2
CENTER
 70
     0
  3
Center ____ _ ____ _ ____ _ ____ _ ____ _ ____
 72
    65
 73
     4
 40
10.16
 49
6.35
 74
     0
 49
-1.27
 74
     0
 49
1.27
 74
     0
 49
-1.27
 74
     0
  0
LTYPE
  5
71
330
5
100
AcDbSymbolTableRecord
100
AcDbLinetypeTableRecord
  2
CENTERX2
 70
     0
  3
Center (2x) ________  __  ________  __  _____
 72
    65
 73
     4
 40
20.32
 49
12.7
 74
     0
 49
-2.54
 74
     0
 49
2.54
 74
     0
 49
-2.54
 74
     0
  0
LTYPE
  5
72
330
5
100
AcDbSymbolTableRecord
100
AcDbLinetypeTableRecord
  2
DOT2
 70
     0
  3
Dot (.5x) ........................................
 72
    65
 73
     2
 40
0.635
 49
0.0
 74
     0
 49
-0.635
 74
     0
  0
ENDTAB
  0
TABLE
  2
LAYER
  5
2
330
0
100
AcDbSymbolTable
 70
     1
  0
LAYER
  5
10
330
2
100
AcDbSymbolTableRecord
100
AcDbLayerTableRecord
  2
0
 70
     0
 62
     7
  6
Continuous
370
    -3
390
F
  0
ENDTAB
  0
TABLE
  2
STYLE
  5
3
330
0
100
AcDbSymbolTable
 70
     1
  0
STYLE
  5
11
330
3
100
AcDbSymbolTableRecord
100
AcDbTextStyleTableRecord
  2
Standard
 70
     0
 40
0.0
 41
1.0
 50
0.0
 71
     0
 42
3.5
  3
txt
  4

  0
ENDTAB
  0
TABLE
  2
VIEW
  5
6
330
0
100
AcDbSymbolTable
 70
     0
  0
ENDTAB
  0
TABLE
  2
UCS
  5
7
330
0
100
AcDbSymbolTable
 70
     0
  0
ENDTAB
  0
TABLE
  2
APPID
  5
9
330
0
100
AcDbSymbolTable
 70
     1
  0
APPID
  5
12
330
9
100
AcDbSymbolTableRecord
100
AcDbRegAppTableRecord
  2
ACAD
 70
     0
  0
ENDTAB
  0
TABLE
  2
DIMSTYLE
  5
A
330
0
100
AcDbSymbolTable
 70
     1
100
AcDbDimStyleTable
  0
DIMSTYLE
105
27
330
A
100
AcDbSymbolTableRecord
100
AcDbDimStyleTableRecord
  2
ISO-25
 70
     0
 41
2.5
 42
0.625
 43
3.75
 44
1.25
 73
     0
 74
     0
 77
     1
 78
     8
140
2.5
141
2.5
143
0.0393700787
147
0.625
171
     3
172
     1
178
     0
271
     2
272
     2
274
     3
278
    44
283
     0
284
     8
340
11
  0
ENDTAB
  0
TABLE
  2
BLOCK_RECORD
  5
1
330
0
100
AcDbSymbolTable
 70
     1
  0
BLOCK_RECORD
  5
1F
330
1
100
AcDbSymbolTableRecord
100
AcDbBlockTableRecord
  2
*Model_Space
340
22
  0
BLOCK_RECORD
  5
1B
330
1
100
AcDbSymbolTableRecord
100
AcDbBlockTableRecord
  2
*Paper_Space
340
1E
  0
BLOCK_RECORD
  5
23
330
1
100
AcDbSymbolTableRecord
100
AcDbBlockTableRecord
  2
*Paper_Space0
340
26
  0
ENDTAB
  0
ENDSEC
  0
SECTION
  2
BLOCKS
  0
BLOCK
  5
20
330
1F
100
AcDbEntity
  8
0
100
AcDbBlockBegin
  2
*Model_Space
 70
     0
 10
0.0
 20
0.0
 30
0.0
  3
*Model_Space
  1

  0
ENDBLK
  5
21
330
1F
100
AcDbEntity
  8
0
100
AcDbBlockEnd
  0
BLOCK
  5
1C
330
1B
100
AcDbEntity
 67
     1
  8
0
100
AcDbBlockBegin
  2
*Paper_Space
 70
     0
 10
0.0
 20
0.0
 30
0.0
  3
*Paper_Space
  1

  0
ENDBLK
  5
1D
330
1B
100
AcDbEntity
 67
     1
  8
0
100
AcDbBlockEnd
  0
BLOCK
  5
24
330
23
100
AcDbEntity
  8
0
100
AcDbBlockBegin
  2
*Paper_Space0
 70
     0
 10
0.0
 20
0.0
 30
0.0
  3
*Paper_Space0
  1

  0
ENDBLK
  5
25
330
23
100
AcDbEntity
  8
0
100
AcDbBlockEnd
  0
ENDSEC
  0
SECTION
  2
ENTITIES
  0
ARC
  5
73
330
1F
100
AcDbEntity
  8
0
  6
Continuous
 62
     7
100
AcDbCircle
 10
6216.9294696218
 20
4690.9898344461
 30
0.0
 40
2.660714285713865
100
AcDbArc
 50
180.0000156285
 51
249.9840786458
  0
ARC
  5
74
330
1F
100
AcDbEntity
  8
0
  6
Continuous
 62
     7
100
AcDbCircle
 10
6221.1080410504
 20
4690.9898342289
 30
0.0
 40
2.660714285714724
100
AcDbArc
 50
290.0159350135
 51
359.9999890468
  0
ARC
  5
75
330
1F
100
AcDbEntity
  8
0
  6
Continuous
 62
     7
100
AcDbCircle
 10
6179.4294696218
 20
4690.9898339032
 30
0.0
 40
2.660714285713772
100
AcDbArc
 50
180.0000039394
 51
249.9840444952
  0
ARC
  5
76
330
1F
100
AcDbEntity
  8
0
  6
Continuous
 62
     7
100
AcDbCircle
 10
6183.6080410504
 20
4690.9898347718
 30
0.0
 40
2.660714285715793
100
AcDbArc
 50
290.0159008629
 51
359.9999773577
  0
ARC
  5
77
330
1F
100
AcDbEntity
  8
0
  6
Continuous
 62
     7
100
AcDbCircle
 10
6364.4294696218
 20
4690.9898347718
 30
0.0
 40
2.660714285714883
100
AcDbArc
 50
180.0000226423
 51
249.9840991371
  0
ARC
  5
78
330
1F
100
AcDbEntity
  8
0
  6
Continuous
 62
     7
100
AcDbCircle
 10
6368.6080410504
 20
4690.9898339032
 30
0.0
 40
2.660714285714682
100
AcDbArc
 50
290.0159555048
 51
359.9999960606
  0
ARC
  5
79
330
1F
100
AcDbEntity
  8
0
  6
Continuous
 62
     7
100
AcDbCircle
 10
6326.9294696218
 20
4690.9898342289
 30
0.0
 40
2.660714285714724
100
AcDbArc
 50
180.0000109532
 51
249.9840649865
  0
ARC
  5
7A
330
1F
100
AcDbEntity
  8
0
  6
Continuous
 62
     7
100
AcDbCircle
 10
6331.1080410504
 20
4690.9898344461
 30
0.0
 40
2.660714285713865
100
AcDbArc
 50
290.0159213542
 51
359.9999843715
  0
ARC
  5
7B
330
1F
100
AcDbEntity
  8
0
  6
Continuous
 62
     7
100
AcDbCircle
 10
6356.9415842894
 20
5391.5117463592
 30
0.0
 40
307.9382117477001
100
AcDbArc
 50
92.211907359
 51
92.34903257
  0
ARC
  5
7C
330
1F
100
AcDbEntity
  8
0
  6
Continuous
 62
     7
100
AcDbCircle
 10
6239.3602289552
 20
5775.7564115564
 30
0.0
 40
82.53532097310799
100
AcDbArc
 50
206.5156903566
 51
206.6144119979
  0
ARC
  5
7D
330
1F
100
AcDbEntity
  8
0
  6
Continuous
 62
     7
100
AcDbCircle
 10
6308.677281717
 20
5775.7564115564
 30
0.0
 40
82.53532097310799
100
AcDbArc
 50
333.3855880021
 51
333.4843096434
  0
ARC
  5
7E
330
1F
100
AcDbEntity
  8
0
  6
Continuous
 62
     7
100
AcDbCircle
 10
6180.6834856472
 20
5770.6421089537
 30
0.0
 40
37.19225267342792
100
AcDbArc
 50
243.346913285
 51
243.5659508268
  0
ARC
  5
7F
330
1F
100
AcDbEntity
  8
0
  6
Continuous
 62
     7
100
AcDbCircle
 10
6177.1468976681
 20
5749.6958675329
 30
0.0
 40
17.42407508358113
100
AcDbArc
 50
224.8757054579
 51
225.1713051155
  0
ARC
  5
80
330
1F
100
AcDbEntity
  8
0
  6
Continuous
 62
     7
100
AcDbCircle
 10
6274.0187555015
 20
5649.1912369695
 30
0.0
 40
14.90000000000012
100
AcDbArc
 50
90.000000636
 51
179.9999853804
  0
ARC
  5
81
330
1F
100
AcDbEntity
  8
0
  6
Continuous
 62
     7
100
AcDbCircle
 10
6274.0187555015
 20
5649.1912369695
 30
0.0
 40
14.89999999999873
100
AcDbArc
 50
0.0000146196
 51
90.000000636
  0
ARC
  5
82
330
1F
100
AcDbEntity
  8
0
  6
Continuous
 62
     7
100
AcDbCircle
 10
6274.0187555015
 20
5649.1912369695
 30
0.0
 40
27.50000008961753
100
AcDbArc
 50
302.8074960474
 51
237.1925033734
  0
ARC
  5
83
330
1F
100
AcDbEntity
  8
0
  6
Continuous
 62
     7
100
AcDbCircle
 10
6274.0187555015
 20
5649.1912369695
 30
0.0
 40
27.00000009127811
100
AcDbArc
 50
303.4941504375
 51
236.5058489771
  0
ARC
  5
84
330
1F
100
AcDbEntity
  8
0
  6
Continuous
 62
     7
100
AcDbCircle
 10
6692.7458661676
 20
4690.9898335613
 30
0.0
 40
2.660714285714066
100
AcDbArc
 50
179.9999965757
 51
249.9840229818
  0
ARC
  5
85
330
1F
100
AcDbEntity
  8
0
  6
Continuous
 62
     7
100
AcDbCircle
 10
6696.9244375962
 20
4690.9898337567
 30
0.0
 40
2.660714285714675
100
AcDbArc
 50
290.0159647271
 51
359.9999992173
  0
ARC
  5
86
330
1F
100
AcDbEntity
  8
0
  6
Continuous
 62
     7
100
AcDbCircle
 10
6627.7458661676
 20
4690.9898337513
 30
0.0
 40
2.660714285713436
100
AcDbArc
 50
180.0000006666
 51
249.9840349337
  0
ARC
  5
87
330
1F
100
AcDbEntity
  8
0
  6
Continuous
 62
     7
100
AcDbCircle
 10
6631.9244375962
 20
4690.9898349237
 30
0.0
 40
2.660714285714948
100
AcDbArc
 50
290.0158913014
 51
359.999974085
  0
ARC
  5
88
330
1F
100
AcDbEntity
  8
0
  6
Continuous
 62
     7
100
AcDbCircle
 10
6729.5840875165
 20
5653.0906781543
 30
0.0
 40
56.50250000000183
100
AcDbArc
 50
305.7386833795
 51
315.2897588975
  0
ARC
  5
89
330
1F
100
AcDbEntity
  8
0
  6
Continuous
 62
     7
100
AcDbCircle
 10
6729.5840067288
 20
5653.090548684
 30
0.0
 40
56.50250000000116
100
AcDbArc
 50
284.7098648088
 51
294.2609662727
  0
ARC
  5
8A
330
1F
100
AcDbEntity
  8
0
  6
Continuous
 62
     7
100
AcDbCircle
 10
6708.3351518815
 20
5676.1912145454
 30
0.0
 40
0.4999999999998896
100
AcDbArc
 50
89.9999972266
 51
179.9974303875
  0
ARC
  5
8B
330
1F
100
AcDbEntity
  8
0
  6
Continuous
 62
     7
100
AcDbCircle
 10
6708.3351518811
 20
5622.1912073928
 30
0.0
 40
0.5000000000000006
100
AcDbArc
 50
179.9966107598
 51
270.000002816
  0
ARC
  5
8C
330
1F
100
AcDbEntity
  8
0
  6
Continuous
 62
     7
100
AcDbCircle
 10
6709.3351519782
 20
5676.1912145454
 30
0.0
 40
0.5000000000009164
100
AcDbArc
 50
0.0041527524
 51
90.0000095353
  0
ARC
  5
8D
330
1F
100
AcDbEntity
  8
0
  6
Continuous
 62
     7
100
AcDbCircle
 10
6709.3351519774
 20
5622.1912073928
 30
0.0
 40
0.500000000000231
100
AcDbArc
 50
269.9999905525
 51
0.0026774432
  0
ARC
  5
8E
330
1F
100
AcDbEntity
  8
0
  6
Continuous
 62
     7
100
AcDbCircle
 10
6616.4351483162
 20
5737.3090317853
 30
0.0
 40
0.8000000000000147
100
AcDbArc
 50
66.9997783662
 51
179.9966416076
  0
ARC
  5
8F
330
1F
100
AcDbEntity
  8
0
  6
Continuous
 62
     7
100
AcDbCircle
 10
6616.4351496764
 20
5737.3091041014
 30
0.0
 40
1.60000000000136
100
AcDbArc
 50
66.9997784693
 51
180.0009104324
  0
ARC
  5
90
330
1F
100
AcDbEntity
  8
0
  6
Continuous
 62
     7
100
AcDbCircle
 10
6706.2351518825
 20
5699.1912642192
 30
0.0
 40
0.800000000001198
100
AcDbArc
 50
359.9980483808
 51
66.9999957096
  0
ARC
  5
91
330
1F
100
AcDbEntity
  8
0
  6
Continuous
 62
     7
100
AcDbCircle
 10
6706.2351518822
 20
5699.1912160998
 30
0.0
 40
1.600000000002141
100
AcDbArc
 50
359.9991759392
 51
66.9999995195
  0
ARC
  5
92
330
1F
100
AcDbEntity
  8
0
  6
Continuous
 62
     7
100
AcDbCircle
 10
6617.8351496766
 20
4693.9898337822
 30
0.0
 40
3.000000000000001
100
AcDbArc
 50
180.0000017246
 51
269.9999738177
  0
ARC
  5
93
330
1F
100
AcDbEntity
  8
0
  6
Continuous
 62
     7
100
AcDbCircle
 10
6301.0187551871
 20
4360.5143819198
 30
0.0
 40
0.5000000000009317
100
AcDbArc
 50
359.9999972726
 51
89.9999829258
  0
ARC
  5
94
330
1F
100
AcDbEntity
  8
0
  6
Continuous
 62
     7
100
AcDbCircle
 10
6247.0187554851
 20
4360.5143819198
 30
0.0
 40
0.5000000000018412
100
AcDbArc
 50
90.0000170743
 51
180.0000027273
  0
ARC
  5
95
330
1F
100
AcDbEntity
  8
0
  6
Continuous
 62
     7
100
AcDbCircle
 10
6301.0187551871
 20
4359.5143818248
 30
0.0
 40
0.5000000000018257
100
AcDbArc
 50
270.0000973343
 51
0.000009385
  0
ARC
  5
96
330
1F
100
AcDbEntity
  8
0
  6
Continuous
 62
     7
100
AcDbCircle
 10
6247.0187554851
 20
4359.5143818248
 30
0.0
 40
0.5000000000009162
100
AcDbArc
 50
179.9999906148
 51
269.9999026658
  0
ARC
  5
97
330
1F
100
AcDbEntity
  8
0
  6
Continuous
 62
     7
100
AcDbCircle
 10
6165.5995120784
 20
4452.4143854841
 30
0.0
 40
0.8000000000016326
100
AcDbArc
 50
89.9997323808
 51
203.0002773206
  0
ARC
  5
98
330
1F
100
AcDbEntity
  8
0
  6
Continuous
 62
     7
100
AcDbCircle
 10
6165.5995120784
 20
4452.4143854841
 30
0.0
 40
1.599999919442355
100
AcDbArc
 50
89.9998661903
 51
203.0002756161
  0
ARC
  5
99
330
1F
100
AcDbEntity
  8
0
  6
Continuous
 62
     7
100
AcDbCircle
 10
6382.4379979294
 20
4452.4143841251
 30
0.0
 40
1.60000000000263
100
AcDbArc
 50
336.9997784771
 51
90.000110018
  0
ARC
  5
9A
330
1F
100
AcDbEntity
  8
0
  6
Continuous
 62
     7
100
AcDbCircle
 10
6382.4379979294
 20
4452.4143841251
 30
0.0
 40
0.8000013590030779
100
AcDbArc
 50
336.9998308658
 51
90.0002200356
  0
ARC
  5
9B
330
1F
100
AcDbEntity
  8
0
  6
Continuous
 62
     7
100
AcDbCircle
 10
6203.717352087
 20
4362.6143819198
 30
0.0
 40
0.8000000000001819
100
AcDbArc
 50
203.0000193818
 51
270.0
  0
ARC
  5
9C
330
1F
100
AcDbEntity
  8
0
  6
Continuous
 62
     7
100
AcDbCircle
 10
6203.717352087
 20
4362.6143819198
 30
0.0
 40
1.600003218851933
100
AcDbArc
 50
202.9999515631
 51
270.0
  0
ARC
  5
9D
330
1F
100
AcDbEntity
  8
0
  6
Continuous
 62
     7
100
AcDbCircle
 10
6344.3201585852
 20
4362.6143819198
 30
0.0
 40
1.600003218851096
100
AcDbArc
 50
270.0
 51
337.0000484368
  0
ARC
  5
9E
330
1F
100
AcDbEntity
  8
0
  6
Continuous
 62
     7
100
AcDbCircle
 10
6344.3201585852
 20
4362.6143819198
 30
0.0
 40
0.8000000000001819
100
AcDbArc
 50
270.0000000001
 51
336.9999806182
  0
ELLIPSE
  5
9F
330
1F
100
AcDbEntity
  8
0
  6
Continuous
 62
     7
100
AcDbEllipse
 10
6616.435151882
 20
5736.6019686839
 30
0.0
 11
1.600000000000364
 21
0.0
 31
0.0
210
0.0
220
0.0
230
1.0
 40
0.5
 41
1.169370598836429
 42
3.141592653592095
  0
ELLIPSE
  5
A0
330
1F
100
AcDbEntity
  8
0
  6
Continuous
 62
     7
100
AcDbEllipse
 10
6706.235151882
 20
5699.1912369695
 30
0.0
 11
1.600000000001273
 21
0.0
 31
0.0
210
0.0
220
0.0
230
1.0
 40
0.0198920065
 41
0.0
 42
1.169370598848972
  0
ELLIPSE
  5
A1
330
1F
100
AcDbEntity
  8
0
  6
Continuous
 62
     7
100
AcDbEllipse
 10
6381.7308902996
 20
4452.4143819198
 30
0.0
 11
0.0
 21
1.600000000001273
 31
0.0
210
0.0
220
0.0
230
1.0
 40
0.5
 41
4.310963252425949
 42
6.283185307179586
  0
ELLIPSE
  5
A2
330
1F
100
AcDbEntity
  8
0
  6
Continuous
 62
     7
100
AcDbEllipse
 10
6166.3066203725
 20
4452.4143819198
 30
0.0
 11
0.0
 21
1.600000000001273
 31
0.0
210
0.0
220
0.0
230
1.0
 40
0.5
 41
0.0
 42
1.972222054750587
  0
ELLIPSE
  5
A3
330
1F
100
AcDbEntity
  8
0
  6
Continuous
 62
     7
100
AcDbEllipse
 10
6344.3201585852
 20
4362.6143819198
 30
0.0
 11
0.0
 21
1.599999999999454
 31
0.0
210
0.0
220
0.0
230
1.0
 40
0.0198920064
 41
3.141592653589787
 42
4.310963252427573
  0
ELLIPSE
  5
A4
330
1F
100
AcDbEntity
  8
0
  6
Continuous
 62
     7
100
AcDbEllipse
 10
6203.717352087
 20
4362.6143819198
 30
0.0
 11
0.0
 21
1.599999999999454
 31
0.0
210
0.0
220
0.0
230
1.0
 40
0.0198920064
 41
1.972222054749138
 42
3.141592653589787
  0
ELLIPSE
  5
A5
330
1F
100
AcDbEntity
  8
0
  6
Continuous
 62
     7
100
AcDbEllipse
 10
6274.0187553361
 20
4337.0143819198
 30
0.0
 11
14.90000000000055
 21
0.0
 31
0.0
210
0.0
220
0.0
230
1.0
 40
0.5773502692
 41
3.141592653589793
 42
4.712388980384698
  0
ELLIPSE
  5
A6
330
1F
100
AcDbEntity
  8
0
  6
Continuous
 62
     7
100
AcDbEllipse
 10
6274.0187553361
 20
4337.0143819198
 30
0.0
 11
14.90000000000055
 21
0.0
 31
0.0
210
0.0
220
0.0
230
1.0
 40
0.5773502692
 41
4.712388980384698
 42
6.283185307179586
  0
LINE
  5
A7
330
1F
100
AcDbEntity
  8
0
  6
Continuous
 62
     7
100
AcDbLine
 10
6165.5066219762
 20
5738.9091057617
 30
0.0
 11
6165.5066294268
 21
5738.1090922195
 31
0.0
  0
LINE
  5
A8
330
1F
100
AcDbEntity
  8
0
  6
Continuous
 62
     7
100
AcDbLine
 10
6382.530888696
 20
5738.9091057617
 30
0.0
 11
6165.5066219762
 21
5738.9091057617
 31
0.0
  0
LINE
  5
A9
330
1F
100
AcDbEntity
  8
0
  6
Continuous
 62
     7
100
AcDbLine
 10
6384.0379995897
 20
4694.5898337204
 30
0.0
 11
6384.0379995897
 21
5737.4019427139
 31
0.0
  0
LINE
  5
AA
330
1F
100
AcDbEntity
  8
0
  6
Continuous
 62
     7
100
AcDbLine
 10
6384.0379995897
 20
5737.4019427139
 30
0.0
 11
6383.2379934981
 21
5737.4019427139
 31
0.0
  0
LINE
  5
AB
330
1F
100
AcDbEntity
  8
0
  6
Continuous
 62
     7
100
AcDbLine
 10
6163.9995110825
 20
5737.4019427139
 30
0.0
 11
6163.9995110825
 21
4694.5898337204
 31
0.0
  0
LINE
  5
AC
330
1F
100
AcDbEntity
  8
0
  6
Continuous
 62
     7
100
AcDbLine
 10
6382.530888696
 20
5738.1090922195
 30
0.0
 11
6382.530888696
 21
5738.9091057617
 31
0.0
  0
LINE
  5
AD
330
1F
100
AcDbEntity
  8
0
  6
Continuous
 62
     7
100
AcDbLine
 10
6164.7995171741
 20
5737.4019427139
 30
0.0
 11
6163.9995110825
 21
5737.4019427139
 31
0.0
  0
LINE
  5
AE
330
1F
100
AcDbEntity
  8
0
  6
Continuous
 62
     7
100
AcDbLine
 10
6259.1187555015
 20
5633.1697506744
 30
0.0
 11
6259.1187555015
 21
5605.8899564582
 31
0.0
  0
LINE
  5
AF
330
1F
100
AcDbEntity
  8
0
  6
Continuous
 62
     7
100
AcDbLine
 10
6288.9187551707
 20
5605.8899564582
 30
0.0
 11
6288.9187551707
 21
5633.1697506744
 31
0.0
  0
LINE
  5
B0
330
1F
100
AcDbEntity
  8
0
  6
Continuous
 62
     7
100
AcDbLine
 10
6259.1187555015
 20
5649.1912407714
 30
0.0
 11
6259.1187555015
 21
5633.6027784187
 31
0.0
  0
LINE
  5
B1
330
1F
100
AcDbEntity
  8
0
  6
Continuous
 62
     7
100
AcDbLine
 10
6288.9187551707
 20
5633.6027784187
 30
0.0
 11
6288.9187551707
 21
5649.1912407714
 31
0.0
  0
LINE
  5
B2
330
1F
100
AcDbEntity
  8
0
  6
Continuous
 62
     7
100
AcDbLine
 10
6199.0187523559
 20
5703.1826777298
 30
0.0
 11
6199.0187523559
 21
5704.596976741
 31
0.0
  0
LINE
  5
B3
330
1F
100
AcDbEntity
  8
0
  6
Continuous
 62
     7
100
AcDbLine
 10
6349.0187583163
 20
5703.1826777298
 30
0.0
 11
6349.0187583163
 21
5704.596976741
 31
0.0
  0
LINE
  5
B4
330
1F
100
AcDbEntity
  8
0
  6
Continuous
 62
     7
100
AcDbLine
 10
6344.3201614216
 20
5699.1911930877
 30
0.0
 11
6344.3263230517
 21
5699.3461651641
 31
0.0
  0
LINE
  5
B5
330
1F
100
AcDbEntity
  8
0
  6
Continuous
 62
     7
100
AcDbLine
 10
6344.3263230517
 20
5699.3461651641
 30
0.0
 11
6344.3322537139
 21
5699.4951767761
 31
0.0
  0
LINE
  5
B6
330
1F
100
AcDbEntity
  8
0
  6
Continuous
 62
     7
100
AcDbLine
 10
6344.3322537139
 20
5699.4951767761
 30
0.0
 11
6344.3377224401
 21
5699.6327442962
 31
0.0
  0
LINE
  5
B7
330
1F
100
AcDbEntity
  8
0
  6
Continuous
 62
     7
100
AcDbLine
 10
6344.3377224401
 20
5699.6327442962
 30
0.0
 11
6344.3425355151
 21
5699.7536225158
 31
0.0
  0
LINE
  5
B8
330
1F
100
AcDbEntity
  8
0
  6
Continuous
 62
     7
100
AcDbLine
 10
6344.3425355151
 20
5699.7536225158
 30
0.0
 11
6344.3464917734
 21
5699.8531622726
 31
0.0
  0
LINE
  5
B9
330
1F
100
AcDbEntity
  8
0
  6
Continuous
 62
     7
100
AcDbLine
 10
6344.3464917734
 20
5699.8531622726
 30
0.0
 11
6344.3494571045
 21
5699.9276680786
 31
0.0
  0
LINE
  5
BA
330
1F
100
AcDbEntity
  8
0
  6
Continuous
 62
     7
100
AcDbLine
 10
6344.3201614216
 20
5699.1911930877
 30
0.0
 11
6344.3263230517
 21
5699.5011372406
 31
0.0
  0
LINE
  5
BB
330
1F
100
AcDbEntity
  8
0
  6
Continuous
 62
     7
100
AcDbLine
 10
6344.3263230517
 20
5699.5011372406
 30
0.0
 11
6344.3322537139
 21
5699.7992796737
 31
0.0
  0
LINE
  5
BC
330
1F
100
AcDbEntity
  8
0
  6
Continuous
 62
     7
100
AcDbLine
 10
6344.3322537139
 20
5699.7992796737
 30
0.0
 11
6344.3377224401
 21
5700.0742955047
 31
0.0
  0
LINE
  5
BD
330
1F
100
AcDbEntity
  8
0
  6
Continuous
 62
     7
100
AcDbLine
 10
6344.3377224401
 20
5700.0742955047
 30
0.0
 11
6344.3425355151
 21
5700.3160519439
 31
0.0
  0
LINE
  5
BE
330
1F
100
AcDbEntity
  8
0
  6
Continuous
 62
     7
100
AcDbLine
 10
6344.3425355151
 20
5700.3160519439
 30
0.0
 11
6344.3464917734
 21
5700.5151314575
 31
0.0
  0
LINE
  5
BF
330
1F
100
AcDbEntity
  8
0
  6
Continuous
 62
     7
100
AcDbLine
 10
6344.3464917734
 20
5700.5151314575
 30
0.0
 11
6344.3494571045
 21
5700.6640238601
 31
0.0
  0
LINE
  5
C0
330
1F
100
AcDbEntity
  8
0
  6
Continuous
 62
     7
100
AcDbLine
 10
6344.3494571045
 20
5700.6640238601
 30
0.0
 11
6344.3494571045
 21
5699.9276680786
 31
0.0
  0
LINE
  5
C1
330
1F
100
AcDbEntity
  8
0
  6
Continuous
 62
     7
100
AcDbLine
 10
6203.7173492506
 20
5699.1911930877
 30
0.0
 11
6344.3201614216
 21
5699.1911930877
 31
0.0
  0
LINE
  5
C2
330
1F
100
AcDbEntity
  8
0
  6
Continuous
 62
     7
100
AcDbLine
 10
6203.6880535677
 20
5700.6640238601
 30
0.0
 11
6203.6910188988
 21
5700.5151314575
 31
0.0
  0
LINE
  5
C3
330
1F
100
AcDbEntity
  8
0
  6
Continuous
 62
     7
100
AcDbLine
 10
6203.6910188988
 20
5700.5151314575
 30
0.0
 11
6203.6949751571
 21
5700.3160519439
 31
0.0
  0
LINE
  5
C4
330
1F
100
AcDbEntity
  8
0
  6
Continuous
 62
     7
100
AcDbLine
 10
6203.6949751571
 20
5700.3160519439
 30
0.0
 11
6203.6997882321
 21
5700.0742955047
 31
0.0
  0
LINE
  5
C5
330
1F
100
AcDbEntity
  8
0
  6
Continuous
 62
     7
100
AcDbLine
 10
6203.6997882321
 20
5700.0742955047
 30
0.0
 11
6203.7052569583
 21
5699.7992796737
 31
0.0
  0
LINE
  5
C6
330
1F
100
AcDbEntity
  8
0
  6
Continuous
 62
     7
100
AcDbLine
 10
6203.7052569583
 20
5699.7992796737
 30
0.0
 11
6203.7111876205
 21
5699.5011372406
 31
0.0
  0
LINE
  5
C7
330
1F
100
AcDbEntity
  8
0
  6
Continuous
 62
     7
100
AcDbLine
 10
6203.7111876205
 20
5699.5011372406
 30
0.0
 11
6203.7173492506
 21
5699.1911930877
 31
0.0
  0
LINE
  5
C8
330
1F
100
AcDbEntity
  8
0
  6
Continuous
 62
     7
100
AcDbLine
 10
6203.6880535677
 20
5700.6640238601
 30
0.0
 11
6344.3494571045
 21
5700.6640238601
 31
0.0
  0
LINE
  5
C9
330
1F
100
AcDbEntity
  8
0
  6
Continuous
 62
     7
100
AcDbLine
 10
6203.7173492506
 20
5699.1911930877
 30
0.0
 11
6203.5624218777
 21
5699.1973919708
 31
0.0
  0
LINE
  5
CA
330
1F
100
AcDbEntity
  8
0
  6
Continuous
 62
     7
100
AcDbLine
 10
6203.5624218777
 20
5699.1973919708
 30
0.0
 11
6203.4133581117
 21
5699.2033524353
 31
0.0
  0
LINE
  5
CB
330
1F
100
AcDbEntity
  8
0
  6
Continuous
 62
     7
100
AcDbLine
 10
6203.4133581117
 20
5699.2033524353
 30
0.0
 11
6203.2758054927
 21
5699.2088360626
 31
0.0
  0
LINE
  5
CC
330
1F
100
AcDbEntity
  8
0
  6
Continuous
 62
     7
100
AcDbLine
 10
6203.2758054927
 20
5699.2088360626
 30
0.0
 11
6203.154964526
 21
5699.2136044342
 31
0.0
  0
LINE
  5
CD
330
1F
100
AcDbEntity
  8
0
  6
Continuous
 62
     7
100
AcDbLine
 10
6203.154964526
 20
5699.2136044342
 30
0.0
 11
6203.0554247692
 21
5699.2175383407
 31
0.0
  0
LINE
  5
CE
330
1F
100
AcDbEntity
  8
0
  6
Continuous
 62
     7
100
AcDbLine
 10
6203.0554247692
 20
5699.2175383407
 30
0.0
 11
6202.9809487656
 21
5699.220518573
 31
0.0
  0
LINE
  5
CF
330
1F
100
AcDbEntity
  8
0
  6
Continuous
 62
     7
100
AcDbLine
 10
6203.7173492506
 20
5699.1911930877
 30
0.0
 11
6203.4074870542
 21
5699.1973919708
 31
0.0
  0
LINE
  5
D0
330
1F
100
AcDbEntity
  8
0
  6
Continuous
 62
     7
100
AcDbLine
 10
6203.4074870542
 20
5699.1973919708
 30
0.0
 11
6203.1093595222
 21
5699.2033524353
 31
0.0
  0
LINE
  5
D1
330
1F
100
AcDbEntity
  8
0
  6
Continuous
 62
     7
100
AcDbLine
 10
6203.1093595222
 20
5699.2033524353
 30
0.0
 11
6202.8342542842
 21
5699.2088360626
 31
0.0
  0
LINE
  5
D2
330
1F
100
AcDbEntity
  8
0
  6
Continuous
 62
     7
100
AcDbLine
 10
6202.8342542842
 20
5699.2088360626
 30
0.0
 11
6202.5925798014
 21
5699.2136044342
 31
0.0
  0
LINE
  5
D3
330
1F
100
AcDbEntity
  8
0
  6
Continuous
 62
     7
100
AcDbLine
 10
6202.5925798014
 20
5699.2136044342
 30
0.0
 11
6202.3935002878
 21
5699.2175383407
 31
0.0
  0
LINE
  5
D4
330
1F
100
AcDbEntity
  8
0
  6
Continuous
 62
     7
100
AcDbLine
 10
6202.3935002878
 20
5699.2175383407
 30
0.0
 11
6202.24454083
 21
5699.220518573
 31
0.0
  0
LINE
  5
D5
330
1F
100
AcDbEntity
  8
0
  6
Continuous
 62
     7
100
AcDbLine
 10
6202.24454083
 20
5699.220518573
 30
0.0
 11
6202.9809487656
 21
5699.220518573
 31
0.0
  0
LINE
  5
D6
330
1F
100
AcDbEntity
  8
0
  6
Continuous
 62
     7
100
AcDbLine
 10
6344.3201614216
 20
5699.1911930877
 30
0.0
 11
6344.3201614216
 21
4694.5898337204
 31
0.0
  0
LINE
  5
D7
330
1F
100
AcDbEntity
  8
0
  6
Continuous
 62
     7
100
AcDbLine
 10
6345.7929698422
 20
5699.220518573
 30
0.0
 11
6345.6440103844
 21
5699.2175383407
 31
0.0
  0
LINE
  5
D8
330
1F
100
AcDbEntity
  8
0
  6
Continuous
 62
     7
100
AcDbLine
 10
6345.6440103844
 20
5699.2175383407
 30
0.0
 11
6345.4449308708
 21
5699.2136044342
 31
0.0
  0
LINE
  5
D9
330
1F
100
AcDbEntity
  8
0
  6
Continuous
 62
     7
100
AcDbLine
 10
6345.4449308708
 20
5699.2136044342
 30
0.0
 11
6345.203256388
 21
5699.2088360626
 31
0.0
  0
LINE
  5
DA
330
1F
100
AcDbEntity
  8
0
  6
Continuous
 62
     7
100
AcDbLine
 10
6345.203256388
 20
5699.2088360626
 30
0.0
 11
6344.92815115
 21
5699.2033524353
 31
0.0
  0
LINE
  5
DB
330
1F
100
AcDbEntity
  8
0
  6
Continuous
 62
     7
100
AcDbLine
 10
6344.92815115
 20
5699.2033524353
 30
0.0
 11
6344.630023618
 21
5699.1973919708
 31
0.0
  0
LINE
  5
DC
330
1F
100
AcDbEntity
  8
0
  6
Continuous
 62
     7
100
AcDbLine
 10
6344.630023618
 20
5699.1973919708
 30
0.0
 11
6344.3201614216
 21
5699.1911930877
 31
0.0
  0
LINE
  5
DD
330
1F
100
AcDbEntity
  8
0
  6
Continuous
 62
     7
100
AcDbLine
 10
6345.7929698422
 20
5699.220518573
 30
0.0
 11
6345.7929698422
 21
4694.5898337204
 31
0.0
  0
LINE
  5
DE
330
1F
100
AcDbEntity
  8
0
  6
Continuous
 62
     7
100
AcDbLine
 10
6344.3201614216
 20
4694.5898337204
 30
0.0
 11
6345.7929698422
 21
4694.5898337204
 31
0.0
  0
LINE
  5
DF
330
1F
100
AcDbEntity
  8
0
  6
Continuous
 62
     7
100
AcDbLine
 10
6203.7173492506
 20
4694.5898337204
 30
0.0
 11
6203.7173492506
 21
5699.1911930877
 31
0.0
  0
LINE
  5
E0
330
1F
100
AcDbEntity
  8
0
  6
Continuous
 62
     7
100
AcDbLine
 10
6202.24454083
 20
4694.5898337204
 30
0.0
 11
6203.7173492506
 21
4694.5898337204
 31
0.0
  0
LINE
  5
E1
330
1F
100
AcDbEntity
  8
0
  6
Continuous
 62
     7
100
AcDbLine
 10
6202.24454083
 20
4694.5898337204
 30
0.0
 11
6202.24454083
 21
5699.220518573
 31
0.0
  0
LINE
  5
E2
330
1F
100
AcDbEntity
  8
0
  6
Continuous
 62
     7
100
AcDbLine
 10
6203.7173492506
 20
4694.5898337204
 30
0.0
 11
6344.3201614216
 21
4694.5898337204
 31
0.0
  0
LINE
  5
E3
330
1F
100
AcDbEntity
  8
0
  6
Continuous
 62
     7
100
AcDbLine
 10
6204.2468620136
 20
4692.9898337608
 30
0.0
 11
6343.7906486586
 21
4692.9898337608
 31
0.0
  0
LINE
  5
E4
330
1F
100
AcDbEntity
  8
0
  6
Continuous
 62
     7
100
AcDbLine
 10
6345.7929698422
 20
5699.220518573
 30
0.0
 11
6345.0565619066
 21
5699.220518573
 31
0.0
  0
LINE
  5
E5
330
1F
100
AcDbEntity
  8
0
  6
Continuous
 62
     7
100
AcDbLine
 10
6203.6880535677
 20
5699.9276680786
 30
0.0
 11
6203.6910188988
 21
5699.8531622726
 31
0.0
  0
LINE
  5
E6
330
1F
100
AcDbEntity
  8
0
  6
Continuous
 62
     7
100
AcDbLine
 10
6203.6910188988
 20
5699.8531622726
 30
0.0
 11
6203.6949751571
 21
5699.7536225158
 31
0.0
  0
LINE
  5
E7
330
1F
100
AcDbEntity
  8
0
  6
Continuous
 62
     7
100
AcDbLine
 10
6203.6949751571
 20
5699.7536225158
 30
0.0
 11
6203.6997882321
 21
5699.6327442962
 31
0.0
  0
LINE
  5
E8
330
1F
100
AcDbEntity
  8
0
  6
Continuous
 62
     7
100
AcDbLine
 10
6203.6997882321
 20
5699.6327442962
 30
0.0
 11
6203.7052569583
 21
5699.4951767761
 31
0.0
  0
LINE
  5
E9
330
1F
100
AcDbEntity
  8
0
  6
Continuous
 62
     7
100
AcDbLine
 10
6203.7052569583
 20
5699.4951767761
 30
0.0
 11
6203.7111876205
 21
5699.3461651641
 31
0.0
  0
LINE
  5
EA
330
1F
100
AcDbEntity
  8
0
  6
Continuous
 62
     7
100
AcDbLine
 10
6203.7111876205
 20
5699.3461651641
 30
0.0
 11
6203.7173492506
 21
5699.1911930877
 31
0.0
  0
LINE
  5
EB
330
1F
100
AcDbEntity
  8
0
  6
Continuous
 62
     7
100
AcDbLine
 10
6203.6880535677
 20
5700.6640238601
 30
0.0
 11
6203.6880535677
 21
5699.9276680786
 31
0.0
  0
LINE
  5
EC
330
1F
100
AcDbEntity
  8
0
  6
Continuous
 62
     7
100
AcDbLine
 10
6344.5270565942
 20
4693.7898337406
 30
0.0
 11
6344.5270565942
 21
4692.9898337608
 31
0.0
  0
LINE
  5
ED
330
1F
100
AcDbEntity
  8
0
  6
Continuous
 62
     7
100
AcDbLine
 10
6344.5270565942
 20
4692.9898337608
 30
0.0
 11
6382.3053149179
 21
4692.9898337608
 31
0.0
  0
LINE
  5
EE
330
1F
100
AcDbEntity
  8
0
  6
Continuous
 62
     7
100
AcDbLine
 10
6345.7929698422
 20
4694.5898337204
 30
0.0
 11
6383.9108032778
 21
4694.5898337204
 31
0.0
  0
LINE
  5
EF
330
1F
100
AcDbEntity
  8
0
  6
Continuous
 62
     7
100
AcDbLine
 10
6383.9108032778
 20
5737.3384041626
 30
0.0
 11
6383.9108032778
 21
4694.5898337204
 31
0.0
  0
LINE
  5
F0
330
1F
100
AcDbEntity
  8
0
  6
Continuous
 62
     7
100
AcDbLine
 10
6383.9108032778
 20
5737.3384041626
 30
0.0
 11
6345.7929698422
 21
5699.220518573
 31
0.0
  0
LINE
  5
F1
330
1F
100
AcDbEntity
  8
0
  6
Continuous
 62
     7
100
AcDbLine
 10
6165.5702201322
 20
5738.7819094497
 30
0.0
 11
6203.6880535677
 21
5700.6640238601
 31
0.0
  0
LINE
  5
F2
330
1F
100
AcDbEntity
  8
0
  6
Continuous
 62
     7
100
AcDbLine
 10
6165.5702201322
 20
5738.7819094497
 30
0.0
 11
6382.46729054
 21
5738.7819094497
 31
0.0
  0
LINE
  5
F3
330
1F
100
AcDbEntity
  8
0
  6
Continuous
 62
     7
100
AcDbLine
 10
6344.3494571045
 20
5700.6640238601
 30
0.0
 11
6382.46729054
 21
5738.7819094497
 31
0.0
  0
LINE
  5
F4
330
1F
100
AcDbEntity
  8
0
  6
Continuous
 62
     7
100
AcDbLine
 10
6344.3494571045
 20
5699.9276680786
 30
0.0
 11
6382.46729054
 21
5738.0454344589
 31
0.0
  0
LINE
  5
F5
330
1F
100
AcDbEntity
  8
0
  6
Continuous
 62
     7
100
AcDbLine
 10
6382.46729054
 20
5738.7819094497
 30
0.0
 11
6382.46729054
 21
5738.0454344589
 31
0.0
  0
LINE
  5
F6
330
1F
100
AcDbEntity
  8
0
  6
Continuous
 62
     7
100
AcDbLine
 10
6203.510454078
 20
4693.7898337406
 30
0.0
 11
6203.510454078
 21
4692.9898337608
 31
0.0
  0
LINE
  5
F7
330
1F
100
AcDbEntity
  8
0
  6
Continuous
 62
     7
100
AcDbLine
 10
6165.7321957543
 20
4692.9898337608
 30
0.0
 11
6203.510454078
 21
4692.9898337608
 31
0.0
  0
LINE
  5
F8
330
1F
100
AcDbEntity
  8
0
  6
Continuous
 62
     7
100
AcDbLine
 10
6164.1267073944
 20
4694.5898337204
 30
0.0
 11
6202.24454083
 21
4694.5898337204
 31
0.0
  0
LINE
  5
F9
330
1F
100
AcDbEntity
  8
0
  6
Continuous
 62
     7
100
AcDbLine
 10
6202.9809487656
 20
5699.220518573
 30
0.0
 11
6164.8631078795
 21
5737.3384041626
 31
0.0
  0
LINE
  5
FA
330
1F
100
AcDbEntity
  8
0
  6
Continuous
 62
     7
100
AcDbLine
 10
6202.24454083
 20
5699.220518573
 30
0.0
 11
6164.1267073944
 21
5737.3384041626
 31
0.0
  0
LINE
  5
FB
330
1F
100
AcDbEntity
  8
0
  6
Continuous
 62
     7
100
AcDbLine
 10
6164.1267073944
 20
5737.3384041626
 30
0.0
 11
6164.8631078795
 21
5737.3384041626
 31
0.0
  0
LINE
  5
FC
330
1F
100
AcDbEntity
  8
0
  6
Continuous
 62
     7
100
AcDbLine
 10
6164.1267073944
 20
4694.5898337204
 30
0.0
 11
6164.1267073944
 21
5737.3384041626
 31
0.0
  0
LINE
  5
FD
330
1F
100
AcDbEntity
  8
0
  6
Continuous
 62
     7
100
AcDbLine
 10
6383.1744027927
 20
5737.3384041626
 30
0.0
 11
6345.0565619066
 21
5699.220518573
 31
0.0
  0
LINE
  5
FE
330
1F
100
AcDbEntity
  8
0
  6
Continuous
 62
     7
100
AcDbLine
 10
6383.9108032778
 20
5737.3384041626
 30
0.0
 11
6383.1744027927
 21
5737.3384041626
 31
0.0
  0
LINE
  5
FF
330
1F
100
AcDbEntity
  8
0
  6
Continuous
 62
     7
100
AcDbLine
 10
6165.5702201322
 20
5738.0454344589
 30
0.0
 11
6203.6880535677
 21
5699.9276680786
 31
0.0
  0
LINE
  5
100
330
1F
100
AcDbEntity
  8
0
  6
Continuous
 62
     7
100
AcDbLine
 10
6165.5702201322
 20
5738.7819094497
 30
0.0
 11
6165.5702201322
 21
5738.0454344589
 31
0.0
  0
LINE
  5
101
330
1F
100
AcDbEntity
  8
0
  6
Continuous
 62
     7
100
AcDbLine
 10
6344.1399095252
 20
4693.7898337406
 30
0.0
 11
6344.5270565942
 21
4693.7898337406
 31
0.0
  0
LINE
  5
102
330
1F
100
AcDbEntity
  8
0
  6
Continuous
 62
     7
100
AcDbLine
 10
6343.7906486586
 20
4692.9898337608
 30
0.0
 11
6344.5270565942
 21
4692.9898337608
 31
0.0
  0
LINE
  5
103
330
1F
100
AcDbEntity
  8
0
  6
Continuous
 62
     7
100
AcDbLine
 10
6203.510454078
 20
4692.9898337608
 30
0.0
 11
6204.2468620136
 21
4692.9898337608
 31
0.0
  0
LINE
  5
104
330
1F
100
AcDbEntity
  8
0
  6
Continuous
 62
     7
100
AcDbLine
 10
6203.510454078
 20
4693.7898337406
 30
0.0
 11
6203.897601147
 21
4693.7898337406
 31
0.0
  0
LINE
  5
105
330
1F
100
AcDbEntity
  8
0
  6
Continuous
 62
     7
100
AcDbLine
 10
6165.5702201322
 20
5738.0454344589
 30
0.0
 11
6165.5262766078
 21
5738.0894226867
 31
0.0
  0
LINE
  5
106
330
1F
100
AcDbEntity
  8
0
  6
Continuous
 62
     7
100
AcDbLine
 10
6165.5262766078
 20
5738.0894226867
 30
0.0
 11
6165.5073521331
 21
5738.1083769638
 31
0.0
  0
LINE
  5
107
330
1F
100
AcDbEntity
  8
0
  6
Continuous
 62
     7
100
AcDbLine
 10
6165.5073521331
 20
5738.1083769638
 30
0.0
 11
6165.5066294268
 21
5738.1090922195
 31
0.0
  0
LINE
  5
108
330
1F
100
AcDbEntity
  8
0
  6
Continuous
 62
     7
100
AcDbLine
 10
6383.9108032778
 20
5737.3384041626
 30
0.0
 11
6383.9986828759
 21
5737.3822731811
 31
0.0
  0
LINE
  5
109
330
1F
100
AcDbEntity
  8
0
  6
Continuous
 62
     7
100
AcDbLine
 10
6383.9986828759
 20
5737.3822731811
 30
0.0
 11
6384.0365318254
 21
5737.4012274582
 31
0.0
  0
LINE
  5
10A
330
1F
100
AcDbEntity
  8
0
  6
Continuous
 62
     7
100
AcDbLine
 10
6384.0365318254
 20
5737.4012274582
 30
0.0
 11
6384.0379995897
 21
5737.4019427139
 31
0.0
  0
LINE
  5
10B
330
1F
100
AcDbEntity
  8
0
  6
Continuous
 62
     7
100
AcDbLine
 10
6384.0379995897
 20
4694.5898337204
 30
0.0
 11
6383.9108032778
 21
4694.5898337204
 31
0.0
  0
LINE
  5
10C
330
1F
100
AcDbEntity
  8
0
  6
Continuous
 62
     7
100
AcDbLine
 10
6383.1744027927
 20
5737.3384041626
 30
0.0
 11
6383.2183388665
 21
5737.3822731811
 31
0.0
  0
LINE
  5
10D
330
1F
100
AcDbEntity
  8
0
  6
Continuous
 62
     7
100
AcDbLine
 10
6383.2183388665
 20
5737.3822731811
 30
0.0
 11
6383.2372633412
 21
5737.4012274582
 31
0.0
  0
LINE
  5
10E
330
1F
100
AcDbEntity
  8
0
  6
Continuous
 62
     7
100
AcDbLine
 10
6383.2372633412
 20
5737.4012274582
 30
0.0
 11
6383.2379934981
 21
5737.4019427139
 31
0.0
  0
LINE
  5
10F
330
1F
100
AcDbEntity
  8
0
  6
Continuous
 62
     7
100
AcDbLine
 10
6164.1267073944
 20
4694.5898337204
 30
0.0
 11
6163.9995110825
 21
4694.5898337204
 31
0.0
  0
LINE
  5
110
330
1F
100
AcDbEntity
  8
0
  6
Continuous
 62
     7
100
AcDbLine
 10
6382.530888696
 20
5738.1090922195
 30
0.0
 11
6382.5301585391
 21
5738.1083769638
 31
0.0
  0
LINE
  5
111
330
1F
100
AcDbEntity
  8
0
  6
Continuous
 62
     7
100
AcDbLine
 10
6382.5301585391
 20
5738.1083769638
 30
0.0
 11
6382.5112340644
 21
5738.0894226867
 31
0.0
  0
LINE
  5
112
330
1F
100
AcDbEntity
  8
0
  6
Continuous
 62
     7
100
AcDbLine
 10
6382.5112340644
 20
5738.0894226867
 30
0.0
 11
6382.46729054
 21
5738.0454344589
 31
0.0
  0
LINE
  5
113
330
1F
100
AcDbEntity
  8
0
  6
Continuous
 62
     7
100
AcDbLine
 10
6216.018757005
 20
4688.4898338381
 30
0.0
 11
6222.0187542632
 21
4688.4898338381
 31
0.0
  0
LINE
  5
114
330
1F
100
AcDbEntity
  8
0
  6
Continuous
 62
     7
100
AcDbLine
 10
6178.5187555149
 20
4688.4898338381
 30
0.0
 11
6184.5187527731
 21
4688.4898338381
 31
0.0
  0
LINE
  5
115
330
1F
100
AcDbEntity
  8
0
  6
Continuous
 62
     7
100
AcDbLine
 10
6363.5187578991
 20
4688.4898338381
 30
0.0
 11
6369.5187551573
 21
4688.4898338381
 31
0.0
  0
LINE
  5
116
330
1F
100
AcDbEntity
  8
0
  6
Continuous
 62
     7
100
AcDbLine
 10
6326.018756409
 20
4688.4898338381
 30
0.0
 11
6332.0187536672
 21
4688.4898338381
 31
0.0
  0
LINE
  5
117
330
1F
100
AcDbEntity
  8
0
  6
Continuous
 62
     7
100
AcDbLine
 10
6203.1950784519
 20
4690.9898337822
 30
0.0
 11
6203.1950784519
 21
4692.9898337608
 31
0.0
  0
LINE
  5
118
330
1F
100
AcDbEntity
  8
0
  6
Continuous
 62
     7
100
AcDbLine
 10
6209.6386162236
 20
4692.9898337608
 30
0.0
 11
6209.6386162236
 21
4690.9898337822
 31
0.0
  0
LINE
  5
119
330
1F
100
AcDbEntity
  8
0
  6
Continuous
 62
     7
100
AcDbLine
 10
6209.6386162236
 20
4690.9898337822
 30
0.0
 11
6203.1950784519
 21
4690.9898337822
 31
0.0
  0
LINE
  5
11A
330
1F
100
AcDbEntity
  8
0
  6
Continuous
 62
     7
100
AcDbLine
 10
6338.3988944486
 20
4690.9898337822
 30
0.0
 11
6338.3988944486
 21
4692.9898337608
 31
0.0
  0
LINE
  5
11B
330
1F
100
AcDbEntity
  8
0
  6
Continuous
 62
     7
100
AcDbLine
 10
6344.8424322203
 20
4692.9898337608
 30
0.0
 11
6344.8424322203
 21
4690.9898337822
 31
0.0
  0
LINE
  5
11C
330
1F
100
AcDbEntity
  8
0
  6
Continuous
 62
     7
100
AcDbLine
 10
6344.8424322203
 20
4690.9898337822
 30
0.0
 11
6338.3988944486
 21
4690.9898337822
 31
0.0
  0
LINE
  5
11D
330
1F
100
AcDbEntity
  8
0
  6
Continuous
 62
     7
100
AcDbLine
 10
6209.6386162236
 20
4690.9898337822
 30
0.0
 11
6338.3988944486
 21
4690.9898337822
 31
0.0
  0
LINE
  5
11E
330
1F
100
AcDbEntity
  8
0
  6
Continuous
 62
     7
100
AcDbLine
 10
6174.5752228096
 20
4692.9898337608
 30
0.0
 11
6174.5752228096
 21
4690.9898337822
 31
0.0
  0
LINE
  5
11F
330
1F
100
AcDbEntity
  8
0
  6
Continuous
 62
     7
100
AcDbLine
 10
6174.5752228096
 20
4690.9898337822
 30
0.0
 11
6203.1950784519
 21
4690.9898337822
 31
0.0
  0
LINE
  5
120
330
1F
100
AcDbEntity
  8
0
  6
Continuous
 62
     7
100
AcDbLine
 10
6373.4622878626
 20
4690.9898337822
 30
0.0
 11
6373.4622878626
 21
4692.9898337608
 31
0.0
  0
LINE
  5
121
330
1F
100
AcDbEntity
  8
0
  6
Continuous
 62
     7
100
AcDbLine
 10
6344.8424322203
 20
4690.9898337822
 30
0.0
 11
6373.4622878626
 21
4690.9898337822
 31
0.0
  0
LINE
  5
122
330
1F
100
AcDbEntity
  8
0
  6
Continuous
 62
     7
100
AcDbLine
 10
6174.018753846
 20
4690.9898337822
 30
0.0
 11
6174.018753846
 21
4692.9898337608
 31
0.0
  0
LINE
  5
123
330
1F
100
AcDbEntity
  8
0
  6
Continuous
 62
     7
100
AcDbLine
 10
6174.5752228096
 20
4690.9898337822
 30
0.0
 11
6174.018753846
 21
4690.9898337822
 31
0.0
  0
LINE
  5
124
330
1F
100
AcDbEntity
  8
0
  6
Continuous
 62
     7
100
AcDbLine
 10
6374.0187568262
 20
4692.9898337608
 30
0.0
 11
6374.0187568262
 21
4690.9898337822
 31
0.0
  0
LINE
  5
125
330
1F
100
AcDbEntity
  8
0
  6
Continuous
 62
     7
100
AcDbLine
 10
6374.0187568262
 20
4690.9898337822
 30
0.0
 11
6373.4622878626
 21
4690.9898337822
 31
0.0
  0
LINE
  5
126
330
1F
100
AcDbEntity
  8
0
  6
Continuous
 62
     7
100
AcDbLine
 10
6320.4433900908
 20
4715.3196995992
 30
0.0
 11
6322.3664668992
 21
4715.3196995992
 31
0.0
  0
LINE
  5
127
330
1F
100
AcDbEntity
  8
0
  6
Continuous
 62
     7
100
AcDbLine
 10
6322.3664668992
 20
4715.3196995992
 30
0.0
 11
6322.3664668992
 21
4709.0857261706
 31
0.0
  0
LINE
  5
128
330
1F
100
AcDbEntity
  8
0
  6
Continuous
 62
     7
100
AcDbLine
 10
6314.7943524316
 20
4707.4991874311
 30
0.0
 11
6316.7895434096
 21
4707.4991874311
 31
0.0
  0
LINE
  5
129
330
1F
100
AcDbEntity
  8
0
  6
Continuous
 62
     7
100
AcDbLine
 10
6320.4433900908
 20
4714.5063998092
 30
0.0
 11
6320.4433900908
 21
4715.3196995992
 31
0.0
  0
LINE
  5
12A
330
1F
100
AcDbEntity
  8
0
  6
Continuous
 62
     7
100
AcDbLine
 10
6300.3151865348
 20
4718.0120078761
 30
0.0
 11
6302.1100574776
 21
4718.0120078761
 31
0.0
  0
LINE
  5
12B
330
1F
100
AcDbEntity
  8
0
  6
Continuous
 62
     7
100
AcDbLine
 10
6302.1100574776
 20
4718.0120078761
 30
0.0
 11
6302.1100574776
 21
4709.8068799737
 31
0.0
  0
LINE
  5
12C
330
1F
100
AcDbEntity
  8
0
  6
Continuous
 62
     7
100
AcDbLine
 10
6302.1100574776
 20
4709.8068799737
 30
0.0
 11
6304.9305697575
 21
4709.8068799737
 31
0.0
  0
LINE
  5
12D
330
1F
100
AcDbEntity
  8
0
  6
Continuous
 62
     7
100
AcDbLine
 10
6304.9305697575
 20
4709.8068799737
 30
0.0
 11
6304.9305697575
 21
4708.0120080996
 31
0.0
  0
LINE
  5
12E
330
1F
100
AcDbEntity
  8
0
  6
Continuous
 62
     7
100
AcDbLine
 10
6304.9305697575
 20
4708.0120080996
 30
0.0
 11
6300.3151865348
 21
4708.0120080996
 31
0.0
  0
LINE
  5
12F
330
1F
100
AcDbEntity
  8
0
  6
Continuous
 62
     7
100
AcDbLine
 10
6300.3151865348
 20
4708.0120080996
 30
0.0
 11
6300.3151865348
 21
4718.0120078761
 31
0.0
  0
LINE
  5
130
330
1F
100
AcDbEntity
  8
0
  6
Continuous
 62
     7
100
AcDbLine
 10
6334.3206589714
 20
4722.9898339051
 30
0.0
 11
6294.3206580028
 21
4722.9898339051
 31
0.0
  0
LINE
  5
131
330
1F
100
AcDbEntity
  8
0
  6
Continuous
 62
     7
100
AcDbLine
 10
6334.3206589714
 20
4702.9898334208
 30
0.0
 11
6334.3206589714
 21
4722.9898339051
 31
0.0
  0
LINE
  5
132
330
1F
100
AcDbEntity
  8
0
  6
Continuous
 62
     7
100
AcDbLine
 10
6294.3206580028
 20
4702.9898334208
 30
0.0
 11
6334.3206589714
 21
4702.9898334208
 31
0.0
  0
LINE
  5
133
330
1F
100
AcDbEntity
  8
0
  6
Continuous
 62
     7
100
AcDbLine
 10
6294.3206580028
 20
4722.9898339051
 30
0.0
 11
6294.3206580028
 21
4702.9898334208
 31
0.0
  0
LINE
  5
134
330
1F
100
AcDbEntity
  8
0
  6
Continuous
 62
     7
100
AcDbLine
 10
6189.5778907135
 20
5735.7334894973
 30
0.0
 11
6188.6445564821
 21
5734.9339527923
 31
0.0
  0
LINE
  5
135
330
1F
100
AcDbEntity
  8
0
  6
Continuous
 62
     7
100
AcDbLine
 10
6189.3058551148
 20
5735.7334894973
 30
0.0
 11
6189.5778907135
 21
5735.7334894973
 31
0.0
  0
LINE
  5
136
330
1F
100
AcDbEntity
  8
0
  6
Continuous
 62
     7
100
AcDbLine
 10
6188.6266080335
 20
5735.1513905365
 30
0.0
 11
6189.3058551148
 21
5735.7334894973
 31
0.0
  0
LINE
  5
137
330
1F
100
AcDbEntity
  8
0
  6
Continuous
 62
     7
100
AcDbLine
 10
6187.9473609522
 20
5735.7334894973
 30
0.0
 11
6188.6266080335
 21
5735.1513905365
 31
0.0
  0
LINE
  5
138
330
1F
100
AcDbEntity
  8
0
  6
Continuous
 62
     7
100
AcDbLine
 10
6187.6753253534
 20
5735.7334894973
 30
0.0
 11
6187.9473609522
 21
5735.7334894973
 31
0.0
  0
LINE
  5
139
330
1F
100
AcDbEntity
  8
0
  6
Continuous
 62
     7
100
AcDbLine
 10
6188.6086595848
 20
5734.9339527923
 30
0.0
 11
6187.6753253534
 21
5735.7334894973
 31
0.0
  0
LINE
  5
13A
330
1F
100
AcDbEntity
  8
0
  6
Continuous
 62
     7
100
AcDbLine
 10
6188.6445564821
 20
5734.9339527923
 30
0.0
 11
6188.6086595848
 21
5734.9339527923
 31
0.0
  0
LINE
  5
13B
330
1F
100
AcDbEntity
  8
0
  6
Continuous
 62
     7
100
AcDbLine
 10
6180.3163570955
 20
5735.8709378082
 30
0.0
 11
6180.0891888931
 21
5735.8035845596
 31
0.0
  0
LINE
  5
13C
330
1F
100
AcDbEntity
  8
0
  6
Continuous
 62
     7
100
AcDbLine
 10
6178.700966914
 20
5735.1450724441
 30
0.0
 11
6178.9376718596
 21
5735.2005047638
 31
0.0
  0
LINE
  5
13D
330
1F
100
AcDbEntity
  8
0
  6
Continuous
 62
     7
100
AcDbLine
 10
6204.0187550381
 20
5736.9203371841
 30
0.0
 11
6176.0187578991
 21
5736.9203371841
 31
0.0
  0
LINE
  5
13E
330
1F
100
AcDbEntity
  8
0
  6
Continuous
 62
     7
100
AcDbLine
 10
6204.0187550381
 20
5734.1851992446
 30
0.0
 11
6204.0187550381
 21
5736.9203371841
 31
0.0
  0
LINE
  5
13F
330
1F
100
AcDbEntity
  8
0
  6
Continuous
 62
     7
100
AcDbLine
 10
6176.0187578991
 20
5734.1851992446
 30
0.0
 11
6204.0187550381
 21
5734.1851992446
 31
0.0
  0
LINE
  5
140
330
1F
100
AcDbEntity
  8
0
  6
Continuous
 62
     7
100
AcDbLine
 10
6176.0187578991
 20
5736.9203371841
 30
0.0
 11
6176.0187578991
 21
5734.1851992446
 31
0.0
  0
LINE
  5
141
330
1F
100
AcDbEntity
  8
0
  6
Continuous
 62
     7
100
AcDbLine
 10
6182.8650740579
 20
5735.3126807052
 30
0.0
 11
6181.0343024924
 21
5735.3126807052
 31
0.0
  0
LINE
  5
142
330
1F
100
AcDbEntity
  8
0
  6
Continuous
 62
     7
100
AcDbLine
 10
6182.5341416195
 20
5735.1864380676
 30
0.0
 11
6182.7573833659
 21
5735.1406617004
 31
0.0
  0
LINE
  5
143
330
1F
100
AcDbEntity
  8
0
  6
Continuous
 62
     7
100
AcDbLine
 10
6182.3266131476
 20
5736.0842032272
 30
0.0
 11
6181.7887110308
 21
5735.859732135
 31
0.0
  0
LINE
  5
144
330
1F
100
AcDbEntity
  8
0
  6
Continuous
 62
     7
100
AcDbLine
 10
6181.9345412448
 20
5736.0842032272
 30
0.0
 11
6182.3266131476
 21
5736.0842032272
 31
0.0
  0
LINE
  5
145
330
1F
100
AcDbEntity
  8
0
  6
Continuous
 62
     7
100
AcDbLine
 10
6181.5368665054
 20
5735.859732135
 30
0.0
 11
6181.9345412448
 21
5736.0842032272
 31
0.0
  0
LINE
  5
146
330
1F
100
AcDbEntity
  8
0
  6
Continuous
 62
     7
100
AcDbLine
 10
6181.7887110308
 20
5735.859732135
 30
0.0
 11
6181.5368665054
 21
5735.859732135
 31
0.0
  0
LINE
  5
147
330
1F
100
AcDbEntity
  8
0
  6
Continuous
 62
     7
100
AcDbLine
 10
6183.5471225575
 20
5735.202650531
 30
0.0
 11
6183.5471225575
 21
5734.9339527923
 31
0.0
  0
LINE
  5
148
330
1F
100
AcDbEntity
  8
0
  6
Continuous
 62
     7
100
AcDbLine
 10
6184.2650754049
 20
5735.7201380569
 30
0.0
 11
6184.1270906523
 21
5735.6351418335
 31
0.0
  0
LINE
  5
149
330
1F
100
AcDbEntity
  8
0
  6
Continuous
 62
     7
100
AcDbLine
 10
6183.5471225575
 20
5735.7334894973
 30
0.0
 11
6183.5471225575
 21
5735.6158299285
 31
0.0
  0
LINE
  5
14A
330
1F
100
AcDbEntity
  8
0
  6
Continuous
 62
     7
100
AcDbLine
 10
6183.2958442762
 20
5735.7334894973
 30
0.0
 11
6183.5471225575
 21
5735.7334894973
 31
0.0
  0
LINE
  5
14B
330
1F
100
AcDbEntity
  8
0
  6
Continuous
 62
     7
100
AcDbLine
 10
6183.2958442762
 20
5734.9339527923
 30
0.0
 11
6183.2958442762
 21
5735.7334894973
 31
0.0
  0
LINE
  5
14C
330
1F
100
AcDbEntity
  8
0
  6
Continuous
 62
     7
100
AcDbLine
 10
6183.5471225575
 20
5734.9339527923
 30
0.0
 11
6183.2958442762
 21
5734.9339527923
 31
0.0
  0
LINE
  5
14D
330
1F
100
AcDbEntity
  8
0
  6
Continuous
 62
     7
100
AcDbLine
 10
6184.7317425206
 20
5735.7334894973
 30
0.0
 11
6184.7317425206
 21
5734.9339527923
 31
0.0
  0
LINE
  5
14E
330
1F
100
AcDbEntity
  8
0
  6
Continuous
 62
     7
100
AcDbLine
 10
6184.4804567888
 20
5735.7334894973
 30
0.0
 11
6184.7317425206
 21
5735.7334894973
 31
0.0
  0
LINE
  5
14F
330
1F
100
AcDbEntity
  8
0
  6
Continuous
 62
     7
100
AcDbLine
 10
6184.4804567888
 20
5734.9339527923
 30
0.0
 11
6184.4804567888
 21
5735.7334894973
 31
0.0
  0
LINE
  5
150
330
1F
100
AcDbEntity
  8
0
  6
Continuous
 62
     7
100
AcDbLine
 10
6184.7317425206
 20
5734.9339527923
 30
0.0
 11
6184.4804567888
 21
5734.9339527923
 31
0.0
  0
LINE
  5
151
330
1F
100
AcDbEntity
  8
0
  6
Continuous
 62
     7
100
AcDbLine
 10
6192.0189169839
 20
5735.3126807052
 30
0.0
 11
6190.188152869
 21
5735.3126807052
 31
0.0
  0
LINE
  5
152
330
1F
100
AcDbEntity
  8
0
  6
Continuous
 62
     7
100
AcDbLine
 10
6191.6879919961
 20
5735.1864380676
 30
0.0
 11
6191.9112262919
 21
5735.1406617004
 31
0.0
  0
LINE
  5
153
330
1F
100
AcDbEntity
  8
0
  6
Continuous
 62
     7
100
AcDbLine
 10
6191.4804560736
 20
5736.0842032272
 30
0.0
 11
6190.9425539568
 21
5735.859732135
 31
0.0
  0
LINE
  5
154
330
1F
100
AcDbEntity
  8
0
  6
Continuous
 62
     7
100
AcDbLine
 10
6191.0883916214
 20
5736.0842032272
 30
0.0
 11
6191.4804560736
 21
5736.0842032272
 31
0.0
  0
LINE
  5
155
330
1F
100
AcDbEntity
  8
0
  6
Continuous
 62
     7
100
AcDbLine
 10
6190.690716882
 20
5735.859732135
 30
0.0
 11
6191.0883916214
 21
5736.0842032272
 31
0.0
  0
LINE
  5
156
330
1F
100
AcDbEntity
  8
0
  6
Continuous
 62
     7
100
AcDbLine
 10
6190.9425539568
 20
5735.859732135
 30
0.0
 11
6190.690716882
 21
5735.859732135
 31
0.0
  0
LINE
  5
157
330
1F
100
AcDbEntity
  8
0
  6
Continuous
 62
     7
100
AcDbLine
 10
6195.3983289793
 20
5735.1584238845
 30
0.0
 11
6195.6086588696
 21
5735.1045412857
 31
0.0
  0
LINE
  5
158
330
1F
100
AcDbEntity
  8
0
  6
Continuous
 62
     7
100
AcDbLine
 10
6195.6086588696
 20
5735.5601591903
 30
0.0
 11
6195.3983289793
 21
5735.5090184051
 31
0.0
  0
LINE
  5
159
330
1F
100
AcDbEntity
  8
0
  6
Continuous
 62
     7
100
AcDbLine
 10
6194.5872662261
 20
5735.945801242
 30
0.0
 11
6194.8761326864
 21
5736.042122348
 31
0.0
  0
LINE
  5
15A
330
1F
100
AcDbEntity
  8
0
  6
Continuous
 62
     7
100
AcDbLine
 10
6194.2944807604
 20
5736.042122348
 30
0.0
 11
6194.5872662261
 21
5735.945801242
 31
0.0
  0
LINE
  5
15B
330
1F
100
AcDbEntity
  8
0
  6
Continuous
 62
     7
100
AcDbLine
 10
6193.921482344
 20
5736.042122348
 30
0.0
 11
6194.2944807604
 21
5736.042122348
 31
0.0
  0
LINE
  5
15C
330
1F
100
AcDbEntity
  8
0
  6
Continuous
 62
     7
100
AcDbLine
 10
6194.4666785791
 20
5735.859732135
 30
0.0
 11
6193.921482344
 21
5736.042122348
 31
0.0
  0
LINE
  5
15D
330
1F
100
AcDbEntity
  8
0
  6
Continuous
 62
     7
100
AcDbLine
 10
6194.70280983
 20
5735.859732135
 30
0.0
 11
6194.4666785791
 21
5735.859732135
 31
0.0
  0
LINE
  5
15E
330
1F
100
AcDbEntity
  8
0
  6
Continuous
 62
     7
100
AcDbLine
 10
6195.2496898964
 20
5736.042122348
 30
0.0
 11
6194.70280983
 21
5735.859732135
 31
0.0
  0
LINE
  5
15F
330
1F
100
AcDbEntity
  8
0
  6
Continuous
 62
     7
100
AcDbLine
 10
6194.8761326864
 20
5736.042122348
 30
0.0
 11
6195.2496898964
 21
5736.042122348
 31
0.0
  0
LINE
  5
160
330
1F
100
AcDbEntity
  8
0
  6
Continuous
 62
     7
100
AcDbLine
 10
6196.326611717
 20
5735.7334894973
 30
0.0
 11
6196.326611717
 21
5734.9339527923
 31
0.0
  0
LINE
  5
161
330
1F
100
AcDbEntity
  8
0
  6
Continuous
 62
     7
100
AcDbLine
 10
6196.0753259852
 20
5735.7334894973
 30
0.0
 11
6196.326611717
 21
5735.7334894973
 31
0.0
  0
LINE
  5
162
330
1F
100
AcDbEntity
  8
0
  6
Continuous
 62
     7
100
AcDbLine
 10
6196.0753259852
 20
5734.9339527923
 30
0.0
 11
6196.0753259852
 21
5735.7334894973
 31
0.0
  0
LINE
  5
163
330
1F
100
AcDbEntity
  8
0
  6
Continuous
 62
     7
100
AcDbLine
 10
6196.326611717
 20
5734.9339527923
 30
0.0
 11
6196.0753259852
 21
5734.9339527923
 31
0.0
  0
LINE
  5
164
330
1F
100
AcDbEntity
  8
0
  6
Continuous
 62
     7
100
AcDbLine
 10
6196.7214850381
 20
5736.0842032272
 30
0.0
 11
6196.1835829213
 21
5735.859732135
 31
0.0
  0
LINE
  5
165
330
1F
100
AcDbEntity
  8
0
  6
Continuous
 62
     7
100
AcDbLine
 10
6196.3294131353
 20
5736.0842032272
 30
0.0
 11
6196.7214850381
 21
5736.0842032272
 31
0.0
  0
LINE
  5
166
330
1F
100
AcDbEntity
  8
0
  6
Continuous
 62
     7
100
AcDbLine
 10
6195.931738396
 20
5735.859732135
 30
0.0
 11
6196.3294131353
 21
5736.0842032272
 31
0.0
  0
LINE
  5
167
330
1F
100
AcDbEntity
  8
0
  6
Continuous
 62
     7
100
AcDbLine
 10
6196.1835829213
 20
5735.859732135
 30
0.0
 11
6195.931738396
 21
5735.859732135
 31
0.0
  0
LINE
  5
168
330
1F
100
AcDbEntity
  8
0
  6
Continuous
 62
     7
100
AcDbLine
 10
6196.7214850381
 20
5735.0282473404
 30
0.0
 11
6196.8880725697
 21
5735.1022763092
 31
0.0
  0
LINE
  5
169
330
1F
100
AcDbEntity
  8
0
  6
Continuous
 62
     7
100
AcDbLine
 10
6197.8702006534
 20
5735.6338305313
 30
0.0
 11
6197.6996866658
 21
5735.5651659805
 31
0.0
  0
LINE
  5
16A
330
1F
100
AcDbEntity
  8
0
  6
Continuous
 62
     7
100
AcDbLine
 10
6198.6240503982
 20
5736.0560698349
 30
0.0
 11
6198.6240503982
 21
5734.9339527923
 31
0.0
  0
LINE
  5
16B
330
1F
100
AcDbEntity
  8
0
  6
Continuous
 62
     7
100
AcDbLine
 10
6198.3727646664
 20
5736.0560698349
 30
0.0
 11
6198.6240503982
 21
5736.0560698349
 31
0.0
  0
LINE
  5
16C
330
1F
100
AcDbEntity
  8
0
  6
Continuous
 62
     7
100
AcDbLine
 10
6198.3727646664
 20
5734.9339527923
 30
0.0
 11
6198.3727646664
 21
5736.0560698349
 31
0.0
  0
LINE
  5
16D
330
1F
100
AcDbEntity
  8
0
  6
Continuous
 62
     7
100
AcDbLine
 10
6198.6240503982
 20
5734.9339527923
 30
0.0
 11
6198.3727646664
 21
5734.9339527923
 31
0.0
  0
LINE
  5
16E
330
1F
100
AcDbEntity
  8
0
  6
Continuous
 62
     7
100
AcDbLine
 10
6176.0187578991
 20
5734.1851992446
 30
0.0
 11
6176.0187578991
 21
5734.0930504638
 31
0.0
  0
LINE
  5
16F
330
1F
100
AcDbEntity
  8
0
  6
Continuous
 62
     7
100
AcDbLine
 10
6176.0187578991
 20
5734.0930504638
 30
0.0
 11
6204.0187550381
 21
5734.0930504638
 31
0.0
  0
LINE
  5
170
330
1F
100
AcDbEntity
  8
0
  6
Continuous
 62
     7
100
AcDbLine
 10
6204.0187550381
 20
5734.1851992446
 30
0.0
 11
6204.0187550381
 21
5734.0930504638
 31
0.0
  0
LINE
  5
171
330
1F
100
AcDbEntity
  8
0
  6
Continuous
 62
     7
100
AcDbLine
 10
6178.700966914
 20
5735.0990576583
 30
0.0
 11
6178.9376718596
 21
5735.154489978
 31
0.0
  0
LINE
  5
172
330
1F
100
AcDbEntity
  8
0
  6
Continuous
 62
     7
100
AcDbLine
 10
6196.781283398
 20
5735.0088162262
 30
0.0
 11
6196.8880725697
 21
5735.0562615234
 31
0.0
  0
LINE
  5
173
330
1F
100
AcDbEntity
  8
0
  6
Continuous
 62
     7
100
AcDbLine
 10
6195.3983289793
 20
5735.1124090988
 30
0.0
 11
6195.6086588696
 21
5735.0585264999
 31
0.0
  0
LINE
  5
174
330
1F
100
AcDbEntity
  8
0
  6
Continuous
 62
     7
100
AcDbLine
 10
6191.6879919961
 20
5735.1404232818
 30
0.0
 11
6191.9112262919
 21
5735.0946469146
 31
0.0
  0
LINE
  5
175
330
1F
100
AcDbEntity
  8
0
  6
Continuous
 62
     7
100
AcDbLine
 10
6190.2145130232
 20
5735.364894374
 30
0.0
 11
6191.7676387027
 21
5735.364894374
 31
0.0
  0
LINE
  5
176
330
1F
100
AcDbEntity
  8
0
  6
Continuous
 62
     7
100
AcDbLine
 10
6182.5341416195
 20
5735.1404232818
 30
0.0
 11
6182.7573833659
 21
5735.0946469146
 31
0.0
  0
LINE
  5
177
330
1F
100
AcDbEntity
  8
0
  6
Continuous
 62
     7
100
AcDbLine
 10
6181.0606626466
 20
5735.364894374
 30
0.0
 11
6182.6137883261
 21
5735.364894374
 31
0.0
  0
LINE
  5
178
330
1F
100
AcDbEntity
  8
0
  6
Continuous
 62
     7
100
AcDbLine
 10
6196.0753259852
 20
5735.6874747116
 30
0.0
 11
6196.326611717
 21
5735.6874747116
 31
0.0
  0
LINE
  5
179
330
1F
100
AcDbEntity
  8
0
  6
Continuous
 62
     7
100
AcDbLine
 10
6198.3727646664
 20
5736.0100550491
 30
0.0
 11
6198.6240503982
 21
5736.0100550491
 31
0.0
  0
LINE
  5
17A
330
1F
100
AcDbEntity
  8
0
  6
Continuous
 62
     7
100
AcDbLine
 10
6184.4804567888
 20
5735.6874747116
 30
0.0
 11
6184.7317425206
 21
5735.6874747116
 31
0.0
  0
LINE
  5
17B
330
1F
100
AcDbEntity
  8
0
  6
Continuous
 62
     7
100
AcDbLine
 10
6187.7290589407
 20
5735.6874747116
 30
0.0
 11
6187.9473609522
 21
5735.6874747116
 31
0.0
  0
LINE
  5
17C
330
1F
100
AcDbEntity
  8
0
  6
Continuous
 62
     7
100
AcDbLine
 10
6187.9473609522
 20
5735.6874747116
 30
0.0
 11
6188.6266080335
 21
5735.1053757507
 31
0.0
  0
LINE
  5
17D
330
1F
100
AcDbEntity
  8
0
  6
Continuous
 62
     7
100
AcDbLine
 10
6188.6266080335
 20
5735.1053757507
 30
0.0
 11
6189.3058551148
 21
5735.6874747116
 31
0.0
  0
LINE
  5
17E
330
1F
100
AcDbEntity
  8
0
  6
Continuous
 62
     7
100
AcDbLine
 10
6189.3058551148
 20
5735.6874747116
 30
0.0
 11
6189.5241645768
 21
5735.6874747116
 31
0.0
  0
LINE
  5
17F
330
1F
100
AcDbEntity
  8
0
  6
Continuous
 62
     7
100
AcDbLine
 10
6183.2958442762
 20
5735.6874747116
 30
0.0
 11
6183.5471225575
 21
5735.6874747116
 31
0.0
  0
LINE
  5
180
330
1F
100
AcDbEntity
  8
0
  6
Continuous
 62
     7
100
AcDbLine
 10
6197.293600221
 20
5734.972099765
 30
0.0
 11
6197.293600221
 21
5735.0181145507
 31
0.0
  0
LINE
  5
181
330
1F
100
AcDbEntity
  8
0
  6
Continuous
 62
     7
100
AcDbLine
 10
6196.8880725697
 20
5735.0562615234
 30
0.0
 11
6196.8880725697
 21
5735.1022763092
 31
0.0
  0
LINE
  5
182
330
1F
100
AcDbEntity
  8
0
  6
Continuous
 62
     7
100
AcDbLine
 10
6197.6548192695
 20
5735.1007265884
 30
0.0
 11
6197.6548192695
 21
5735.1467413742
 31
0.0
  0
LINE
  5
183
330
1F
100
AcDbEntity
  8
0
  6
Continuous
 62
     7
100
AcDbLine
 10
6200.9932754233
 20
5735.2849049408
 30
0.0
 11
6200.9932754233
 21
5735.3309197265
 31
0.0
  0
LINE
  5
184
330
1F
100
AcDbEntity
  8
0
  6
Continuous
 62
     7
100
AcDbLine
 10
6200.1855877832
 20
5734.972099765
 30
0.0
 11
6200.1855877832
 21
5735.0181145507
 31
0.0
  0
LINE
  5
185
330
1F
100
AcDbEntity
  8
0
  6
Continuous
 62
     7
100
AcDbLine
 10
6199.3778926924
 20
5735.2849049408
 30
0.0
 11
6199.3778926924
 21
5735.3309197265
 31
0.0
  0
LINE
  5
186
330
1F
100
AcDbEntity
  8
0
  6
Continuous
 62
     7
100
AcDbLine
 10
6190.9347010449
 20
5734.972099765
 30
0.0
 11
6190.9347010449
 21
5735.0181145507
 31
0.0
  0
LINE
  5
187
330
1F
100
AcDbEntity
  8
0
  6
Continuous
 62
     7
100
AcDbLine
 10
6190.188152869
 20
5735.2666659195
 30
0.0
 11
6190.188152869
 21
5735.3126807052
 31
0.0
  0
LINE
  5
188
330
1F
100
AcDbEntity
  8
0
  6
Continuous
 62
     7
100
AcDbLine
 10
6194.6551335648
 20
5734.972099765
 30
0.0
 11
6194.6551335648
 21
5735.0181145507
 31
0.0
  0
LINE
  5
189
330
1F
100
AcDbEntity
  8
0
  6
Continuous
 62
     7
100
AcDbLine
 10
6193.7778947547
 20
5735.2899117309
 30
0.0
 11
6193.7778947547
 21
5735.3359265167
 31
0.0
  0
LINE
  5
18A
330
1F
100
AcDbEntity
  8
0
  6
Continuous
 62
     7
100
AcDbLine
 10
6191.6879919961
 20
5735.1404232818
 30
0.0
 11
6191.6879919961
 21
5735.1864380676
 31
0.0
  0
LINE
  5
18B
330
1F
100
AcDbEntity
  8
0
  6
Continuous
 62
     7
100
AcDbLine
 10
6195.3983289793
 20
5735.1124090988
 30
0.0
 11
6195.3983289793
 21
5735.1584238845
 31
0.0
  0
LINE
  5
18C
330
1F
100
AcDbEntity
  8
0
  6
Continuous
 62
     7
100
AcDbLine
 10
6181.7808581188
 20
5734.972099765
 30
0.0
 11
6181.7808581188
 21
5735.0181145507
 31
0.0
  0
LINE
  5
18D
330
1F
100
AcDbEntity
  8
0
  6
Continuous
 62
     7
100
AcDbLine
 10
6181.0343024924
 20
5735.2666659195
 30
0.0
 11
6181.0343024924
 21
5735.3126807052
 31
0.0
  0
LINE
  5
18E
330
1F
100
AcDbEntity
  8
0
  6
Continuous
 62
     7
100
AcDbLine
 10
6180.1009682611
 20
5735.1575894195
 30
0.0
 11
6180.1009682611
 21
5735.2036042053
 31
0.0
  0
LINE
  5
18F
330
1F
100
AcDbEntity
  8
0
  6
Continuous
 62
     7
100
AcDbLine
 10
6179.552411814
 20
5734.972099765
 30
0.0
 11
6179.552411814
 21
5735.0181145507
 31
0.0
  0
LINE
  5
190
330
1F
100
AcDbEntity
  8
0
  6
Continuous
 62
     7
100
AcDbLine
 10
6178.9376718596
 20
5735.154489978
 30
0.0
 11
6178.9376718596
 21
5735.2005047638
 31
0.0
  0
LINE
  5
191
330
1F
100
AcDbEntity
  8
0
  6
Continuous
 62
     7
100
AcDbLine
 10
6187.1368644431
 20
5735.2849049408
 30
0.0
 11
6187.1368644431
 21
5735.3309197265
 31
0.0
  0
LINE
  5
192
330
1F
100
AcDbEntity
  8
0
  6
Continuous
 62
     7
100
AcDbLine
 10
6186.3291768029
 20
5734.972099765
 30
0.0
 11
6186.3291768029
 21
5735.0181145507
 31
0.0
  0
LINE
  5
193
330
1F
100
AcDbEntity
  8
0
  6
Continuous
 62
     7
100
AcDbLine
 10
6185.5214817122
 20
5735.2849049408
 30
0.0
 11
6185.5214817122
 21
5735.3309197265
 31
0.0
  0
LINE
  5
194
330
1F
100
AcDbEntity
  8
0
  6
Continuous
 62
     7
100
AcDbLine
 10
6182.5341416195
 20
5735.1404232818
 30
0.0
 11
6182.5341416195
 21
5735.1864380676
 31
0.0
  0
LINE
  5
195
330
1F
100
AcDbEntity
  8
0
  6
Continuous
 62
     7
100
AcDbLine
 10
6197.8107450202
 20
5735.2285189468
 30
0.0
 11
6197.8107450202
 21
5735.2745337326
 31
0.0
  0
LINE
  5
196
330
1F
100
AcDbEntity
  8
0
  6
Continuous
 62
     7
100
AcDbLine
 10
6189.3058551148
 20
5735.6874747116
 30
0.0
 11
6189.3058551148
 21
5735.7334894973
 31
0.0
  0
LINE
  5
197
330
1F
100
AcDbEntity
  8
0
  6
Continuous
 62
     7
100
AcDbLine
 10
6188.6266080335
 20
5735.1053757507
 30
0.0
 11
6188.6266080335
 21
5735.1513905365
 31
0.0
  0
LINE
  5
198
330
1F
100
AcDbEntity
  8
0
  6
Continuous
 62
     7
100
AcDbLine
 10
6187.9473609522
 20
5735.6874747116
 30
0.0
 11
6187.9473609522
 21
5735.7334894973
 31
0.0
  0
LINE
  5
199
330
1F
100
AcDbEntity
  8
0
  6
Continuous
 62
     7
100
AcDbLine
 10
6179.6926391914
 20
5735.5090184051
 30
0.0
 11
6179.6926391914
 21
5735.5551524002
 31
0.0
  0
LINE
  5
19A
330
1F
100
AcDbEntity
  8
0
  6
Continuous
 62
     7
100
AcDbLine
 10
6197.4422393039
 20
5735.3408140976
 30
0.0
 11
6197.4422393039
 21
5735.3868288833
 31
0.0
  0
LINE
  5
19B
330
1F
100
AcDbEntity
  8
0
  6
Continuous
 62
     7
100
AcDbLine
 10
6191.7962414816
 20
5735.5441851455
 30
0.0
 11
6191.7962414816
 21
5735.5901999313
 31
0.0
  0
LINE
  5
19C
330
1F
100
AcDbEntity
  8
0
  6
Continuous
 62
     7
100
AcDbLine
 10
6182.6423985556
 20
5735.5441851455
 30
0.0
 11
6182.6423985556
 21
5735.5901999313
 31
0.0
  0
LINE
  5
19D
330
1F
100
AcDbEntity
  8
0
  6
Continuous
 62
     7
100
AcDbLine
 10
6194.6719644263
 20
5735.7015414077
 30
0.0
 11
6194.6719644263
 21
5735.7475561935
 31
0.0
  0
LINE
  5
19E
330
1F
100
AcDbEntity
  8
0
  6
Continuous
 62
     7
100
AcDbLine
 10
6200.9641138509
 20
5735.5698151428
 30
0.0
 11
6200.9641138509
 21
5735.6158299285
 31
0.0
  0
LINE
  5
19F
330
1F
100
AcDbEntity
  8
0
  6
Continuous
 62
     7
100
AcDbLine
 10
6199.4070617154
 20
5735.569099887
 30
0.0
 11
6199.4070617154
 21
5735.6151146728
 31
0.0
  0
LINE
  5
1A0
330
1F
100
AcDbEntity
  8
0
  6
Continuous
 62
     7
100
AcDbLine
 10
6190.1724470451
 20
5735.5524105865
 30
0.0
 11
6190.1724470451
 21
5735.5985445816
 31
0.0
  0
LINE
  5
1A1
330
1F
100
AcDbEntity
  8
0
  6
Continuous
 62
     7
100
AcDbLine
 10
6187.1077028707
 20
5735.5698151428
 30
0.0
 11
6187.1077028707
 21
5735.6158299285
 31
0.0
  0
LINE
  5
1A2
330
1F
100
AcDbEntity
  8
0
  6
Continuous
 62
     7
100
AcDbLine
 10
6185.5506507352
 20
5735.569099887
 30
0.0
 11
6185.5506507352
 21
5735.6151146728
 31
0.0
  0
LINE
  5
1A3
330
1F
100
AcDbEntity
  8
0
  6
Continuous
 62
     7
100
AcDbLine
 10
6181.0185966685
 20
5735.5524105865
 30
0.0
 11
6181.0185966685
 21
5735.5985445816
 31
0.0
  0
LINE
  5
1A4
330
1F
100
AcDbEntity
  8
0
  6
Continuous
 62
     7
100
AcDbLine
 10
6197.1500051811
 20
5735.4231877166
 30
0.0
 11
6197.1500051811
 21
5735.4692025024
 31
0.0
  0
LINE
  5
1A5
330
1F
100
AcDbEntity
  8
0
  6
Continuous
 62
     7
100
AcDbLine
 10
6190.2145130232
 20
5735.4109091598
 30
0.0
 11
6191.7676387027
 21
5735.4109091598
 31
0.0
  0
LINE
  5
1A6
330
1F
100
AcDbEntity
  8
0
  6
Continuous
 62
     7
100
AcDbLine
 10
6191.7676387027
 20
5735.364894374
 30
0.0
 11
6191.7676387027
 21
5735.4109091598
 31
0.0
  0
LINE
  5
1A7
330
1F
100
AcDbEntity
  8
0
  6
Continuous
 62
     7
100
AcDbLine
 10
6190.2145130232
 20
5735.364894374
 30
0.0
 11
6190.2145130232
 21
5735.4109091598
 31
0.0
  0
LINE
  5
1A8
330
1F
100
AcDbEntity
  8
0
  6
Continuous
 62
     7
100
AcDbLine
 10
6181.0606626466
 20
5735.4109091598
 30
0.0
 11
6182.6137883261
 21
5735.4109091598
 31
0.0
  0
LINE
  5
1A9
330
1F
100
AcDbEntity
  8
0
  6
Continuous
 62
     7
100
AcDbLine
 10
6182.6137883261
 20
5735.364894374
 30
0.0
 11
6182.6137883261
 21
5735.4109091598
 31
0.0
  0
LINE
  5
1AA
330
1F
100
AcDbEntity
  8
0
  6
Continuous
 62
     7
100
AcDbLine
 10
6181.0606626466
 20
5735.364894374
 30
0.0
 11
6181.0606626466
 21
5735.4109091598
 31
0.0
  0
LINE
  5
1AB
330
1F
100
AcDbEntity
  8
0
  6
Continuous
 62
     7
100
AcDbLine
 10
6197.0804540113
 20
5735.4956669647
 30
0.0
 11
6197.0804540113
 21
5735.5416817504
 31
0.0
  0
LINE
  5
1AC
330
1F
100
AcDbEntity
  8
0
  6
Continuous
 62
     7
100
AcDbLine
 10
6197.3463205293
 20
5735.7015414077
 30
0.0
 11
6197.3463205293
 21
5735.7475561935
 31
0.0
  0
LINE
  5
1AD
330
1F
100
AcDbEntity
  8
0
  6
Continuous
 62
     7
100
AcDbLine
 10
6179.3162731126
 20
5735.6179756958
 30
0.0
 11
6179.3162731126
 21
5735.6639904815
 31
0.0
  0
LINE
  5
1AE
330
1F
100
AcDbEntity
  8
0
  6
Continuous
 62
     7
100
AcDbLine
 10
6190.9722817734
 20
5735.7015414077
 30
0.0
 11
6190.9722817734
 21
5735.7475561935
 31
0.0
  0
LINE
  5
1AF
330
1F
100
AcDbEntity
  8
0
  6
Continuous
 62
     7
100
AcDbLine
 10
6181.8184388474
 20
5735.7015414077
 30
0.0
 11
6181.8184388474
 21
5735.7475561935
 31
0.0
  0
LINE
  5
1B0
330
1F
100
AcDbEntity
  8
0
  6
Continuous
 62
     7
100
AcDbLine
 10
6200.1867053702
 20
5735.7015414077
 30
0.0
 11
6200.1867053702
 21
5735.7475561935
 31
0.0
  0
LINE
  5
1B1
330
1F
100
AcDbEntity
  8
0
  6
Continuous
 62
     7
100
AcDbLine
 10
6186.33029439
 20
5735.7015414077
 30
0.0
 11
6186.33029439
 21
5735.7475561935
 31
0.0
  0
LINE
  5
1B2
330
1F
100
AcDbEntity
  8
0
  6
Continuous
 62
     7
100
AcDbLine
 10
6184.046318908
 20
5735.7015414077
 30
0.0
 11
6184.046318908
 21
5735.7475561935
 31
0.0
  0
LINE
  5
1B3
330
1F
100
AcDbEntity
  8
0
  6
Continuous
 62
     7
100
AcDbLine
 10
6183.5471225575
 20
5735.5698151428
 30
0.0
 11
6183.5471225575
 21
5735.6158299285
 31
0.0
  0
LINE
  5
1B4
330
1F
100
AcDbEntity
  8
0
  6
Continuous
 62
     7
100
AcDbLine
 10
6179.1317371324
 20
5735.7593579132
 30
0.0
 11
6179.1317371324
 21
5735.8053726989
 31
0.0
  0
LINE
  5
1B5
330
1F
100
AcDbEntity
  8
0
  6
Continuous
 62
     7
100
AcDbLine
 10
6179.5703602627
 20
5736.0100550491
 30
0.0
 11
6179.5703602627
 21
5736.0560698349
 31
0.0
  0
LINE
  5
1B6
330
1F
100
AcDbEntity
  8
0
  6
Continuous
 62
     7
100
AcDbLine
 10
6196.3294131353
 20
5736.0380692321
 30
0.0
 11
6196.3294131353
 21
5736.0842032272
 31
0.0
  0
LINE
  5
1B7
330
1F
100
AcDbEntity
  8
0
  6
Continuous
 62
     7
100
AcDbLine
 10
6196.0132999018
 20
5735.859732135
 30
0.0
 11
6196.3294131353
 21
5736.0380692321
 31
0.0
  0
LINE
  5
1B8
330
1F
100
AcDbEntity
  8
0
  6
Continuous
 62
     7
100
AcDbLine
 10
6191.0883916214
 20
5736.0380692321
 30
0.0
 11
6191.0883916214
 21
5736.0842032272
 31
0.0
  0
LINE
  5
1B9
330
1F
100
AcDbEntity
  8
0
  6
Continuous
 62
     7
100
AcDbLine
 10
6190.7722709373
 20
5735.859732135
 30
0.0
 11
6191.0883916214
 21
5736.0380692321
 31
0.0
  0
LINE
  5
1BA
330
1F
100
AcDbEntity
  8
0
  6
Continuous
 62
     7
100
AcDbLine
 10
6181.9345412448
 20
5736.0380692321
 30
0.0
 11
6181.9345412448
 21
5736.0842032272
 31
0.0
  0
LINE
  5
1BB
330
1F
100
AcDbEntity
  8
0
  6
Continuous
 62
     7
100
AcDbLine
 10
6181.6184280112
 20
5735.859732135
 30
0.0
 11
6181.9345412448
 21
5736.0380692321
 31
0.0
  0
LINE
  5
1BC
330
1F
100
AcDbEntity
  8
0
  6
Continuous
 62
     7
100
AcDbLine
 10
6191.0883916214
 20
5736.0380692321
 30
0.0
 11
6191.3701427773
 21
5736.0380692321
 31
0.0
  0
LINE
  5
1BD
330
1F
100
AcDbEntity
  8
0
  6
Continuous
 62
     7
100
AcDbLine
 10
6194.0590945676
 20
5735.9959883529
 30
0.0
 11
6194.2944807604
 21
5735.9959883529
 31
0.0
  0
LINE
  5
1BE
330
1F
100
AcDbEntity
  8
0
  6
Continuous
 62
     7
100
AcDbLine
 10
6194.2944807604
 20
5735.9959883529
 30
0.0
 11
6194.5872662261
 21
5735.8997864563
 31
0.0
  0
LINE
  5
1BF
330
1F
100
AcDbEntity
  8
0
  6
Continuous
 62
     7
100
AcDbLine
 10
6194.5872662261
 20
5735.8997864563
 30
0.0
 11
6194.8761326864
 21
5735.9959883529
 31
0.0
  0
LINE
  5
1C0
330
1F
100
AcDbEntity
  8
0
  6
Continuous
 62
     7
100
AcDbLine
 10
6194.8761326864
 20
5735.9959883529
 30
0.0
 11
6195.1116529897
 21
5735.9959883529
 31
0.0
  0
LINE
  5
1C1
330
1F
100
AcDbEntity
  8
0
  6
Continuous
 62
     7
100
AcDbLine
 10
6196.3294131353
 20
5736.0380692321
 30
0.0
 11
6196.6111642912
 21
5736.0380692321
 31
0.0
  0
LINE
  5
1C2
330
1F
100
AcDbEntity
  8
0
  6
Continuous
 62
     7
100
AcDbLine
 10
6181.9345412448
 20
5736.0380692321
 30
0.0
 11
6182.2162924007
 21
5736.0380692321
 31
0.0
  0
LINE
  5
1C3
330
1F
100
AcDbEntity
  8
0
  6
Continuous
 62
     7
100
AcDbLine
 10
6194.8761326864
 20
5735.9959883529
 30
0.0
 11
6194.8761326864
 21
5736.042122348
 31
0.0
  0
LINE
  5
1C4
330
1F
100
AcDbEntity
  8
0
  6
Continuous
 62
     7
100
AcDbLine
 10
6194.5872662261
 20
5735.8997864563
 30
0.0
 11
6194.5872662261
 21
5735.945801242
 31
0.0
  0
LINE
  5
1C5
330
1F
100
AcDbEntity
  8
0
  6
Continuous
 62
     7
100
AcDbLine
 10
6194.2944807604
 20
5735.9959883529
 30
0.0
 11
6194.2944807604
 21
5736.042122348
 31
0.0
  0
LINE
  5
1C6
330
1F
100
AcDbEntity
  8
0
  6
Continuous
 62
     7
100
AcDbLine
 10
6184.6049783423
 20
5736.0241217453
 30
0.0
 11
6184.6049783423
 21
5736.070136531
 31
0.0
  0
LINE
  5
1C7
330
1F
100
AcDbEntity
  8
0
  6
Continuous
 62
     7
100
AcDbLine
 10
6268.3687551551
 20
5604.403178199
 30
0.0
 11
6268.5462605812
 21
5603.700618251
 31
0.0
  0
LINE
  5
1C8
330
1F
100
AcDbEntity
  8
0
  6
Continuous
 62
     7
100
AcDbLine
 10
6268.5462605812
 20
5603.700618251
 30
0.0
 11
6269.067622409
 21
5603.0422253448
 31
0.0
  0
LINE
  5
1C9
330
1F
100
AcDbEntity
  8
0
  6
Continuous
 62
     7
100
AcDbLine
 10
6269.067622409
 20
5603.0422253448
 30
0.0
 11
6269.900082764
 21
5602.4693054992
 31
0.0
  0
LINE
  5
1CA
330
1F
100
AcDbEntity
  8
0
  6
Continuous
 62
     7
100
AcDbLine
 10
6269.900082764
 20
5602.4693054992
 30
0.0
 11
6270.9913339138
 21
5602.0179195243
 31
0.0
  0
LINE
  5
1CB
330
1F
100
AcDbEntity
  8
0
  6
Continuous
 62
     7
100
AcDbLine
 10
6270.9913339138
 20
5602.0179195243
 30
0.0
 11
6272.2728093293
 21
5601.7164392311
 31
0.0
  0
LINE
  5
1CC
330
1F
100
AcDbEntity
  8
0
  6
Continuous
 62
     7
100
AcDbLine
 10
6272.2728093293
 20
5601.7164392311
 30
0.0
 11
6273.6639888979
 21
5601.5837592918
 31
0.0
  0
LINE
  5
1CD
330
1F
100
AcDbEntity
  8
0
  6
Continuous
 62
     7
100
AcDbLine
 10
6273.6639888979
 20
5601.5837592918
 30
0.0
 11
6275.0774597887
 21
5601.6282243568
 31
0.0
  0
LINE
  5
1CE
330
1F
100
AcDbEntity
  8
0
  6
Continuous
 62
     7
100
AcDbLine
 10
6275.0774597887
 20
5601.6282243568
 30
0.0
 11
6276.4244083453
 21
5601.8470330078
 31
0.0
  0
LINE
  5
1CF
330
1F
100
AcDbEntity
  8
0
  6
Continuous
 62
     7
100
AcDbLine
 10
6276.4244083453
 20
5601.8470330078
 30
0.0
 11
6277.6202009197
 21
5602.2264761764
 31
0.0
  0
LINE
  5
1D0
330
1F
100
AcDbEntity
  8
0
  6
Continuous
 62
     7
100
AcDbLine
 10
6277.6202009197
 20
5602.2264761764
 30
0.0
 11
6278.5897014335
 21
5602.7426524002
 31
0.0
  0
LINE
  5
1D1
330
1F
100
AcDbEntity
  8
0
  6
Continuous
 62
     7
100
AcDbLine
 10
6278.5897014335
 20
5602.7426524002
 30
0.0
 11
6279.2719925426
 21
5603.3631963569
 31
0.0
  0
LINE
  5
1D2
330
1F
100
AcDbEntity
  8
0
  6
Continuous
 62
     7
100
AcDbLine
 10
6279.2719925426
 20
5603.3631963569
 30
0.0
 11
6279.6242033735
 21
5604.049126609
 31
0.0
  0
LINE
  5
1D3
330
1F
100
AcDbEntity
  8
0
  6
Continuous
 62
     7
100
AcDbLine
 10
6279.6242033735
 20
5604.049126609
 30
0.0
 11
6279.6242033735
 21
5604.7572297889
 31
0.0
  0
LINE
  5
1D4
330
1F
100
AcDbEntity
  8
0
  6
Continuous
 62
     7
100
AcDbLine
 10
6279.6242033735
 20
5604.7572297889
 30
0.0
 11
6279.2719925426
 21
5605.4431004364
 31
0.0
  0
LINE
  5
1D5
330
1F
100
AcDbEntity
  8
0
  6
Continuous
 62
     7
100
AcDbLine
 10
6279.2719925426
 20
5605.4431004364
 30
0.0
 11
6278.5897014335
 21
5606.0636443931
 31
0.0
  0
LINE
  5
1D6
330
1F
100
AcDbEntity
  8
0
  6
Continuous
 62
     7
100
AcDbLine
 10
6278.5897014335
 20
5606.0636443931
 30
0.0
 11
6277.6202009197
 21
5606.5798802215
 31
0.0
  0
LINE
  5
1D7
330
1F
100
AcDbEntity
  8
0
  6
Continuous
 62
     7
100
AcDbLine
 10
6277.6202009197
 20
5606.5798802215
 30
0.0
 11
6276.4244083453
 21
5606.9593233902
 31
0.0
  0
LINE
  5
1D8
330
1F
100
AcDbEntity
  8
0
  6
Continuous
 62
     7
100
AcDbLine
 10
6276.4244083453
 20
5606.9593233902
 30
0.0
 11
6275.0774597887
 21
5607.1781320411
 31
0.0
  0
LINE
  5
1D9
330
1F
100
AcDbEntity
  8
0
  6
Continuous
 62
     7
100
AcDbLine
 10
6275.0774597887
 20
5607.1781320411
 30
0.0
 11
6273.6639888979
 21
5607.2225971061
 31
0.0
  0
LINE
  5
1DA
330
1F
100
AcDbEntity
  8
0
  6
Continuous
 62
     7
100
AcDbLine
 10
6273.6639888979
 20
5607.2225971061
 30
0.0
 11
6272.2728093293
 21
5607.0899171669
 31
0.0
  0
LINE
  5
1DB
330
1F
100
AcDbEntity
  8
0
  6
Continuous
 62
     7
100
AcDbLine
 10
6272.2728093293
 20
5607.0899171669
 30
0.0
 11
6270.9913339138
 21
5606.7883772689
 31
0.0
  0
LINE
  5
1DC
330
1F
100
AcDbEntity
  8
0
  6
Continuous
 62
     7
100
AcDbLine
 10
6270.9913339138
 20
5606.7883772689
 30
0.0
 11
6269.900082764
 21
5606.3369912941
 31
0.0
  0
LINE
  5
1DD
330
1F
100
AcDbEntity
  8
0
  6
Continuous
 62
     7
100
AcDbLine
 10
6269.900082764
 20
5606.3369912941
 30
0.0
 11
6269.067622409
 21
5605.7641310531
 31
0.0
  0
LINE
  5
1DE
330
1F
100
AcDbEntity
  8
0
  6
Continuous
 62
     7
100
AcDbLine
 10
6269.067622409
 20
5605.7641310531
 30
0.0
 11
6268.5462605812
 21
5605.1057381469
 31
0.0
  0
LINE
  5
1DF
330
1F
100
AcDbEntity
  8
0
  6
Continuous
 62
     7
100
AcDbLine
 10
6268.5462605812
 20
5605.1057381469
 30
0.0
 11
6268.3687551551
 21
5604.403178199
 31
0.0
  0
LINE
  5
1E0
330
1F
100
AcDbEntity
  8
0
  6
Continuous
 62
     7
100
AcDbLine
 10
6274.0187553361
 20
5613.3399410087
 30
0.0
 11
6276.3496289633
 21
5613.2482690651
 31
0.0
  0
LINE
  5
1E1
330
1F
100
AcDbEntity
  8
0
  6
Continuous
 62
     7
100
AcDbLine
 10
6276.3496289633
 20
5613.2482690651
 30
0.0
 11
6278.6231084399
 21
5612.9753393966
 31
0.0
  0
LINE
  5
1E2
330
1F
100
AcDbEntity
  8
0
  6
Continuous
 62
     7
100
AcDbLine
 10
6278.6231084399
 20
5612.9753393966
 30
0.0
 11
6280.7832138285
 21
5612.5279469329
 31
0.0
  0
LINE
  5
1E3
330
1F
100
AcDbEntity
  8
0
  6
Continuous
 62
     7
100
AcDbLine
 10
6280.7832138285
 20
5612.5279469329
 30
0.0
 11
6282.7767554343
 21
5611.9171185333
 31
0.0
  0
LINE
  5
1E4
330
1F
100
AcDbEntity
  8
0
  6
Continuous
 62
     7
100
AcDbLine
 10
6282.7767554343
 20
5611.9171185333
 30
0.0
 11
6284.5546465039
 21
5611.1579341728
 31
0.0
  0
LINE
  5
1E5
330
1F
100
AcDbEntity
  8
0
  6
Continuous
 62
     7
100
AcDbLine
 10
6284.5546465039
 20
5611.1579341728
 30
0.0
 11
6286.0731083572
 21
5610.2689905006
 31
0.0
  0
LINE
  5
1E6
330
1F
100
AcDbEntity
  8
0
  6
Continuous
 62
     7
100
AcDbLine
 10
6286.0731083572
 20
5610.2689905006
 30
0.0
 11
6287.294752118
 21
5609.272222026
 31
0.0
  0
LINE
  5
1E7
330
1F
100
AcDbEntity
  8
0
  6
Continuous
 62
     7
100
AcDbLine
 10
6287.294752118
 20
5609.272222026
 30
0.0
 11
6288.1894969985
 21
5608.192126258
 31
0.0
  0
LINE
  5
1E8
330
1F
100
AcDbEntity
  8
0
  6
Continuous
 62
     7
100
AcDbLine
 10
6288.1894969985
 20
5608.192126258
 30
0.0
 11
6288.7353116319
 21
5607.0554060775
 31
0.0
  0
LINE
  5
1E9
330
1F
100
AcDbEntity
  8
0
  6
Continuous
 62
     7
100
AcDbLine
 10
6288.7353116319
 20
5607.0554060775
 30
0.0
 11
6288.9187551707
 21
5605.8899564582
 31
0.0
  0
LINE
  5
1EA
330
1F
100
AcDbEntity
  8
0
  6
Continuous
 62
     7
100
AcDbLine
 10
6288.9187551707
 20
5605.8899564582
 30
0.0
 11
6288.7353116319
 21
5604.7245068389
 31
0.0
  0
LINE
  5
1EB
330
1F
100
AcDbEntity
  8
0
  6
Continuous
 62
     7
100
AcDbLine
 10
6288.7353116319
 20
5604.7245068389
 30
0.0
 11
6288.1894969985
 21
5603.5877866584
 31
0.0
  0
LINE
  5
1EC
330
1F
100
AcDbEntity
  8
0
  6
Continuous
 62
     7
100
AcDbLine
 10
6288.1894969985
 20
5603.5877866584
 30
0.0
 11
6287.294752118
 21
5602.5077504951
 31
0.0
  0
LINE
  5
1ED
330
1F
100
AcDbEntity
  8
0
  6
Continuous
 62
     7
100
AcDbLine
 10
6287.294752118
 20
5602.5077504951
 30
0.0
 11
6286.0731083572
 21
5601.5109820205
 31
0.0
  0
LINE
  5
1EE
330
1F
100
AcDbEntity
  8
0
  6
Continuous
 62
     7
100
AcDbLine
 10
6286.0731083572
 20
5601.5109820205
 30
0.0
 11
6284.5546465039
 21
5600.6220383483
 31
0.0
  0
LINE
  5
1EF
330
1F
100
AcDbEntity
  8
0
  6
Continuous
 62
     7
100
AcDbLine
 10
6284.5546465039
 20
5600.6220383483
 30
0.0
 11
6282.7767554343
 21
5599.8627943832
 31
0.0
  0
LINE
  5
1F0
330
1F
100
AcDbEntity
  8
0
  6
Continuous
 62
     7
100
AcDbLine
 10
6282.7767554343
 20
5599.8627943832
 30
0.0
 11
6280.7832138285
 21
5599.2519659835
 31
0.0
  0
LINE
  5
1F1
330
1F
100
AcDbEntity
  8
0
  6
Continuous
 62
     7
100
AcDbLine
 10
6280.7832138285
 20
5599.2519659835
 30
0.0
 11
6278.6231084399
 21
5598.8045735199
 31
0.0
  0
LINE
  5
1F2
330
1F
100
AcDbEntity
  8
0
  6
Continuous
 62
     7
100
AcDbLine
 10
6278.6231084399
 20
5598.8045735199
 30
0.0
 11
6276.3496289633
 21
5598.5317034561
 31
0.0
  0
LINE
  5
1F3
330
1F
100
AcDbEntity
  8
0
  6
Continuous
 62
     7
100
AcDbLine
 10
6276.3496289633
 20
5598.5317034561
 30
0.0
 11
6274.0187553361
 21
5598.4399719078
 31
0.0
  0
LINE
  5
1F4
330
1F
100
AcDbEntity
  8
0
  6
Continuous
 62
     7
100
AcDbLine
 10
6274.0187553361
 20
5598.4399719078
 30
0.0
 11
6271.6878817089
 21
5598.5317034561
 31
0.0
  0
LINE
  5
1F5
330
1F
100
AcDbEntity
  8
0
  6
Continuous
 62
     7
100
AcDbLine
 10
6271.6878817089
 20
5598.5317034561
 30
0.0
 11
6269.4144022323
 21
5598.8045735199
 31
0.0
  0
LINE
  5
1F6
330
1F
100
AcDbEntity
  8
0
  6
Continuous
 62
     7
100
AcDbLine
 10
6269.4144022323
 20
5598.8045735199
 30
0.0
 11
6267.2542968437
 21
5599.2519659835
 31
0.0
  0
LINE
  5
1F7
330
1F
100
AcDbEntity
  8
0
  6
Continuous
 62
     7
100
AcDbLine
 10
6267.2542968437
 20
5599.2519659835
 30
0.0
 11
6265.2607552379
 21
5599.8627943832
 31
0.0
  0
LINE
  5
1F8
330
1F
100
AcDbEntity
  8
0
  6
Continuous
 62
     7
100
AcDbLine
 10
6265.2607552379
 20
5599.8627943832
 30
0.0
 11
6263.4828641683
 21
5600.6220383483
 31
0.0
  0
LINE
  5
1F9
330
1F
100
AcDbEntity
  8
0
  6
Continuous
 62
     7
100
AcDbLine
 10
6263.4828641683
 20
5600.6220383483
 30
0.0
 11
6261.964402315
 21
5601.5109820205
 31
0.0
  0
LINE
  5
1FA
330
1F
100
AcDbEntity
  8
0
  6
Continuous
 62
     7
100
AcDbLine
 10
6261.964402315
 20
5601.5109820205
 30
0.0
 11
6260.7427585542
 21
5602.5077504951
 31
0.0
  0
LINE
  5
1FB
330
1F
100
AcDbEntity
  8
0
  6
Continuous
 62
     7
100
AcDbLine
 10
6260.7427585542
 20
5602.5077504951
 30
0.0
 11
6259.8480136737
 21
5603.5877866584
 31
0.0
  0
LINE
  5
1FC
330
1F
100
AcDbEntity
  8
0
  6
Continuous
 62
     7
100
AcDbLine
 10
6259.8480136737
 20
5603.5877866584
 30
0.0
 11
6259.3021990403
 21
5604.7245068389
 31
0.0
  0
LINE
  5
1FD
330
1F
100
AcDbEntity
  8
0
  6
Continuous
 62
     7
100
AcDbLine
 10
6259.3021990403
 20
5604.7245068389
 30
0.0
 11
6259.1187555015
 21
5605.8899564582
 31
0.0
  0
LINE
  5
1FE
330
1F
100
AcDbEntity
  8
0
  6
Continuous
 62
     7
100
AcDbLine
 10
6259.1187555015
 20
5605.8899564582
 30
0.0
 11
6259.3021990403
 21
5607.0554060775
 31
0.0
  0
LINE
  5
1FF
330
1F
100
AcDbEntity
  8
0
  6
Continuous
 62
     7
100
AcDbLine
 10
6259.3021990403
 20
5607.0554060775
 30
0.0
 11
6259.8480136737
 21
5608.192126258
 31
0.0
  0
LINE
  5
200
330
1F
100
AcDbEntity
  8
0
  6
Continuous
 62
     7
100
AcDbLine
 10
6259.8480136737
 20
5608.192126258
 30
0.0
 11
6260.7427585542
 21
5609.272222026
 31
0.0
  0
LINE
  5
201
330
1F
100
AcDbEntity
  8
0
  6
Continuous
 62
     7
100
AcDbLine
 10
6260.7427585542
 20
5609.272222026
 30
0.0
 11
6261.964402315
 21
5610.2689905006
 31
0.0
  0
LINE
  5
202
330
1F
100
AcDbEntity
  8
0
  6
Continuous
 62
     7
100
AcDbLine
 10
6261.964402315
 20
5610.2689905006
 30
0.0
 11
6263.4828641683
 21
5611.1579341728
 31
0.0
  0
LINE
  5
203
330
1F
100
AcDbEntity
  8
0
  6
Continuous
 62
     7
100
AcDbLine
 10
6263.4828641683
 20
5611.1579341728
 30
0.0
 11
6265.2607552379
 21
5611.9171185333
 31
0.0
  0
LINE
  5
204
330
1F
100
AcDbEntity
  8
0
  6
Continuous
 62
     7
100
AcDbLine
 10
6265.2607552379
 20
5611.9171185333
 30
0.0
 11
6267.2542968437
 21
5612.5279469329
 31
0.0
  0
LINE
  5
205
330
1F
100
AcDbEntity
  8
0
  6
Continuous
 62
     7
100
AcDbLine
 10
6267.2542968437
 20
5612.5279469329
 30
0.0
 11
6269.4144022323
 21
5612.9753393966
 31
0.0
  0
LINE
  5
206
330
1F
100
AcDbEntity
  8
0
  6
Continuous
 62
     7
100
AcDbLine
 10
6269.4144022323
 20
5612.9753393966
 30
0.0
 11
6271.6878817089
 21
5613.2482690651
 31
0.0
  0
LINE
  5
207
330
1F
100
AcDbEntity
  8
0
  6
Continuous
 62
     7
100
AcDbLine
 10
6271.6878817089
 20
5613.2482690651
 30
0.0
 11
6274.0187553361
 21
5613.3399410087
 31
0.0
  0
LINE
  5
208
330
1F
100
AcDbEntity
  8
0
  6
Continuous
 62
     7
100
AcDbLine
 10
6259.1187555015
 20
5633.1697506744
 30
0.0
 11
6259.3021990403
 21
5634.3352002937
 31
0.0
  0
LINE
  5
209
330
1F
100
AcDbEntity
  8
0
  6
Continuous
 62
     7
100
AcDbLine
 10
6259.3021990403
 20
5634.3352002937
 30
0.0
 11
6259.8480136737
 21
5635.4719204742
 31
0.0
  0
LINE
  5
20A
330
1F
100
AcDbEntity
  8
0
  6
Continuous
 62
     7
100
AcDbLine
 10
6259.8480136737
 20
5635.4719204742
 30
0.0
 11
6260.7427585542
 21
5636.5520162422
 31
0.0
  0
LINE
  5
20B
330
1F
100
AcDbEntity
  8
0
  6
Continuous
 62
     7
100
AcDbLine
 10
6260.7427585542
 20
5636.5520162422
 30
0.0
 11
6261.964402315
 21
5637.5487847168
 31
0.0
  0
LINE
  5
20C
330
1F
100
AcDbEntity
  8
0
  6
Continuous
 62
     7
100
AcDbLine
 10
6261.964402315
 20
5637.5487847168
 30
0.0
 11
6263.4828641683
 21
5638.4377283889
 31
0.0
  0
LINE
  5
20D
330
1F
100
AcDbEntity
  8
0
  6
Continuous
 62
     7
100
AcDbLine
 10
6263.4828641683
 20
5638.4377283889
 30
0.0
 11
6265.2607552379
 21
5639.1969723541
 31
0.0
  0
LINE
  5
20E
330
1F
100
AcDbEntity
  8
0
  6
Continuous
 62
     7
100
AcDbLine
 10
6265.2607552379
 20
5639.1969723541
 30
0.0
 11
6267.2542968437
 21
5639.8077411491
 31
0.0
  0
LINE
  5
20F
330
1F
100
AcDbEntity
  8
0
  6
Continuous
 62
     7
100
AcDbLine
 10
6267.2542968437
 20
5639.8077411491
 30
0.0
 11
6269.4144022323
 21
5640.2551336128
 31
0.0
  0
LINE
  5
210
330
1F
100
AcDbEntity
  8
0
  6
Continuous
 62
     7
100
AcDbLine
 10
6269.4144022323
 20
5640.2551336128
 30
0.0
 11
6271.6878817089
 21
5640.5280632812
 31
0.0
  0
LINE
  5
211
330
1F
100
AcDbEntity
  8
0
  6
Continuous
 62
     7
100
AcDbLine
 10
6271.6878817089
 20
5640.5280632812
 30
0.0
 11
6274.0187553361
 21
5640.6197948295
 31
0.0
  0
LINE
  5
212
330
1F
100
AcDbEntity
  8
0
  6
Continuous
 62
     7
100
AcDbLine
 10
6274.0187553361
 20
5640.6197948295
 30
0.0
 11
6276.3496289633
 21
5640.5280632812
 31
0.0
  0
LINE
  5
213
330
1F
100
AcDbEntity
  8
0
  6
Continuous
 62
     7
100
AcDbLine
 10
6276.3496289633
 20
5640.5280632812
 30
0.0
 11
6278.6231084399
 21
5640.2551336128
 31
0.0
  0
LINE
  5
214
330
1F
100
AcDbEntity
  8
0
  6
Continuous
 62
     7
100
AcDbLine
 10
6278.6231084399
 20
5640.2551336128
 30
0.0
 11
6280.7832138285
 21
5639.8077411491
 31
0.0
  0
LINE
  5
215
330
1F
100
AcDbEntity
  8
0
  6
Continuous
 62
     7
100
AcDbLine
 10
6280.7832138285
 20
5639.8077411491
 30
0.0
 11
6282.7767554343
 21
5639.1969723541
 31
0.0
  0
LINE
  5
216
330
1F
100
AcDbEntity
  8
0
  6
Continuous
 62
     7
100
AcDbLine
 10
6282.7767554343
 20
5639.1969723541
 30
0.0
 11
6284.5546465039
 21
5638.4377283889
 31
0.0
  0
LINE
  5
217
330
1F
100
AcDbEntity
  8
0
  6
Continuous
 62
     7
100
AcDbLine
 10
6284.5546465039
 20
5638.4377283889
 30
0.0
 11
6286.0731083572
 21
5637.5487847168
 31
0.0
  0
LINE
  5
218
330
1F
100
AcDbEntity
  8
0
  6
Continuous
 62
     7
100
AcDbLine
 10
6286.0731083572
 20
5637.5487847168
 30
0.0
 11
6287.294752118
 21
5636.5520162422
 31
0.0
  0
LINE
  5
219
330
1F
100
AcDbEntity
  8
0
  6
Continuous
 62
     7
100
AcDbLine
 10
6287.294752118
 20
5636.5520162422
 30
0.0
 11
6288.1894969985
 21
5635.4719204742
 31
0.0
  0
LINE
  5
21A
330
1F
100
AcDbEntity
  8
0
  6
Continuous
 62
     7
100
AcDbLine
 10
6288.1894969985
 20
5635.4719204742
 30
0.0
 11
6288.7353116319
 21
5634.3352002937
 31
0.0
  0
LINE
  5
21B
330
1F
100
AcDbEntity
  8
0
  6
Continuous
 62
     7
100
AcDbLine
 10
6288.7353116319
 20
5634.3352002937
 30
0.0
 11
6288.9187551707
 21
5633.1697506744
 31
0.0
  0
LINE
  5
21C
330
1F
100
AcDbEntity
  8
0
  6
Continuous
 62
     7
100
AcDbLine
 10
6259.1250484481
 20
5633.3862943489
 30
0.0
 11
6259.1187555015
 21
5633.6027784187
 31
0.0
  0
LINE
  5
21D
330
1F
100
AcDbEntity
  8
0
  6
Continuous
 62
     7
100
AcDbLine
 10
6259.1187555015
 20
5633.6027784187
 30
0.0
 11
6259.3021990403
 21
5634.768228038
 31
0.0
  0
LINE
  5
21E
330
1F
100
AcDbEntity
  8
0
  6
Continuous
 62
     7
100
AcDbLine
 10
6259.3021990403
 20
5634.768228038
 30
0.0
 11
6259.8480136737
 21
5635.9049482185
 31
0.0
  0
LINE
  5
21F
330
1F
100
AcDbEntity
  8
0
  6
Continuous
 62
     7
100
AcDbLine
 10
6259.8480136737
 20
5635.9049482185
 30
0.0
 11
6260.7427585542
 21
5636.9849843818
 31
0.0
  0
LINE
  5
220
330
1F
100
AcDbEntity
  8
0
  6
Continuous
 62
     7
100
AcDbLine
 10
6260.7427585542
 20
5636.9849843818
 30
0.0
 11
6261.964402315
 21
5637.9817528564
 31
0.0
  0
LINE
  5
221
330
1F
100
AcDbEntity
  8
0
  6
Continuous
 62
     7
100
AcDbLine
 10
6261.964402315
 20
5637.9817528564
 30
0.0
 11
6263.4828641683
 21
5638.8706965286
 31
0.0
  0
LINE
  5
222
330
1F
100
AcDbEntity
  8
0
  6
Continuous
 62
     7
100
AcDbLine
 10
6263.4828641683
 20
5638.8706965286
 30
0.0
 11
6265.2607552379
 21
5639.6299404937
 31
0.0
  0
LINE
  5
223
330
1F
100
AcDbEntity
  8
0
  6
Continuous
 62
     7
100
AcDbLine
 10
6265.2607552379
 20
5639.6299404937
 30
0.0
 11
6267.2542968437
 21
5640.2407688934
 31
0.0
  0
LINE
  5
224
330
1F
100
AcDbEntity
  8
0
  6
Continuous
 62
     7
100
AcDbLine
 10
6267.2542968437
 20
5640.2407688934
 30
0.0
 11
6269.4144022323
 21
5640.6881613571
 31
0.0
  0
LINE
  5
225
330
1F
100
AcDbEntity
  8
0
  6
Continuous
 62
     7
100
AcDbLine
 10
6269.4144022323
 20
5640.6881613571
 30
0.0
 11
6271.6878817089
 21
5640.9610314209
 31
0.0
  0
LINE
  5
226
330
1F
100
AcDbEntity
  8
0
  6
Continuous
 62
     7
100
AcDbLine
 10
6271.6878817089
 20
5640.9610314209
 30
0.0
 11
6274.0187553361
 21
5641.0527629692
 31
0.0
  0
LINE
  5
227
330
1F
100
AcDbEntity
  8
0
  6
Continuous
 62
     7
100
AcDbLine
 10
6274.0187553361
 20
5641.0527629692
 30
0.0
 11
6276.3496289633
 21
5640.9610314209
 31
0.0
  0
LINE
  5
228
330
1F
100
AcDbEntity
  8
0
  6
Continuous
 62
     7
100
AcDbLine
 10
6276.3496289633
 20
5640.9610314209
 30
0.0
 11
6278.6231084399
 21
5640.6881613571
 31
0.0
  0
LINE
  5
229
330
1F
100
AcDbEntity
  8
0
  6
Continuous
 62
     7
100
AcDbLine
 10
6278.6231084399
 20
5640.6881613571
 30
0.0
 11
6280.7832138285
 21
5640.2407688934
 31
0.0
  0
LINE
  5
22A
330
1F
100
AcDbEntity
  8
0
  6
Continuous
 62
     7
100
AcDbLine
 10
6280.7832138285
 20
5640.2407688934
 30
0.0
 11
6282.7767554343
 21
5639.6299404937
 31
0.0
  0
LINE
  5
22B
330
1F
100
AcDbEntity
  8
0
  6
Continuous
 62
     7
100
AcDbLine
 10
6282.7767554343
 20
5639.6299404937
 30
0.0
 11
6284.5546465039
 21
5638.8706965286
 31
0.0
  0
LINE
  5
22C
330
1F
100
AcDbEntity
  8
0
  6
Continuous
 62
     7
100
AcDbLine
 10
6284.5546465039
 20
5638.8706965286
 30
0.0
 11
6286.0731083572
 21
5637.9817528564
 31
0.0
  0
LINE
  5
22D
330
1F
100
AcDbEntity
  8
0
  6
Continuous
 62
     7
100
AcDbLine
 10
6286.0731083572
 20
5637.9817528564
 30
0.0
 11
6287.294752118
 21
5636.9849843818
 31
0.0
  0
LINE
  5
22E
330
1F
100
AcDbEntity
  8
0
  6
Continuous
 62
     7
100
AcDbLine
 10
6287.294752118
 20
5636.9849843818
 30
0.0
 11
6288.1894969985
 21
5635.9049482185
 31
0.0
  0
LINE
  5
22F
330
1F
100
AcDbEntity
  8
0
  6
Continuous
 62
     7
100
AcDbLine
 10
6288.1894969985
 20
5635.9049482185
 30
0.0
 11
6288.7353116319
 21
5634.768228038
 31
0.0
  0
LINE
  5
230
330
1F
100
AcDbEntity
  8
0
  6
Continuous
 62
     7
100
AcDbLine
 10
6288.7353116319
 20
5634.768228038
 30
0.0
 11
6288.9187551707
 21
5633.6027784187
 31
0.0
  0
LINE
  5
231
330
1F
100
AcDbEntity
  8
0
  6
Continuous
 62
     7
100
AcDbLine
 10
6288.9187551707
 20
5633.6027784187
 30
0.0
 11
6288.9124622241
 21
5633.3862943489
 31
0.0
  0
LINE
  5
232
330
1F
100
AcDbEntity
  8
0
  6
Continuous
 62
     7
100
AcDbLine
 10
6344.9072820738
 20
4693.9898336919
 30
0.0
 11
6344.1904393628
 21
4693.9898336919
 31
0.0
  0
LINE
  5
233
330
1F
100
AcDbEntity
  8
0
  6
Continuous
 62
     7
100
AcDbLine
 10
6203.8470713094
 20
4693.9898336919
 30
0.0
 11
6203.1302285984
 21
4693.9898336919
 31
0.0
  0
LINE
  5
234
330
1F
100
AcDbEntity
  8
0
  6
Continuous
 62
     7
100
AcDbLine
 10
6228.4526331266
 20
4465.2641476736
 30
0.0
 11
6228.8027135571
 21
4465.4666023001
 31
0.0
  0
LINE
  5
235
330
1F
100
AcDbEntity
  8
0
  6
Continuous
 62
     7
100
AcDbLine
 10
6209.5258748074
 20
4455.3910256967
 30
0.0
 11
6209.5258748074
 21
4454.3696256027
 31
0.0
  0
LINE
  5
236
330
1F
100
AcDbEntity
  8
0
  6
Continuous
 62
     7
100
AcDbLine
 10
6209.5258748074
 20
4457.3448659525
 30
0.0
 11
6209.5258748074
 21
4457.1004422054
 31
0.0
  0
LINE
  5
237
330
1F
100
AcDbEntity
  8
0
  6
Continuous
 62
     7
100
AcDbLine
 10
6209.5258748074
 20
4459.2987136588
 30
0.0
 11
6209.5258748074
 21
4459.0542899117
 31
0.0
  0
LINE
  5
238
330
1F
100
AcDbEntity
  8
0
  6
Continuous
 62
     7
100
AcDbLine
 10
6614.7580510686
 20
4716.7526511389
 30
0.0
 11
6614.8351496766
 21
4716.6203660804
 31
0.0
  0
LINE
  5
239
330
1F
100
AcDbEntity
  8
0
  6
Continuous
 62
     7
100
AcDbLine
 10
6209.5258748074
 20
4461.2525613651
 30
0.0
 11
6209.5258748074
 21
4461.008137618
 31
0.0
  0
LINE
  5
23A
330
1F
100
AcDbEntity
  8
0
  6
Continuous
 62
     7
100
AcDbLine
 10
6209.5258748074
 20
4463.2064090714
 30
0.0
 11
6209.5258748074
 21
4462.9619853243
 31
0.0
  0
LINE
  5
23B
330
1F
100
AcDbEntity
  8
0
  6
Continuous
 62
     7
100
AcDbLine
 10
6229.5258743604
 20
4463.9386372313
 30
0.0
 11
6229.5258743604
 21
4464.1829343185
 31
0.0
  0
LINE
  5
23C
330
1F
100
AcDbEntity
  8
0
  6
Continuous
 62
     7
100
AcDbLine
 10
6229.5258743604
 20
4461.984789525
 30
0.0
 11
6229.5258743604
 21
4462.2290940628
 31
0.0
  0
LINE
  5
23D
330
1F
100
AcDbEntity
  8
0
  6
Continuous
 62
     7
100
AcDbLine
 10
6229.5258743604
 20
4460.0309418187
 30
0.0
 11
6229.5258743604
 21
4460.2752463564
 31
0.0
  0
LINE
  5
23E
330
1F
100
AcDbEntity
  8
0
  6
Continuous
 62
     7
100
AcDbLine
 10
6229.5258743604
 20
4458.0771015629
 30
0.0
 11
6229.5258743604
 21
4458.3213986501
 31
0.0
  0
LINE
  5
23F
330
1F
100
AcDbEntity
  8
0
  6
Continuous
 62
     7
100
AcDbLine
 10
6229.5258743604
 20
4454.3696256027
 30
0.0
 11
6229.5258743604
 21
4456.3675509438
 31
0.0
  0
LINE
  5
240
330
1F
100
AcDbEntity
  8
0
  6
Continuous
 62
     7
100
AcDbLine
 10
6209.3258751472
 20
4454.3696256027
 30
0.0
 11
6209.3258751472
 21
4454.0143819198
 31
0.0
  0
LINE
  5
241
330
1F
100
AcDbEntity
  8
0
  6
Continuous
 62
     7
100
AcDbLine
 10
6229.7258702954
 20
4454.0143819198
 30
0.0
 11
6229.7258702954
 21
4454.3696256027
 31
0.0
  0
LINE
  5
242
330
1F
100
AcDbEntity
  8
0
  6
Continuous
 62
     7
100
AcDbLine
 10
6228.8628397425
 20
4465.5326591477
 30
0.0
 11
6228.0258713206
 21
4466.3696275696
 31
0.0
  0
LINE
  5
243
330
1F
100
AcDbEntity
  8
0
  6
Continuous
 62
     7
100
AcDbLine
 10
6210.2129300972
 20
4465.5566798195
 30
0.0
 11
6209.5950571736
 21
4464.9388106212
 31
0.0
  0
LINE
  5
244
330
1F
100
AcDbEntity
  8
0
  6
Continuous
 62
     7
100
AcDbLine
 10
6211.025874122
 20
4466.3696275696
 30
0.0
 11
6210.5834251185
 21
4465.9271748409
 31
0.0
  0
LINE
  5
245
330
1F
100
AcDbEntity
  8
0
  6
Continuous
 62
     7
100
AcDbLine
 10
6210.5834251185
 20
4464.3051983461
 30
0.0
 11
6210.5834251185
 21
4463.8167382822
 31
0.0
  0
LINE
  5
246
330
1F
100
AcDbEntity
  8
0
  6
Continuous
 62
     7
100
AcDbLine
 10
6210.5834251185
 20
4462.3513580904
 30
0.0
 11
6210.5834251185
 21
4461.8628905758
 31
0.0
  0
LINE
  5
247
330
1F
100
AcDbEntity
  8
0
  6
Continuous
 62
     7
100
AcDbLine
 10
6210.5834251185
 20
4460.397510384
 30
0.0
 11
6210.5834251185
 21
4459.9090503201
 31
0.0
  0
LINE
  5
248
330
1F
100
AcDbEntity
  8
0
  6
Continuous
 62
     7
100
AcDbLine
 10
6210.5834251185
 20
4458.4436626777
 30
0.0
 11
6210.5834251185
 21
4457.9552026138
 31
0.0
  0
LINE
  5
249
330
1F
100
AcDbEntity
  8
0
  6
Continuous
 62
     7
100
AcDbLine
 10
6603.5853839228
 20
4771.9165934164
 30
0.0
 11
6603.3829292963
 21
4772.2666738469
 31
0.0
  0
LINE
  5
24A
330
1F
100
AcDbEntity
  8
0
  6
Continuous
 62
     7
100
AcDbLine
 10
6613.4585058997
 20
4752.9898350972
 30
0.0
 11
6614.4799059937
 21
4752.9898350972
 31
0.0
  0
LINE
  5
24B
330
1F
100
AcDbEntity
  8
0
  6
Continuous
 62
     7
100
AcDbLine
 10
6611.5046656439
 20
4752.9898350972
 30
0.0
 11
6611.749089391
 21
4752.9898350972
 31
0.0
  0
LINE
  5
24C
330
1F
100
AcDbEntity
  8
0
  6
Continuous
 62
     7
100
AcDbLine
 10
6609.5508179376
 20
4752.9898350972
 30
0.0
 11
6609.7952416847
 21
4752.9898350972
 31
0.0
  0
LINE
  5
24D
330
1F
100
AcDbEntity
  8
0
  6
Continuous
 62
     7
100
AcDbLine
 10
6607.5969702313
 20
4752.9898350972
 30
0.0
 11
6607.8413939784
 21
4752.9898350972
 31
0.0
  0
LINE
  5
24E
330
1F
100
AcDbEntity
  8
0
  6
Continuous
 62
     7
100
AcDbLine
 10
6605.643122525
 20
4752.9898350972
 30
0.0
 11
6605.8875462721
 21
4752.9898350972
 31
0.0
  0
LINE
  5
24F
330
1F
100
AcDbEntity
  8
0
  6
Continuous
 62
     7
100
AcDbLine
 10
6604.9108943651
 20
4772.9898346502
 30
0.0
 11
6604.6665972779
 21
4772.9898346502
 31
0.0
  0
LINE
  5
250
330
1F
100
AcDbEntity
  8
0
  6
Continuous
 62
     7
100
AcDbLine
 10
6606.8647420714
 20
4772.9898346502
 30
0.0
 11
6606.6204375336
 21
4772.9898346502
 31
0.0
  0
LINE
  5
251
330
1F
100
AcDbEntity
  8
0
  6
Continuous
 62
     7
100
AcDbLine
 10
6608.8185897777
 20
4772.9898346502
 30
0.0
 11
6608.57428524
 21
4772.9898346502
 31
0.0
  0
LINE
  5
252
330
1F
100
AcDbEntity
  8
0
  6
Continuous
 62
     7
100
AcDbLine
 10
6610.7724300335
 20
4772.9898346502
 30
0.0
 11
6610.5281329463
 21
4772.9898346502
 31
0.0
  0
LINE
  5
253
330
1F
100
AcDbEntity
  8
0
  6
Continuous
 62
     7
100
AcDbLine
 10
6614.4799059937
 20
4772.9898346502
 30
0.0
 11
6612.4819806526
 21
4772.9898346502
 31
0.0
  0
LINE
  5
254
330
1F
100
AcDbEntity
  8
0
  6
Continuous
 62
     7
100
AcDbLine
 10
6614.4799059937
 20
4752.789835437
 30
0.0
 11
6614.8351496766
 21
4752.789835437
 31
0.0
  0
LINE
  5
255
330
1F
100
AcDbEntity
  8
0
  6
Continuous
 62
     7
100
AcDbLine
 10
6614.8351496766
 20
4773.1898305852
 30
0.0
 11
6614.4799059937
 21
4773.1898305852
 31
0.0
  0
LINE
  5
256
330
1F
100
AcDbEntity
  8
0
  6
Continuous
 62
     7
100
AcDbLine
 10
6603.3168724487
 20
4772.3268000323
 30
0.0
 11
6602.4799040268
 21
4771.4898316104
 31
0.0
  0
LINE
  5
257
330
1F
100
AcDbEntity
  8
0
  6
Continuous
 62
     7
100
AcDbLine
 10
6603.2928517769
 20
4753.676890387
 30
0.0
 11
6603.9107209752
 21
4753.0590174634
 31
0.0
  0
LINE
  5
258
330
1F
100
AcDbEntity
  8
0
  6
Continuous
 62
     7
100
AcDbLine
 10
6602.4799040268
 20
4754.4898344118
 30
0.0
 11
6602.9223567555
 21
4754.0473854083
 31
0.0
  0
LINE
  5
259
330
1F
100
AcDbEntity
  8
0
  6
Continuous
 62
     7
100
AcDbLine
 10
6604.5443332503
 20
4754.0473854083
 30
0.0
 11
6605.0327933142
 21
4754.0473854083
 31
0.0
  0
LINE
  5
25A
330
1F
100
AcDbEntity
  8
0
  6
Continuous
 62
     7
100
AcDbLine
 10
6606.498173506
 20
4754.0473854083
 30
0.0
 11
6606.9866410206
 21
4754.0473854083
 31
0.0
  0
LINE
  5
25B
330
1F
100
AcDbEntity
  8
0
  6
Continuous
 62
     7
100
AcDbLine
 10
6608.4520212124
 20
4754.0473854083
 30
0.0
 11
6608.9404812763
 21
4754.0473854083
 31
0.0
  0
LINE
  5
25C
330
1F
100
AcDbEntity
  8
0
  6
Continuous
 62
     7
100
AcDbLine
 10
6610.4058689187
 20
4754.0473854083
 30
0.0
 11
6610.8943289826
 21
4754.0473854083
 31
0.0
  0
LINE
  5
25D
330
1F
100
AcDbEntity
  8
0
  6
Continuous
 62
     7
100
AcDbLine
 10
6612.359716625
 20
4754.0473854083
 30
0.0
 11
6612.8481766889
 21
4754.0473854083
 31
0.0
  0
LINE
  5
25E
330
1F
100
AcDbEntity
  8
0
  6
Continuous
 62
     7
100
AcDbLine
 10
6606.498173506
 20
4754.0473854083
 30
0.0
 11
6606.9866410206
 21
4754.0473854083
 31
0.0
  0
LINE
  5
25F
330
1F
100
AcDbEntity
  8
0
  6
Continuous
 62
     7
100
AcDbLine
 10
6608.4520212124
 20
4754.0473854083
 30
0.0
 11
6608.9404812763
 21
4754.0473854083
 31
0.0
  0
LINE
  5
260
330
1F
100
AcDbEntity
  8
0
  6
Continuous
 62
     7
100
AcDbLine
 10
6610.4058689187
 20
4754.0473854083
 30
0.0
 11
6610.8943289826
 21
4754.0473854083
 31
0.0
  0
LINE
  5
261
330
1F
100
AcDbEntity
  8
0
  6
Continuous
 62
     7
100
AcDbLine
 10
6612.359716625
 20
4754.0473854083
 30
0.0
 11
6612.8481766889
 21
4754.0473854083
 31
0.0
  0
LINE
  5
262
330
1F
100
AcDbEntity
  8
0
  6
Continuous
 62
     7
100
AcDbLine
 10
6606.0097134421
 20
4771.9322843391
 30
0.0
 11
6605.530156822
 21
4771.9322843391
 31
0.0
  0
LINE
  5
263
330
1F
100
AcDbEntity
  8
0
  6
Continuous
 62
     7
100
AcDbLine
 10
6607.9635611484
 20
4771.9322843391
 30
0.0
 11
6607.4839970777
 21
4771.9322843391
 31
0.0
  0
LINE
  5
264
330
1F
100
AcDbEntity
  8
0
  6
Continuous
 62
     7
100
AcDbLine
 10
6609.9174088547
 20
4771.9322843391
 30
0.0
 11
6609.437844784
 21
4771.9322843391
 31
0.0
  0
LINE
  5
265
330
1F
100
AcDbEntity
  8
0
  6
Continuous
 62
     7
100
AcDbLine
 10
6611.8712565611
 20
4771.9322843391
 30
0.0
 11
6611.3916924904
 21
4771.9322843391
 31
0.0
  0
LINE
  5
266
330
1F
100
AcDbEntity
  8
0
  6
Continuous
 62
     7
100
AcDbLine
 10
6604.0558657358
 20
4771.9322843391
 30
0.0
 11
6603.5763091157
 21
4771.9322843391
 31
0.0
  0
LINE
  5
267
330
1F
100
AcDbEntity
  8
0
  6
Continuous
 62
     7
100
AcDbLine
 10
6604.5443332503
 20
4754.0473854083
 30
0.0
 11
6605.0327933142
 21
4754.0473854083
 31
0.0
  0
LINE
  5
268
330
1F
100
AcDbEntity
  8
0
  6
Continuous
 62
     7
100
AcDbLine
 10
6717.8351516584
 20
5634.2912120658
 30
0.0
 11
6723.2326325709
 21
5634.2912120658
 31
0.0
  0
LINE
  5
269
330
1F
100
AcDbEntity
  8
0
  6
Continuous
 62
     7
100
AcDbLine
 10
6740.4376706789
 20
5664.0912098724
 30
0.0
 11
6717.8351516584
 21
5664.0912098724
 31
0.0
  0
LINE
  5
26A
330
1F
100
AcDbEntity
  8
0
  6
Continuous
 62
     7
100
AcDbLine
 10
6723.2326325709
 20
5634.2912120658
 30
0.0
 11
6727.9313738207
 21
5626.1527938682
 31
0.0
  0
LINE
  5
26B
330
1F
100
AcDbEntity
  8
0
  6
Continuous
 62
     7
100
AcDbLine
 10
6753.7389314482
 20
5641.0527629692
 30
0.0
 11
6740.4376706789
 21
5664.0912098724
 31
0.0
  0
LINE
  5
26C
330
1F
100
AcDbEntity
  8
0
  6
Continuous
 62
     7
100
AcDbLine
 10
6728.1813724647
 20
5625.7197661239
 30
0.0
 11
6743.9313745806
 21
5598.4399719078
 31
0.0
  0
LINE
  5
26D
330
1F
100
AcDbEntity
  8
0
  6
Continuous
 62
     7
100
AcDbLine
 10
6769.7389303456
 20
5613.3399410087
 30
0.0
 11
6753.9889319549
 21
5640.6197948295
 31
0.0
  0
LINE
  5
26E
330
1F
100
AcDbEntity
  8
0
  6
Continuous
 62
     7
100
AcDbLine
 10
6709.8351519769
 20
5634.2912120658
 30
0.0
 11
6715.8351522619
 21
5634.2912120658
 31
0.0
  0
LINE
  5
26F
330
1F
100
AcDbEntity
  8
0
  6
Continuous
 62
     7
100
AcDbLine
 10
6715.8351522619
 20
5664.0912098724
 30
0.0
 11
6709.8351519769
 21
5664.0912098724
 31
0.0
  0
LINE
  5
270
330
1F
100
AcDbEntity
  8
0
  6
Continuous
 62
     7
100
AcDbLine
 10
6729.6634233306
 20
5627.1527809936
 30
0.0
 11
6729.9134238372
 21
5626.7197532493
 31
0.0
  0
LINE
  5
271
330
1F
100
AcDbEntity
  8
0
  6
Continuous
 62
     7
100
AcDbLine
 10
6752.2568805824
 20
5639.6197480995
 30
0.0
 11
6752.0068800757
 21
5640.0527758438
 31
0.0
  0
LINE
  5
272
330
1F
100
AcDbEntity
  8
0
  6
Continuous
 62
     7
100
AcDbLine
 10
6707.835151882
 20
5638.7638254005
 30
0.0
 11
6707.8467442578
 21
5638.7839121658
 31
0.0
  0
LINE
  5
273
330
1F
100
AcDbEntity
  8
0
  6
Continuous
 62
     7
100
AcDbLine
 10
6717.8351516584
 20
5658.6912078697
 30
0.0
 11
6715.8351522619
 21
5658.6912078697
 31
0.0
  0
LINE
  5
274
330
1F
100
AcDbEntity
  8
0
  6
Continuous
 62
     7
100
AcDbLine
 10
6715.8351522619
 20
5639.6912140686
 30
0.0
 11
6717.8351516584
 21
5639.6912140686
 31
0.0
  0
LINE
  5
275
330
1F
100
AcDbEntity
  8
0
  6
Continuous
 62
     7
100
AcDbLine
 10
6708.3351519057
 20
5621.6912073928
 30
0.0
 11
6709.335151895
 21
5621.6912073928
 31
0.0
  0
LINE
  5
276
330
1F
100
AcDbEntity
  8
0
  6
Continuous
 62
     7
100
AcDbLine
 10
6709.335151895
 20
5676.6912145454
 30
0.0
 11
6708.3351519057
 21
5676.6912145454
 31
0.0
  0
LINE
  5
277
330
1F
100
AcDbEntity
  8
0
  6
Continuous
 62
     7
100
AcDbLine
 10
6210.5834251185
 20
4456.4898149714
 30
0.0
 11
6210.5834251185
 21
4456.0013549075
 31
0.0
  0
LINE
  5
278
330
1F
100
AcDbEntity
  8
0
  6
Continuous
 62
     7
100
AcDbLine
 10
6210.5834251185
 20
4462.3513580904
 30
0.0
 11
6210.5834251185
 21
4461.8628905758
 31
0.0
  0
LINE
  5
279
330
1F
100
AcDbEntity
  8
0
  6
Continuous
 62
     7
100
AcDbLine
 10
6210.5834251185
 20
4460.397510384
 30
0.0
 11
6210.5834251185
 21
4459.9090503201
 31
0.0
  0
LINE
  5
27A
330
1F
100
AcDbEntity
  8
0
  6
Continuous
 62
     7
100
AcDbLine
 10
6210.5834251185
 20
4458.4436626777
 30
0.0
 11
6210.5834251185
 21
4457.9552026138
 31
0.0
  0
LINE
  5
27B
330
1F
100
AcDbEntity
  8
0
  6
Continuous
 62
     7
100
AcDbLine
 10
6210.5834251185
 20
4456.4898149714
 30
0.0
 11
6210.5834251185
 21
4456.0013549075
 31
0.0
  0
LINE
  5
27C
330
1F
100
AcDbEntity
  8
0
  6
Continuous
 62
     7
100
AcDbLine
 10
6228.4683240493
 20
4462.8398181543
 30
0.0
 11
6228.4683240493
 21
4463.3193747744
 31
0.0
  0
LINE
  5
27D
330
1F
100
AcDbEntity
  8
0
  6
Continuous
 62
     7
100
AcDbLine
 10
6228.4683240493
 20
4460.885970448
 30
0.0
 11
6228.4683240493
 21
4461.3655345187
 31
0.0
  0
LINE
  5
27E
330
1F
100
AcDbEntity
  8
0
  6
Continuous
 62
     7
100
AcDbLine
 10
6228.4683240493
 20
4458.9321227417
 30
0.0
 11
6228.4683240493
 21
4459.4116868124
 31
0.0
  0
LINE
  5
27F
330
1F
100
AcDbEntity
  8
0
  6
Continuous
 62
     7
100
AcDbLine
 10
6228.4683240493
 20
4456.9782750353
 30
0.0
 11
6228.4683240493
 21
4457.457839106
 31
0.0
  0
LINE
  5
280
330
1F
100
AcDbEntity
  8
0
  6
Continuous
 62
     7
100
AcDbLine
 10
6228.4683240493
 20
4464.7936658606
 30
0.0
 11
6228.4683240493
 21
4465.2732224807
 31
0.0
  0
LINE
  5
281
330
1F
100
AcDbEntity
  8
0
  6
Continuous
 62
     7
100
AcDbLine
 10
6210.5834251185
 20
4464.3051983461
 30
0.0
 11
6210.5834251185
 21
4463.8167382822
 31
0.0
  0
LINE
  5
282
330
1F
100
AcDbEntity
  8
0
  6
Continuous
 62
     7
100
AcDbLine
 10
6219.5258764466
 20
4454.3696256027
 30
0.0
 11
6229.7258702954
 21
4454.3696256027
 31
0.0
  0
LINE
  5
283
330
1F
100
AcDbEntity
  8
0
  6
Continuous
 62
     7
100
AcDbLine
 10
6209.3258751472
 20
4454.3696256027
 30
0.0
 11
6219.5258764466
 21
4454.3696256027
 31
0.0
  0
LINE
  5
284
330
1F
100
AcDbEntity
  8
0
  6
Continuous
 62
     7
100
AcDbLine
 10
6210.2129300972
 20
4465.5566798195
 30
0.0
 11
6210.5834251185
 21
4465.9271748409
 31
0.0
  0
LINE
  5
285
330
1F
100
AcDbEntity
  8
0
  6
Continuous
 62
     7
100
AcDbLine
 10
6211.025874122
 20
4466.3696275696
 30
0.0
 11
6228.0258713206
 21
4466.3696275696
 31
0.0
  0
LINE
  5
286
330
1F
100
AcDbEntity
  8
0
  6
Continuous
 62
     7
100
AcDbLine
 10
6616.6643417189
 20
5738.0755944091
 30
0.0
 11
6616.3351527164
 21
5738.0755944091
 31
0.0
  0
LINE
  5
287
330
1F
100
AcDbEntity
  8
0
  6
Continuous
 62
     7
100
AcDbLine
 10
6618.335149319
 20
5736.797193988
 30
0.0
 11
6618.335149319
 21
5737.3716635543
 31
0.0
  0
LINE
  5
288
330
1F
100
AcDbEntity
  8
0
  6
Continuous
 62
     7
100
AcDbLine
 10
6616.3351527164
 20
5737.4003929931
 30
0.0
 11
6616.3351527164
 21
5738.0755944091
 31
0.0
  0
LINE
  5
289
330
1F
100
AcDbEntity
  8
0
  6
Continuous
 62
     7
100
AcDbLine
 10
6614.4799059937
 20
4762.9898367364
 30
0.0
 11
6614.4799059937
 21
4773.1898305852
 31
0.0
  0
LINE
  5
28A
330
1F
100
AcDbEntity
  8
0
  6
Continuous
 62
     7
100
AcDbLine
 10
6614.4799059937
 20
4752.789835437
 30
0.0
 11
6614.4799059937
 21
4762.9898367364
 31
0.0
  0
LINE
  5
28B
330
1F
100
AcDbEntity
  8
0
  6
Continuous
 62
     7
100
AcDbLine
 10
6603.2928517769
 20
4753.676890387
 30
0.0
 11
6602.9223567555
 21
4754.0473854083
 31
0.0
  0
LINE
  5
28C
330
1F
100
AcDbEntity
  8
0
  6
Continuous
 62
     7
100
AcDbLine
 10
6602.4799040268
 20
4754.4898344118
 30
0.0
 11
6602.4799040268
 21
4771.4898316104
 31
0.0
  0
LINE
  5
28D
330
1F
100
AcDbEntity
  8
0
  6
Continuous
 62
     7
100
AcDbLine
 10
6617.0603251765
 20
4694.5898337204
 30
0.0
 11
6617.0603251765
 21
5737.3384041626
 31
0.0
  0
LINE
  5
28E
330
1F
100
AcDbEntity
  8
0
  6
Continuous
 62
     7
100
AcDbLine
 10
6614.8351496766
 20
4694.5898337204
 30
0.0
 11
6614.8351496766
 21
5736.6019291717
 31
0.0
  0
LINE
  5
28F
330
1F
100
AcDbEntity
  8
0
  6
Continuous
 62
     7
100
AcDbLine
 10
6617.0603251765
 20
4694.5898337204
 30
0.0
 11
6614.8351496766
 21
4694.5898337204
 31
0.0
  0
LINE
  5
290
330
1F
100
AcDbEntity
  8
0
  6
Continuous
 62
     7
100
AcDbLine
 10
6706.8603217001
 20
4694.5898337204
 30
0.0
 11
6706.8603217001
 21
5699.220518573
 31
0.0
  0
LINE
  5
291
330
1F
100
AcDbEntity
  8
0
  6
Continuous
 62
     7
100
AcDbLine
 10
6617.0603251765
 20
4694.5898337204
 30
0.0
 11
6706.8603217001
 21
4694.5898337204
 31
0.0
  0
LINE
  5
292
330
1F
100
AcDbEntity
  8
0
  6
Continuous
 62
     7
100
AcDbLine
 10
6706.8603217001
 20
5699.220518573
 30
0.0
 11
6617.0603251765
 21
5737.3384041626
 31
0.0
  0
LINE
  5
293
330
1F
100
AcDbEntity
  8
0
  6
Continuous
 62
     7
100
AcDbLine
 10
6616.7477360676
 20
4693.7898337406
 30
0.0
 11
6616.7477360676
 21
4692.9898337608
 31
0.0
  0
LINE
  5
294
330
1F
100
AcDbEntity
  8
0
  6
Continuous
 62
     7
100
AcDbLine
 10
6616.7477360676
 20
4692.9898337608
 30
0.0
 11
6705.747736686
 21
4692.9898337608
 31
0.0
  0
LINE
  5
295
330
1F
100
AcDbEntity
  8
0
  6
Continuous
 62
     7
100
AcDbLine
 10
6614.8351496766
 20
5737.3090786773
 30
0.0
 11
6615.6351483176
 21
5737.3090786773
 31
0.0
  0
LINE
  5
296
330
1F
100
AcDbEntity
  8
0
  6
Continuous
 62
     7
100
AcDbLine
 10
6617.0603251765
 20
5738.7819094497
 30
0.0
 11
6616.7477360676
 21
5738.0454344589
 31
0.0
  0
LINE
  5
297
330
1F
100
AcDbEntity
  8
0
  6
Continuous
 62
     7
100
AcDbLine
 10
6617.0603251765
 20
5738.7819094497
 30
0.0
 11
6706.8603217001
 21
5700.6640238601
 31
0.0
  0
LINE
  5
298
330
1F
100
AcDbEntity
  8
0
  6
Continuous
 62
     7
100
AcDbLine
 10
6706.8603217001
 20
5700.6640238601
 30
0.0
 11
6706.5477368404
 21
5699.9276680786
 31
0.0
  0
LINE
  5
299
330
1F
100
AcDbEntity
  8
0
  6
Continuous
 62
     7
100
AcDbLine
 10
6616.7477360676
 20
5738.0454344589
 30
0.0
 11
6706.5477368404
 21
5699.9276680786
 31
0.0
  0
LINE
  5
29A
330
1F
100
AcDbEntity
  8
0
  6
Continuous
 62
     7
100
AcDbLine
 10
6615.6351483176
 20
5737.3090786773
 30
0.0
 11
6615.6351483176
 21
5737.2947735626
 31
0.0
  0
LINE
  5
29B
330
1F
100
AcDbEntity
  8
0
  6
Continuous
 62
     7
100
AcDbLine
 10
6614.8351496766
 20
5737.3090786773
 30
0.0
 11
6614.8351496766
 21
5736.6019291717
 31
0.0
  0
LINE
  5
29C
330
1F
100
AcDbEntity
  8
0
  6
Continuous
 62
     7
100
AcDbLine
 10
6707.8351518819
 20
4694.5898337204
 30
0.0
 11
6707.835151882
 21
5699.1911930877
 31
0.0
  0
LINE
  5
29D
330
1F
100
AcDbEntity
  8
0
  6
Continuous
 62
     7
100
AcDbLine
 10
6706.8603217001
 20
4694.5898337204
 30
0.0
 11
6707.8351518819
 21
4694.5898337204
 31
0.0
  0
LINE
  5
29E
330
1F
100
AcDbEntity
  8
0
  6
Continuous
 62
     7
100
AcDbLine
 10
6706.2351519224
 20
4693.2465685445
 30
0.0
 11
6706.2351519224
 21
4692.9898337608
 31
0.0
  0
LINE
  5
29F
330
1F
100
AcDbEntity
  8
0
  6
Continuous
 62
     7
100
AcDbLine
 10
6705.747736686
 20
4692.9898337608
 30
0.0
 11
6706.2351519224
 21
4692.9898337608
 31
0.0
  0
LINE
  5
2A0
330
1F
100
AcDbEntity
  8
0
  6
Continuous
 62
     7
100
AcDbLine
 10
6691.835151122
 20
4688.4898338381
 30
0.0
 11
6697.8351521055
 21
4688.4898338381
 31
0.0
  0
LINE
  5
2A1
330
1F
100
AcDbEntity
  8
0
  6
Continuous
 62
     7
100
AcDbLine
 10
6626.8351516435
 20
4688.4898338381
 30
0.0
 11
6632.8351489017
 21
4688.4898338381
 31
0.0
  0
LINE
  5
2A2
330
1F
100
AcDbEntity
  8
0
  6
Continuous
 62
     7
100
AcDbLine
 10
6617.8351483057
 20
4692.9898337608
 30
0.0
 11
6617.8351483057
 21
4690.9898337822
 31
0.0
  0
LINE
  5
2A3
330
1F
100
AcDbEntity
  8
0
  6
Continuous
 62
     7
100
AcDbLine
 10
6616.8351537297
 20
4693.9898336919
 30
0.0
 11
6614.8351496766
 21
4693.9898336919
 31
0.0
  0
LINE
  5
2A4
330
1F
100
AcDbEntity
  8
0
  6
Continuous
 62
     7
100
AcDbLine
 10
6628.4109866927
 20
4690.9898337822
 30
0.0
 11
6628.4109866927
 21
4692.9898337608
 31
0.0
  0
LINE
  5
2A5
330
1F
100
AcDbEntity
  8
0
  6
Continuous
 62
     7
100
AcDbLine
 10
6617.8351483057
 20
4690.9898337822
 30
0.0
 11
6628.4109866927
 21
4690.9898337822
 31
0.0
  0
LINE
  5
2A6
330
1F
100
AcDbEntity
  8
0
  6
Continuous
 62
     7
100
AcDbLine
 10
6614.8351496766
 20
4693.9898336919
 30
0.0
 11
6614.8351496766
 21
4694.5898337204
 31
0.0
  0
LINE
  5
2A7
330
1F
100
AcDbEntity
  8
0
  6
Continuous
 62
     7
100
AcDbLine
 10
6631.1461022804
 20
4692.9898337608
 30
0.0
 11
6631.1461022804
 21
4690.9898337822
 31
0.0
  0
LINE
  5
2A8
330
1F
100
AcDbEntity
  8
0
  6
Continuous
 62
     7
100
AcDbLine
 10
6631.1461022804
 20
4690.9898337822
 30
0.0
 11
6628.4109866927
 21
4690.9898337822
 31
0.0
  0
LINE
  5
2A9
330
1F
100
AcDbEntity
  8
0
  6
Continuous
 62
     7
100
AcDbLine
 10
6698.5702701593
 20
4690.9898337822
 30
0.0
 11
6698.5702701593
 21
4692.9898337608
 31
0.0
  0
LINE
  5
2AA
330
1F
100
AcDbEntity
  8
0
  6
Continuous
 62
     7
100
AcDbLine
 10
6631.1461022804
 20
4690.9898337822
 30
0.0
 11
6698.5702701593
 21
4690.9898337822
 31
0.0
  0
LINE
  5
2AB
330
1F
100
AcDbEntity
  8
0
  6
Continuous
 62
     7
100
AcDbLine
 10
6702.8351519937
 20
4692.9898337608
 30
0.0
 11
6702.8351519937
 21
4690.9898337822
 31
0.0
  0
LINE
  5
2AC
330
1F
100
AcDbEntity
  8
0
  6
Continuous
 62
     7
100
AcDbLine
 10
6702.8351519937
 20
4690.9898337822
 30
0.0
 11
6698.5702701593
 21
4690.9898337822
 31
0.0
  0
LINE
  5
2AD
330
1F
100
AcDbEntity
  8
0
  6
Continuous
 62
     7
100
AcDbLine
 10
6707.9351518794
 20
4722.9898339051
 30
0.0
 11
6707.835151882
 21
4722.9898339051
 31
0.0
  0
LINE
  5
2AE
330
1F
100
AcDbEntity
  8
0
  6
Continuous
 62
     7
100
AcDbLine
 10
6707.9351518794
 20
4722.9898339051
 30
0.0
 11
6707.9351518794
 21
4702.9898334208
 31
0.0
  0
LINE
  5
2AF
330
1F
100
AcDbEntity
  8
0
  6
Continuous
 62
     7
100
AcDbLine
 10
6707.9351518794
 20
4702.9898334208
 30
0.0
 11
6707.835151882
 21
4702.9898334208
 31
0.0
  0
LINE
  5
2B0
330
1F
100
AcDbEntity
  8
0
  6
Continuous
 62
     7
100
AcDbLine
 10
6707.9851518891
 20
4718.0120078761
 30
0.0
 11
6707.9351518794
 21
4718.0120078761
 31
0.0
  0
LINE
  5
2B1
330
1F
100
AcDbEntity
  8
0
  6
Continuous
 62
     7
100
AcDbLine
 10
6707.9851518891
 20
4708.0120080996
 30
0.0
 11
6707.9351518794
 21
4708.0120080996
 31
0.0
  0
LINE
  5
2B2
330
1F
100
AcDbEntity
  8
0
  6
Continuous
 62
     7
100
AcDbLine
 10
6707.9851518891
 20
4708.0120080996
 30
0.0
 11
6707.9851518891
 21
4718.0120078761
 31
0.0
  0
LINE
  5
2B3
330
1F
100
AcDbEntity
  8
0
  6
Continuous
 62
     7
100
AcDbLine
 10
6707.9851518891
 20
4707.8838031653
 30
0.0
 11
6707.9351518794
 21
4707.8838031653
 31
0.0
  0
LINE
  5
2B4
330
1F
100
AcDbEntity
  8
0
  6
Continuous
 62
     7
100
AcDbLine
 10
6707.9851518891
 20
4705.1914948884
 30
0.0
 11
6707.9351518794
 21
4705.1914948884
 31
0.0
  0
LINE
  5
2B5
330
1F
100
AcDbEntity
  8
0
  6
Continuous
 62
     7
100
AcDbLine
 10
6707.9851518891
 20
4707.4991874311
 30
0.0
 11
6707.9351518794
 21
4707.4991874311
 31
0.0
  0
LINE
  5
2B6
330
1F
100
AcDbEntity
  8
0
  6
Continuous
 62
     7
100
AcDbLine
 10
6628.1454554508
 20
5734.1851992446
 30
0.0
 11
6628.1063771556
 21
5734.0930504638
 31
0.0
  0
LINE
  5
2B7
330
1F
100
AcDbEntity
  8
0
  6
Continuous
 62
     7
100
AcDbLine
 10
6621.7019176791
 20
5736.9203371841
 30
0.0
 11
6621.6628468344
 21
5736.8281884033
 31
0.0
  0
LINE
  5
2B8
330
1F
100
AcDbEntity
  8
0
  6
Continuous
 62
     7
100
AcDbLine
 10
6621.7019176791
 20
5736.9203371841
 30
0.0
 11
6628.1454554508
 21
5734.1851992446
 31
0.0
  0
LINE
  5
2B9
330
1F
100
AcDbEntity
  8
0
  6
Continuous
 62
     7
100
AcDbLine
 10
6717.8351516584
 20
5649.1912407714
 30
0.0
 11
6717.8351516584
 21
5664.0912098724
 31
0.0
  0
LINE
  5
2BA
330
1F
100
AcDbEntity
  8
0
  6
Continuous
 62
     7
100
AcDbLine
 10
6717.8351516584
 20
5634.2912120658
 30
0.0
 11
6717.8351516584
 21
5649.1912407714
 31
0.0
  0
LINE
  5
2BB
330
1F
100
AcDbEntity
  8
0
  6
Continuous
 62
     7
100
AcDbLine
 10
6740.4376706789
 20
5664.0912098724
 30
0.0
 11
6740.3501114557
 21
5663.9395756561
 31
0.0
  0
LINE
  5
2BC
330
1F
100
AcDbEntity
  8
0
  6
Continuous
 62
     7
100
AcDbLine
 10
6740.3501114557
 20
5663.9395756561
 30
0.0
 11
6740.0892070244
 21
5663.4876532394
 31
0.0
  0
LINE
  5
2BD
330
1F
100
AcDbEntity
  8
0
  6
Continuous
 62
     7
100
AcDbLine
 10
6740.0892070244
 20
5663.4876532394
 30
0.0
 11
6739.6602770994
 21
5662.7447409469
 31
0.0
  0
LINE
  5
2BE
330
1F
100
AcDbEntity
  8
0
  6
Continuous
 62
     7
100
AcDbLine
 10
6739.6602770994
 20
5662.7447409469
 30
0.0
 11
6739.0720518986
 21
5661.7259187538
 31
0.0
  0
LINE
  5
2BF
330
1F
100
AcDbEntity
  8
0
  6
Continuous
 62
     7
100
AcDbLine
 10
6739.0720518986
 20
5661.7259187538
 30
0.0
 11
6738.3365026424
 21
5660.4519290763
 31
0.0
  0
LINE
  5
2C0
330
1F
100
AcDbEntity
  8
0
  6
Continuous
 62
     7
100
AcDbLine
 10
6738.3365026424
 20
5660.4519290763
 30
0.0
 11
6737.4686031351
 21
5658.9486403305
 31
0.0
  0
LINE
  5
2C1
330
1F
100
AcDbEntity
  8
0
  6
Continuous
 62
     7
100
AcDbLine
 10
6737.4686031351
 20
5658.9486403305
 30
0.0
 11
6736.4860242913
 21
5657.2468085128
 31
0.0
  0
LINE
  5
2C2
330
1F
100
AcDbEntity
  8
0
  6
Continuous
 62
     7
100
AcDbLine
 10
6736.4860242913
 20
5657.2468085128
 30
0.0
 11
6735.4087671945
 21
5655.3809447128
 31
0.0
  0
LINE
  5
2C3
330
1F
100
AcDbEntity
  8
0
  6
Continuous
 62
     7
100
AcDbLine
 10
6735.4087671945
 20
5655.3809447128
 30
0.0
 11
6734.2587607662
 21
5653.3890766937
 31
0.0
  0
LINE
  5
2C4
330
1F
100
AcDbEntity
  8
0
  6
Continuous
 62
     7
100
AcDbLine
 10
6734.2587607662
 20
5653.3890766937
 30
0.0
 11
6733.0594184557
 21
5651.311735614
 31
0.0
  0
LINE
  5
2C5
330
1F
100
AcDbEntity
  8
0
  6
Continuous
 62
     7
100
AcDbLine
 10
6733.0594184557
 20
5651.311735614
 30
0.0
 11
6731.8351520906
 21
5649.1912407714
 31
0.0
  0
LINE
  5
2C6
330
1F
100
AcDbEntity
  8
0
  6
Continuous
 62
     7
100
AcDbLine
 10
6731.8351520906
 20
5649.1912407714
 30
0.0
 11
6730.6108857254
 21
5647.0707459289
 31
0.0
  0
LINE
  5
2C7
330
1F
100
AcDbEntity
  8
0
  6
Continuous
 62
     7
100
AcDbLine
 10
6730.6108857254
 20
5647.0707459289
 30
0.0
 11
6729.4115415523
 21
5644.9934048492
 31
0.0
  0
LINE
  5
2C8
330
1F
100
AcDbEntity
  8
0
  6
Continuous
 62
     7
100
AcDbLine
 10
6729.4115415523
 20
5644.9934048492
 30
0.0
 11
6728.2615369866
 21
5643.0015368301
 31
0.0
  0
LINE
  5
2C9
330
1F
100
AcDbEntity
  8
0
  6
Continuous
 62
     7
100
AcDbLine
 10
6728.2615369866
 20
5643.0015368301
 30
0.0
 11
6727.1842798898
 21
5641.13567303
 31
0.0
  0
LINE
  5
2CA
330
1F
100
AcDbEntity
  8
0
  6
Continuous
 62
     7
100
AcDbLine
 10
6727.1842798898
 20
5641.13567303
 30
0.0
 11
6726.2016991834
 21
5639.4338412124
 31
0.0
  0
LINE
  5
2CB
330
1F
100
AcDbEntity
  8
0
  6
Continuous
 62
     7
100
AcDbLine
 10
6726.2016991834
 20
5639.4338412124
 30
0.0
 11
6725.3338015387
 21
5637.9305524665
 31
0.0
  0
LINE
  5
2CC
330
1F
100
AcDbEntity
  8
0
  6
Continuous
 62
     7
100
AcDbLine
 10
6725.3338015387
 20
5637.9305524665
 30
0.0
 11
6724.5982522825
 21
5636.6565627891
 31
0.0
  0
LINE
  5
2CD
330
1F
100
AcDbEntity
  8
0
  6
Continuous
 62
     7
100
AcDbLine
 10
6724.5982522825
 20
5636.6565627891
 30
0.0
 11
6724.0100252191
 21
5635.637740596
 31
0.0
  0
LINE
  5
2CE
330
1F
100
AcDbEntity
  8
0
  6
Continuous
 62
     7
100
AcDbLine
 10
6724.0100252191
 20
5635.637740596
 30
0.0
 11
6723.5810952941
 21
5634.8947686988
 31
0.0
  0
LINE
  5
2CF
330
1F
100
AcDbEntity
  8
0
  6
Continuous
 62
     7
100
AcDbLine
 10
6723.5810952941
 20
5634.8947686988
 30
0.0
 11
6723.3201936568
 21
5634.4429058868
 31
0.0
  0
LINE
  5
2D0
330
1F
100
AcDbEntity
  8
0
  6
Continuous
 62
     7
100
AcDbLine
 10
6723.3201936568
 20
5634.4429058868
 30
0.0
 11
6723.2326325709
 21
5634.2912120658
 31
0.0
  0
LINE
  5
2D1
330
1F
100
AcDbEntity
  8
0
  6
Continuous
 62
     7
100
AcDbLine
 10
6740.8351517031
 20
5633.6027784187
 30
0.0
 11
6742.8537486801
 21
5634.768228038
 31
0.0
  0
LINE
  5
2D2
330
1F
100
AcDbEntity
  8
0
  6
Continuous
 62
     7
100
AcDbLine
 10
6742.8537486801
 20
5634.768228038
 30
0.0
 11
6744.8226391087
 21
5635.9049482185
 31
0.0
  0
LINE
  5
2D3
330
1F
100
AcDbEntity
  8
0
  6
Continuous
 62
     7
100
AcDbLine
 10
6744.8226391087
 20
5635.9049482185
 30
0.0
 11
6746.6933457861
 21
5636.9849843818
 31
0.0
  0
LINE
  5
2D4
330
1F
100
AcDbEntity
  8
0
  6
Continuous
 62
     7
100
AcDbLine
 10
6746.6933457861
 20
5636.9849843818
 30
0.0
 11
6748.4198017726
 21
5637.9817528564
 31
0.0
  0
LINE
  5
2D5
330
1F
100
AcDbEntity
  8
0
  6
Continuous
 62
     7
100
AcDbLine
 10
6748.4198017726
 20
5637.9817528564
 30
0.0
 11
6749.9595015059
 21
5638.8706965286
 31
0.0
  0
LINE
  5
2D6
330
1F
100
AcDbEntity
  8
0
  6
Continuous
 62
     7
100
AcDbLine
 10
6749.9595015059
 20
5638.8706965286
 30
0.0
 11
6751.2745289812
 21
5639.6299404937
 31
0.0
  0
LINE
  5
2D7
330
1F
100
AcDbEntity
  8
0
  6
Continuous
 62
     7
100
AcDbLine
 10
6751.2745289812
 20
5639.6299404937
 30
0.0
 11
6752.3325039754
 21
5640.2407688934
 31
0.0
  0
LINE
  5
2D8
330
1F
100
AcDbEntity
  8
0
  6
Continuous
 62
     7
100
AcDbLine
 10
6752.3325039754
 20
5640.2407688934
 30
0.0
 11
6753.1073755334
 21
5640.6881613571
 31
0.0
  0
LINE
  5
2D9
330
1F
100
AcDbEntity
  8
0
  6
Continuous
 62
     7
100
AcDbLine
 10
6753.1073755334
 20
5640.6881613571
 30
0.0
 11
6753.5800627182
 21
5640.9610314209
 31
0.0
  0
LINE
  5
2DA
330
1F
100
AcDbEntity
  8
0
  6
Continuous
 62
     7
100
AcDbLine
 10
6753.5800627182
 20
5640.9610314209
 30
0.0
 11
6753.7389314482
 21
5641.0527629692
 31
0.0
  0
LINE
  5
2DB
330
1F
100
AcDbEntity
  8
0
  6
Continuous
 62
     7
100
AcDbLine
 10
6727.9313738207
 20
5626.1527938682
 30
0.0
 11
6728.0902406881
 21
5626.2445254165
 31
0.0
  0
LINE
  5
2DC
330
1F
100
AcDbEntity
  8
0
  6
Continuous
 62
     7
100
AcDbLine
 10
6728.0902406881
 20
5626.2445254165
 30
0.0
 11
6728.5629297356
 21
5626.5173954803
 31
0.0
  0
LINE
  5
2DD
330
1F
100
AcDbEntity
  8
0
  6
Continuous
 62
     7
100
AcDbLine
 10
6728.5629297356
 20
5626.5173954803
 30
0.0
 11
6729.3378012935
 21
5626.964787944
 31
0.0
  0
LINE
  5
2DE
330
1F
100
AcDbEntity
  8
0
  6
Continuous
 62
     7
100
AcDbLine
 10
6729.3378012935
 20
5626.964787944
 30
0.0
 11
6730.3957762877
 21
5627.5756163436
 31
0.0
  0
LINE
  5
2DF
330
1F
100
AcDbEntity
  8
0
  6
Continuous
 62
     7
100
AcDbLine
 10
6730.3957762877
 20
5627.5756163436
 30
0.0
 11
6731.7108019004
 21
5628.3348603088
 31
0.0
  0
LINE
  5
2E0
330
1F
100
AcDbEntity
  8
0
  6
Continuous
 62
     7
100
AcDbLine
 10
6731.7108019004
 20
5628.3348603088
 30
0.0
 11
6733.2505016337
 21
5629.223803981
 31
0.0
  0
LINE
  5
2E1
330
1F
100
AcDbEntity
  8
0
  6
Continuous
 62
     7
100
AcDbLine
 10
6733.2505016337
 20
5629.223803981
 30
0.0
 11
6734.9769594828
 21
5630.2205724556
 31
0.0
  0
LINE
  5
2E2
330
1F
100
AcDbEntity
  8
0
  6
Continuous
 62
     7
100
AcDbLine
 10
6734.9769594828
 20
5630.2205724556
 30
0.0
 11
6736.8476642976
 21
5631.3006086189
 31
0.0
  0
LINE
  5
2E3
330
1F
100
AcDbEntity
  8
0
  6
Continuous
 62
     7
100
AcDbLine
 10
6736.8476642976
 20
5631.3006086189
 30
0.0
 11
6738.8165565888
 21
5632.4373287994
 31
0.0
  0
LINE
  5
2E4
330
1F
100
AcDbEntity
  8
0
  6
Continuous
 62
     7
100
AcDbLine
 10
6738.8165565888
 20
5632.4373287994
 30
0.0
 11
6740.8351517031
 21
5633.6027784187
 31
0.0
  0
LINE
  5
2E5
330
1F
100
AcDbEntity
  8
0
  6
Continuous
 62
     7
100
AcDbLine
 10
6741.0851522098
 20
5633.1697506744
 30
0.0
 11
6743.1037491868
 21
5634.3352002937
 31
0.0
  0
LINE
  5
2E6
330
1F
100
AcDbEntity
  8
0
  6
Continuous
 62
     7
100
AcDbLine
 10
6743.1037491868
 20
5634.3352002937
 30
0.0
 11
6745.0726396153
 21
5635.4719204742
 31
0.0
  0
LINE
  5
2E7
330
1F
100
AcDbEntity
  8
0
  6
Continuous
 62
     7
100
AcDbLine
 10
6745.0726396153
 20
5635.4719204742
 30
0.0
 11
6746.9433462928
 21
5636.5520162422
 31
0.0
  0
LINE
  5
2E8
330
1F
100
AcDbEntity
  8
0
  6
Continuous
 62
     7
100
AcDbLine
 10
6746.9433462928
 20
5636.5520162422
 30
0.0
 11
6748.6698022793
 21
5637.5487847168
 31
0.0
  0
LINE
  5
2E9
330
1F
100
AcDbEntity
  8
0
  6
Continuous
 62
     7
100
AcDbLine
 10
6748.6698022793
 20
5637.5487847168
 30
0.0
 11
6750.2095020125
 21
5638.4377283889
 31
0.0
  0
LINE
  5
2EA
330
1F
100
AcDbEntity
  8
0
  6
Continuous
 62
     7
100
AcDbLine
 10
6750.2095020125
 20
5638.4377283889
 30
0.0
 11
6751.5245294879
 21
5639.1969723541
 31
0.0
  0
LINE
  5
2EB
330
1F
100
AcDbEntity
  8
0
  6
Continuous
 62
     7
100
AcDbLine
 10
6751.5245294879
 20
5639.1969723541
 30
0.0
 11
6752.582504482
 21
5639.8077411491
 31
0.0
  0
LINE
  5
2EC
330
1F
100
AcDbEntity
  8
0
  6
Continuous
 62
     7
100
AcDbLine
 10
6752.582504482
 20
5639.8077411491
 30
0.0
 11
6753.35737604
 21
5640.2551336128
 31
0.0
  0
LINE
  5
2ED
330
1F
100
AcDbEntity
  8
0
  6
Continuous
 62
     7
100
AcDbLine
 10
6753.35737604
 20
5640.2551336128
 30
0.0
 11
6753.8300632248
 21
5640.5280632812
 31
0.0
  0
LINE
  5
2EE
330
1F
100
AcDbEntity
  8
0
  6
Continuous
 62
     7
100
AcDbLine
 10
6753.8300632248
 20
5640.5280632812
 30
0.0
 11
6753.9889319549
 21
5640.6197948295
 31
0.0
  0
LINE
  5
2EF
330
1F
100
AcDbEntity
  8
0
  6
Continuous
 62
     7
100
AcDbLine
 10
6728.1813724647
 20
5625.7197661239
 30
0.0
 11
6728.3402411947
 21
5625.8114976722
 31
0.0
  0
LINE
  5
2F0
330
1F
100
AcDbEntity
  8
0
  6
Continuous
 62
     7
100
AcDbLine
 10
6728.3402411947
 20
5625.8114976722
 30
0.0
 11
6728.8129283796
 21
5626.084367736
 31
0.0
  0
LINE
  5
2F1
330
1F
100
AcDbEntity
  8
0
  6
Continuous
 62
     7
100
AcDbLine
 10
6728.8129283796
 20
5626.084367736
 30
0.0
 11
6729.5878018002
 21
5626.5317601997
 31
0.0
  0
LINE
  5
2F2
330
1F
100
AcDbEntity
  8
0
  6
Continuous
 62
     7
100
AcDbLine
 10
6729.5878018002
 20
5626.5317601997
 30
0.0
 11
6730.6457749317
 21
5627.1425885994
 31
0.0
  0
LINE
  5
2F3
330
1F
100
AcDbEntity
  8
0
  6
Continuous
 62
     7
100
AcDbLine
 10
6730.6457749317
 20
5627.1425885994
 30
0.0
 11
6731.960802407
 21
5627.9018325645
 31
0.0
  0
LINE
  5
2F4
330
1F
100
AcDbEntity
  8
0
  6
Continuous
 62
     7
100
AcDbLine
 10
6731.960802407
 20
5627.9018325645
 30
0.0
 11
6733.5005002777
 21
5628.7907762367
 31
0.0
  0
LINE
  5
2F5
330
1F
100
AcDbEntity
  8
0
  6
Continuous
 62
     7
100
AcDbLine
 10
6733.5005002777
 20
5628.7907762367
 30
0.0
 11
6735.2269581268
 21
5629.7875447113
 31
0.0
  0
LINE
  5
2F6
330
1F
100
AcDbEntity
  8
0
  6
Continuous
 62
     7
100
AcDbLine
 10
6735.2269581268
 20
5629.7875447113
 30
0.0
 11
6737.0976648042
 21
5630.8675808746
 31
0.0
  0
LINE
  5
2F7
330
1F
100
AcDbEntity
  8
0
  6
Continuous
 62
     7
100
AcDbLine
 10
6737.0976648042
 20
5630.8675808746
 30
0.0
 11
6739.0665570954
 21
5632.0043010551
 31
0.0
  0
LINE
  5
2F8
330
1F
100
AcDbEntity
  8
0
  6
Continuous
 62
     7
100
AcDbLine
 10
6739.0665570954
 20
5632.0043010551
 30
0.0
 11
6741.0851522098
 21
5633.1697506744
 31
0.0
  0
LINE
  5
2F9
330
1F
100
AcDbEntity
  8
0
  6
Continuous
 62
     7
100
AcDbLine
 10
6743.9313745806
 20
5598.4399719078
 30
0.0
 11
6744.0902395854
 21
5598.5317034561
 31
0.0
  0
LINE
  5
2FA
330
1F
100
AcDbEntity
  8
0
  6
Continuous
 62
     7
100
AcDbLine
 10
6744.0902395854
 20
5598.5317034561
 30
0.0
 11
6744.5629304955
 21
5598.8045735199
 31
0.0
  0
LINE
  5
2FB
330
1F
100
AcDbEntity
  8
0
  6
Continuous
 62
     7
100
AcDbLine
 10
6744.5629304955
 20
5598.8045735199
 30
0.0
 11
6745.3378020535
 21
5599.2519659835
 31
0.0
  0
LINE
  5
2FC
330
1F
100
AcDbEntity
  8
0
  6
Continuous
 62
     7
100
AcDbLine
 10
6745.3378020535
 20
5599.2519659835
 30
0.0
 11
6746.3957770477
 21
5599.8627943832
 31
0.0
  0
LINE
  5
2FD
330
1F
100
AcDbEntity
  8
0
  6
Continuous
 62
     7
100
AcDbLine
 10
6746.3957770477
 20
5599.8627943832
 30
0.0
 11
6747.7108007977
 21
5600.6220383483
 31
0.0
  0
LINE
  5
2FE
330
1F
100
AcDbEntity
  8
0
  6
Continuous
 62
     7
100
AcDbLine
 10
6747.7108007977
 20
5600.6220383483
 30
0.0
 11
6749.250500531
 21
5601.5109820205
 31
0.0
  0
LINE
  5
2FF
330
1F
100
AcDbEntity
  8
0
  6
Continuous
 62
     7
100
AcDbLine
 10
6749.250500531
 20
5601.5109820205
 30
0.0
 11
6750.9769602428
 21
5602.5077504951
 31
0.0
  0
LINE
  5
300
330
1F
100
AcDbEntity
  8
0
  6
Continuous
 62
     7
100
AcDbLine
 10
6750.9769602428
 20
5602.5077504951
 30
0.0
 11
6752.8476631949
 21
5603.5877866584
 31
0.0
  0
LINE
  5
301
330
1F
100
AcDbEntity
  8
0
  6
Continuous
 62
     7
100
AcDbLine
 10
6752.8476631949
 20
5603.5877866584
 30
0.0
 11
6754.8165573487
 21
5604.7245068389
 31
0.0
  0
LINE
  5
302
330
1F
100
AcDbEntity
  8
0
  6
Continuous
 62
     7
100
AcDbLine
 10
6754.8165573487
 20
5604.7245068389
 30
0.0
 11
6756.8351506005
 21
5605.8899564582
 31
0.0
  0
LINE
  5
303
330
1F
100
AcDbEntity
  8
0
  6
Continuous
 62
     7
100
AcDbLine
 10
6756.8351506005
 20
5605.8899564582
 30
0.0
 11
6758.8537475774
 21
5607.0554060775
 31
0.0
  0
LINE
  5
304
330
1F
100
AcDbEntity
  8
0
  6
Continuous
 62
     7
100
AcDbLine
 10
6758.8537475774
 20
5607.0554060775
 30
0.0
 11
6760.822638006
 21
5608.192126258
 31
0.0
  0
LINE
  5
305
330
1F
100
AcDbEntity
  8
0
  6
Continuous
 62
     7
100
AcDbLine
 10
6760.822638006
 20
5608.192126258
 30
0.0
 11
6762.6933446834
 21
5609.272222026
 31
0.0
  0
LINE
  5
306
330
1F
100
AcDbEntity
  8
0
  6
Continuous
 62
     7
100
AcDbLine
 10
6762.6933446834
 20
5609.272222026
 30
0.0
 11
6764.4198043952
 21
5610.2689905006
 31
0.0
  0
LINE
  5
307
330
1F
100
AcDbEntity
  8
0
  6
Continuous
 62
     7
100
AcDbLine
 10
6764.4198043952
 20
5610.2689905006
 30
0.0
 11
6765.9595004032
 21
5611.1579341728
 31
0.0
  0
LINE
  5
308
330
1F
100
AcDbEntity
  8
0
  6
Continuous
 62
     7
100
AcDbLine
 10
6765.9595004032
 20
5611.1579341728
 30
0.0
 11
6767.2745278785
 21
5611.9171185333
 31
0.0
  0
LINE
  5
309
330
1F
100
AcDbEntity
  8
0
  6
Continuous
 62
     7
100
AcDbLine
 10
6767.2745278785
 20
5611.9171185333
 30
0.0
 11
6768.3325028727
 21
5612.5279469329
 31
0.0
  0
LINE
  5
30A
330
1F
100
AcDbEntity
  8
0
  6
Continuous
 62
     7
100
AcDbLine
 10
6768.3325028727
 20
5612.5279469329
 30
0.0
 11
6769.1073744307
 21
5612.9753393966
 31
0.0
  0
LINE
  5
30B
330
1F
100
AcDbEntity
  8
0
  6
Continuous
 62
     7
100
AcDbLine
 10
6769.1073744307
 20
5612.9753393966
 30
0.0
 11
6769.5800616155
 21
5613.2482690651
 31
0.0
  0
LINE
  5
30C
330
1F
100
AcDbEntity
  8
0
  6
Continuous
 62
     7
100
AcDbLine
 10
6769.5800616155
 20
5613.2482690651
 30
0.0
 11
6769.7389303456
 21
5613.3399410087
 31
0.0
  0
LINE
  5
30D
330
1F
100
AcDbEntity
  8
0
  6
Continuous
 62
     7
100
AcDbLine
 10
6757.6935543428
 20
5604.403178199
 30
0.0
 11
6756.4767031679
 21
5603.700618251
 31
0.0
  0
LINE
  5
30E
330
1F
100
AcDbEntity
  8
0
  6
Continuous
 62
     7
100
AcDbLine
 10
6756.4767031679
 20
5603.700618251
 30
0.0
 11
6755.3363098512
 21
5603.0422253448
 31
0.0
  0
LINE
  5
30F
330
1F
100
AcDbEntity
  8
0
  6
Continuous
 62
     7
100
AcDbLine
 10
6755.3363098512
 20
5603.0422253448
 30
0.0
 11
6754.3440340767
 21
5602.4693054992
 31
0.0
  0
LINE
  5
310
330
1F
100
AcDbEntity
  8
0
  6
Continuous
 62
     7
100
AcDbLine
 10
6754.3440340767
 20
5602.4693054992
 30
0.0
 11
6753.5622185776
 21
5602.0179195243
 31
0.0
  0
LINE
  5
311
330
1F
100
AcDbEntity
  8
0
  6
Continuous
 62
     7
100
AcDbLine
 10
6753.5622185776
 20
5602.0179195243
 30
0.0
 11
6753.0399924824
 21
5601.7164392311
 31
0.0
  0
LINE
  5
312
330
1F
100
AcDbEntity
  8
0
  6
Continuous
 62
     7
100
AcDbLine
 10
6753.0399924824
 20
5601.7164392311
 30
0.0
 11
6752.8101644228
 21
5601.5837592918
 31
0.0
  0
LINE
  5
313
330
1F
100
AcDbEntity
  8
0
  6
Continuous
 62
     7
100
AcDbLine
 10
6752.8101644228
 20
5601.5837592918
 30
0.0
 11
6752.8005084703
 21
5601.5781564552
 31
0.0
  0
LINE
  5
314
330
1F
100
AcDbEntity
  8
0
  6
Continuous
 62
     7
100
AcDbLine
 10
6762.5865964899
 20
5607.2281999427
 30
0.0
 11
6762.5769405375
 21
5607.2225971061
 31
0.0
  0
LINE
  5
315
330
1F
100
AcDbEntity
  8
0
  6
Continuous
 62
     7
100
AcDbLine
 10
6762.5769405375
 20
5607.2225971061
 30
0.0
 11
6762.3471124778
 21
5607.0899171669
 31
0.0
  0
LINE
  5
316
330
1F
100
AcDbEntity
  8
0
  6
Continuous
 62
     7
100
AcDbLine
 10
6762.3471124778
 20
5607.0899171669
 30
0.0
 11
6761.8248863826
 21
5606.7883772689
 31
0.0
  0
LINE
  5
317
330
1F
100
AcDbEntity
  8
0
  6
Continuous
 62
     7
100
AcDbLine
 10
6761.8248863826
 20
5606.7883772689
 30
0.0
 11
6761.0430708835
 21
5606.3369912941
 31
0.0
  0
LINE
  5
318
330
1F
100
AcDbEntity
  8
0
  6
Continuous
 62
     7
100
AcDbLine
 10
6761.0430708835
 20
5606.3369912941
 30
0.0
 11
6760.0507951091
 21
5605.7641310531
 31
0.0
  0
LINE
  5
319
330
1F
100
AcDbEntity
  8
0
  6
Continuous
 62
     7
100
AcDbLine
 10
6760.0507951091
 20
5605.7641310531
 30
0.0
 11
6758.9104055176
 21
5605.1057381469
 31
0.0
  0
LINE
  5
31A
330
1F
100
AcDbEntity
  8
0
  6
Continuous
 62
     7
100
AcDbLine
 10
6758.9104055176
 20
5605.1057381469
 30
0.0
 11
6757.6935543428
 21
5604.403178199
 31
0.0
  0
LINE
  5
31B
330
1F
100
AcDbEntity
  8
0
  6
Continuous
 62
     7
100
AcDbLine
 10
6709.8351519769
 20
5644.0912289459
 30
0.0
 11
6715.8351522619
 21
5644.0912289459
 31
0.0
  0
LINE
  5
31C
330
1F
100
AcDbEntity
  8
0
  6
Continuous
 62
     7
100
AcDbLine
 10
6709.8351519769
 20
5654.291252597
 30
0.0
 11
6715.8351522619
 21
5654.291252597
 31
0.0
  0
LINE
  5
31D
330
1F
100
AcDbEntity
  8
0
  6
Continuous
 62
     7
100
AcDbLine
 10
6715.8351522619
 20
5644.0912289459
 30
0.0
 11
6715.8351522619
 21
5654.291252597
 31
0.0
  0
LINE
  5
31E
330
1F
100
AcDbEntity
  8
0
  6
Continuous
 62
     7
100
AcDbLine
 10
6715.8351522619
 20
5634.2912120658
 30
0.0
 11
6715.8351522619
 21
5644.0912289459
 31
0.0
  0
LINE
  5
31F
330
1F
100
AcDbEntity
  8
0
  6
Continuous
 62
     7
100
AcDbLine
 10
6715.8351522619
 20
5654.291252597
 30
0.0
 11
6715.8351522619
 21
5664.0912098724
 31
0.0
  0
LINE
  5
320
330
1F
100
AcDbEntity
  8
0
  6
Continuous
 62
     7
100
AcDbLine
 10
6709.8351519769
 20
5676.191250785
 30
0.0
 11
6709.8351519769
 21
5622.1912307579
 31
0.0
  0
LINE
  5
321
330
1F
100
AcDbEntity
  8
0
  6
Continuous
 62
     7
100
AcDbLine
 10
6708.3351519057
 20
5676.6912145454
 30
0.0
 11
6708.3351519057
 21
5621.6912073928
 31
0.0
  0
LINE
  5
322
330
1F
100
AcDbEntity
  8
0
  6
Continuous
 62
     7
100
AcDbLine
 10
6709.335151895
 20
5621.6912073928
 30
0.0
 11
6709.335151895
 21
5676.6912145454
 31
0.0
  0
LINE
  5
323
330
1F
100
AcDbEntity
  8
0
  6
Continuous
 62
     7
100
AcDbLine
 10
6259.1187555015
 20
4351.0143821433
 30
0.0
 11
6259.1187553361
 21
4337.0143819198
 31
0.0
  0
LINE
  5
324
330
1F
100
AcDbEntity
  8
0
  6
Continuous
 62
     7
100
AcDbLine
 10
6288.9187553361
 20
4337.0143819198
 30
0.0
 11
6288.9187551707
 21
4351.0143821433
 31
0.0
  0
LINE
  5
325
330
1F
100
AcDbEntity
  8
0
  6
Continuous
 62
     7
100
AcDbLine
 10
6259.1187553361
 20
4337.0143819198
 30
0.0
 11
6259.1187555015
 21
4328.0143820986
 31
0.0
  0
LINE
  5
326
330
1F
100
AcDbEntity
  8
0
  6
Continuous
 62
     7
100
AcDbLine
 10
6288.9187551707
 20
4328.0143820986
 30
0.0
 11
6288.9187553361
 21
4337.0143819198
 31
0.0
  0
LINE
  5
327
330
1F
100
AcDbEntity
  8
0
  6
Continuous
 62
     7
100
AcDbLine
 10
6283.5187550306
 20
4351.0143821433
 30
0.0
 11
6283.5187550306
 21
4353.0143815398
 31
0.0
  0
LINE
  5
328
330
1F
100
AcDbEntity
  8
0
  6
Continuous
 62
     7
100
AcDbLine
 10
6264.5187556416
 20
4353.0143815398
 30
0.0
 11
6264.5187556416
 21
4351.0143821433
 31
0.0
  0
LINE
  5
329
330
1F
100
AcDbEntity
  8
0
  6
Continuous
 62
     7
100
AcDbLine
 10
6259.1187555015
 20
4327.7643815919
 30
0.0
 11
6259.1187555015
 21
4312.0143832013
 31
0.0
  0
LINE
  5
32A
330
1F
100
AcDbEntity
  8
0
  6
Continuous
 62
     7
100
AcDbLine
 10
6288.9187551707
 20
4312.0143832013
 30
0.0
 11
6288.9187551707
 21
4327.7643815919
 31
0.0
  0
LINE
  5
32B
330
1F
100
AcDbEntity
  8
0
  6
Continuous
 62
     7
100
AcDbLine
 10
6246.5187554851
 20
4360.514381896
 30
0.0
 11
6246.5187554851
 21
4359.5143819067
 31
0.0
  0
LINE
  5
32C
330
1F
100
AcDbEntity
  8
0
  6
Continuous
 62
     7
100
AcDbLine
 10
6301.5187551871
 20
4359.5143819067
 30
0.0
 11
6301.5187551871
 21
4360.514381896
 31
0.0
  0
LINE
  5
32D
330
1F
100
AcDbEntity
  8
0
  6
Continuous
 62
     7
100
AcDbLine
 10
6165.5702164897
 20
4451.7892121142
 30
0.0
 11
6382.4672941824
 21
4451.7892121142
 31
0.0
  0
LINE
  5
32E
330
1F
100
AcDbEntity
  8
0
  6
Continuous
 62
     7
100
AcDbLine
 10
6166.3066203725
 20
4454.0143819198
 30
0.0
 11
6381.7308902996
 21
4454.0143819198
 31
0.0
  0
LINE
  5
32F
330
1F
100
AcDbEntity
  8
0
  6
Continuous
 62
     7
100
AcDbLine
 10
6203.6880549855
 20
4361.9892121142
 30
0.0
 11
6344.3494556867
 21
4361.9892121142
 31
0.0
  0
LINE
  5
330
330
1F
100
AcDbEntity
  8
0
  6
Continuous
 62
     7
100
AcDbLine
 10
6165.5702164897
 20
4451.7892121142
 30
0.0
 11
6203.6880549855
 21
4361.9892121142
 31
0.0
  0
LINE
  5
331
330
1F
100
AcDbEntity
  8
0
  6
Continuous
 62
     7
100
AcDbLine
 10
6344.3494556867
 20
4361.9892121142
 30
0.0
 11
6382.4672941824
 21
4451.7892121142
 31
0.0
  0
LINE
  5
332
330
1F
100
AcDbEntity
  8
0
  6
Continuous
 62
     7
100
AcDbLine
 10
6164.1267073944
 20
4451.7892086252
 30
0.0
 11
6164.8631097086
 21
4452.101797017
 31
0.0
  0
LINE
  5
333
330
1F
100
AcDbEntity
  8
0
  6
Continuous
 62
     7
100
AcDbLine
 10
6165.5995158151
 20
4454.0143841251
 30
0.0
 11
6165.5995158151
 21
4453.2143854841
 31
0.0
  0
LINE
  5
334
330
1F
100
AcDbEntity
  8
0
  6
Continuous
 62
     7
100
AcDbLine
 10
6383.9108032778
 20
4451.7892086252
 30
0.0
 11
6383.1744009636
 21
4452.101797017
 31
0.0
  0
LINE
  5
335
330
1F
100
AcDbEntity
  8
0
  6
Continuous
 62
     7
100
AcDbLine
 10
6382.4379948571
 20
4454.0143841251
 30
0.0
 11
6382.4379948571
 21
4453.2143854841
 31
0.0
  0
LINE
  5
336
330
1F
100
AcDbEntity
  8
0
  6
Continuous
 62
     7
100
AcDbLine
 10
6202.24454083
 20
4361.9892121016
 30
0.0
 11
6202.9809487656
 21
4362.3017969613
 31
0.0
  0
LINE
  5
337
330
1F
100
AcDbEntity
  8
0
  6
Continuous
 62
     7
100
AcDbLine
 10
6202.24454083
 20
4361.9892121016
 30
0.0
 11
6164.1267073944
 21
4451.7892086252
 31
0.0
  0
LINE
  5
338
330
1F
100
AcDbEntity
  8
0
  6
Continuous
 62
     7
100
AcDbLine
 10
6202.9809487656
 20
4362.3017969613
 30
0.0
 11
6164.8631097086
 21
4452.101797017
 31
0.0
  0
LINE
  5
339
330
1F
100
AcDbEntity
  8
0
  6
Continuous
 62
     7
100
AcDbLine
 10
6383.1744009636
 20
4452.101797017
 30
0.0
 11
6345.0565619066
 21
4362.3017969613
 31
0.0
  0
LINE
  5
33A
330
1F
100
AcDbEntity
  8
0
  6
Continuous
 62
     7
100
AcDbLine
 10
6383.9108032778
 20
4451.7892086252
 30
0.0
 11
6345.7929698422
 21
4361.9892121016
 31
0.0
  0
LINE
  5
33B
330
1F
100
AcDbEntity
  8
0
  6
Continuous
 62
     7
100
AcDbLine
 10
6345.7929698422
 20
4361.9892121016
 30
0.0
 11
6345.0565619066
 21
4362.3017969613
 31
0.0
  0
LINE
  5
33C
330
1F
100
AcDbEntity
  8
0
  6
Continuous
 62
     7
100
AcDbLine
 10
6166.3066203725
 20
4454.0143819198
 30
0.0
 11
6165.5995158151
 21
4454.0143841251
 31
0.0
  0
LINE
  5
33D
330
1F
100
AcDbEntity
  8
0
  6
Continuous
 62
     7
100
AcDbLine
 10
6165.6137985781
 20
4453.2143854841
 30
0.0
 11
6165.5995158151
 21
4453.2143854841
 31
0.0
  0
LINE
  5
33E
330
1F
100
AcDbEntity
  8
0
  6
Continuous
 62
     7
100
AcDbLine
 10
6382.4379948571
 20
4454.0143841251
 30
0.0
 11
6381.7308902996
 21
4454.0143819198
 31
0.0
  0
LINE
  5
33F
330
1F
100
AcDbEntity
  8
0
  6
Continuous
 62
     7
100
AcDbLine
 10
6382.4379948571
 20
4453.2143854841
 30
0.0
 11
6382.4237120941
 21
4453.2143854841
 31
0.0
  0
LINE
  5
340
330
1F
100
AcDbEntity
  8
0
  6
Continuous
 62
     7
100
AcDbLine
 10
6203.717352087
 20
4361.0143819198
 30
0.0
 11
6344.3201585852
 21
4361.0143819198
 31
0.0
  0
LINE
  5
341
330
1F
100
AcDbEntity
  8
0
  6
Continuous
 62
     7
100
AcDbLine
 10
6334.3206589714
 20
4360.9143819223
 30
0.0
 11
6301.3187555268
 21
4360.9143819223
 31
0.0
  0
LINE
  5
342
330
1F
100
AcDbEntity
  8
0
  6
Continuous
 62
     7
100
AcDbLine
 10
6334.3206589714
 20
4360.9143819223
 30
0.0
 11
6334.3206589714
 21
4361.0143819198
 31
0.0
  0
LINE
  5
343
330
1F
100
AcDbEntity
  8
0
  6
Continuous
 62
     7
100
AcDbLine
 10
6302.1100574776
 20
4360.8643819126
 30
0.0
 11
6302.1100574776
 21
4360.9143819223
 31
0.0
  0
LINE
  5
344
330
1F
100
AcDbEntity
  8
0
  6
Continuous
 62
     7
100
AcDbLine
 10
6301.3758269742
 20
4360.8643819126
 30
0.0
 11
6302.1100574776
 21
4360.8643819126
 31
0.0
  0
LINE
  5
345
330
1F
100
AcDbEntity
  8
0
  6
Continuous
 62
     7
100
AcDbLine
 10
6309.6941915944
 20
4360.8643819126
 30
0.0
 11
6309.6941915944
 21
4360.9143819223
 31
0.0
  0
LINE
  5
346
330
1F
100
AcDbEntity
  8
0
  6
Continuous
 62
     7
100
AcDbLine
 10
6307.1961944595
 20
4360.8643819126
 30
0.0
 11
6307.1961944595
 21
4360.9143819223
 31
0.0
  0
LINE
  5
347
330
1F
100
AcDbEntity
  8
0
  6
Continuous
 62
     7
100
AcDbLine
 10
6327.6429084733
 20
4360.8643819126
 30
0.0
 11
6327.6429084733
 21
4360.9143819223
 31
0.0
  0
LINE
  5
348
330
1F
100
AcDbEntity
  8
0
  6
Continuous
 62
     7
100
AcDbLine
 10
6325.1449113384
 20
4360.8643819126
 30
0.0
 11
6325.1449113384
 21
4360.9143819223
 31
0.0
  0
LINE
  5
349
330
1F
100
AcDbEntity
  8
0
  6
Continuous
 62
     7
100
AcDbLine
 10
6313.5203143254
 20
4360.8643819126
 30
0.0
 11
6313.5203143254
 21
4360.9143819223
 31
0.0
  0
LINE
  5
34A
330
1F
100
AcDbEntity
  8
0
  6
Continuous
 62
     7
100
AcDbLine
 10
6318.1557302967
 20
4360.8643819126
 30
0.0
 11
6318.1557302967
 21
4360.9143819223
 31
0.0
  0
LINE
  5
34B
330
1F
100
AcDbEntity
  8
0
  6
Continuous
 62
     7
100
AcDbLine
 10
6331.4690312043
 20
4360.8643819126
 30
0.0
 11
6331.4690312043
 21
4360.9143819223
 31
0.0
  0
LINE
  5
34C
330
1F
100
AcDbEntity
  8
0
  6
Continuous
 62
     7
100
AcDbLine
 10
6315.8620616093
 20
4360.8643819126
 30
0.0
 11
6315.8620616093
 21
4360.9143819223
 31
0.0
  0
LINE
  5
34D
330
1F
100
AcDbEntity
  8
0
  6
Continuous
 62
     7
100
AcDbLine
 10
6320.4433900908
 20
4360.8643819126
 30
0.0
 11
6320.4433900908
 21
4360.9143819223
 31
0.0
  0
LINE
  5
34E
330
1F
100
AcDbEntity
  8
0
  6
Continuous
 62
     7
100
AcDbLine
 10
6322.3664668992
 20
4360.8643819126
 30
0.0
 11
6322.3664668992
 21
4360.9143819223
 31
0.0
  0
LINE
  5
34F
330
1F
100
AcDbEntity
  8
0
  6
Continuous
 62
     7
100
AcDbLine
 10
6320.4433900908
 20
4360.8643819126
 30
0.0
 11
6322.3664668992
 21
4360.8643819126
 31
0.0
  0
LINE
  5
350
330
1F
100
AcDbEntity
  8
0
  6
Continuous
 62
     7
100
AcDbLine
 10
6314.802365531
 20
4360.8643819126
 30
0.0
 11
6314.802365531
 21
4360.9143819223
 31
0.0
  0
LINE
  5
351
330
1F
100
AcDbEntity
  8
0
  6
Continuous
 62
     7
100
AcDbLine
 10
6305.9562129572
 20
4360.8643819126
 30
0.0
 11
6305.9562129572
 21
4360.9143819223
 31
0.0
  0
LINE
  5
352
330
1F
100
AcDbEntity
  8
0
  6
Continuous
 62
     7
100
AcDbLine
 10
6323.9049298361
 20
4360.8643819126
 30
0.0
 11
6323.9049298361
 21
4360.9143819223
 31
0.0
  0
LINE
  5
353
330
1F
100
AcDbEntity
  8
0
  6
Continuous
 62
     7
100
AcDbLine
 10
6304.9305697575
 20
4360.8643819126
 30
0.0
 11
6304.9305697575
 21
4360.9143819223
 31
0.0
  0
LINE
  5
354
330
1F
100
AcDbEntity
  8
0
  6
Continuous
 62
     7
100
AcDbLine
 10
6302.1100574776
 20
4360.8643819126
 30
0.0
 11
6304.9305697575
 21
4360.8643819126
 31
0.0
  0
LINE
  5
355
330
1F
100
AcDbEntity
  8
0
  6
Continuous
 62
     7
100
AcDbLine
 10
6314.7943524316
 20
4360.8643819126
 30
0.0
 11
6314.7943524316
 21
4360.9143819223
 31
0.0
  0
LINE
  5
356
330
1F
100
AcDbEntity
  8
0
  6
Continuous
 62
     7
100
AcDbLine
 10
6189.5778907135
 20
4444.3517186984
 30
0.0
 11
6188.6445564821
 21
4442.4682268247
 31
0.0
  0
LINE
  5
357
330
1F
100
AcDbEntity
  8
0
  6
Continuous
 62
     7
100
AcDbLine
 10
6189.3058551148
 20
4444.3517186984
 30
0.0
 11
6189.5778907135
 21
4444.3517186984
 31
0.0
  0
LINE
  5
358
330
1F
100
AcDbEntity
  8
0
  6
Continuous
 62
     7
100
AcDbLine
 10
6188.6266080335
 20
4442.9804020866
 30
0.0
 11
6189.3058551148
 21
4444.3517186984
 31
0.0
  0
LINE
  5
359
330
1F
100
AcDbEntity
  8
0
  6
Continuous
 62
     7
100
AcDbLine
 10
6187.9473609522
 20
4444.3517186984
 30
0.0
 11
6188.6266080335
 21
4442.9804020866
 31
0.0
  0
LINE
  5
35A
330
1F
100
AcDbEntity
  8
0
  6
Continuous
 62
     7
100
AcDbLine
 10
6187.6753253534
 20
4444.3517186984
 30
0.0
 11
6187.9473609522
 21
4444.3517186984
 31
0.0
  0
LINE
  5
35B
330
1F
100
AcDbEntity
  8
0
  6
Continuous
 62
     7
100
AcDbLine
 10
6188.6086595848
 20
4442.4682268247
 30
0.0
 11
6187.6753253534
 21
4444.3517186984
 31
0.0
  0
LINE
  5
35C
330
1F
100
AcDbEntity
  8
0
  6
Continuous
 62
     7
100
AcDbLine
 10
6188.6445564821
 20
4442.4682268247
 30
0.0
 11
6188.6086595848
 21
4442.4682268247
 31
0.0
  0
LINE
  5
35D
330
1F
100
AcDbEntity
  8
0
  6
Continuous
 62
     7
100
AcDbLine
 10
6180.3163570955
 20
4444.6754464253
 30
0.0
 11
6180.0891888931
 21
4444.5169427737
 31
0.0
  0
LINE
  5
35E
330
1F
100
AcDbEntity
  8
0
  6
Continuous
 62
     7
100
AcDbLine
 10
6178.700966914
 20
4442.9654338702
 30
0.0
 11
6178.9376718596
 21
4443.0960574492
 31
0.0
  0
LINE
  5
35F
330
1F
100
AcDbEntity
  8
0
  6
Continuous
 62
     7
100
AcDbLine
 10
6204.0187550381
 20
4447.1476161226
 30
0.0
 11
6176.0187578991
 21
4447.1476161226
 31
0.0
  0
LINE
  5
360
330
1F
100
AcDbEntity
  8
0
  6
Continuous
 62
     7
100
AcDbLine
 10
6176.0187578991
 20
4440.7040783509
 30
0.0
 11
6204.0187550381
 21
4440.7040783509
 31
0.0
  0
LINE
  5
361
330
1F
100
AcDbEntity
  8
0
  6
Continuous
 62
     7
100
AcDbLine
 10
6182.8650740579
 20
4443.3604040488
 30
0.0
 11
6181.0343024924
 21
4443.3604040488
 31
0.0
  0
LINE
  5
362
330
1F
100
AcDbEntity
  8
0
  6
Continuous
 62
     7
100
AcDbLine
 10
6182.5341416195
 20
4443.0630141243
 30
0.0
 11
6182.7573833659
 21
4442.9551073655
 31
0.0
  0
LINE
  5
363
330
1F
100
AcDbEntity
  8
0
  6
Continuous
 62
     7
100
AcDbLine
 10
6182.3266131476
 20
4445.1778167232
 30
0.0
 11
6181.7887110308
 21
4444.6491160735
 31
0.0
  0
LINE
  5
364
330
1F
100
AcDbEntity
  8
0
  6
Continuous
 62
     7
100
AcDbLine
 10
6181.9345412448
 20
4445.1778167232
 30
0.0
 11
6182.3266131476
 21
4445.1778167232
 31
0.0
  0
LINE
  5
365
330
1F
100
AcDbEntity
  8
0
  6
Continuous
 62
     7
100
AcDbLine
 10
6181.5368665054
 20
4444.6491160735
 30
0.0
 11
6181.9345412448
 21
4445.1778167232
 31
0.0
  0
LINE
  5
366
330
1F
100
AcDbEntity
  8
0
  6
Continuous
 62
     7
100
AcDbLine
 10
6181.7887110308
 20
4444.6491160735
 30
0.0
 11
6181.5368665054
 21
4444.6491160735
 31
0.0
  0
LINE
  5
367
330
1F
100
AcDbEntity
  8
0
  6
Continuous
 62
     7
100
AcDbLine
 10
6183.5471225575
 20
4443.1012207016
 30
0.0
 11
6183.5471225575
 21
4442.4682268247
 31
0.0
  0
LINE
  5
368
330
1F
100
AcDbEntity
  8
0
  6
Continuous
 62
     7
100
AcDbLine
 10
6184.2650754049
 20
4444.3202250942
 30
0.0
 11
6184.1270906523
 21
4444.1199013337
 31
0.0
  0
LINE
  5
369
330
1F
100
AcDbEntity
  8
0
  6
Continuous
 62
     7
100
AcDbLine
 10
6183.5471225575
 20
4444.3517186984
 30
0.0
 11
6183.5471225575
 21
4444.0744602426
 31
0.0
  0
LINE
  5
36A
330
1F
100
AcDbEntity
  8
0
  6
Continuous
 62
     7
100
AcDbLine
 10
6183.2958442762
 20
4444.3517186984
 30
0.0
 11
6183.5471225575
 21
4444.3517186984
 31
0.0
  0
LINE
  5
36B
330
1F
100
AcDbEntity
  8
0
  6
Continuous
 62
     7
100
AcDbLine
 10
6183.2958442762
 20
4442.4682268247
 30
0.0
 11
6183.2958442762
 21
4444.3517186984
 31
0.0
  0
LINE
  5
36C
330
1F
100
AcDbEntity
  8
0
  6
Continuous
 62
     7
100
AcDbLine
 10
6183.5471225575
 20
4442.4682268247
 30
0.0
 11
6183.2958442762
 21
4442.4682268247
 31
0.0
  0
LINE
  5
36D
330
1F
100
AcDbEntity
  8
0
  6
Continuous
 62
     7
100
AcDbLine
 10
6184.7317425206
 20
4444.3517186984
 30
0.0
 11
6184.7317425206
 21
4442.4682268247
 31
0.0
  0
LINE
  5
36E
330
1F
100
AcDbEntity
  8
0
  6
Continuous
 62
     7
100
AcDbLine
 10
6184.4804567888
 20
4444.3517186984
 30
0.0
 11
6184.7317425206
 21
4444.3517186984
 31
0.0
  0
LINE
  5
36F
330
1F
100
AcDbEntity
  8
0
  6
Continuous
 62
     7
100
AcDbLine
 10
6184.4804567888
 20
4442.4682268247
 30
0.0
 11
6184.4804567888
 21
4444.3517186984
 31
0.0
  0
LINE
  5
370
330
1F
100
AcDbEntity
  8
0
  6
Continuous
 62
     7
100
AcDbLine
 10
6184.7317425206
 20
4442.4682268247
 30
0.0
 11
6184.4804567888
 21
4442.4682268247
 31
0.0
  0
LINE
  5
371
330
1F
100
AcDbEntity
  8
0
  6
Continuous
 62
     7
100
AcDbLine
 10
6192.0189169839
 20
4443.3604040488
 30
0.0
 11
6190.188152869
 21
4443.3604040488
 31
0.0
  0
LINE
  5
372
330
1F
100
AcDbEntity
  8
0
  6
Continuous
 62
     7
100
AcDbLine
 10
6191.6879919961
 20
4443.0630141243
 30
0.0
 11
6191.9112262919
 21
4442.9551073655
 31
0.0
  0
LINE
  5
373
330
1F
100
AcDbEntity
  8
0
  6
Continuous
 62
     7
100
AcDbLine
 10
6191.4804560736
 20
4445.1778167232
 30
0.0
 11
6190.9425539568
 21
4444.6491160735
 31
0.0
  0
LINE
  5
374
330
1F
100
AcDbEntity
  8
0
  6
Continuous
 62
     7
100
AcDbLine
 10
6191.0883916214
 20
4445.1778167232
 30
0.0
 11
6191.4804560736
 21
4445.1778167232
 31
0.0
  0
LINE
  5
375
330
1F
100
AcDbEntity
  8
0
  6
Continuous
 62
     7
100
AcDbLine
 10
6190.690716882
 20
4444.6491160735
 30
0.0
 11
6191.0883916214
 21
4445.1778167232
 31
0.0
  0
LINE
  5
376
330
1F
100
AcDbEntity
  8
0
  6
Continuous
 62
     7
100
AcDbLine
 10
6190.9425539568
 20
4444.6491160735
 30
0.0
 11
6190.690716882
 21
4444.6491160735
 31
0.0
  0
LINE
  5
377
330
1F
100
AcDbEntity
  8
0
  6
Continuous
 62
     7
100
AcDbLine
 10
6195.3983289793
 20
4442.9969274744
 30
0.0
 11
6195.6086588696
 21
4442.869917427
 31
0.0
  0
LINE
  5
378
330
1F
100
AcDbEntity
  8
0
  6
Continuous
 62
     7
100
AcDbLine
 10
6195.6086588696
 20
4443.9433225736
 30
0.0
 11
6195.3983289793
 21
4443.8230180487
 31
0.0
  0
LINE
  5
379
330
1F
100
AcDbEntity
  8
0
  6
Continuous
 62
     7
100
AcDbLine
 10
6194.5872662261
 20
4444.8520251855
 30
0.0
 11
6194.8761326864
 21
4445.0786867484
 31
0.0
  0
LINE
  5
37A
330
1F
100
AcDbEntity
  8
0
  6
Continuous
 62
     7
100
AcDbLine
 10
6194.2944807604
 20
4445.0786867484
 30
0.0
 11
6194.5872662261
 21
4444.8520251855
 31
0.0
  0
LINE
  5
37B
330
1F
100
AcDbEntity
  8
0
  6
Continuous
 62
     7
100
AcDbLine
 10
6193.921482344
 20
4445.0786867484
 30
0.0
 11
6194.2944807604
 21
4445.0786867484
 31
0.0
  0
LINE
  5
37C
330
1F
100
AcDbEntity
  8
0
  6
Continuous
 62
     7
100
AcDbLine
 10
6194.4666785791
 20
4444.6491160735
 30
0.0
 11
6193.921482344
 21
4445.0786867484
 31
0.0
  0
LINE
  5
37D
330
1F
100
AcDbEntity
  8
0
  6
Continuous
 62
     7
100
AcDbLine
 10
6194.70280983
 20
4444.6491160735
 30
0.0
 11
6194.4666785791
 21
4444.6491160735
 31
0.0
  0
LINE
  5
37E
330
1F
100
AcDbEntity
  8
0
  6
Continuous
 62
     7
100
AcDbLine
 10
6195.2496898964
 20
4445.0786867484
 30
0.0
 11
6194.70280983
 21
4444.6491160735
 31
0.0
  0
LINE
  5
37F
330
1F
100
AcDbEntity
  8
0
  6
Continuous
 62
     7
100
AcDbLine
 10
6194.8761326864
 20
4445.0786867484
 30
0.0
 11
6195.2496898964
 21
4445.0786867484
 31
0.0
  0
LINE
  5
380
330
1F
100
AcDbEntity
  8
0
  6
Continuous
 62
     7
100
AcDbLine
 10
6196.326611717
 20
4444.3517186984
 30
0.0
 11
6196.326611717
 21
4442.4682268247
 31
0.0
  0
LINE
  5
381
330
1F
100
AcDbEntity
  8
0
  6
Continuous
 62
     7
100
AcDbLine
 10
6196.0753259852
 20
4444.3517186984
 30
0.0
 11
6196.326611717
 21
4444.3517186984
 31
0.0
  0
LINE
  5
382
330
1F
100
AcDbEntity
  8
0
  6
Continuous
 62
     7
100
AcDbLine
 10
6196.0753259852
 20
4442.4682268247
 30
0.0
 11
6196.0753259852
 21
4444.3517186984
 31
0.0
  0
LINE
  5
383
330
1F
100
AcDbEntity
  8
0
  6
Continuous
 62
     7
100
AcDbLine
 10
6196.326611717
 20
4442.4682268247
 30
0.0
 11
6196.0753259852
 21
4442.4682268247
 31
0.0
  0
LINE
  5
384
330
1F
100
AcDbEntity
  8
0
  6
Continuous
 62
     7
100
AcDbLine
 10
6196.7214850381
 20
4445.1778167232
 30
0.0
 11
6196.1835829213
 21
4444.6491160735
 31
0.0
  0
LINE
  5
385
330
1F
100
AcDbEntity
  8
0
  6
Continuous
 62
     7
100
AcDbLine
 10
6196.3294131353
 20
4445.1778167232
 30
0.0
 11
6196.7214850381
 21
4445.1778167232
 31
0.0
  0
LINE
  5
386
330
1F
100
AcDbEntity
  8
0
  6
Continuous
 62
     7
100
AcDbLine
 10
6195.931738396
 20
4444.6491160735
 30
0.0
 11
6196.3294131353
 21
4445.1778167232
 31
0.0
  0
LINE
  5
387
330
1F
100
AcDbEntity
  8
0
  6
Continuous
 62
     7
100
AcDbLine
 10
6196.1835829213
 20
4444.6491160735
 30
0.0
 11
6195.931738396
 21
4444.6491160735
 31
0.0
  0
LINE
  5
388
330
1F
100
AcDbEntity
  8
0
  6
Continuous
 62
     7
100
AcDbLine
 10
6196.7214850381
 20
4442.6902392253
 30
0.0
 11
6196.8880725697
 21
4442.8647541746
 31
0.0
  0
LINE
  5
389
330
1F
100
AcDbEntity
  8
0
  6
Continuous
 62
     7
100
AcDbLine
 10
6197.8702006534
 20
4444.1168018922
 30
0.0
 11
6197.6996866658
 21
4443.955198799
 31
0.0
  0
LINE
  5
38A
330
1F
100
AcDbEntity
  8
0
  6
Continuous
 62
     7
100
AcDbLine
 10
6198.6240503982
 20
4445.1117300734
 30
0.0
 11
6198.6240503982
 21
4442.4682268247
 31
0.0
  0
LINE
  5
38B
330
1F
100
AcDbEntity
  8
0
  6
Continuous
 62
     7
100
AcDbLine
 10
6198.3727646664
 20
4445.1117300734
 30
0.0
 11
6198.6240503982
 21
4445.1117300734
 31
0.0
  0
LINE
  5
38C
330
1F
100
AcDbEntity
  8
0
  6
Continuous
 62
     7
100
AcDbLine
 10
6198.3727646664
 20
4442.4682268247
 30
0.0
 11
6198.3727646664
 21
4445.1117300734
 31
0.0
  0
LINE
  5
38D
330
1F
100
AcDbEntity
  8
0
  6
Continuous
 62
     7
100
AcDbLine
 10
6198.6240503982
 20
4442.4682268247
 30
0.0
 11
6198.3727646664
 21
4442.4682268247
 31
0.0
  0
LINE
  5
38E
330
1F
100
AcDbEntity
  8
0
  6
Continuous
 62
     7
100
AcDbLine
 10
6176.0187578991
 20
4447.1476161226
 30
0.0
 11
6176.0187578991
 21
4440.7040783509
 31
0.0
  0
LINE
  5
38F
330
1F
100
AcDbEntity
  8
0
  6
Continuous
 62
     7
100
AcDbLine
 10
6204.0187550381
 20
4440.7040783509
 30
0.0
 11
6204.0187550381
 21
4447.1476161226
 31
0.0
  0
LINE
  5
390
330
1F
100
AcDbEntity
  8
0
  6
Continuous
 62
     7
100
AcDbLine
 10
6204.0187550381
 20
4447.1866869673
 30
0.0
 11
6176.0187578991
 21
4447.1866869673
 31
0.0
  0
LINE
  5
391
330
1F
100
AcDbEntity
  8
0
  6
Continuous
 62
     7
100
AcDbLine
 10
6176.0187578991
 20
4447.1476161226
 30
0.0
 11
6176.0187578991
 21
4447.1866869673
 31
0.0
  0
LINE
  5
392
330
1F
100
AcDbEntity
  8
0
  6
Continuous
 62
     7
100
AcDbLine
 10
6204.0187550381
 20
4447.1476161226
 30
0.0
 11
6204.0187550381
 21
4447.1866869673
 31
0.0
  0
LINE
  5
393
330
1F
100
AcDbEntity
  8
0
  6
Continuous
 62
     7
100
AcDbLine
 10
6181.7887110308
 20
4444.6686514958
 30
0.0
 11
6181.7887110308
 21
4444.6491160735
 31
0.0
  0
LINE
  5
394
330
1F
100
AcDbEntity
  8
0
  6
Continuous
 62
     7
100
AcDbLine
 10
6182.3067349985
 20
4445.1778167232
 30
0.0
 11
6181.7887110308
 21
4444.6686514958
 31
0.0
  0
LINE
  5
395
330
1F
100
AcDbEntity
  8
0
  6
Continuous
 62
     7
100
AcDbLine
 10
6190.9425539568
 20
4444.6686514958
 30
0.0
 11
6190.9425539568
 21
4444.6491160735
 31
0.0
  0
LINE
  5
396
330
1F
100
AcDbEntity
  8
0
  6
Continuous
 62
     7
100
AcDbLine
 10
6191.4605779245
 20
4445.1778167232
 30
0.0
 11
6190.9425539568
 21
4444.6686514958
 31
0.0
  0
LINE
  5
397
330
1F
100
AcDbEntity
  8
0
  6
Continuous
 62
     7
100
AcDbLine
 10
6196.1835829213
 20
4444.6686514958
 30
0.0
 11
6196.1835829213
 21
4444.6491160735
 31
0.0
  0
LINE
  5
398
330
1F
100
AcDbEntity
  8
0
  6
Continuous
 62
     7
100
AcDbLine
 10
6196.7016068891
 20
4445.1778167232
 30
0.0
 11
6196.1835829213
 21
4444.6686514958
 31
0.0
  0
LINE
  5
399
330
1F
100
AcDbEntity
  8
0
  6
Continuous
 62
     7
100
AcDbLine
 10
6194.4666785791
 20
4444.6686514958
 30
0.0
 11
6193.9462778762
 21
4445.0786867484
 31
0.0
  0
LINE
  5
39A
330
1F
100
AcDbEntity
  8
0
  6
Continuous
 62
     7
100
AcDbLine
 10
6194.4666785791
 20
4444.6686514958
 30
0.0
 11
6194.4666785791
 21
4444.6491160735
 31
0.0
  0
LINE
  5
39B
330
1F
100
AcDbEntity
  8
0
  6
Continuous
 62
     7
100
AcDbLine
 10
6194.70280983
 20
4444.6686514958
 30
0.0
 11
6194.70280983
 21
4444.6491160735
 31
0.0
  0
LINE
  5
39C
330
1F
100
AcDbEntity
  8
0
  6
Continuous
 62
     7
100
AcDbLine
 10
6195.2248198584
 20
4445.0786867484
 30
0.0
 11
6194.70280983
 21
4444.6686514958
 31
0.0
  0
LINE
  5
39D
330
1F
100
AcDbEntity
  8
0
  6
Continuous
 62
     7
100
AcDbLine
 10
6196.1835829213
 20
4444.6686514958
 30
0.0
 11
6195.9464309409
 21
4444.6686514958
 31
0.0
  0
LINE
  5
39E
330
1F
100
AcDbEntity
  8
0
  6
Continuous
 62
     7
100
AcDbLine
 10
6181.7887110308
 20
4444.6686514958
 30
0.0
 11
6181.5515590504
 21
4444.6686514958
 31
0.0
  0
LINE
  5
39F
330
1F
100
AcDbEntity
  8
0
  6
Continuous
 62
     7
100
AcDbLine
 10
6190.9425539568
 20
4444.6686514958
 30
0.0
 11
6190.705409427
 21
4444.6686514958
 31
0.0
  0
LINE
  5
3A0
330
1F
100
AcDbEntity
  8
0
  6
Continuous
 62
     7
100
AcDbLine
 10
6180.3163570955
 20
4444.6949818477
 30
0.0
 11
6180.0891888931
 21
4444.536478196
 31
0.0
  0
LINE
  5
3A1
330
1F
100
AcDbEntity
  8
0
  6
Continuous
 62
     7
100
AcDbLine
 10
6198.6240503982
 20
4442.487762247
 30
0.0
 11
6198.3727646664
 21
4442.487762247
 31
0.0
  0
LINE
  5
3A2
330
1F
100
AcDbEntity
  8
0
  6
Continuous
 62
     7
100
AcDbLine
 10
6194.70280983
 20
4444.6686514958
 30
0.0
 11
6194.4666785791
 21
4444.6686514958
 31
0.0
  0
LINE
  5
3A3
330
1F
100
AcDbEntity
  8
0
  6
Continuous
 62
     7
100
AcDbLine
 10
6184.6049783423
 20
4444.7677814707
 30
0.0
 11
6184.6049783423
 21
4444.7482460483
 31
0.0
  0
LINE
  5
3A4
330
1F
100
AcDbEntity
  8
0
  6
Continuous
 62
     7
100
AcDbLine
 10
6179.5423162773
 20
4444.8669114455
 30
0.0
 11
6179.5423162773
 21
4444.8473760232
 31
0.0
  0
LINE
  5
3A5
330
1F
100
AcDbEntity
  8
0
  6
Continuous
 62
     7
100
AcDbLine
 10
6180.0891888931
 20
4444.536478196
 30
0.0
 11
6180.0891888931
 21
4444.5169427737
 31
0.0
  0
LINE
  5
3A6
330
1F
100
AcDbEntity
  8
0
  6
Continuous
 62
     7
100
AcDbLine
 10
6179.1317371324
 20
4444.5406058177
 30
0.0
 11
6179.1317371324
 21
4444.5210703954
 31
0.0
  0
LINE
  5
3A7
330
1F
100
AcDbEntity
  8
0
  6
Continuous
 62
     7
100
AcDbLine
 10
6179.036950846
 20
4444.1373729452
 30
0.0
 11
6179.036950846
 21
4444.1178300723
 31
0.0
  0
LINE
  5
3A8
330
1F
100
AcDbEntity
  8
0
  6
Continuous
 62
     7
100
AcDbLine
 10
6188.6445564821
 20
4442.487762247
 30
0.0
 11
6188.6445564821
 21
4442.4682268247
 31
0.0
  0
LINE
  5
3A9
330
1F
100
AcDbEntity
  8
0
  6
Continuous
 62
     7
100
AcDbLine
 10
6189.5682124093
 20
4444.3517186984
 30
0.0
 11
6188.6445564821
 21
4442.487762247
 31
0.0
  0
LINE
  5
3AA
330
1F
100
AcDbEntity
  8
0
  6
Continuous
 62
     7
100
AcDbLine
 10
6188.6086595848
 20
4442.487762247
 30
0.0
 11
6187.6850111082
 21
4444.3517186984
 31
0.0
  0
LINE
  5
3AB
330
1F
100
AcDbEntity
  8
0
  6
Continuous
 62
     7
100
AcDbLine
 10
6188.6086595848
 20
4442.487762247
 30
0.0
 11
6188.6086595848
 21
4442.4682268247
 31
0.0
  0
LINE
  5
3AC
330
1F
100
AcDbEntity
  8
0
  6
Continuous
 62
     7
100
AcDbLine
 10
6184.1270906523
 20
4444.139436756
 30
0.0
 11
6184.1270906523
 21
4444.1199013337
 31
0.0
  0
LINE
  5
3AD
330
1F
100
AcDbEntity
  8
0
  6
Continuous
 62
     7
100
AcDbLine
 10
6184.2548383072
 20
4444.3248966083
 30
0.0
 11
6184.1270906523
 21
4444.139436756
 31
0.0
  0
LINE
  5
3AE
330
1F
100
AcDbEntity
  8
0
  6
Continuous
 62
     7
100
AcDbLine
 10
6192.0189169839
 20
4443.3799469217
 30
0.0
 11
6190.188152869
 21
4443.3799469217
 31
0.0
  0
LINE
  5
3AF
330
1F
100
AcDbEntity
  8
0
  6
Continuous
 62
     7
100
AcDbLine
 10
6195.6086588696
 20
4443.9628579959
 30
0.0
 11
6195.3983289793
 21
4443.842553471
 31
0.0
  0
LINE
  5
3B0
330
1F
100
AcDbEntity
  8
0
  6
Continuous
 62
     7
100
AcDbLine
 10
6183.5471225575
 20
4442.487762247
 30
0.0
 11
6183.2958442762
 21
4442.487762247
 31
0.0
  0
LINE
  5
3B1
330
1F
100
AcDbEntity
  8
0
  6
Continuous
 62
     7
100
AcDbLine
 10
6197.8702006534
 20
4444.1363373145
 30
0.0
 11
6197.6996866658
 21
4443.9747342214
 31
0.0
  0
LINE
  5
3B2
330
1F
100
AcDbEntity
  8
0
  6
Continuous
 62
     7
100
AcDbLine
 10
6182.8650740579
 20
4443.3799469217
 30
0.0
 11
6181.0343024924
 21
4443.3799469217
 31
0.0
  0
LINE
  5
3B3
330
1F
100
AcDbEntity
  8
0
  6
Continuous
 62
     7
100
AcDbLine
 10
6184.7317425206
 20
4442.487762247
 30
0.0
 11
6184.4804567888
 21
4442.487762247
 31
0.0
  0
LINE
  5
3B4
330
1F
100
AcDbEntity
  8
0
  6
Continuous
 62
     7
100
AcDbLine
 10
6188.6445564821
 20
4442.487762247
 30
0.0
 11
6188.6086595848
 21
4442.487762247
 31
0.0
  0
LINE
  5
3B5
330
1F
100
AcDbEntity
  8
0
  6
Continuous
 62
     7
100
AcDbLine
 10
6196.326611717
 20
4442.487762247
 30
0.0
 11
6196.0753259852
 21
4442.487762247
 31
0.0
  0
LINE
  5
3B6
330
1F
100
AcDbEntity
  8
0
  6
Continuous
 62
     7
100
AcDbLine
 10
6197.0804540113
 20
4443.9194881662
 30
0.0
 11
6197.0804540113
 21
4443.8999527439
 31
0.0
  0
LINE
  5
3B7
330
1F
100
AcDbEntity
  8
0
  6
Continuous
 62
     7
100
AcDbLine
 10
6197.3463205293
 20
4444.172994171
 30
0.0
 11
6197.3463205293
 21
4444.1534587487
 31
0.0
  0
LINE
  5
3B8
330
1F
100
AcDbEntity
  8
0
  6
Continuous
 62
     7
100
AcDbLine
 10
6190.985186179
 20
4444.172994171
 30
0.0
 11
6190.985186179
 21
4444.1534587487
 31
0.0
  0
LINE
  5
3B9
330
1F
100
AcDbEntity
  8
0
  6
Continuous
 62
     7
100
AcDbLine
 10
6191.7676387027
 20
4443.6112501964
 30
0.0
 11
6191.7676387027
 21
4443.591714774
 31
0.0
  0
LINE
  5
3BA
330
1F
100
AcDbEntity
  8
0
  6
Continuous
 62
     7
100
AcDbLine
 10
6199.3778926924
 20
4443.4227952107
 30
0.0
 11
6199.3778926924
 21
4443.4032597884
 31
0.0
  0
LINE
  5
3BB
330
1F
100
AcDbEntity
  8
0
  6
Continuous
 62
     7
100
AcDbLine
 10
6200.1855877832
 20
4444.172994171
 30
0.0
 11
6200.1855877832
 21
4444.1534587487
 31
0.0
  0
LINE
  5
3BC
330
1F
100
AcDbEntity
  8
0
  6
Continuous
 62
     7
100
AcDbLine
 10
6197.6996866658
 20
4443.9747342214
 30
0.0
 11
6197.6996866658
 21
4443.955198799
 31
0.0
  0
LINE
  5
3BD
330
1F
100
AcDbEntity
  8
0
  6
Continuous
 62
     7
100
AcDbLine
 10
6185.5214817122
 20
4443.4227952107
 30
0.0
 11
6185.5214817122
 21
4443.4032597884
 31
0.0
  0
LINE
  5
3BE
330
1F
100
AcDbEntity
  8
0
  6
Continuous
 62
     7
100
AcDbLine
 10
6186.3291768029
 20
4444.172994171
 30
0.0
 11
6186.3291768029
 21
4444.1534587487
 31
0.0
  0
LINE
  5
3BF
330
1F
100
AcDbEntity
  8
0
  6
Continuous
 62
     7
100
AcDbLine
 10
6183.5919974044
 20
4443.7671759471
 30
0.0
 11
6183.5919974044
 21
4443.7476405248
 31
0.0
  0
LINE
  5
3C0
330
1F
100
AcDbEntity
  8
0
  6
Continuous
 62
     7
100
AcDbLine
 10
6183.9986426428
 20
4444.172994171
 30
0.0
 11
6183.9986426428
 21
4444.1534587487
 31
0.0
  0
LINE
  5
3C1
330
1F
100
AcDbEntity
  8
0
  6
Continuous
 62
     7
100
AcDbLine
 10
6181.8313358024
 20
4444.172994171
 30
0.0
 11
6181.8313358024
 21
4444.1534587487
 31
0.0
  0
LINE
  5
3C2
330
1F
100
AcDbEntity
  8
0
  6
Continuous
 62
     7
100
AcDbLine
 10
6182.6137883261
 20
4443.6112501964
 30
0.0
 11
6182.6137883261
 21
4443.591714774
 31
0.0
  0
LINE
  5
3C3
330
1F
100
AcDbEntity
  8
0
  6
Continuous
 62
     7
100
AcDbLine
 10
6187.1368644431
 20
4443.4227952107
 30
0.0
 11
6187.1368644431
 21
4443.4032597884
 31
0.0
  0
LINE
  5
3C4
330
1F
100
AcDbEntity
  8
0
  6
Continuous
 62
     7
100
AcDbLine
 10
6190.2145130232
 20
4443.591714774
 30
0.0
 11
6191.7676387027
 21
4443.591714774
 31
0.0
  0
LINE
  5
3C5
330
1F
100
AcDbEntity
  8
0
  6
Continuous
 62
     7
100
AcDbLine
 10
6190.4579383925
 20
4443.9964154109
 30
0.0
 11
6190.4579383925
 21
4443.9768799886
 31
0.0
  0
LINE
  5
3C6
330
1F
100
AcDbEntity
  8
0
  6
Continuous
 62
     7
100
AcDbLine
 10
6181.3040954664
 20
4443.9964154109
 30
0.0
 11
6181.3040954664
 21
4443.9768799886
 31
0.0
  0
LINE
  5
3C7
330
1F
100
AcDbEntity
  8
0
  6
Continuous
 62
     7
100
AcDbLine
 10
6181.0606626466
 20
4443.591714774
 30
0.0
 11
6182.6137883261
 21
4443.591714774
 31
0.0
  0
LINE
  5
3C8
330
1F
100
AcDbEntity
  8
0
  6
Continuous
 62
     7
100
AcDbLine
 10
6193.7778947547
 20
4443.4346714362
 30
0.0
 11
6193.7778947547
 21
4443.4151360139
 31
0.0
  0
LINE
  5
3C9
330
1F
100
AcDbEntity
  8
0
  6
Continuous
 62
     7
100
AcDbLine
 10
6194.6534571841
 20
4444.172994171
 30
0.0
 11
6194.6534571841
 21
4444.1534587487
 31
0.0
  0
LINE
  5
3CA
330
1F
100
AcDbEntity
  8
0
  6
Continuous
 62
     7
100
AcDbLine
 10
6195.3983289793
 20
4443.842553471
 30
0.0
 11
6195.3983289793
 21
4443.8230180487
 31
0.0
  0
LINE
  5
3CB
330
1F
100
AcDbEntity
  8
0
  6
Continuous
 62
     7
100
AcDbLine
 10
6200.9932754233
 20
4443.4227952107
 30
0.0
 11
6200.9932754233
 21
4443.4032597884
 31
0.0
  0
LINE
  5
3CC
330
1F
100
AcDbEntity
  8
0
  6
Continuous
 62
     7
100
AcDbLine
 10
6179.4957650497
 20
4443.7867933258
 30
0.0
 11
6179.4957650497
 21
4443.7672579035
 31
0.0
  0
LINE
  5
3CD
330
1F
100
AcDbEntity
  8
0
  6
Continuous
 62
     7
100
AcDbLine
 10
6190.2145130232
 20
4443.6112501964
 30
0.0
 11
6190.2145130232
 21
4443.591714774
 31
0.0
  0
LINE
  5
3CE
330
1F
100
AcDbEntity
  8
0
  6
Continuous
 62
     7
100
AcDbLine
 10
6181.0606626466
 20
4443.6112501964
 30
0.0
 11
6181.0606626466
 21
4443.591714774
 31
0.0
  0
LINE
  5
3CF
330
1F
100
AcDbEntity
  8
0
  6
Continuous
 62
     7
100
AcDbLine
 10
6196.9228444293
 20
4443.6200269803
 30
0.0
 11
6196.9228444293
 21
4443.600491558
 31
0.0
  0
LINE
  5
3D0
330
1F
100
AcDbEntity
  8
0
  6
Continuous
 62
     7
100
AcDbLine
 10
6180.0005716875
 20
4443.3758118495
 30
0.0
 11
6180.0005716875
 21
4443.3562764272
 31
0.0
  0
LINE
  5
3D1
330
1F
100
AcDbEntity
  8
0
  6
Continuous
 62
     7
100
AcDbLine
 10
6183.5471225575
 20
4443.1207561239
 30
0.0
 11
6183.5471225575
 21
4443.1012207016
 31
0.0
  0
LINE
  5
3D2
330
1F
100
AcDbEntity
  8
0
  6
Continuous
 62
     7
100
AcDbLine
 10
6197.2756517723
 20
4443.3629074439
 30
0.0
 11
6197.2756517723
 21
4443.3433720216
 31
0.0
  0
LINE
  5
3D3
330
1F
100
AcDbEntity
  8
0
  6
Continuous
 62
     7
100
AcDbLine
 10
6190.9661126926
 20
4442.454718922
 30
0.0
 11
6190.9661126926
 21
4442.4351834997
 31
0.0
  0
LINE
  5
3D4
330
1F
100
AcDbEntity
  8
0
  6
Continuous
 62
     7
100
AcDbLine
 10
6186.33029439
 20
4442.454718922
 30
0.0
 11
6186.33029439
 21
4442.4351834997
 31
0.0
  0
LINE
  5
3D5
330
1F
100
AcDbEntity
  8
0
  6
Continuous
 62
     7
100
AcDbLine
 10
6200.1867053702
 20
4442.454718922
 30
0.0
 11
6200.1867053702
 21
4442.4351834997
 31
0.0
  0
LINE
  5
3D6
330
1F
100
AcDbEntity
  8
0
  6
Continuous
 62
     7
100
AcDbLine
 10
6181.8122697666
 20
4442.454718922
 30
0.0
 11
6181.8122697666
 21
4442.4351834997
 31
0.0
  0
LINE
  5
3D7
330
1F
100
AcDbEntity
  8
0
  6
Continuous
 62
     7
100
AcDbLine
 10
6194.6512071088
 20
4442.454718922
 30
0.0
 11
6194.6512071088
 21
4442.4351834997
 31
0.0
  0
LINE
  5
3D8
330
1F
100
AcDbEntity
  8
0
  6
Continuous
 62
     7
100
AcDbLine
 10
6190.188152869
 20
4443.3799469217
 30
0.0
 11
6190.188152869
 21
4443.3604040488
 31
0.0
  0
LINE
  5
3D9
330
1F
100
AcDbEntity
  8
0
  6
Continuous
 62
     7
100
AcDbLine
 10
6181.0343024924
 20
4443.3799469217
 30
0.0
 11
6181.0343024924
 21
4443.3604040488
 31
0.0
  0
LINE
  5
3DA
330
1F
100
AcDbEntity
  8
0
  6
Continuous
 62
     7
100
AcDbLine
 10
6180.1009682611
 20
4443.1228199347
 30
0.0
 11
6180.1009682611
 21
4443.1032845124
 31
0.0
  0
LINE
  5
3DB
330
1F
100
AcDbEntity
  8
0
  6
Continuous
 62
     7
100
AcDbLine
 10
6197.5858268931
 20
4443.1687751159
 30
0.0
 11
6197.5858268931
 21
4443.1492396935
 31
0.0
  0
LINE
  5
3DC
330
1F
100
AcDbEntity
  8
0
  6
Continuous
 62
     7
100
AcDbLine
 10
6197.6548192695
 20
4442.9890969142
 30
0.0
 11
6197.6548192695
 21
4442.9695614919
 31
0.0
  0
LINE
  5
3DD
330
1F
100
AcDbEntity
  8
0
  6
Continuous
 62
     7
100
AcDbLine
 10
6179.552411814
 20
4442.4216755971
 30
0.0
 11
6179.552411814
 21
4442.4021401748
 31
0.0
  0
LINE
  5
3DE
330
1F
100
AcDbEntity
  8
0
  6
Continuous
 62
     7
100
AcDbLine
 10
6197.306497176
 20
4442.454718922
 30
0.0
 11
6197.306497176
 21
4442.4351834997
 31
0.0
  0
LINE
  5
3DF
330
1F
100
AcDbEntity
  8
0
  6
Continuous
 62
     7
100
AcDbLine
 10
6259.1187555015
 20
4351.0143821433
 30
0.0
 11
6288.9187551707
 21
4351.0143821433
 31
0.0
  0
LINE
  5
3E0
330
1F
100
AcDbEntity
  8
0
  6
Continuous
 62
     7
100
AcDbLine
 10
6260.018754904
 20
4359.0143818248
 30
0.0
 11
6260.018754904
 21
4353.0143815398
 31
0.0
  0
LINE
  5
3E1
330
1F
100
AcDbEntity
  8
0
  6
Continuous
 62
     7
100
AcDbLine
 10
6288.0187557682
 20
4359.0143818248
 30
0.0
 11
6288.0187557682
 21
4353.0143815398
 31
0.0
  0
LINE
  5
3E2
330
1F
100
AcDbEntity
  8
0
  6
Continuous
 62
     7
100
AcDbLine
 10
6260.018754904
 20
4353.0143815398
 30
0.0
 11
6288.0187557682
 21
4353.0143815398
 31
0.0
  0
LINE
  5
3E3
330
1F
100
AcDbEntity
  8
0
  6
Continuous
 62
     7
100
AcDbLine
 10
6259.1187555015
 20
4328.0143820986
 30
0.0
 11
6259.3021990403
 21
4325.9957851216
 31
0.0
  0
LINE
  5
3E4
330
1F
100
AcDbEntity
  8
0
  6
Continuous
 62
     7
100
AcDbLine
 10
6259.3021990403
 20
4325.9957851216
 30
0.0
 11
6259.8480136737
 21
4324.026894693
 31
0.0
  0
LINE
  5
3E5
330
1F
100
AcDbEntity
  8
0
  6
Continuous
 62
     7
100
AcDbLine
 10
6259.8480136737
 20
4324.026894693
 30
0.0
 11
6260.7427585542
 21
4322.1561880156
 31
0.0
  0
LINE
  5
3E6
330
1F
100
AcDbEntity
  8
0
  6
Continuous
 62
     7
100
AcDbLine
 10
6260.7427585542
 20
4322.1561880156
 30
0.0
 11
6261.964402315
 21
4320.4297320291
 31
0.0
  0
LINE
  5
3E7
330
1F
100
AcDbEntity
  8
0
  6
Continuous
 62
     7
100
AcDbLine
 10
6261.964402315
 20
4320.4297320291
 30
0.0
 11
6263.4828641683
 21
4318.8900322958
 31
0.0
  0
LINE
  5
3E8
330
1F
100
AcDbEntity
  8
0
  6
Continuous
 62
     7
100
AcDbLine
 10
6263.4828641683
 20
4318.8900322958
 30
0.0
 11
6265.2607552379
 21
4317.5750048205
 31
0.0
  0
LINE
  5
3E9
330
1F
100
AcDbEntity
  8
0
  6
Continuous
 62
     7
100
AcDbLine
 10
6265.2607552379
 20
4317.5750048205
 30
0.0
 11
6267.2542968437
 21
4316.5170298263
 31
0.0
  0
LINE
  5
3EA
330
1F
100
AcDbEntity
  8
0
  6
Continuous
 62
     7
100
AcDbLine
 10
6267.2542968437
 20
4316.5170298263
 30
0.0
 11
6269.4144022323
 21
4315.7421582684
 31
0.0
  0
LINE
  5
3EB
330
1F
100
AcDbEntity
  8
0
  6
Continuous
 62
     7
100
AcDbLine
 10
6269.4144022323
 20
4315.7421582684
 30
0.0
 11
6271.6878817089
 21
4315.2694710835
 31
0.0
  0
LINE
  5
3EC
330
1F
100
AcDbEntity
  8
0
  6
Continuous
 62
     7
100
AcDbLine
 10
6271.6878817089
 20
4315.2694710835
 30
0.0
 11
6274.0187553361
 21
4315.1106023535
 31
0.0
  0
LINE
  5
3ED
330
1F
100
AcDbEntity
  8
0
  6
Continuous
 62
     7
100
AcDbLine
 10
6274.0187553361
 20
4315.1106023535
 30
0.0
 11
6276.3496289633
 21
4315.2694710835
 31
0.0
  0
LINE
  5
3EE
330
1F
100
AcDbEntity
  8
0
  6
Continuous
 62
     7
100
AcDbLine
 10
6276.3496289633
 20
4315.2694710835
 30
0.0
 11
6278.6231084399
 21
4315.7421582684
 31
0.0
  0
LINE
  5
3EF
330
1F
100
AcDbEntity
  8
0
  6
Continuous
 62
     7
100
AcDbLine
 10
6278.6231084399
 20
4315.7421582684
 30
0.0
 11
6280.7832138285
 21
4316.5170298263
 31
0.0
  0
LINE
  5
3F0
330
1F
100
AcDbEntity
  8
0
  6
Continuous
 62
     7
100
AcDbLine
 10
6280.7832138285
 20
4316.5170298263
 30
0.0
 11
6282.7767554343
 21
4317.5750048205
 31
0.0
  0
LINE
  5
3F1
330
1F
100
AcDbEntity
  8
0
  6
Continuous
 62
     7
100
AcDbLine
 10
6282.7767554343
 20
4317.5750048205
 30
0.0
 11
6284.5546465039
 21
4318.8900322958
 31
0.0
  0
LINE
  5
3F2
330
1F
100
AcDbEntity
  8
0
  6
Continuous
 62
     7
100
AcDbLine
 10
6284.5546465039
 20
4318.8900322958
 30
0.0
 11
6286.0731083572
 21
4320.4297320291
 31
0.0
  0
LINE
  5
3F3
330
1F
100
AcDbEntity
  8
0
  6
Continuous
 62
     7
100
AcDbLine
 10
6286.0731083572
 20
4320.4297320291
 30
0.0
 11
6287.294752118
 21
4322.1561880156
 31
0.0
  0
LINE
  5
3F4
330
1F
100
AcDbEntity
  8
0
  6
Continuous
 62
     7
100
AcDbLine
 10
6287.294752118
 20
4322.1561880156
 30
0.0
 11
6288.1894969985
 21
4324.026894693
 31
0.0
  0
LINE
  5
3F5
330
1F
100
AcDbEntity
  8
0
  6
Continuous
 62
     7
100
AcDbLine
 10
6288.1894969985
 20
4324.026894693
 30
0.0
 11
6288.7353116319
 21
4325.9957851216
 31
0.0
  0
LINE
  5
3F6
330
1F
100
AcDbEntity
  8
0
  6
Continuous
 62
     7
100
AcDbLine
 10
6288.7353116319
 20
4325.9957851216
 30
0.0
 11
6288.9187551707
 21
4328.0143820986
 31
0.0
  0
LINE
  5
3F7
330
1F
100
AcDbEntity
  8
0
  6
Continuous
 62
     7
100
AcDbLine
 10
6259.1187555015
 20
4327.7643815919
 30
0.0
 11
6259.3021990403
 21
4325.7457846149
 31
0.0
  0
LINE
  5
3F8
330
1F
100
AcDbEntity
  8
0
  6
Continuous
 62
     7
100
AcDbLine
 10
6259.3021990403
 20
4325.7457846149
 30
0.0
 11
6259.8480136737
 21
4323.7768941864
 31
0.0
  0
LINE
  5
3F9
330
1F
100
AcDbEntity
  8
0
  6
Continuous
 62
     7
100
AcDbLine
 10
6259.8480136737
 20
4323.7768941864
 30
0.0
 11
6260.7427585542
 21
4321.906187509
 31
0.0
  0
LINE
  5
3FA
330
1F
100
AcDbEntity
  8
0
  6
Continuous
 62
     7
100
AcDbLine
 10
6260.7427585542
 20
4321.906187509
 30
0.0
 11
6261.964402315
 21
4320.1797315225
 31
0.0
  0
LINE
  5
3FB
330
1F
100
AcDbEntity
  8
0
  6
Continuous
 62
     7
100
AcDbLine
 10
6261.964402315
 20
4320.1797315225
 30
0.0
 11
6263.4828641683
 21
4318.6400317892
 31
0.0
  0
LINE
  5
3FC
330
1F
100
AcDbEntity
  8
0
  6
Continuous
 62
     7
100
AcDbLine
 10
6263.4828641683
 20
4318.6400317892
 30
0.0
 11
6265.2607552379
 21
4317.3250043138
 31
0.0
  0
LINE
  5
3FD
330
1F
100
AcDbEntity
  8
0
  6
Continuous
 62
     7
100
AcDbLine
 10
6265.2607552379
 20
4317.3250043138
 30
0.0
 11
6267.2542968437
 21
4316.2670293197
 31
0.0
  0
LINE
  5
3FE
330
1F
100
AcDbEntity
  8
0
  6
Continuous
 62
     7
100
AcDbLine
 10
6267.2542968437
 20
4316.2670293197
 30
0.0
 11
6269.4144022323
 21
4315.4921577617
 31
0.0
  0
LINE
  5
3FF
330
1F
100
AcDbEntity
  8
0
  6
Continuous
 62
     7
100
AcDbLine
 10
6269.4144022323
 20
4315.4921577617
 30
0.0
 11
6271.6878817089
 21
4315.0194705769
 31
0.0
  0
LINE
  5
400
330
1F
100
AcDbEntity
  8
0
  6
Continuous
 62
     7
100
AcDbLine
 10
6271.6878817089
 20
4315.0194705769
 30
0.0
 11
6274.0187553361
 21
4314.8606018468
 31
0.0
  0
LINE
  5
401
330
1F
100
AcDbEntity
  8
0
  6
Continuous
 62
     7
100
AcDbLine
 10
6274.0187553361
 20
4314.8606018468
 30
0.0
 11
6276.3496289633
 21
4315.0194705769
 31
0.0
  0
LINE
  5
402
330
1F
100
AcDbEntity
  8
0
  6
Continuous
 62
     7
100
AcDbLine
 10
6276.3496289633
 20
4315.0194705769
 30
0.0
 11
6278.6231084399
 21
4315.4921577617
 31
0.0
  0
LINE
  5
403
330
1F
100
AcDbEntity
  8
0
  6
Continuous
 62
     7
100
AcDbLine
 10
6278.6231084399
 20
4315.4921577617
 30
0.0
 11
6280.7832138285
 21
4316.2670293197
 31
0.0
  0
LINE
  5
404
330
1F
100
AcDbEntity
  8
0
  6
Continuous
 62
     7
100
AcDbLine
 10
6280.7832138285
 20
4316.2670293197
 30
0.0
 11
6282.7767554343
 21
4317.3250043138
 31
0.0
  0
LINE
  5
405
330
1F
100
AcDbEntity
  8
0
  6
Continuous
 62
     7
100
AcDbLine
 10
6282.7767554343
 20
4317.3250043138
 30
0.0
 11
6284.5546465039
 21
4318.6400317892
 31
0.0
  0
LINE
  5
406
330
1F
100
AcDbEntity
  8
0
  6
Continuous
 62
     7
100
AcDbLine
 10
6284.5546465039
 20
4318.6400317892
 30
0.0
 11
6286.0731083572
 21
4320.1797315225
 31
0.0
  0
LINE
  5
407
330
1F
100
AcDbEntity
  8
0
  6
Continuous
 62
     7
100
AcDbLine
 10
6286.0731083572
 20
4320.1797315225
 30
0.0
 11
6287.294752118
 21
4321.906187509
 31
0.0
  0
LINE
  5
408
330
1F
100
AcDbEntity
  8
0
  6
Continuous
 62
     7
100
AcDbLine
 10
6287.294752118
 20
4321.906187509
 30
0.0
 11
6288.1894969985
 21
4323.7768941864
 31
0.0
  0
LINE
  5
409
330
1F
100
AcDbEntity
  8
0
  6
Continuous
 62
     7
100
AcDbLine
 10
6288.1894969985
 20
4323.7768941864
 30
0.0
 11
6288.7353116319
 21
4325.7457846149
 31
0.0
  0
LINE
  5
40A
330
1F
100
AcDbEntity
  8
0
  6
Continuous
 62
     7
100
AcDbLine
 10
6288.7353116319
 20
4325.7457846149
 30
0.0
 11
6288.9187551707
 21
4327.7643815919
 31
0.0
  0
LINE
  5
40B
330
1F
100
AcDbEntity
  8
0
  6
Continuous
 62
     7
100
AcDbLine
 10
6274.0187553361
 20
4299.1106034562
 30
0.0
 11
6276.3496289633
 21
4299.2694721862
 31
0.0
  0
LINE
  5
40C
330
1F
100
AcDbEntity
  8
0
  6
Continuous
 62
     7
100
AcDbLine
 10
6276.3496289633
 20
4299.2694721862
 30
0.0
 11
6278.6231084399
 21
4299.742159371
 31
0.0
  0
LINE
  5
40D
330
1F
100
AcDbEntity
  8
0
  6
Continuous
 62
     7
100
AcDbLine
 10
6278.6231084399
 20
4299.742159371
 30
0.0
 11
6280.7832138285
 21
4300.517030929
 31
0.0
  0
LINE
  5
40E
330
1F
100
AcDbEntity
  8
0
  6
Continuous
 62
     7
100
AcDbLine
 10
6280.7832138285
 20
4300.517030929
 30
0.0
 11
6282.7767554343
 21
4301.5750059232
 31
0.0
  0
LINE
  5
40F
330
1F
100
AcDbEntity
  8
0
  6
Continuous
 62
     7
100
AcDbLine
 10
6282.7767554343
 20
4301.5750059232
 30
0.0
 11
6284.5546465039
 21
4302.8900333985
 31
0.0
  0
LINE
  5
410
330
1F
100
AcDbEntity
  8
0
  6
Continuous
 62
     7
100
AcDbLine
 10
6284.5546465039
 20
4302.8900333985
 30
0.0
 11
6286.0731083572
 21
4304.4297294065
 31
0.0
  0
LINE
  5
411
330
1F
100
AcDbEntity
  8
0
  6
Continuous
 62
     7
100
AcDbLine
 10
6286.0731083572
 20
4304.4297294065
 30
0.0
 11
6287.294752118
 21
4306.1561891183
 31
0.0
  0
LINE
  5
412
330
1F
100
AcDbEntity
  8
0
  6
Continuous
 62
     7
100
AcDbLine
 10
6287.294752118
 20
4306.1561891183
 30
0.0
 11
6288.1894969985
 21
4308.0268957957
 31
0.0
  0
LINE
  5
413
330
1F
100
AcDbEntity
  8
0
  6
Continuous
 62
     7
100
AcDbLine
 10
6288.1894969985
 20
4308.0268957957
 30
0.0
 11
6288.7353116319
 21
4309.9957862243
 31
0.0
  0
LINE
  5
414
330
1F
100
AcDbEntity
  8
0
  6
Continuous
 62
     7
100
AcDbLine
 10
6288.7353116319
 20
4309.9957862243
 30
0.0
 11
6288.9187551707
 21
4312.0143832013
 31
0.0
  0
LINE
  5
415
330
1F
100
AcDbEntity
  8
0
  6
Continuous
 62
     7
100
AcDbLine
 10
6259.1187555015
 20
4312.0143832013
 30
0.0
 11
6259.3021990403
 21
4309.9957862243
 31
0.0
  0
LINE
  5
416
330
1F
100
AcDbEntity
  8
0
  6
Continuous
 62
     7
100
AcDbLine
 10
6259.3021990403
 20
4309.9957862243
 30
0.0
 11
6259.8480136737
 21
4308.0268957957
 31
0.0
  0
LINE
  5
417
330
1F
100
AcDbEntity
  8
0
  6
Continuous
 62
     7
100
AcDbLine
 10
6259.8480136737
 20
4308.0268957957
 30
0.0
 11
6260.7427585542
 21
4306.1561891183
 31
0.0
  0
LINE
  5
418
330
1F
100
AcDbEntity
  8
0
  6
Continuous
 62
     7
100
AcDbLine
 10
6260.7427585542
 20
4306.1561891183
 30
0.0
 11
6261.964402315
 21
4304.4297294065
 31
0.0
  0
LINE
  5
419
330
1F
100
AcDbEntity
  8
0
  6
Continuous
 62
     7
100
AcDbLine
 10
6261.964402315
 20
4304.4297294065
 30
0.0
 11
6263.4828641683
 21
4302.8900333985
 31
0.0
  0
LINE
  5
41A
330
1F
100
AcDbEntity
  8
0
  6
Continuous
 62
     7
100
AcDbLine
 10
6263.4828641683
 20
4302.8900333985
 30
0.0
 11
6265.2607552379
 21
4301.5750059232
 31
0.0
  0
LINE
  5
41B
330
1F
100
AcDbEntity
  8
0
  6
Continuous
 62
     7
100
AcDbLine
 10
6265.2607552379
 20
4301.5750059232
 30
0.0
 11
6267.2542968437
 21
4300.517030929
 31
0.0
  0
LINE
  5
41C
330
1F
100
AcDbEntity
  8
0
  6
Continuous
 62
     7
100
AcDbLine
 10
6267.2542968437
 20
4300.517030929
 30
0.0
 11
6269.4144022323
 21
4299.742159371
 31
0.0
  0
LINE
  5
41D
330
1F
100
AcDbEntity
  8
0
  6
Continuous
 62
     7
100
AcDbLine
 10
6269.4144022323
 20
4299.742159371
 30
0.0
 11
6271.6878817089
 21
4299.2694721862
 31
0.0
  0
LINE
  5
41E
330
1F
100
AcDbEntity
  8
0
  6
Continuous
 62
     7
100
AcDbLine
 10
6271.6878817089
 20
4299.2694721862
 30
0.0
 11
6274.0187553361
 21
4299.1106034562
 31
0.0
  0
LINE
  5
41F
330
1F
100
AcDbEntity
  8
0
  6
Continuous
 62
     7
100
AcDbLine
 10
6301.0187560365
 20
4359.0143818248
 30
0.0
 11
6247.0187546357
 21
4359.0143818248
 31
0.0
  0
LINE
  5
420
330
1F
100
AcDbEntity
  8
0
  6
Continuous
 62
     7
100
AcDbLine
 10
6246.5187554851
 20
4359.5143819067
 30
0.0
 11
6301.5187551871
 21
4359.5143819067
 31
0.0
  0
LINE
  5
421
330
1F
100
AcDbEntity
  8
0
  6
Continuous
 62
     7
100
AcDbLine
 10
6301.5187551871
 20
4360.514381896
 30
0.0
 11
6246.5187554851
 21
4360.514381896
 31
0.0
  0
LWPOLYLINE
  5
422
330
1F
100
AcDbEntity
  8
0
  6
Continuous
 62
     7
100
AcDbPolyline
 90
        5
 70
   128
 43
0.0
 10
6204.2465209961
 20
4692.9898337608
 10
6204.1806721645
 20
4693.0206742129
 10
6204.1144834237
 20
4693.1116264683
 10
6203.9821063115
 20
4693.4584628705
 10
6203.7173492506
 20
4694.5898337204
  0
LWPOLYLINE
  5
423
330
1F
100
AcDbEntity
  8
0
  6
Continuous
 62
     7
100
AcDbPolyline
 90
        5
 70
   128
 43
0.0
 10
6344.3183898926
 20
4694.5898337204
 10
6344.0554043607
 20
4693.4584628705
 10
6343.9230272485
 20
4693.1116264683
 10
6343.8568385077
 20
4693.0206742129
 10
6343.7906486586
 20
4692.9898337608
  0
LWPOLYLINE
  5
424
330
1F
100
AcDbEntity
  8
0
  6
Continuous
 62
     7
100
AcDbPolyline
 90
        3
 70
   128
 43
0.0
 10
6344.5243835449
 20
4692.9898337608
 10
6345.5459707597
 20
4693.5699854497
 10
6345.7929698422
 20
4694.5898337204
  0
LWPOLYLINE
  5
425
330
1F
100
AcDbEntity
  8
0
  6
Continuous
 62
     7
100
AcDbPolyline
 90
        3
 70
   128
 43
0.0
 10
6344.5243835449
 20
4693.7898337406
 10
6344.9784857679
 20
4694.0799556671
 10
6345.056562468
 20
4694.5898337204
  0
LWPOLYLINE
  5
426
330
1F
100
AcDbEntity
  8
0
  6
Continuous
 62
     7
100
AcDbPolyline
 90
        3
 70
   128
 43
0.0
 10
6383.9073181152
 20
4694.5898337204
 10
6383.302469089
 20
4693.3570556645
 10
6382.3053149179
 20
4692.9898337608
  0
LWPOLYLINE
  5
427
330
1F
100
AcDbEntity
  8
0
  6
Continuous
 62
     7
100
AcDbPolyline
 90
        3
 70
   128
 43
0.0
 10
6202.2438049316
 20
4694.5898337204
 10
6202.6627153612
 20
4693.3570556645
 10
6203.510454078
 20
4692.9898337608
  0
LWPOLYLINE
  5
428
330
1F
100
AcDbEntity
  8
0
  6
Continuous
 62
     7
100
AcDbPolyline
 90
        3
 70
   128
 43
0.0
 10
6202.9800415039
 20
4694.5898337204
 10
6203.1321454169
 20
4693.9735488744
 10
6203.510454078
 20
4693.7898337406
  0
LWPOLYLINE
  5
429
330
1F
100
AcDbEntity
  8
0
  6
Continuous
 62
     7
100
AcDbPolyline
 90
        3
 70
   128
 43
0.0
 10
6165.7295227051
 20
4692.9898337608
 10
6164.5231165521
 20
4693.5699854497
 10
6164.1267073944
 20
4694.5898337204
  0
LWPOLYLINE
  5
42A
330
1F
100
AcDbEntity
  8
0
  6
Continuous
 62
     7
100
AcDbPolyline
 90
        3
 70
   128
 43
0.0
 10
6307.7507019043
 20
4711.6758702237
 10
6308.4152691625
 20
4710.033577802
 10
6309.7282481983
 20
4709.5504701051
  0
LWPOLYLINE
  5
42B
330
1F
100
AcDbEntity
  8
0
  6
Continuous
 62
     7
100
AcDbPolyline
 90
        3
 70
   128
 43
0.0
 10
6309.7267150879
 20
4709.5504701051
 10
6311.3116962228
 20
4710.3293898404
 10
6311.7254433826
 20
4711.6758702237
  0
LWPOLYLINE
  5
42C
330
1F
100
AcDbEntity
  8
0
  6
Continuous
 62
     7
100
AcDbPolyline
 90
        3
 70
   128
 43
0.0
 10
6311.7218017578
 20
4711.6758702237
 10
6311.0485948455
 20
4713.3077367127
 10
6309.7342570916
 20
4713.7812385249
  0
LWPOLYLINE
  5
42D
330
1F
100
AcDbEntity
  8
0
  6
Continuous
 62
     7
100
AcDbPolyline
 90
        3
 70
   128
 43
0.0
 10
6309.7305297852
 20
4713.7812385249
 10
6308.1637919352
 20
4713.0097155039
 10
6307.7510839
 20
4711.6758702237
  0
LWPOLYLINE
  5
42E
330
1F
100
AcDbEntity
  8
0
  6
Continuous
 62
     7
100
AcDbPolyline
 90
        3
 70
   128
 43
0.0
 10
6309.6923828125
 20
4715.4479054648
 10
6312.6435410307
 20
4714.0894509313
 10
6313.5203143254
 20
4711.671863674
  0
LWPOLYLINE
  5
42F
330
1F
100
AcDbEntity
  8
0
  6
Continuous
 62
     7
100
AcDbPolyline
 90
        3
 70
   128
 43
0.0
 10
6313.5185241699
 20
4711.671863674
 10
6312.1380316328
 20
4708.7291396526
 10
6309.7022046938
 20
4707.8838031653
  0
LWPOLYLINE
  5
430
330
1F
100
AcDbEntity
  8
0
  6
Continuous
 62
     7
100
AcDbPolyline
 90
        3
 70
   128
 43
0.0
 10
6309.700012207
 20
4707.8838031653
 10
6306.8025615053
 20
4709.2575628959
 10
6305.9562129572
 20
4711.6598440248
  0
LWPOLYLINE
  5
431
330
1F
100
AcDbEntity
  8
0
  6
Continuous
 62
     7
100
AcDbPolyline
 90
        3
 70
   128
 43
0.0
 10
6305.9539794922
 20
4711.6598440248
 10
6306.348072679
 20
4713.375735685
 10
6307.1961944595
 20
4714.4683385182
  0
LWPOLYLINE
  5
432
330
1F
100
AcDbEntity
  8
0
  6
Continuous
 62
     7
100
AcDbPolyline
 90
        3
 70
   128
 43
0.0
 10
6307.1937561035
 20
4714.4683385182
 10
6308.5076608132
 20
4715.2557176284
 10
6309.6941915944
 20
4715.4479054648
  0
LWPOLYLINE
  5
433
330
1F
100
AcDbEntity
  8
0
  6
Continuous
 62
     7
100
AcDbPolyline
 90
        3
 70
   128
 43
0.0
 10
6325.6988525391
 20
4711.6758702237
 10
6326.3639865254
 20
4710.0335773573
 10
6327.6769650772
 20
4709.5504701051
  0
LWPOLYLINE
  5
434
330
1F
100
AcDbEntity
  8
0
  6
Continuous
 62
     7
100
AcDbPolyline
 90
        3
 70
   128
 43
0.0
 10
6327.6748657227
 20
4709.5504701051
 10
6329.2604152769
 20
4710.3293877732
 10
6329.6741602614
 20
4711.6758702237
  0
LWPOLYLINE
  5
435
330
1F
100
AcDbEntity
  8
0
  6
Continuous
 62
     7
100
AcDbPolyline
 90
        3
 70
   128
 43
0.0
 10
6329.6737670898
 20
4711.6758702237
 10
6328.9973133679
 20
4713.307738562
 10
6327.6829739705
 20
4713.7812385249
  0
LWPOLYLINE
  5
436
330
1F
100
AcDbEntity
  8
0
  6
Continuous
 62
     7
100
AcDbPolyline
 90
        3
 70
   128
 43
0.0
 10
6327.6824951172
 20
4713.7812385249
 10
6326.1125088141
 20
4713.0097155039
 10
6325.6998007789
 20
4711.6758702237
  0
LWPOLYLINE
  5
437
330
1F
100
AcDbEntity
  8
0
  6
Continuous
 62
     7
100
AcDbPolyline
 90
        3
 70
   128
 43
0.0
 10
6327.6405334473
 20
4715.4479054648
 10
6330.5922579096
 20
4714.0894509313
 10
6331.4690312043
 20
4711.671863674
  0
LWPOLYLINE
  5
438
330
1F
100
AcDbEntity
  8
0
  6
Continuous
 62
     7
100
AcDbPolyline
 90
        3
 70
   128
 43
0.0
 10
6331.4666748047
 20
4711.671863674
 10
6330.0867498337
 20
4708.7291376733
 10
6327.6509215727
 20
4707.8838031653
  0
LWPOLYLINE
  5
439
330
1F
100
AcDbEntity
  8
0
  6
Continuous
 62
     7
100
AcDbPolyline
 90
        3
 70
   128
 43
0.0
 10
6327.6481628418
 20
4707.8838031653
 10
6324.7512803975
 20
4709.2575649693
 10
6323.9049298361
 20
4711.6598440248
  0
LWPOLYLINE
  5
43A
330
1F
100
AcDbEntity
  8
0
  6
Continuous
 62
     7
100
AcDbPolyline
 90
        3
 70
   128
 43
0.0
 10
6323.902130127
 20
4711.6598440248
 10
6324.2967925579
 20
4713.375734255
 10
6325.1449113384
 20
4714.4683385182
  0
LWPOLYLINE
  5
43B
330
1F
100
AcDbEntity
  8
0
  6
Continuous
 62
     7
100
AcDbPolyline
 90
        3
 70
   128
 43
0.0
 10
6325.1419067383
 20
4714.4683385182
 10
6326.4563776921
 20
4715.2557176284
 10
6327.6429084733
 20
4715.4479054648
  0
LWPOLYLINE
  5
43C
330
1F
100
AcDbEntity
  8
0
  6
Continuous
 62
     7
100
AcDbPolyline
 90
        3
 70
   128
 43
0.0
 10
6314.8002624512
 20
4711.7299577135
 10
6315.1125511821
 20
4713.3990038278
 10
6315.8620616093
 20
4714.5023932594
  0
LWPOLYLINE
  5
43D
330
1F
100
AcDbEntity
  8
0
  6
Continuous
 62
     7
100
AcDbPolyline
 90
        3
 70
   128
 43
0.0
 10
6315.860748291
 20
4714.5023932594
 10
6317.0566554176
 20
4715.2658486303
 10
6318.1557302967
 20
4715.4479054648
  0
LWPOLYLINE
  5
43E
330
1F
100
AcDbEntity
  8
0
  6
Continuous
 62
     7
100
AcDbPolyline
 90
        3
 70
   128
 43
0.0
 10
6320.442199707
 20
4708.923466495
 10
6319.3103418602
 20
4708.1753581876
 10
6318.2558921769
 20
4708.0120080996
  0
LWPOLYLINE
  5
43F
330
1F
100
AcDbEntity
  8
0
  6
Continuous
 62
     7
100
AcDbPolyline
 90
        3
 70
   128
 43
0.0
 10
6318.2525634766
 20
4708.0120080996
 10
6315.5233842016
 20
4709.3942458993
 10
6314.802365531
 20
4711.7299577135
  0
LWPOLYLINE
  5
440
330
1F
100
AcDbEntity
  8
0
  6
Continuous
 62
     7
100
AcDbPolyline
 90
        3
 70
   128
 43
0.0
 10
6318.6149597168
 20
4709.6786750394
 10
6320.1709944256
 20
4710.4222761462
 10
6320.5715959564
 20
4711.7359666068
  0
LWPOLYLINE
  5
441
330
1F
100
AcDbEntity
  8
0
  6
Continuous
 62
     7
100
AcDbPolyline
 90
        3
 70
   128
 43
0.0
 10
6316.5969848633
 20
4711.7499885995
 10
6317.302013664
 20
4710.1387943618
 10
6318.6184709564
 20
4709.6786750394
  0
LWPOLYLINE
  5
442
330
1F
100
AcDbEntity
  8
0
  6
Continuous
 62
     7
100
AcDbPolyline
 90
        3
 70
   128
 43
0.0
 10
6318.5806274414
 20
4713.7812385249
 10
6317.0242911693
 20
4713.0520174877
 10
6316.5972364739
 20
4711.7499885995
  0
LWPOLYLINE
  5
443
330
1F
100
AcDbEntity
  8
0
  6
Continuous
 62
     7
100
AcDbPolyline
 90
        3
 70
   128
 43
0.0
 10
6320.5680847168
 20
4711.7359666068
 10
6319.8876805498
 20
4713.3337480531
 10
6318.5844180778
 20
4713.7812385249
  0
LWPOLYLINE
  5
444
330
1F
100
AcDbEntity
  8
0
  6
Continuous
 62
     7
100
AcDbPolyline
 90
        3
 70
   128
 43
0.0
 10
6318.4585571289
 20
4706.8581618283
 10
6320.1538663199
 20
4707.5045402102
 10
6320.4433900908
 20
4708.923466495
  0
LWPOLYLINE
  5
445
330
1F
100
AcDbEntity
  8
0
  6
Continuous
 62
     7
100
AcDbPolyline
 90
        3
 70
   128
 43
0.0
 10
6316.7877197266
 20
4707.4991874311
 10
6317.6557189451
 20
4706.9600199539
 10
6318.4602168992
 20
4706.8581618283
  0
LWPOLYLINE
  5
446
330
1F
100
AcDbEntity
  8
0
  6
Continuous
 62
     7
100
AcDbPolyline
 90
        3
 70
   128
 43
0.0
 10
6318.1533813477
 20
4715.4479054648
 10
6319.5330039577
 20
4715.139856258
 10
6320.4433900908
 20
4714.5063998092
  0
LWPOLYLINE
  5
447
330
1F
100
AcDbEntity
  8
0
  6
Continuous
 62
     7
100
AcDbPolyline
 90
        3
 70
   128
 43
0.0
 10
6321.6171264648
 20
4706.3693795267
 10
6320.0529185394
 20
4705.381852509
 10
6318.5944316581
 20
4705.1914948884
  0
LWPOLYLINE
  5
448
330
1F
100
AcDbEntity
  8
0
  6
Continuous
 62
     7
100
AcDbPolyline
 90
        3
 70
   128
 43
0.0
 10
6322.3648071289
 20
4709.0857261706
 10
6322.1833941639
 20
4707.4943169943
 10
6321.6192705229
 20
4706.3693795267
  0
LWPOLYLINE
  5
449
330
1F
100
AcDbEntity
  8
0
  6
Continuous
 62
     7
100
AcDbPolyline
 90
        3
 70
   128
 43
0.0
 10
6318.5920715332
 20
4705.1914948884
 10
6316.02918546
 20
4705.8359334031
 10
6314.7943524316
 20
4707.4991874311
  0
LWPOLYLINE
  5
44A
330
1F
100
AcDbEntity
  8
0
  6
Continuous
 62
     7
100
AcDbPolyline
 90
        3
 70
   128
 43
0.0
 10
6200.1838684082
 20
5734.9200053054
 10
6199.3679284351
 20
5735.0677616546
 10
6199.1266144112
 20
5735.331515773
  0
LWPOLYLINE
  5
44B
330
1F
100
AcDbEntity
  8
0
  6
Continuous
 62
     7
100
AcDbPolyline
 90
        3
 70
   128
 43
0.0
 10
6201.244354248
 20
5735.331515773
 10
6200.8629087198
 20
5735.0115331413
 10
6200.1867053702
 20
5734.9200053054
  0
LWPOLYLINE
  5
44C
330
1F
100
AcDbEntity
  8
0
  6
Continuous
 62
     7
100
AcDbPolyline
 90
        3
 70
   128
 43
0.0
 10
6200.9620666504
 20
5735.6158299285
 10
6201.1911803539
 20
5735.4664688213
 10
6201.2445611551
 20
5735.331515773
  0
LWPOLYLINE
  5
44D
330
1F
100
AcDbEntity
  8
0
  6
Continuous
 62
     7
100
AcDbPolyline
 90
        3
 70
   128
 43
0.0
 10
6200.1838684082
 20
5735.7475561935
 10
6200.6608810478
 20
5735.7064267649
 10
6200.9641138509
 20
5735.6158299285
  0
LWPOLYLINE
  5
44E
330
1F
100
AcDbEntity
  8
0
  6
Continuous
 62
     7
100
AcDbPolyline
 90
        3
 70
   128
 43
0.0
 10
6199.405670166
 20
5735.6151146728
 10
6199.8091377003
 20
5735.7226524715
 10
6200.1867053702
 20
5735.7475561935
  0
LWPOLYLINE
  5
44F
330
1F
100
AcDbEntity
  8
0
  6
Continuous
 62
     7
100
AcDbPolyline
 90
        3
 70
   128
 43
0.0
 10
6199.1233825684
 20
5735.331515773
 10
6199.2149143428
 20
5735.50146408
 10
6199.4070617154
 20
5735.6151146728
  0
LWPOLYLINE
  5
450
330
1F
100
AcDbEntity
  8
0
  6
Continuous
 62
     7
100
AcDbPolyline
 90
        3
 70
   128
 43
0.0
 10
6186.3288879395
 20
5734.9200053054
 10
6185.5115174549
 20
5735.0677616546
 10
6185.2702034309
 20
5735.331515773
  0
LWPOLYLINE
  5
451
330
1F
100
AcDbEntity
  8
0
  6
Continuous
 62
     7
100
AcDbPolyline
 90
        3
 70
   128
 43
0.0
 10
6187.385559082
 20
5735.331515773
 10
6187.0064977396
 20
5735.0115331413
 10
6186.33029439
 20
5734.9200053054
  0
LWPOLYLINE
  5
452
330
1F
100
AcDbEntity
  8
0
  6
Continuous
 62
     7
100
AcDbPolyline
 90
        3
 70
   128
 43
0.0
 10
6187.1070861816
 20
5735.6158299285
 10
6187.3347693736
 20
5735.4664688213
 10
6187.3881501749
 20
5735.331515773
  0
LWPOLYLINE
  5
453
330
1F
100
AcDbEntity
  8
0
  6
Continuous
 62
     7
100
AcDbPolyline
 90
        3
 70
   128
 43
0.0
 10
6186.3288879395
 20
5735.7475561935
 10
6186.8044700676
 20
5735.7064267649
 10
6187.1077028707
 20
5735.6158299285
  0
LWPOLYLINE
  5
454
330
1F
100
AcDbEntity
  8
0
  6
Continuous
 62
     7
100
AcDbPolyline
 90
        3
 70
   128
 43
0.0
 10
6185.546875
 20
5735.6151146728
 10
6185.9527267201
 20
5735.7226524715
 10
6186.33029439
 20
5735.7475561935
  0
LWPOLYLINE
  5
455
330
1F
100
AcDbEntity
  8
0
  6
Continuous
 62
     7
100
AcDbPolyline
 90
        3
 70
   128
 43
0.0
 10
6185.2684020996
 20
5735.331515773
 10
6185.3585033626
 20
5735.50146408
 10
6185.5506507352
 20
5735.6151146728
  0
LWPOLYLINE
  5
456
330
1F
100
AcDbEntity
  8
0
  6
Continuous
 62
     7
100
AcDbPolyline
 90
        3
 70
   128
 43
0.0
 10
6179.6913146973
 20
5735.5551524002
 10
6180.1767639331
 20
5735.3862774961
 10
6180.3522539928
 20
5735.2020544845
  0
LWPOLYLINE
  5
457
330
1F
100
AcDbEntity
  8
0
  6
Continuous
 62
     7
100
AcDbPolyline
 90
        3
 70
   128
 43
0.0
 10
6179.313659668
 20
5735.6639904815
 10
6179.5248817513
 20
5735.6018739403
 10
6179.6926391914
 20
5735.5551524002
  0
LWPOLYLINE
  5
458
330
1F
100
AcDbEntity
  8
0
  6
Continuous
 62
     7
100
AcDbPolyline
 90
        3
 70
   128
 43
0.0
 10
6179.1305541992
 20
5735.8053726989
 10
6179.19665415
 20
5735.7185519019
 10
6179.3162731126
 20
5735.6639904815
  0
LWPOLYLINE
  5
459
330
1F
100
AcDbEntity
  8
0
  6
Continuous
 62
     7
100
AcDbPolyline
 90
        3
 70
   128
 43
0.0
 10
6179.5387268066
 20
5735.9438938934
 10
6179.2326104006
 20
5735.8987022246
 10
6179.1317371324
 20
5735.8053726989
  0
LWPOLYLINE
  5
45A
330
1F
100
AcDbEntity
  8
0
  6
Continuous
 62
     7
100
AcDbPolyline
 90
        3
 70
   128
 43
0.0
 10
6180.0880432129
 20
5735.8035845596
 10
6179.825538648
 20
5735.91044485
 10
6179.5423162773
 20
5735.9438938934
  0
LWPOLYLINE
  5
45B
330
1F
100
AcDbEntity
  8
0
  6
Continuous
 62
     7
100
AcDbPolyline
 90
        3
 70
   128
 43
0.0
 10
6179.5692443848
 20
5736.0560698349
 10
6180.0468686853
 20
5735.9887209681
 10
6180.3163570955
 20
5735.8709378082
  0
LWPOLYLINE
  5
45C
330
1F
100
AcDbEntity
  8
0
  6
Continuous
 62
     7
100
AcDbPolyline
 90
        3
 70
   128
 43
0.0
 10
6178.8787841797
 20
5735.8007235366
 10
6179.1347278016
 20
5736.0015318447
 10
6179.5703602627
 20
5736.0560698349
  0
LWPOLYLINE
  5
45D
330
1F
100
AcDbEntity
  8
0
  6
Continuous
 62
     7
100
AcDbPolyline
 90
        3
 70
   128
 43
0.0
 10
6179.0351867676
 20
5735.6341881591
 10
6178.9123907801
 20
5735.7225419507
 10
6178.8804588512
 20
5735.8007235366
  0
LWPOLYLINE
  5
45E
330
1F
100
AcDbEntity
  8
0
  6
Continuous
 62
     7
100
AcDbPolyline
 90
        3
 70
   128
 43
0.0
 10
6179.4929504395
 20
5735.4854149658
 10
6179.2286154414
 20
5735.5640266641
 10
6179.036950846
 20
5735.6341881591
  0
LWPOLYLINE
  5
45F
330
1F
100
AcDbEntity
  8
0
  6
Continuous
 62
     7
100
AcDbPolyline
 90
        3
 70
   128
 43
0.0
 10
6180.0003051758
 20
5735.3108925659
 10
6179.7323231549
 20
5735.4151630679
 10
6179.4957650497
 20
5735.4854149658
  0
LWPOLYLINE
  5
460
330
1F
100
AcDbEntity
  8
0
  6
Continuous
 62
     7
100
AcDbPolyline
 90
        3
 70
   128
 43
0.0
 10
6180.0994873047
 20
5735.2036042053
 10
6180.0664475989
 20
5735.2670057357
 10
6180.0005716875
 20
5735.3108925659
  0
LWPOLYLINE
  5
461
330
1F
100
AcDbEntity
  8
0
  6
Continuous
 62
     7
100
AcDbPolyline
 90
        3
 70
   128
 43
0.0
 10
6179.5501708984
 20
5735.0181145507
 10
6179.9645169864
 20
5735.0794728961
 10
6180.1009682611
 20
5735.2036042053
  0
LWPOLYLINE
  5
462
330
1F
100
AcDbEntity
  8
0
  6
Continuous
 62
     7
100
AcDbPolyline
 90
        3
 70
   128
 43
0.0
 10
6178.9360046387
 20
5735.2005047638
 10
6179.2232147283
 20
5735.0639995574
 10
6179.552411814
 20
5735.0181145507
  0
LWPOLYLINE
  5
463
330
1F
100
AcDbEntity
  8
0
  6
Continuous
 62
     7
100
AcDbPolyline
 90
        3
 70
   128
 43
0.0
 10
6179.5501708984
 20
5734.9059386093
 10
6178.9874230198
 20
5734.9919910588
 10
6178.700966914
 20
5735.1450724441
  0
LWPOLYLINE
  5
464
330
1F
100
AcDbEntity
  8
0
  6
Continuous
 62
     7
100
AcDbPolyline
 90
        3
 70
   128
 43
0.0
 10
6180.3512573242
 20
5735.2020544845
 10
6180.0522275264
 20
5734.9713536591
 10
6179.552411814
 20
5734.9059386093
  0
LWPOLYLINE
  5
465
330
1F
100
AcDbEntity
  8
0
  6
Continuous
 62
     7
100
AcDbPolyline
 90
        3
 70
   128
 43
0.0
 10
6182.6400756836
 20
5735.5901999313
 10
6182.824720163
 20
5735.4413559496
 10
6182.8650740579
 20
5735.3126807052
  0
LWPOLYLINE
  5
466
330
1F
100
AcDbEntity
  8
0
  6
Continuous
 62
     7
100
AcDbPolyline
 90
        3
 70
   128
 43
0.0
 10
6181.8161010742
 20
5735.7475561935
 10
6182.3319135523
 20
5735.6981315179
 10
6182.6423985556
 20
5735.5901999313
  0
LWPOLYLINE
  5
467
330
1F
100
AcDbEntity
  8
0
  6
Continuous
 62
     7
100
AcDbPolyline
 90
        3
 70
   128
 43
0.0
 10
6181.0150146484
 20
5735.5985445816
 10
6181.4237519395
 20
5735.7197284171
 10
6181.8184388474
 20
5735.7475561935
  0
LWPOLYLINE
  5
468
330
1F
100
AcDbEntity
  8
0
  6
Continuous
 62
     7
100
AcDbPolyline
 90
        3
 70
   128
 43
0.0
 10
6180.7823181152
 20
5735.331515773
 10
6180.8571789699
 20
5735.4893774363
 10
6181.0185966685
 20
5735.5985445816
  0
LWPOLYLINE
  5
469
330
1F
100
AcDbEntity
  8
0
  6
Continuous
 62
     7
100
AcDbPolyline
 90
        3
 70
   128
 43
0.0
 10
6181.8084716797
 20
5734.9200053054
 10
6181.0096977949
 20
5735.0686454796
 10
6180.7830242112
 20
5735.331515773
  0
LWPOLYLINE
  5
46A
330
1F
100
AcDbEntity
  8
0
  6
Continuous
 62
     7
100
AcDbPolyline
 90
        3
 70
   128
 43
0.0
 10
6182.7545166016
 20
5735.1406617004
 10
6182.3091583397
 20
5734.9625916419
 10
6181.8122697666
 20
5734.9200053054
  0
LWPOLYLINE
  5
46B
330
1F
100
AcDbEntity
  8
0
  6
Continuous
 62
     7
100
AcDbPolyline
 90
        3
 70
   128
 43
0.0
 10
6181.7779541016
 20
5735.0181145507
 10
6182.2642700505
 20
5735.071802624
 10
6182.5341416195
 20
5735.1864380676
  0
LWPOLYLINE
  5
46C
330
1F
100
AcDbEntity
  8
0
  6
Continuous
 62
     7
100
AcDbPolyline
 90
        3
 70
   128
 43
0.0
 10
6181.0340881348
 20
5735.3126807052
 10
6181.3007834659
 20
5735.084199638
 10
6181.7808581188
 20
5735.0181145507
  0
LWPOLYLINE
  5
46D
330
1F
100
AcDbEntity
  8
0
  6
Continuous
 62
     7
100
AcDbPolyline
 90
        3
 70
   128
 43
0.0
 10
6183.5899353027
 20
5735.4770703155
 10
6183.5518763316
 20
5735.3237797276
 10
6183.5471225575
 20
5735.202650531
  0
LWPOLYLINE
  5
46E
330
1F
100
AcDbEntity
  8
0
  6
Continuous
 62
     7
100
AcDbPolyline
 90
        3
 70
   128
 43
0.0
 10
6183.9981079102
 20
5735.6493277389
 10
6183.70181688
 20
5735.5782549756
 10
6183.5919974044
 20
5735.4770703155
  0
LWPOLYLINE
  5
46F
330
1F
100
AcDbEntity
  8
0
  6
Continuous
 62
     7
100
AcDbPolyline
 90
        3
 70
   128
 43
0.0
 10
6184.1239929199
 20
5735.6351418335
 10
6184.0570588697
 20
5735.6458658719
 10
6183.9986426428
 20
5735.6493277389
  0
LWPOLYLINE
  5
470
330
1F
100
AcDbEntity
  8
0
  6
Continuous
 62
     7
100
AcDbPolyline
 90
        3
 70
   128
 43
0.0
 10
6184.0438842773
 20
5735.7475561935
 10
6184.1737213063
 20
5735.7378766982
 10
6184.2650754049
 20
5735.7201380569
  0
LWPOLYLINE
  5
471
330
1F
100
AcDbEntity
  8
0
  6
Continuous
 62
     7
100
AcDbPolyline
 90
        3
 70
   128
 43
0.0
 10
6183.5441589355
 20
5735.6158299285
 10
6183.7852922305
 20
5735.7164905979
 10
6184.046318908
 20
5735.7475561935
  0
LWPOLYLINE
  5
472
330
1F
100
AcDbEntity
  8
0
  6
Continuous
 62
     7
100
AcDbPolyline
 90
        3
 70
   128
 43
0.0
 10
6184.8373413086
 20
5735.9854979354
 10
6184.7496786969
 20
5735.9199541786
 10
6184.6049783423
 20
5735.9018130142
  0
LWPOLYLINE
  5
473
330
1F
100
AcDbEntity
  8
0
  6
Continuous
 62
     7
100
AcDbPolyline
 90
        3
 70
   128
 43
0.0
 10
6184.6046447754
 20
5736.070136531
 10
6184.7827334067
 20
5736.0406797763
 10
6184.8394332126
 20
5735.9854979354
  0
LWPOLYLINE
  5
474
330
1F
100
AcDbEntity
  8
0
  6
Continuous
 62
     7
100
AcDbPolyline
 90
        3
 70
   128
 43
0.0
 10
6184.3719482422
 20
5735.9854979354
 10
6184.4605436321
 20
5736.051632329
 10
6184.6049783423
 20
5736.070136531
  0
LWPOLYLINE
  5
475
330
1F
100
AcDbEntity
  8
0
  6
Continuous
 62
     7
100
AcDbPolyline
 90
        3
 70
   128
 43
0.0
 10
6184.6046447754
 20
5735.9018130142
 10
6184.4294605252
 20
5735.9310521415
 10
6184.3727660969
 20
5735.9854979354
  0
LWPOLYLINE
  5
476
330
1F
100
AcDbEntity
  8
0
  6
Continuous
 62
     7
100
AcDbPolyline
 90
        3
 70
   128
 43
0.0
 10
6191.7953491211
 20
5735.5901999313
 10
6191.9785700376
 20
5735.441356667
 10
6192.0189169839
 20
5735.3126807052
  0
LWPOLYLINE
  5
477
330
1F
100
AcDbEntity
  8
0
  6
Continuous
 62
     7
100
AcDbPolyline
 90
        3
 70
   128
 43
0.0
 10
6190.9713745117
 20
5735.7475561935
 10
6191.4857585959
 20
5735.6981326923
 10
6191.7962414816
 20
5735.5901999313
  0
LWPOLYLINE
  5
478
330
1F
100
AcDbEntity
  8
0
  6
Continuous
 62
     7
100
AcDbPolyline
 90
        3
 70
   128
 43
0.0
 10
6190.1702880859
 20
5735.5985445816
 10
6190.5775972051
 20
5735.7197287916
 10
6190.9722817734
 20
5735.7475561935
  0
LWPOLYLINE
  5
479
330
1F
100
AcDbEntity
  8
0
  6
Continuous
 62
     7
100
AcDbPolyline
 90
        3
 70
   128
 43
0.0
 10
6189.9337768555
 20
5735.331515773
 10
6190.011029137
 20
5735.4893772239
 10
6190.1724470451
 20
5735.5985445816
  0
LWPOLYLINE
  5
47A
330
1F
100
AcDbEntity
  8
0
  6
Continuous
 62
     7
100
AcDbPolyline
 90
        3
 70
   128
 43
0.0
 10
6190.9637451172
 20
5734.9200053054
 10
6190.1635453535
 20
5735.0686468981
 10
6189.9368671372
 20
5735.331515773
  0
LWPOLYLINE
  5
47B
330
1F
100
AcDbEntity
  8
0
  6
Continuous
 62
     7
100
AcDbPolyline
 90
        3
 70
   128
 43
0.0
 10
6191.9097900391
 20
5735.1406617004
 10
6191.4630012657
 20
5734.9625916419
 10
6190.9661126926
 20
5734.9200053054
  0
LWPOLYLINE
  5
47C
330
1F
100
AcDbEntity
  8
0
  6
Continuous
 62
     7
100
AcDbPolyline
 90
        3
 70
   128
 43
0.0
 10
6190.9332275391
 20
5735.0181145507
 10
6191.4181152816
 20
5735.0718032487
 10
6191.6879919961
 20
5735.1864380676
  0
LWPOLYLINE
  5
47D
330
1F
100
AcDbEntity
  8
0
  6
Continuous
 62
     7
100
AcDbPolyline
 90
        3
 70
   128
 43
0.0
 10
6190.185546875
 20
5735.3126807052
 10
6190.4546269191
 20
5735.084199465
 10
6190.9347010449
 20
5735.0181145507
  0
LWPOLYLINE
  5
47E
330
1F
100
AcDbEntity
  8
0
  6
Continuous
 62
     7
100
AcDbPolyline
 90
        3
 70
   128
 43
0.0
 10
6194.6487426758
 20
5734.9200053054
 10
6193.7924352014
 20
5735.0597770784
 10
6193.5266090229
 20
5735.3272242385
  0
LWPOLYLINE
  5
47F
330
1F
100
AcDbEntity
  8
0
  6
Continuous
 62
     7
100
AcDbPolyline
 90
        3
 70
   128
 43
0.0
 10
6195.6062316895
 20
5735.1045412857
 10
6195.1314553757
 20
5734.9537124735
 10
6194.6512071088
 20
5734.9200053054
  0
LWPOLYLINE
  5
480
330
1F
100
AcDbEntity
  8
0
  6
Continuous
 62
     7
100
AcDbPolyline
 90
        3
 70
   128
 43
0.0
 10
6194.652557373
 20
5735.0181145507
 10
6195.1161435921
 20
5735.0628893018
 10
6195.3983289793
 20
5735.1584238845
  0
LWPOLYLINE
  5
481
330
1F
100
AcDbEntity
  8
0
  6
Continuous
 62
     7
100
AcDbPolyline
 90
        3
 70
   128
 43
0.0
 10
6193.775177002
 20
5735.3359265167
 10
6194.1050089056
 20
5735.0843708526
 10
6194.6551335648
 20
5735.0181145507
  0
LWPOLYLINE
  5
482
330
1F
100
AcDbEntity
  8
0
  6
Continuous
 62
     7
100
AcDbPolyline
 90
        3
 70
   128
 43
0.0
 10
6194.652557373
 20
5735.6493277389
 10
6193.9868772706
 20
5735.5423109664
 10
6193.7778947547
 20
5735.3359265167
  0
LWPOLYLINE
  5
483
330
1F
100
AcDbEntity
  8
0
  6
Continuous
 62
     7
100
AcDbPolyline
 90
        3
 70
   128
 43
0.0
 10
6195.3964233398
 20
5735.5090184051
 10
6195.0221997811
 20
5735.6234116614
 10
6194.6534571841
 20
5735.6493277389
  0
LWPOLYLINE
  5
484
330
1F
100
AcDbEntity
  8
0
  6
Continuous
 62
     7
100
AcDbPolyline
 90
        3
 70
   128
 43
0.0
 10
6194.6716308594
 20
5735.7475561935
 10
6195.2637687982
 20
5735.6900001017
 10
6195.6086588696
 20
5735.5601591903
  0
LWPOLYLINE
  5
485
330
1F
100
AcDbEntity
  8
0
  6
Continuous
 62
     7
100
AcDbPolyline
 90
        3
 70
   128
 43
0.0
 10
6193.5234069824
 20
5735.3272242385
 10
6193.9507736971
 20
5735.6587765389
 10
6194.6719644263
 20
5735.7475561935
  0
LWPOLYLINE
  5
486
330
1F
100
AcDbEntity
  8
0
  6
Continuous
 62
     7
100
AcDbPolyline
 90
        3
 70
   128
 43
0.0
 10
6196.9223022461
 20
5735.4146046478
 10
6196.8466202161
 20
5735.4810453085
 10
6196.82917573
 20
5735.5377478439
  0
LWPOLYLINE
  5
487
330
1F
100
AcDbEntity
  8
0
  6
Continuous
 62
     7
100
AcDbPolyline
 90
        3
 70
   128
 43
0.0
 10
6197.2732543945
 20
5735.3055281478
 10
6197.0622779106
 20
5735.3589814079
 10
6196.9228444293
 20
5735.4146046478
  0
LWPOLYLINE
  5
488
330
1F
100
AcDbEntity
  8
0
  6
Continuous
 62
     7
100
AcDbPolyline
 90
        3
 70
   128
 43
0.0
 10
6197.582244873
 20
5735.2230353195
 10
6197.4197858895
 20
5735.2736575754
 10
6197.2756517723
 20
5735.3055281478
  0
LWPOLYLINE
  5
489
330
1F
100
AcDbEntity
  8
0
  6
Continuous
 62
     7
100
AcDbPolyline
 90
        3
 70
   128
 43
0.0
 10
6197.6547241211
 20
5735.1467413742
 10
6197.6330028991
 20
5735.1919517336
 10
6197.5858268931
 20
5735.2230353195
  0
LWPOLYLINE
  5
48A
330
1F
100
AcDbEntity
  8
0
  6
Continuous
 62
     7
100
AcDbPolyline
 90
        3
 70
   128
 43
0.0
 10
6197.2923278809
 20
5735.0181145507
 10
6197.5658315574
 20
5735.0628522766
 10
6197.6548192695
 20
5735.1467413742
  0
LWPOLYLINE
  5
48B
330
1F
100
AcDbEntity
  8
0
  6
Continuous
 62
     7
100
AcDbPolyline
 90
        3
 70
   128
 43
0.0
 10
6196.8879699707
 20
5735.1022763092
 10
6197.0927924634
 20
5735.0376064676
 10
6197.293600221
 20
5735.0181145507
  0
LWPOLYLINE
  5
48C
330
1F
100
AcDbEntity
  8
0
  6
Continuous
 62
     7
100
AcDbPolyline
 90
        3
 70
   128
 43
0.0
 10
6197.3037719727
 20
5734.9200053054
 10
6196.9459691438
 20
5734.9552576863
 10
6196.7214850381
 20
5735.0282473404
  0
LWPOLYLINE
  5
48D
330
1F
100
AcDbEntity
  8
0
  6
Continuous
 62
     7
100
AcDbPolyline
 90
        3
 70
   128
 43
0.0
 10
6197.9026794434
 20
5735.1509136993
 10
6197.6892256068
 20
5734.9709616418
 10
6197.306497176
 20
5734.9200053054
  0
LWPOLYLINE
  5
48E
330
1F
100
AcDbEntity
  8
0
  6
Continuous
 62
     7
100
AcDbPolyline
 90
        3
 70
   128
 43
0.0
 10
6197.8073120117
 20
5735.2745337326
 10
6197.8884170447
 20
5735.2080565841
 10
6197.9060975507
 20
5735.1509136993
  0
LWPOLYLINE
  5
48F
330
1F
100
AcDbEntity
  8
0
  6
Continuous
 62
     7
100
AcDbPolyline
 90
        3
 70
   128
 43
0.0
 10
6197.4411010742
 20
5735.3868288833
 10
6197.664202155
 20
5735.3315891936
 10
6197.8107450202
 20
5735.2745337326
  0
LWPOLYLINE
  5
490
330
1F
100
AcDbEntity
  8
0
  6
Continuous
 62
     7
100
AcDbPolyline
 90
        3
 70
   128
 43
0.0
 10
6197.1473693848
 20
5735.4692025024
 10
6197.3052985422
 20
5735.4184597181
 10
6197.4422393039
 20
5735.3868288833
  0
LWPOLYLINE
  5
491
330
1F
100
AcDbEntity
  8
0
  6
Continuous
 62
     7
100
AcDbPolyline
 90
        3
 70
   128
 43
0.0
 10
6197.078704834
 20
5735.5416817504
 10
6197.1040539956
 20
5735.4987005958
 10
6197.1500051811
 20
5735.4692025024
  0
LWPOLYLINE
  5
492
330
1F
100
AcDbEntity
  8
0
  6
Continuous
 62
     7
100
AcDbPolyline
 90
        3
 70
   128
 43
0.0
 10
6197.3457336426
 20
5735.6493277389
 10
6197.1410384752
 20
5735.6090349151
 10
6197.0804540113
 20
5735.5416817504
  0
LWPOLYLINE
  5
493
330
1F
100
AcDbEntity
  8
0
  6
Continuous
 62
     7
100
AcDbPolyline
 90
        3
 70
   128
 43
0.0
 10
6197.696685791
 20
5735.5651659805
 10
6197.5242298763
 20
5735.6275947796
 10
6197.3463205293
 20
5735.6493277389
  0
LWPOLYLINE
  5
494
330
1F
100
AcDbEntity
  8
0
  6
Continuous
 62
     7
100
AcDbPolyline
 90
        3
 70
   128
 43
0.0
 10
6197.3457336426
 20
5735.7475561935
 10
6197.6683129749
 20
5735.704243762
 10
6197.8702006534
 20
5735.6338305313
  0
LWPOLYLINE
  5
495
330
1F
100
AcDbEntity
  8
0
  6
Continuous
 62
     7
100
AcDbPolyline
 90
        3
 70
   128
 43
0.0
 10
6196.8269348145
 20
5735.5377478439
 10
6197.0090831123
 20
5735.7001127923
 10
6197.3463205293
 20
5735.7475561935
  0
LWPOLYLINE
  5
496
330
1F
100
AcDbEntity
  8
0
  6
Continuous
 62
     7
100
AcDbPolyline
 90
        3
 70
   128
 43
0.0
 10
6178.9360046387
 20
5735.154489978
 10
6179.2232147283
 20
5735.0179847717
 10
6179.552411814
 20
5734.972099765
  0
LWPOLYLINE
  5
497
330
1F
100
AcDbEntity
  8
0
  6
Continuous
 62
     7
100
AcDbPolyline
 90
        3
 70
   128
 43
0.0
 10
6179.5501708984
 20
5734.972099765
 10
6179.9645412202
 20
5735.0333480832
 10
6180.1009682611
 20
5735.1575894195
  0
LWPOLYLINE
  5
498
330
1F
100
AcDbEntity
  8
0
  6
Continuous
 62
     7
100
AcDbPolyline
 90
        3
 70
   128
 43
0.0
 10
6178.8787841797
 20
5735.7547087509
 10
6179.1347502431
 20
5735.9554046281
 10
6179.5703602627
 20
5736.0100550491
  0
LWPOLYLINE
  5
499
330
1F
100
AcDbEntity
  8
0
  6
Continuous
 62
     7
100
AcDbPolyline
 90
        3
 70
   128
 43
0.0
 10
6179.5692443848
 20
5736.0100550491
 10
6180.0052203246
 20
5735.9555720385
 10
6180.2535710528
 20
5735.852341159
  0
LWPOLYLINE
  5
49A
330
1F
100
AcDbEntity
  8
0
  6
Continuous
 62
     7
100
AcDbPolyline
 90
        3
 70
   128
 43
0.0
 10
6179.1305541992
 20
5735.7593579132
 10
6179.19665415
 20
5735.6725371161
 10
6179.3162731126
 20
5735.6179756958
  0
LWPOLYLINE
  5
49B
330
1F
100
AcDbEntity
  8
0
  6
Continuous
 62
     7
100
AcDbPolyline
 90
        3
 70
   128
 43
0.0
 10
6179.313659668
 20
5735.6179756958
 10
6179.5248972287
 20
5735.5558546963
 10
6179.6926391914
 20
5735.5090184051
  0
LWPOLYLINE
  5
49C
330
1F
100
AcDbEntity
  8
0
  6
Continuous
 62
     7
100
AcDbPolyline
 90
        3
 70
   128
 43
0.0
 10
6179.6913146973
 20
5735.5090184051
 10
6180.1767723367
 20
5735.3402584633
 10
6180.3522539928
 20
5735.1560396988
  0
LWPOLYLINE
  5
49D
330
1F
100
AcDbEntity
  8
0
  6
Continuous
 62
     7
100
AcDbPolyline
 90
        3
 70
   128
 43
0.0
 10
6197.078704834
 20
5735.4956669647
 10
6197.1040539956
 20
5735.45268581
 10
6197.1500051811
 20
5735.4231877166
  0
LWPOLYLINE
  5
49E
330
1F
100
AcDbEntity
  8
0
  6
Continuous
 62
     7
100
AcDbPolyline
 90
        3
 70
   128
 43
0.0
 10
6197.1473693848
 20
5735.4231877166
 10
6197.3052985422
 20
5735.3724449323
 10
6197.4422393039
 20
5735.3408140976
  0
LWPOLYLINE
  5
49F
330
1F
100
AcDbEntity
  8
0
  6
Continuous
 62
     7
100
AcDbPolyline
 90
        3
 70
   128
 43
0.0
 10
6197.4411010742
 20
5735.3408140976
 10
6197.664202155
 20
5735.2855744079
 10
6197.8107450202
 20
5735.2285189468
  0
LWPOLYLINE
  5
4A0
330
1F
100
AcDbEntity
  8
0
  6
Continuous
 62
     7
100
AcDbPolyline
 90
        3
 70
   128
 43
0.0
 10
6197.8073120117
 20
5735.2285189468
 10
6197.8884186839
 20
5735.1620393481
 10
6197.9060975507
 20
5735.1048989135
  0
LWPOLYLINE
  5
4A1
330
1F
100
AcDbEntity
  8
0
  6
Continuous
 62
     7
100
AcDbPolyline
 90
        3
 70
   128
 43
0.0
 10
6196.8879699707
 20
5735.0562615234
 10
6197.0927924634
 20
5734.9915916818
 10
6197.293600221
 20
5734.972099765
  0
LWPOLYLINE
  5
4A2
330
1F
100
AcDbEntity
  8
0
  6
Continuous
 62
     7
100
AcDbPolyline
 90
        3
 70
   128
 43
0.0
 10
6197.2923278809
 20
5734.972099765
 10
6197.5658315574
 20
5735.0168374908
 10
6197.6548192695
 20
5735.1007265884
  0
LWPOLYLINE
  5
4A3
330
1F
100
AcDbEntity
  8
0
  6
Continuous
 62
     7
100
AcDbPolyline
 90
        3
 70
   128
 43
0.0
 10
6196.8269348145
 20
5735.4917330581
 10
6197.0090831123
 20
5735.6540980065
 10
6197.3463205293
 20
5735.7015414077
  0
LWPOLYLINE
  5
4A4
330
1F
100
AcDbEntity
  8
0
  6
Continuous
 62
     7
100
AcDbPolyline
 90
        3
 70
   128
 43
0.0
 10
6197.3457336426
 20
5735.7015414077
 10
6197.6300414285
 20
5735.6683759104
 10
6197.8089345291
 20
5735.6091542083
  0
LWPOLYLINE
  5
4A5
330
1F
100
AcDbEntity
  8
0
  6
Continuous
 62
     7
100
AcDbPolyline
 90
        3
 70
   128
 43
0.0
 10
6200.1838684082
 20
5735.7015414077
 10
6200.6608810478
 20
5735.6604119791
 10
6200.9641138509
 20
5735.5698151428
  0
LWPOLYLINE
  5
4A6
330
1F
100
AcDbEntity
  8
0
  6
Continuous
 62
     7
100
AcDbPolyline
 90
        3
 70
   128
 43
0.0
 10
6200.9620666504
 20
5735.5698151428
 10
6201.1911823371
 20
5735.4204517104
 10
6201.2445611551
 20
5735.2855009872
  0
LWPOLYLINE
  5
4A7
330
1F
100
AcDbEntity
  8
0
  6
Continuous
 62
     7
100
AcDbPolyline
 90
        3
 70
   128
 43
0.0
 10
6199.1233825684
 20
5735.2855009872
 10
6199.21491561
 20
5735.4554504179
 10
6199.4070617154
 20
5735.569099887
  0
LWPOLYLINE
  5
4A8
330
1F
100
AcDbEntity
  8
0
  6
Continuous
 62
     7
100
AcDbPolyline
 90
        3
 70
   128
 43
0.0
 10
6199.405670166
 20
5735.569099887
 10
6199.8091371161
 20
5735.6766376004
 10
6200.1867053702
 20
5735.7015414077
  0
LWPOLYLINE
  5
4A9
330
1F
100
AcDbEntity
  8
0
  6
Continuous
 62
     7
100
AcDbPolyline
 90
        3
 70
   128
 43
0.0
 10
6199.3751525879
 20
5735.2849049408
 10
6199.6691977847
 20
5735.0413343094
 10
6200.1855877832
 20
5734.972099765
  0
LWPOLYLINE
  5
4AA
330
1F
100
AcDbEntity
  8
0
  6
Continuous
 62
     7
100
AcDbPolyline
 90
        3
 70
   128
 43
0.0
 10
6200.1838684082
 20
5734.972099765
 10
6200.8107514784
 20
5735.0839070904
 10
6200.9932754233
 20
5735.2849049408
  0
LWPOLYLINE
  5
4AB
330
1F
100
AcDbEntity
  8
0
  6
Continuous
 62
     7
100
AcDbPolyline
 90
        3
 70
   128
 43
0.0
 10
6193.775177002
 20
5735.2899117309
 10
6194.10500796
 20
5735.038356341
 10
6194.6551335648
 20
5734.972099765
  0
LWPOLYLINE
  5
4AC
330
1F
100
AcDbEntity
  8
0
  6
Continuous
 62
     7
100
AcDbPolyline
 90
        3
 70
   128
 43
0.0
 10
6194.652557373
 20
5734.972099765
 10
6195.1161435921
 20
5735.016874516
 10
6195.3983289793
 20
5735.1124090988
  0
LWPOLYLINE
  5
4AD
330
1F
100
AcDbEntity
  8
0
  6
Continuous
 62
     7
100
AcDbPolyline
 90
        3
 70
   128
 43
0.0
 10
6193.5234069824
 20
5735.2810902435
 10
6193.9507584116
 20
5735.6127572306
 10
6194.6719644263
 20
5735.7015414077
  0
LWPOLYLINE
  5
4AE
330
1F
100
AcDbEntity
  8
0
  6
Continuous
 62
     7
100
AcDbPolyline
 90
        3
 70
   128
 43
0.0
 10
6194.6716308594
 20
5735.7015414077
 10
6195.2637687982
 20
5735.643985316
 10
6195.6086588696
 20
5735.5141444046
  0
LWPOLYLINE
  5
4AF
330
1F
100
AcDbEntity
  8
0
  6
Continuous
 62
     7
100
AcDbPolyline
 90
        3
 70
   128
 43
0.0
 10
6186.3288879395
 20
5735.7015414077
 10
6186.8044700676
 20
5735.6604119791
 10
6187.1077028707
 20
5735.5698151428
  0
LWPOLYLINE
  5
4B0
330
1F
100
AcDbEntity
  8
0
  6
Continuous
 62
     7
100
AcDbPolyline
 90
        3
 70
   128
 43
0.0
 10
6187.1070861816
 20
5735.5698151428
 10
6187.3347713568
 20
5735.4204517104
 10
6187.3881501749
 20
5735.2855009872
  0
LWPOLYLINE
  5
4B1
330
1F
100
AcDbEntity
  8
0
  6
Continuous
 62
     7
100
AcDbPolyline
 90
        3
 70
   128
 43
0.0
 10
6185.2684020996
 20
5735.2855009872
 10
6185.3585046298
 20
5735.4554504179
 10
6185.5506507352
 20
5735.569099887
  0
LWPOLYLINE
  5
4B2
330
1F
100
AcDbEntity
  8
0
  6
Continuous
 62
     7
100
AcDbPolyline
 90
        3
 70
   128
 43
0.0
 10
6185.546875
 20
5735.569099887
 10
6185.9527261359
 20
5735.6766376004
 10
6186.33029439
 20
5735.7015414077
  0
LWPOLYLINE
  5
4B3
330
1F
100
AcDbEntity
  8
0
  6
Continuous
 62
     7
100
AcDbPolyline
 90
        3
 70
   128
 43
0.0
 10
6185.5201721191
 20
5735.2849049408
 10
6185.8127868045
 20
5735.0413343094
 10
6186.3291768029
 20
5734.972099765
  0
LWPOLYLINE
  5
4B4
330
1F
100
AcDbEntity
  8
0
  6
Continuous
 62
     7
100
AcDbPolyline
 90
        3
 70
   128
 43
0.0
 10
6186.3288879395
 20
5734.972099765
 10
6186.9543404982
 20
5735.0839070904
 10
6187.1368644431
 20
5735.2849049408
  0
LWPOLYLINE
  5
4B5
330
1F
100
AcDbEntity
  8
0
  6
Continuous
 62
     7
100
AcDbPolyline
 90
        3
 70
   128
 43
0.0
 10
6189.9337768555
 20
5735.2855009872
 10
6190.0110210301
 20
5735.443354269
 10
6190.1724470451
 20
5735.5524105865
  0
LWPOLYLINE
  5
4B6
330
1F
100
AcDbEntity
  8
0
  6
Continuous
 62
     7
100
AcDbPolyline
 90
        3
 70
   128
 43
0.0
 10
6190.1702880859
 20
5735.5524105865
 10
6190.577585948
 20
5735.673712343
 10
6190.9722817734
 20
5735.7015414077
  0
LWPOLYLINE
  5
4B7
330
1F
100
AcDbEntity
  8
0
  6
Continuous
 62
     7
100
AcDbPolyline
 90
        3
 70
   128
 43
0.0
 10
6190.9713745117
 20
5735.7015414077
 10
6191.4857564428
 20
5735.6521183809
 10
6191.7962414816
 20
5735.5441851455
  0
LWPOLYLINE
  5
4B8
330
1F
100
AcDbEntity
  8
0
  6
Continuous
 62
     7
100
AcDbPolyline
 90
        3
 70
   128
 43
0.0
 10
6191.7953491211
 20
5735.5441851455
 10
6191.9785683502
 20
5735.3953443118
 10
6192.0189169839
 20
5735.2666659195
  0
LWPOLYLINE
  5
4B9
330
1F
100
AcDbEntity
  8
0
  6
Continuous
 62
     7
100
AcDbPolyline
 90
        3
 70
   128
 43
0.0
 10
6190.185546875
 20
5735.2666659195
 10
6190.4546246204
 20
5735.038185436
 10
6190.9347010449
 20
5734.972099765
  0
LWPOLYLINE
  5
4BA
330
1F
100
AcDbEntity
  8
0
  6
Continuous
 62
     7
100
AcDbPolyline
 90
        3
 70
   128
 43
0.0
 10
6190.9332275391
 20
5734.972099765
 10
6191.4181152816
 20
5735.025788463
 10
6191.6879919961
 20
5735.1404232818
  0
LWPOLYLINE
  5
4BB
330
1F
100
AcDbEntity
  8
0
  6
Continuous
 62
     7
100
AcDbPolyline
 90
        3
 70
   128
 43
0.0
 10
6180.7823181152
 20
5735.2855009872
 10
6180.8571708632
 20
5735.4433544813
 10
6181.0185966685
 20
5735.5524105865
  0
LWPOLYLINE
  5
4BC
330
1F
100
AcDbEntity
  8
0
  6
Continuous
 62
     7
100
AcDbPolyline
 90
        3
 70
   128
 43
0.0
 10
6181.0150146484
 20
5735.5524105865
 10
6181.4237406825
 20
5735.6737119683
 10
6181.8184388474
 20
5735.7015414077
  0
LWPOLYLINE
  5
4BD
330
1F
100
AcDbEntity
  8
0
  6
Continuous
 62
     7
100
AcDbPolyline
 90
        3
 70
   128
 43
0.0
 10
6181.8161010742
 20
5735.7015414077
 10
6182.3319113993
 20
5735.6521172066
 10
6182.6423985556
 20
5735.5441851455
  0
LWPOLYLINE
  5
4BE
330
1F
100
AcDbEntity
  8
0
  6
Continuous
 62
     7
100
AcDbPolyline
 90
        3
 70
   128
 43
0.0
 10
6182.6400756836
 20
5735.5441851455
 10
6182.8247184756
 20
5735.3953435944
 10
6182.8650740579
 20
5735.2666659195
  0
LWPOLYLINE
  5
4BF
330
1F
100
AcDbEntity
  8
0
  6
Continuous
 62
     7
100
AcDbPolyline
 90
        3
 70
   128
 43
0.0
 10
6181.0340881348
 20
5735.2666659195
 10
6181.3007811672
 20
5735.0381856089
 10
6181.7808581188
 20
5734.972099765
  0
LWPOLYLINE
  5
4C0
330
1F
100
AcDbEntity
  8
0
  6
Continuous
 62
     7
100
AcDbPolyline
 90
        3
 70
   128
 43
0.0
 10
6181.7779541016
 20
5734.972099765
 10
6182.2642700505
 20
5735.0257878382
 10
6182.5341416195
 20
5735.1404232818
  0
LWPOLYLINE
  5
4C1
330
1F
100
AcDbEntity
  8
0
  6
Continuous
 62
     7
100
AcDbPolyline
 90
        3
 70
   128
 43
0.0
 10
6183.5441589355
 20
5735.5698151428
 10
6183.7852863568
 20
5735.6704735281
 10
6184.046318908
 20
5735.7015414077
  0
LWPOLYLINE
  5
4C2
330
1F
100
AcDbEntity
  8
0
  6
Continuous
 62
     7
100
AcDbPolyline
 90
        3
 70
   128
 43
0.0
 10
6184.0438842773
 20
5735.7015414077
 10
6184.1403376626
 20
5735.6962419813
 10
6184.2082498267
 20
5735.6850905258
  0
LWPOLYLINE
  5
4C3
330
1F
100
AcDbEntity
  8
0
  6
Continuous
 62
     7
100
AcDbPolyline
 90
        3
 70
   128
 43
0.0
 10
6200.1838684082
 20
5735.0181145507
 10
6200.810751773
 20
5735.1299220192
 10
6200.9932754233
 20
5735.3309197265
  0
LWPOLYLINE
  5
4C4
330
1F
100
AcDbEntity
  8
0
  6
Continuous
 62
     7
100
AcDbPolyline
 90
        3
 70
   128
 43
0.0
 10
6199.3751525879
 20
5735.3309197265
 10
6199.669197351
 20
5735.0873492308
 10
6200.1855877832
 20
5735.0181145507
  0
LWPOLYLINE
  5
4C5
330
1F
100
AcDbEntity
  8
0
  6
Continuous
 62
     7
100
AcDbPolyline
 90
        3
 70
   128
 43
0.0
 10
6200.1838684082
 20
5735.6493277389
 10
6199.561530515
 20
5735.5329299687
 10
6199.3778926924
 20
5735.3309197265
  0
LWPOLYLINE
  5
4C6
330
1F
100
AcDbEntity
  8
0
  6
Continuous
 62
     7
100
AcDbPolyline
 90
        3
 70
   128
 43
0.0
 10
6200.9925842285
 20
5735.3309197265
 10
6200.7005200734
 20
5735.5757311735
 10
6200.1855877832
 20
5735.6493277389
  0
LWPOLYLINE
  5
4C7
330
1F
100
AcDbEntity
  8
0
  6
Continuous
 62
     7
100
AcDbPolyline
 90
        3
 70
   128
 43
0.0
 10
6185.5201721191
 20
5735.3309197265
 10
6185.8127863707
 20
5735.0873492308
 10
6186.3291768029
 20
5735.0181145507
  0
LWPOLYLINE
  5
4C8
330
1F
100
AcDbEntity
  8
0
  6
Continuous
 62
     7
100
AcDbPolyline
 90
        3
 70
   128
 43
0.0
 10
6186.3288879395
 20
5735.6493277389
 10
6185.7051195348
 20
5735.5329299687
 10
6185.5214817122
 20
5735.3309197265
  0
LWPOLYLINE
  5
4C9
330
1F
100
AcDbEntity
  8
0
  6
Continuous
 62
     7
100
AcDbPolyline
 90
        3
 70
   128
 43
0.0
 10
6187.1337890625
 20
5735.3309197265
 10
6186.8441101246
 20
5735.5757308292
 10
6186.3291768029
 20
5735.6493277389
  0
LWPOLYLINE
  5
4CA
330
1F
100
AcDbEntity
  8
0
  6
Continuous
 62
     7
100
AcDbPolyline
 90
        3
 70
   128
 43
0.0
 10
6186.3288879395
 20
5735.0181145507
 10
6186.9543407928
 20
5735.1299220192
 10
6187.1368644431
 20
5735.3309197265
  0
LWPOLYLINE
  5
4CB
330
1F
100
AcDbEntity
  8
0
  6
Continuous
 62
     7
100
AcDbPolyline
 90
        3
 70
   128
 43
0.0
 10
6190.9828186035
 20
5735.6493277389
 10
6190.671112408
 20
5735.626272809
 10
6190.4579383925
 20
5735.5743450958
  0
LWPOLYLINE
  5
4CC
330
1F
100
AcDbEntity
  8
0
  6
Continuous
 62
     7
100
AcDbPolyline
 90
        3
 70
   128
 43
0.0
 10
6191.764831543
 20
5735.4109091598
 10
6191.435098859
 20
5735.6001577909
 10
6190.985186179
 20
5735.6493277389
  0
LWPOLYLINE
  5
4CD
330
1F
100
AcDbEntity
  8
0
  6
Continuous
 62
     7
100
AcDbPolyline
 90
        3
 70
   128
 43
0.0
 10
6190.4563903809
 20
5735.5743450958
 10
6190.2927484604
 20
5735.4891465616
 10
6190.2145130232
 20
5735.4109091598
  0
LWPOLYLINE
  5
4CE
330
1F
100
AcDbEntity
  8
0
  6
Continuous
 62
     7
100
AcDbPolyline
 90
        3
 70
   128
 43
0.0
 10
6181.827545166
 20
5735.6493277389
 10
6181.5172652485
 20
5735.6262733307
 10
6181.3040954664
 20
5735.5743450958
  0
LWPOLYLINE
  5
4CF
330
1F
100
AcDbEntity
  8
0
  6
Continuous
 62
     7
100
AcDbPolyline
 90
        3
 70
   128
 43
0.0
 10
6182.6133728027
 20
5735.4109091598
 10
6182.2812491621
 20
5735.6001576217
 10
6181.8313358024
 20
5735.6493277389
  0
LWPOLYLINE
  5
4D0
330
1F
100
AcDbEntity
  8
0
  6
Continuous
 62
     7
100
AcDbPolyline
 90
        3
 70
   128
 43
0.0
 10
6181.3011169434
 20
5735.5743450958
 10
6181.1388990087
 20
5735.4891472377
 10
6181.0606626466
 20
5735.4109091598
  0
LWPOLYLINE
  5
4D1
330
1F
100
AcDbEntity
  8
0
  6
Continuous
 62
     7
100
AcDbPolyline
 90
        3
 70
   128
 43
0.0
 10
6184.6046447754
 20
5736.0241217453
 10
6184.7827334067
 20
5735.9946649906
 10
6184.8394332126
 20
5735.9394831497
  0
LWPOLYLINE
  5
4D2
330
1F
100
AcDbEntity
  8
0
  6
Continuous
 62
     7
100
AcDbPolyline
 90
        3
 70
   128
 43
0.0
 10
6184.3719482422
 20
5735.9394831497
 10
6184.4605436321
 20
5736.0056175432
 10
6184.6049783423
 20
5736.0241217453
  0
LWPOLYLINE
  5
4D3
330
1F
100
AcDbEntity
  8
0
  6
Continuous
 62
     7
100
AcDbPolyline
 90
        3
 70
   128
 43
0.0
 10
6209.5375061035
 20
4462.9458995208
 10
6210.1242675469
 20
4462.607992151
 10
6210.5834251185
 20
4462.3424546465
  0
LWPOLYLINE
  5
4D4
330
1F
100
AcDbEntity
  8
0
  6
Continuous
 62
     7
100
AcDbPolyline
 90
        3
 70
   128
 43
0.0
 10
6209.5375061035
 20
4460.9920518145
 10
6210.1242675469
 20
4460.6541444447
 10
6210.5834251185
 20
4460.3886069402
  0
LWPOLYLINE
  5
4D5
330
1F
100
AcDbEntity
  8
0
  6
Continuous
 62
     7
100
AcDbPolyline
 90
        3
 70
   128
 43
0.0
 10
6614.444732666
 20
4716.2207467395
 10
6614.6262537543
 20
4716.5264166136
 10
6614.7661349485
 20
4716.7665408838
  0
LWPOLYLINE
  5
4D6
330
1F
100
AcDbEntity
  8
0
  6
Continuous
 62
     7
100
AcDbPolyline
 90
        3
 70
   128
 43
0.0
 10
6209.5375061035
 20
4459.0382041082
 10
6210.1242675469
 20
4458.7002967384
 10
6210.5834251185
 20
4458.4347592339
  0
LWPOLYLINE
  5
4D7
330
1F
100
AcDbEntity
  8
0
  6
Continuous
 62
     7
100
AcDbPolyline
 90
        3
 70
   128
 43
0.0
 10
6605.9036254883
 20
4753.003819837
 10
6606.2415394454
 20
4753.5882278367
 10
6606.5070769499
 20
4754.0473854083
  0
LWPOLYLINE
  5
4D8
330
1F
100
AcDbEntity
  8
0
  6
Continuous
 62
     7
100
AcDbPolyline
 90
        3
 70
   128
 43
0.0
 10
6607.8567504883
 20
4753.003819837
 10
6608.1953871517
 20
4753.5882278367
 10
6608.4609246562
 20
4754.0473854083
  0
LWPOLYLINE
  5
4D9
330
1F
100
AcDbEntity
  8
0
  6
Continuous
 62
     7
100
AcDbPolyline
 90
        3
 70
   128
 43
0.0
 10
6609.8098754883
 20
4753.003819837
 10
6610.149234858
 20
4753.5882278367
 10
6610.4147723625
 20
4754.0473854083
  0
LWPOLYLINE
  5
4DA
330
1F
100
AcDbEntity
  8
0
  6
Continuous
 62
     7
100
AcDbPolyline
 90
        3
 70
   128
 43
0.0
 10
6611.7630004883
 20
4753.003819837
 10
6612.1030805907
 20
4753.5882246696
 10
6612.3686126182
 20
4754.0473854083
  0
LWPOLYLINE
  5
4DB
330
1F
100
AcDbEntity
  8
0
  6
Continuous
 62
     7
100
AcDbPolyline
 90
        3
 70
   128
 43
0.0
 10
6605.5374145508
 20
4771.9165934164
 10
6605.1961967502
 20
4772.5097645777
 10
6604.9267119477
 20
4772.9758499104
  0
LWPOLYLINE
  5
4DC
330
1F
100
AcDbEntity
  8
0
  6
Continuous
 62
     7
100
AcDbPolyline
 90
        3
 70
   128
 43
0.0
 10
6607.4905395508
 20
4771.9165934164
 10
6607.1500430179
 20
4772.5097661583
 10
6606.8805522034
 20
4772.9758499104
  0
LWPOLYLINE
  5
4DD
330
1F
100
AcDbEntity
  8
0
  6
Continuous
 62
     7
100
AcDbPolyline
 90
        3
 70
   128
 43
0.0
 10
6609.4436645508
 20
4771.9165934164
 10
6609.10389018
 20
4772.5097677394
 10
6608.8343999098
 20
4772.9758499104
  0
LWPOLYLINE
  5
4DE
330
1F
100
AcDbEntity
  8
0
  6
Continuous
 62
     7
100
AcDbPolyline
 90
        3
 70
   128
 43
0.0
 10
6611.400604248
 20
4771.9165934164
 10
6611.0577324186
 20
4772.5097645777
 10
6610.7882476161
 20
4772.9758499104
  0
LWPOLYLINE
  5
4DF
330
1F
100
AcDbEntity
  8
0
  6
Continuous
 62
     7
100
AcDbPolyline
 90
        3
 70
   128
 43
0.0
 10
6603.946685791
 20
4753.003819837
 10
6604.2927785819
 20
4753.5970118733
 10
6604.5623040507
 20
4754.0630763311
  0
LWPOLYLINE
  5
4E0
330
1F
100
AcDbEntity
  8
0
  6
Continuous
 62
     7
100
AcDbPolyline
 90
        3
 70
   128
 43
0.0
 10
6606.9183349609
 20
4754.2619435031
 10
6607.2612111332
 20
4753.6809030603
 10
6607.5302204797
 20
4753.2241335053
  0
LWPOLYLINE
  5
4E1
330
1F
100
AcDbEntity
  8
0
  6
Continuous
 62
     7
100
AcDbPolyline
 90
        3
 70
   128
 43
0.0
 10
6608.8714599609
 20
4754.2619435031
 10
6609.2150588395
 20
4753.6809030603
 10
6609.4840681861
 20
4753.2241335053
  0
LWPOLYLINE
  5
4E2
330
1F
100
AcDbEntity
  8
0
  6
Continuous
 62
     7
100
AcDbPolyline
 90
        3
 70
   128
 43
0.0
 10
6610.8245849609
 20
4754.2619435031
 10
6611.1689065458
 20
4753.6809030603
 10
6611.4379158924
 20
4753.2241335053
  0
LWPOLYLINE
  5
4E3
330
1F
100
AcDbEntity
  8
0
  6
Continuous
 62
     7
100
AcDbPolyline
 90
        3
 70
   128
 43
0.0
 10
6612.7777099609
 20
4754.2619435031
 10
6613.1227537084
 20
4753.680904611
 10
6613.3917635987
 20
4753.2241335053
  0
LWPOLYLINE
  5
4E4
330
1F
100
AcDbEntity
  8
0
  6
Continuous
 62
     7
100
AcDbPolyline
 90
        3
 70
   128
 43
0.0
 10
6606.6017150879
 20
4772.9761106807
 10
6606.2614432061
 20
4772.3829585356
 10
6605.9919363568
 20
4771.9169286925
  0
LWPOLYLINE
  5
4E5
330
1F
100
AcDbEntity
  8
0
  6
Continuous
 62
     7
100
AcDbPolyline
 90
        3
 70
   128
 43
0.0
 10
6608.5548400879
 20
4772.9761106807
 10
6608.2152909124
 20
4772.3829585356
 10
6607.9457840631
 20
4771.9169286925
  0
LWPOLYLINE
  5
4E6
330
1F
100
AcDbEntity
  8
0
  6
Continuous
 62
     7
100
AcDbPolyline
 90
        3
 70
   128
 43
0.0
 10
6610.5117797852
 20
4772.9761106807
 10
6610.169136636
 20
4772.3829553738
 10
6609.8996243189
 20
4771.9169286925
  0
LWPOLYLINE
  5
4E7
330
1F
100
AcDbEntity
  8
0
  6
Continuous
 62
     7
100
AcDbPolyline
 90
        3
 70
   128
 43
0.0
 10
6612.4649047852
 20
4772.9761106807
 10
6612.1229843423
 20
4772.3829553738
 10
6611.8534720252
 20
4771.9169286925
  0
LWPOLYLINE
  5
4E8
330
1F
100
AcDbEntity
  8
0
  6
Continuous
 62
     7
100
AcDbPolyline
 90
        3
 70
   128
 43
0.0
 10
6604.6485900879
 20
4772.9761106807
 10
6604.3076009676
 20
4772.3829553738
 10
6604.0380886505
 20
4771.9169286925
  0
LWPOLYLINE
  5
4E9
330
1F
100
AcDbEntity
  8
0
  6
Continuous
 62
     7
100
AcDbPolyline
 90
        3
 70
   128
 43
0.0
 10
6604.9613952637
 20
4754.2619435031
 10
6605.3073634268
 20
4753.6809030603
 10
6605.5763727734
 20
4753.2241335053
  0
LWPOLYLINE
  5
4EA
330
1F
100
AcDbEntity
  8
0
  6
Continuous
 62
     7
100
AcDbPolyline
 90
        3
 70
   128
 43
0.0
 10
6708.1031799316
 20
5659.6888108093
 10
6707.9532240122
 20
5659.4286668288
 10
6707.835151882
 20
5659.2242522079
  0
LWPOLYLINE
  5
4EB
330
1F
100
AcDbEntity
  8
0
  6
Continuous
 62
     7
100
AcDbPolyline
 90
        3
 70
   128
 43
0.0
 10
6209.5375061035
 20
4457.0843638525
 10
6210.1242643799
 20
4456.7464510057
 10
6210.5834251185
 20
4456.4809189782
  0
LWPOLYLINE
  5
4EC
330
1F
100
AcDbEntity
  8
0
  6
Continuous
 62
     7
100
AcDbPolyline
 90
        3
 70
   128
 43
0.0
 10
6228.4507751465
 20
4463.3102999673
 10
6229.0458042879
 20
4463.6533348462
 10
6229.5118896206
 20
4463.9228196487
  0
LWPOLYLINE
  5
4ED
330
1F
100
AcDbEntity
  8
0
  6
Continuous
 62
     7
100
AcDbPolyline
 90
        3
 70
   128
 43
0.0
 10
6228.4507751465
 20
4461.3564522609
 10
6229.0458058685
 20
4461.6994885785
 10
6229.5118896206
 20
4461.968979393
  0
LWPOLYLINE
  5
4EE
330
1F
100
AcDbEntity
  8
0
  6
Continuous
 62
     7
100
AcDbPolyline
 90
        3
 70
   128
 43
0.0
 10
6228.4507751465
 20
4459.4026120052
 10
6229.0458074496
 20
4459.7456414164
 10
6229.5118896206
 20
4460.0151316866
  0
LWPOLYLINE
  5
4EF
330
1F
100
AcDbEntity
  8
0
  6
Continuous
 62
     7
100
AcDbPolyline
 90
        3
 70
   128
 43
0.0
 10
6228.4507751465
 20
4457.4487642989
 10
6229.0458042879
 20
4457.7917991778
 10
6229.5118896206
 20
4458.0612839803
  0
LWPOLYLINE
  5
4F0
330
1F
100
AcDbEntity
  8
0
  6
Continuous
 62
     7
100
AcDbPolyline
 90
        3
 70
   128
 43
0.0
 10
6209.5375061035
 20
4464.8997472272
 10
6210.1330515835
 20
4464.5567530145
 10
6210.5991160413
 20
4464.2872275457
  0
LWPOLYLINE
  5
4F1
330
1F
100
AcDbEntity
  8
0
  6
Continuous
 62
     7
100
AcDbPolyline
 90
        3
 70
   128
 43
0.0
 10
6210.7963562012
 20
4461.9307057604
 10
6210.2169427706
 20
4461.5883204632
 10
6209.7601732155
 20
4461.3193111167
  0
LWPOLYLINE
  5
4F2
330
1F
100
AcDbEntity
  8
0
  6
Continuous
 62
     7
100
AcDbPolyline
 90
        3
 70
   128
 43
0.0
 10
6210.7963562012
 20
4459.9768580541
 10
6210.2169427706
 20
4459.6344727569
 10
6209.7601732155
 20
4459.3654634103
  0
LWPOLYLINE
  5
4F3
330
1F
100
AcDbEntity
  8
0
  6
Continuous
 62
     7
100
AcDbPolyline
 90
        3
 70
   128
 43
0.0
 10
6210.7963562012
 20
4458.0230103478
 10
6210.2169427706
 20
4457.6806250506
 10
6209.7601732155
 20
4457.411615704
  0
LWPOLYLINE
  5
4F4
330
1F
100
AcDbEntity
  8
0
  6
Continuous
 62
     7
100
AcDbPolyline
 90
        3
 70
   128
 43
0.0
 10
6210.7963562012
 20
4456.0691700921
 10
6210.2169443212
 20
4455.726777888
 10
6209.7601732155
 20
4455.4577679977
  0
LWPOLYLINE
  5
4F5
330
1F
100
AcDbEntity
  8
0
  6
Continuous
 62
     7
100
AcDbPolyline
 90
        3
 70
   128
 43
0.0
 10
6229.5112609863
 20
4462.2451202616
 10
6228.9189982458
 20
4462.5880883903
 10
6228.4529684027
 20
4462.8575952396
  0
LWPOLYLINE
  5
4F6
330
1F
100
AcDbEntity
  8
0
  6
Continuous
 62
     7
100
AcDbPolyline
 90
        3
 70
   128
 43
0.0
 10
6229.5112609863
 20
4460.2912725553
 10
6228.9189982458
 20
4460.634240684
 10
6228.4529684027
 20
4460.9037475333
  0
LWPOLYLINE
  5
4F7
330
1F
100
AcDbEntity
  8
0
  6
Continuous
 62
     7
100
AcDbPolyline
 90
        3
 70
   128
 43
0.0
 10
6229.5112609863
 20
4458.3374322996
 10
6228.9189950841
 20
4458.6803949604
 10
6228.4529684027
 20
4458.9499072775
  0
LWPOLYLINE
  5
4F8
330
1F
100
AcDbEntity
  8
0
  6
Continuous
 62
     7
100
AcDbPolyline
 90
        3
 70
   128
 43
0.0
 10
6229.5112609863
 20
4456.3835845933
 10
6228.9189950841
 20
4456.7265472541
 10
6228.4529684027
 20
4456.9960595712
  0
LWPOLYLINE
  5
4F9
330
1F
100
AcDbEntity
  8
0
  6
Continuous
 62
     7
100
AcDbPolyline
 90
        3
 70
   128
 43
0.0
 10
6229.5112609863
 20
4464.1989679679
 10
6228.9189950841
 20
4464.5419306288
 10
6228.4529684027
 20
4464.8114429459
  0
LWPOLYLINE
  5
4FA
330
1F
100
AcDbEntity
  8
0
  6
Continuous
 62
     7
100
AcDbPolyline
 90
        3
 70
   128
 43
0.0
 10
6210.7963562012
 20
4463.8845534668
 10
6210.2169427706
 20
4463.5421681696
 10
6209.7601732155
 20
4463.273158823
  0
LWPOLYLINE
  5
4FB
330
1F
100
AcDbEntity
  8
0
  6
Continuous
 62
     7
100
AcDbPolyline
 90
        8
 70
   128
 43
0.0
 10
6209.6328735352
 20
4464.8988755092
 10
6209.6245012225
 20
4464.9057503063
 10
6209.6215246738
 20
4464.9091958212
 10
6209.6212686696
 20
4464.9126510756
 10
6209.6267266803
 20
4464.917278843
 10
6210.3298304435
 20
4464.9744196377
 10
6219.2816975975
 20
4465.2033490038
 10
6228.8483111104
 20
4465.5181305155
  0
LWPOLYLINE
  5
4FC
330
1F
100
AcDbEntity
  8
0
  6
Continuous
 62
     7
100
AcDbPolyline
 90
        8
 70
   128
 43
0.0
 10
6228.328704834
 20
4465.2637155399
 10
6228.3299184177
 20
4465.248959683
 10
6228.3173532609
 20
4465.2341605998
 10
6227.6223656547
 20
4465.1436033528
 10
6219.2590393646
 20
4464.7845328893
 10
6211.2151863819
 20
4464.4247444372
 10
6210.7774016205
 20
4464.3646830633
 10
6210.6739049693
 20
4464.3053548083
  0
LWPOLYLINE
  5
4FD
330
1F
100
AcDbEntity
  8
0
  6
Continuous
 62
     7
100
AcDbPolyline
 90
        8
 70
   128
 43
0.0
 10
6228.328704834
 20
4463.3098752842
 10
6228.3299184244
 20
4463.2951166513
 10
6228.3173532768
 20
4463.2803150464
 10
6227.6223657584
 20
4463.1897544595
 10
6219.259039246
 20
4462.830692257
 10
6211.2151863961
 20
4462.4708966764
 10
6210.7774016222
 20
4462.4108353706
 10
6210.6739049693
 20
4462.351507102
  0
LWPOLYLINE
  5
4FE
330
1F
100
AcDbEntity
  8
0
  6
Continuous
 62
     7
100
AcDbPolyline
 90
        8
 70
   128
 43
0.0
 10
6228.328704834
 20
4461.3560275778
 10
6228.3299184227
 20
4461.3412690141
 10
6228.3173532749
 20
4461.3264674296
 10
6227.6223657973
 20
4461.2359058338
 10
6219.2590393427
 20
4460.8768456036
 10
6211.2151864952
 20
4460.5170475081
 10
6210.7774016516
 20
4460.4569890355
 10
6210.6739049693
 20
4460.3976668462
  0
LWPOLYLINE
  5
4FF
330
1F
100
AcDbEntity
  8
0
  6
Continuous
 62
     7
100
AcDbPolyline
 90
        8
 70
   128
 43
0.0
 10
6228.328704834
 20
4459.4021798715
 10
6228.3299184233
 20
4459.3874212891
 10
6228.3173532757
 20
4459.3726196992
 10
6227.6223657894
 20
4459.2820583759
 10
6219.2590393664
 20
4458.9229971727
 10
6211.2151864496
 20
4458.5632054258
 10
6210.7774016068
 20
4458.5031480706
 10
6210.6739049693
 20
4458.4438191399
  0
LWPOLYLINE
  5
500
330
1F
100
AcDbEntity
  8
0
  6
Continuous
 62
     7
100
AcDbPolyline
 90
        8
 70
   128
 43
0.0
 10
6228.328704834
 20
4457.4483321652
 10
6228.3299184126
 20
4457.4335765675
 10
6228.3173532543
 20
4457.4187775603
 10
6227.622365772
 20
4457.3282139212
 10
6219.259039366
 20
4456.9691495663
 10
6211.2151863822
 20
4456.6093610614
 10
6210.7774016206
 20
4456.5492996889
 10
6210.6739049693
 20
4456.4899714336
  0
LWPOLYLINE
  5
501
330
1F
100
AcDbEntity
  8
0
  6
Continuous
 62
     7
100
AcDbPolyline
 90
        8
 70
   128
 43
0.0
 10
6229.3930053711
 20
4463.9218808755
 10
6219.2555544057
 20
4463.441682765
 10
6210.2346828245
 20
4463.0821548024
 10
6209.6731132469
 20
4463.0138418564
 10
6209.6471543531
 20
4463.0026440506
 10
6209.6375960125
 20
4462.9915079429
 10
6209.6426326297
 20
4462.9767266908
 10
6209.6582716247
 20
4462.9619853243
  0
LWPOLYLINE
  5
502
330
1F
100
AcDbEntity
  8
0
  6
Continuous
 62
     7
100
AcDbPolyline
 90
        8
 70
   128
 43
0.0
 10
6229.3930053711
 20
4461.9680331692
 10
6219.2555544047
 20
4461.4878351066
 10
6210.2346828244
 20
4461.1283070974
 10
6209.6731132469
 20
4461.0599941501
 10
6209.6471543531
 20
4461.0487963442
 10
6209.6375960125
 20
4461.0376602364
 10
6209.6426326297
 20
4461.0228789844
 10
6209.6582716247
 20
4461.008137618
  0
LWPOLYLINE
  5
503
330
1F
100
AcDbEntity
  8
0
  6
Continuous
 62
     7
100
AcDbPolyline
 90
        8
 70
   128
 43
0.0
 10
6229.3930053711
 20
4460.0141854629
 10
6219.2555541553
 20
4459.5339953352
 10
6210.2346827371
 20
4459.1744648265
 10
6209.6731132485
 20
4459.1061463464
 10
6209.6471543594
 20
4459.0949482472
 10
6209.6375960199
 20
4459.0838120723
 10
6209.6426326345
 20
4459.0690309761
 10
6209.6582716247
 20
4459.0542899117
  0
LWPOLYLINE
  5
504
330
1F
100
AcDbEntity
  8
0
  6
Continuous
 62
     7
100
AcDbPolyline
 90
        8
 70
   128
 43
0.0
 10
6229.3930053711
 20
4458.0603377566
 10
6219.255554158
 20
4457.5801476406
 10
6210.2346827211
 20
4457.2206209157
 10
6209.673113224
 20
4457.1523059527
 10
6209.6471543404
 20
4457.1411069111
 10
6209.6375960062
 20
4457.1299693441
 10
6209.6426326277
 20
4457.1151859041
 10
6209.6582716247
 20
4457.1004422054
  0
LWPOLYLINE
  5
505
330
1F
100
AcDbEntity
  8
0
  6
Continuous
 62
     7
100
AcDbPolyline
 90
        8
 70
   128
 43
0.0
 10
6229.3930053711
 20
4464.1829343185
 10
6229.4010953953
 20
4464.167912841
 10
6229.3973592753
 20
4464.1528626365
 10
6228.7929405173
 20
4464.0609155064
 10
6219.5254356072
 20
4463.6947489289
 10
6210.2615346157
 20
4463.3281110419
 10
6209.7481004506
 20
4463.2668805676
 10
6209.6273032864
 20
4463.2064090714
  0
LWPOLYLINE
  5
506
330
1F
100
AcDbEntity
  8
0
  6
Continuous
 62
     7
100
AcDbPolyline
 90
        8
 70
   128
 43
0.0
 10
6229.3930053711
 20
4462.2290940628
 10
6229.4010953918
 20
4462.2140728309
 10
6229.3973592693
 20
4462.1990227849
 10
6228.7929405634
 20
4462.1070714631
 10
6219.5254357326
 20
4461.7409009034
 10
6210.2615345618
 20
4461.3742669235
 10
6209.7481004645
 20
4461.3130322089
 10
6209.6273032864
 20
4461.2525613651
  0
LWPOLYLINE
  5
507
330
1F
100
AcDbEntity
  8
0
  6
Continuous
 62
     7
100
AcDbPolyline
 90
        8
 70
   128
 43
0.0
 10
6229.3930053711
 20
4460.2752463564
 10
6229.4010953977
 20
4460.2602247806
 10
6229.397359279
 20
4460.2451745127
 10
6228.7929404812
 20
4460.1532285626
 10
6219.5254357309
 20
4459.7870531708
 10
6210.2615345616
 20
4459.4204192183
 10
6209.7481004645
 20
4459.3591845023
 10
6209.6273032864
 20
4459.2987136588
  0
LWPOLYLINE
  5
508
330
1F
100
AcDbEntity
  8
0
  6
Continuous
 62
     7
100
AcDbPolyline
 90
        8
 70
   128
 43
0.0
 10
6229.3930053711
 20
4458.3213986501
 10
6229.4010953975
 20
4458.306377081
 10
6229.3973592787
 20
4458.2913268173
 10
6228.7929404833
 20
4458.1993807872
 10
6219.5254355001
 20
4457.8332128365
 10
6210.2615345635
 20
4457.4665714534
 10
6209.7481004641
 20
4457.4053368085
 10
6209.6273032864
 20
4457.3448659525
  0
LWPOLYLINE
  5
509
330
1F
100
AcDbEntity
  8
0
  6
Continuous
 62
     7
100
AcDbPolyline
 90
        8
 70
   128
 43
0.0
 10
6229.3930053711
 20
4456.3675509438
 10
6229.4010953953
 20
4456.3525294663
 10
6229.3973592753
 20
4456.3374792618
 10
6228.7929405171
 20
4456.2455321321
 10
6219.5254356055
 20
4455.8793655631
 10
6210.2615346545
 20
4455.5127222578
 10
6209.7481004914
 20
4455.4514903728
 10
6209.6273032864
 20
4455.3910256967
  0
LWPOLYLINE
  5
50A
330
1F
100
AcDbEntity
  8
0
  6
Continuous
 62
     7
100
AcDbPolyline
 90
        6
 70
   128
 43
0.0
 10
6228.3515930176
 20
4464.7935913548
 10
6228.3547897285
 20
4464.7656318545
 10
6228.2464045534
 20
4464.7232876877
 10
6227.9073092704
 20
4464.6802477311
 10
6220.5084706024
 20
4464.3394172203
 10
6210.8308141967
 20
4463.8848738417
  0
LWPOLYLINE
  5
50B
330
1F
100
AcDbEntity
  8
0
  6
Continuous
 62
     7
100
AcDbPolyline
 90
        6
 70
   128
 43
0.0
 10
6228.3515930176
 20
4462.8397436485
 10
6228.3547897387
 20
4462.8117836115
 10
6228.2464045471
 20
4462.7694403187
 10
6227.907309196
 20
4462.726403959
 10
6220.5084703703
 20
4462.3855761372
 10
6210.8308141967
 20
4461.9310261354
  0
LWPOLYLINE
  5
50C
330
1F
100
AcDbEntity
  8
0
  6
Continuous
 62
     7
100
AcDbPolyline
 90
        6
 70
   128
 43
0.0
 10
6228.3515930176
 20
4460.8858959422
 10
6228.3547897388
 20
4460.8579359053
 10
6228.2464045507
 20
4460.8155926132
 10
6227.9073092078
 20
4460.7725562548
 10
6220.5084704995
 20
4460.431728381
 10
6210.8308141967
 20
4459.9771858797
  0
LWPOLYLINE
  5
50D
330
1F
100
AcDbEntity
  8
0
  6
Continuous
 62
     7
100
AcDbPolyline
 90
        6
 70
   128
 43
0.0
 10
6228.3515930176
 20
4458.9320556864
 10
6228.3547897455
 20
4458.904091978
 10
6228.2464045953
 20
4458.861744443
 10
6227.9073093102
 20
4458.8187065446
 10
6220.508470669
 20
4458.4778794818
 10
6210.8308141967
 20
4458.0233381734
  0
LWPOLYLINE
  5
50E
330
1F
100
AcDbEntity
  8
0
  6
Continuous
 62
     7
100
AcDbPolyline
 90
        6
 70
   128
 43
0.0
 10
6228.3515930176
 20
4456.9782079801
 10
6228.3547897468
 20
4456.9502442326
 10
6228.2464045946
 20
4456.9078967612
 10
6227.9073093028
 20
4456.8648590697
 10
6220.5084705994
 20
4456.5240339593
 10
6210.8308141967
 20
4456.069490467
  0
LWPOLYLINE
  5
50F
330
1F
100
AcDbEntity
  8
0
  6
Continuous
 62
     7
100
AcDbPolyline
 90
        8
 70
   128
 43
0.0
 10
6603.9505004883
 20
4753.0989488501
 10
6603.9437812901
 20
4753.0884615122
 10
6603.9403357752
 20
4753.0854849636
 10
6603.9368805208
 20
4753.0852289594
 10
6603.9322527534
 20
4753.0906869701
 10
6603.8751119587
 20
4753.7937907333
 10
6603.6461825926
 20
4762.7456578873
 10
6603.3314010809
 20
4772.3122714001
  0
LWPOLYLINE
  5
510
330
1F
100
AcDbEntity
  8
0
  6
Continuous
 62
     7
100
AcDbPolyline
 90
        8
 70
   128
 43
0.0
 10
6603.5842895508
 20
4771.7944336969
 10
6603.6005719134
 20
4771.7938787075
 10
6603.6153709966
 20
4771.7813135507
 10
6603.7059282436
 20
4771.0863259445
 10
6604.0649987071
 20
4762.7229996543
 10
6604.4247871592
 20
4754.6791466717
 10
6604.4848485331
 20
4754.2413619103
 10
6604.5441767881
 20
4754.1378652591
  0
LWPOLYLINE
  5
511
330
1F
100
AcDbEntity
  8
0
  6
Continuous
 62
     7
100
AcDbPolyline
 90
        8
 70
   128
 43
0.0
 10
6605.5374145508
 20
4771.7944336969
 10
6605.5544149451
 20
4771.7938787142
 10
6605.56921655
 20
4771.7813135666
 10
6605.6597771369
 20
4771.0863260482
 10
6606.0188393394
 20
4762.7229995358
 10
6606.37863492
 20
4754.6791466859
 10
6606.4386962258
 20
4754.241361912
 10
6606.4980244944
 20
4754.1378652591
  0
LWPOLYLINE
  5
512
330
1F
100
AcDbEntity
  8
0
  6
Continuous
 62
     7
100
AcDbPolyline
 90
        8
 70
   128
 43
0.0
 10
6607.4905395508
 20
4771.7944336969
 10
6607.5082625823
 20
4771.7938787124
 10
6607.5230641668
 20
4771.7813135647
 10
6607.6136257626
 20
4771.0863260871
 10
6607.9726859928
 20
4762.7229996325
 10
6608.3324840883
 20
4754.6791467849
 10
6608.3925425609
 20
4754.2413619414
 10
6608.4518647502
 20
4754.1378652591
  0
LWPOLYLINE
  5
513
330
1F
100
AcDbEntity
  8
0
  6
Continuous
 62
     7
100
AcDbPolyline
 90
        8
 70
   128
 43
0.0
 10
6609.4436645508
 20
4771.7944336969
 10
6609.4621103073
 20
4771.793878713
 10
6609.4769118972
 20
4771.7813135655
 10
6609.5674732205
 20
4771.0863260792
 10
6609.9265344237
 20
4762.7229996561
 10
6610.2863261706
 20
4754.6791467394
 10
6610.3463835258
 20
4754.2413618965
 10
6610.4057124565
 20
4754.1378652591
  0
LWPOLYLINE
  5
514
330
1F
100
AcDbEntity
  8
0
  6
Continuous
 62
     7
100
AcDbPolyline
 90
        8
 70
   128
 43
0.0
 10
6611.400604248
 20
4771.7944336969
 10
6611.4159550289
 20
4771.7938787024
 10
6611.4307540361
 20
4771.7813135441
 10
6611.5213176752
 20
4771.0863260618
 10
6611.8803820301
 20
4762.7229996558
 10
6612.240170535
 20
4754.679146672
 10
6612.3002319075
 20
4754.2413619103
 10
6612.3595601628
 20
4754.1378652591
  0
LWPOLYLINE
  5
515
330
1F
100
AcDbEntity
  8
0
  6
Continuous
 62
     7
100
AcDbPolyline
 90
        8
 70
   128
 43
0.0
 10
6604.9270629883
 20
4772.8601945478
 10
6605.4078488314
 20
4762.7195146954
 10
6605.767376794
 20
4753.6986431143
 10
6605.83568974
 20
4753.1370735367
 10
6605.8468875458
 20
4753.1111146429
 10
6605.8580236535
 20
4753.1015563023
 10
6605.8728049056
 20
4753.1065929194
 10
6605.8875462721
 20
4753.1222319144
  0
LWPOLYLINE
  5
516
330
1F
100
AcDbEntity
  8
0
  6
Continuous
 62
     7
100
AcDbPolyline
 90
        8
 70
   128
 43
0.0
 10
6606.8801879883
 20
4772.8601945478
 10
6607.3616964898
 20
4762.7195146944
 10
6607.721224499
 20
4753.6986431142
 10
6607.7895374463
 20
4753.1370735367
 10
6607.8007352522
 20
4753.1111146429
 10
6607.81187136
 20
4753.1015563023
 10
6607.826652612
 20
4753.1065929194
 10
6607.8413939784
 20
4753.1222319144
  0
LWPOLYLINE
  5
517
330
1F
100
AcDbEntity
  8
0
  6
Continuous
 62
     7
100
AcDbPolyline
 90
        8
 70
   128
 43
0.0
 10
6608.8333129883
 20
4772.8601945478
 10
6609.3155362612
 20
4762.7195144451
 10
6609.6750667699
 20
4753.6986430269
 10
6609.74338525
 20
4753.1370735383
 10
6609.7545833492
 20
4753.1111146492
 10
6609.7657195241
 20
4753.1015563097
 10
6609.7805006203
 20
4753.1065929243
 10
6609.7952416847
 20
4753.1222319144
  0
LWPOLYLINE
  5
518
330
1F
100
AcDbEntity
  8
0
  6
Continuous
 62
     7
100
AcDbPolyline
 90
        8
 70
   128
 43
0.0
 10
6610.7864379883
 20
4772.8601945478
 10
6611.2693839558
 20
4762.7195144477
 10
6611.6289106807
 20
4753.6986430109
 10
6611.6972256437
 20
4753.1370735138
 10
6611.7084246853
 20
4753.1111146301
 10
6611.7195622523
 20
4753.1015562959
 10
6611.7343456923
 20
4753.1065929175
 10
6611.749089391
 20
4753.1222319144
  0
LWPOLYLINE
  5
519
330
1F
100
AcDbEntity
  8
0
  6
Continuous
 62
     7
100
AcDbPolyline
 90
        8
 70
   128
 43
0.0
 10
6604.663848877
 20
4772.8598443705
 10
6604.6816187554
 20
4772.8650556851
 10
6604.6966689599
 20
4772.8613195651
 10
6604.78861609
 20
4772.256900807
 10
6605.1547826675
 20
4762.989395897
 10
6605.5214205545
 20
4753.7254949055
 10
6605.5826510288
 20
4753.2120607404
 10
6605.643122525
 20
4753.0912635762
  0
LWPOLYLINE
  5
51A
330
1F
100
AcDbEntity
  8
0
  6
Continuous
 62
     7
100
AcDbPolyline
 90
        8
 70
   128
 43
0.0
 10
6606.616973877
 20
4772.8598443705
 10
6606.6354587655
 20
4772.8650556816
 10
6606.6505088115
 20
4772.8613195591
 10
6606.7424601333
 20
4772.2569008531
 10
6607.108630693
 20
4762.9893960224
 10
6607.4752646729
 20
4753.7254948516
 10
6607.5364993875
 20
4753.2120607543
 10
6607.5969702313
 20
4753.0912635762
  0
LWPOLYLINE
  5
51B
330
1F
100
AcDbEntity
  8
0
  6
Continuous
 62
     7
100
AcDbPolyline
 90
        8
 70
   128
 43
0.0
 10
6608.5739135742
 20
4772.8598443705
 10
6608.5893068158
 20
4772.8650556875
 10
6608.6043570837
 20
4772.8613195688
 10
6608.6963030338
 20
4772.256900771
 10
6609.0624784256
 20
4762.9893960207
 10
6609.4291123781
 20
4753.7254948514
 10
6609.4903470941
 20
4753.2120607543
 10
6609.5508179376
 20
4753.0912635762
  0
LWPOLYLINE
  5
51C
330
1F
100
AcDbEntity
  8
0
  6
Continuous
 62
     7
100
AcDbPolyline
 90
        8
 70
   128
 43
0.0
 10
6610.5270385742
 20
4772.8598443705
 10
6610.5431545154
 20
4772.8650556873
 10
6610.5582047791
 20
4772.8613195685
 10
6610.6501508092
 20
4772.2569007731
 10
6611.0163187599
 20
4762.9893957899
 10
6611.382960143
 20
4753.7254948533
 10
6611.4441947879
 20
4753.2120607539
 10
6611.5046656439
 20
4753.0912635762
  0
LWPOLYLINE
  5
51D
330
1F
100
AcDbEntity
  8
0
  6
Continuous
 62
     7
100
AcDbPolyline
 90
        8
 70
   128
 43
0.0
 10
6612.4801635742
 20
4772.8598443705
 10
6612.4970021301
 20
4772.8650556851
 10
6612.5120523346
 20
4772.8613195651
 10
6612.6039994643
 20
4772.2569008069
 10
6612.9701660333
 20
4762.9893958953
 10
6613.3368093386
 20
4753.7254949443
 10
6613.3980412236
 20
4753.2120607812
 10
6613.4585058997
 20
4753.0912635762
  0
LWPOLYLINE
  5
51E
330
1F
100
AcDbEntity
  8
0
  6
Continuous
 62
     7
100
AcDbPolyline
 90
        6
 70
   128
 43
0.0
 10
6604.0534973145
 20
4771.8161372382
 10
6604.0838997419
 20
4771.8187500183
 10
6604.1262439087
 20
4771.7103648432
 10
6604.1692838653
 20
4771.3712695601
 10
6604.5101143761
 20
4763.9724308922
 10
6604.9646577547
 20
4754.2947744865
  0
ARC
  5
51F
330
1F
100
AcDbEntity
  8
0
  6
Continuous
 62
     7
100
AcDbCircle
 10
6334.536776985
 20
4748.9033293582
 30
0.0
 40
272.4350816032212
100
AcDbArc
 50
1.1339480082
 51
4.8244881111
  0
LWPOLYLINE
  5
520
330
1F
100
AcDbEntity
  8
0
  6
Continuous
 62
     7
100
AcDbPolyline
 90
        6
 70
   128
 43
0.0
 10
6607.9635620117
 20
4771.8161372382
 10
6607.9915956911
 20
4771.8187500286
 10
6608.0339389832
 20
4771.7103648405
 10
6608.0769753416
 20
4771.3712694976
 10
6608.4178032154
 20
4763.9724307893
 10
6608.8723457167
 20
4754.2947744865
  0
LWPOLYLINE
  5
521
330
1F
100
AcDbEntity
  8
0
  6
Continuous
 62
     7
100
AcDbPolyline
 90
        6
 70
   128
 43
0.0
 10
6609.9166870117
 20
4771.8161372382
 10
6609.9454396184
 20
4771.8187500353
 10
6609.9877871534
 20
4771.7103648851
 10
6610.0308250518
 20
4771.3712696
 10
6610.3716521146
 20
4763.9724309588
 10
6610.8261934231
 20
4754.2947744865
  0
LWPOLYLINE
  5
522
330
1F
100
AcDbEntity
  8
0
  6
Continuous
 62
     7
100
AcDbPolyline
 90
        6
 70
   128
 43
0.0
 10
6611.8698120117
 20
4771.8161372382
 10
6611.8992873638
 20
4771.8187500366
 10
6611.9416348352
 20
4771.7103648844
 10
6611.9846725267
 20
4771.3712695926
 10
6612.3254976371
 20
4763.9724308891
 10
6612.7800411294
 20
4754.2947744865
  0
LWPOLYLINE
  5
523
330
1F
100
AcDbEntity
  8
0
  6
Continuous
 62
     7
100
AcDbPolyline
 90
        5
 70
   128
 43
0.0
 10
6616.7449951172
 20
4692.9898337608
 10
6616.8306206269
 20
4693.0206742129
 10
6616.9088326861
 20
4693.1116264683
 10
6617.0335061423
 20
4693.4584628705
 10
6617.0603251765
 20
4694.5898337204
  0
LWPOLYLINE
  5
524
330
1F
100
AcDbEntity
  8
0
  6
Continuous
 62
     7
100
AcDbPolyline
 90
        4
 70
   128
 43
0.0
 10
6616.7449951172
 20
4693.7898337406
 10
6616.7695860213
 20
4693.8056193675
 10
6616.7890942144
 20
4693.8514549737
 10
6616.7477367847
 20
4694.5898337204
  0
LWPOLYLINE
  5
525
330
1F
100
AcDbEntity
  8
0
  6
Continuous
 62
     7
100
AcDbPolyline
 90
        3
 70
   128
 43
0.0
 10
6706.859588623
 20
4694.5898337204
 10
6706.3606858932
 20
4693.3570556645
 10
6705.747736686
 20
4692.9898337608
  0
LWPOLYLINE
  5
526
330
1F
100
AcDbEntity
  8
0
  6
Continuous
 62
     7
100
AcDbPolyline
 90
        3
 70
   128
 43
0.0
 10
6706.2339782715
 20
4692.9898337608
 10
6707.4679299378
 20
4693.5699854498
 10
6707.8351518819
 20
4694.5898337204
  0
LWPOLYLINE
  5
527
330
1F
100
AcDbEntity
  8
0
  6
Continuous
 62
     7
100
AcDbPolyline
 90
        3
 70
   128
 43
0.0
 10
6706.6688537598
 20
4693.937367751
 10
6706.9628884823
 20
4694.2541660881
 10
6707.0351519022
 20
4694.5898337204
  0
LWPOLYLINE
  5
528
330
1F
100
AcDbEntity
  8
0
  6
Continuous
 62
     7
100
AcDbPolyline
 90
        3
 70
   128
 43
0.0
 10
6344.7303771973
 20
4362.8878539268
 10
6345.0244466719
 20
4362.5124718586
 10
6345.0565619066
 20
4362.3017969613
  0
ARC
  5
529
330
1F
100
AcDbEntity
  8
0
  6
Continuous
 62
     7
100
AcDbCircle
 10
6382.7381971023
 20
4453.0158515925
 30
0.0
 40
1.0113776278014
100
AcDbArc
 50
244.6583693728
 51
295.3416306326
  0
ARC
  5
52A
330
1F
100
AcDbEntity
  8
0
  6
Continuous
 62
     7
100
AcDbCircle
 10
6165.2963162069
 20
4453.0313103255
 30
0.0
 40
1.02550614862182
100
AcDbArc
 50
245.0117817934
 51
294.9882182013
  0
LWPOLYLINE
  5
52B
330
1F
100
AcDbEntity
  8
0
  6
Continuous
 62
     7
100
AcDbPolyline
 90
        3
 70
   128
 43
0.0
 10
6202.9800415039
 20
4362.3017969613
 10
6203.0565355291
 20
4362.5846619145
 10
6203.3066061929
 20
4362.8878539268
  0
LWPOLYLINE
  5
52C
330
1F
100
AcDbEntity
  8
0
  6
Continuous
 62
     7
100
AcDbPolyline
 90
        3
 70
   128
 43
0.0
 10
6200.1838684082
 20
4442.4351834997
 10
6199.3679284351
 20
4442.7833324557
 10
6199.1266144112
 20
4443.4048095092
  0
LWPOLYLINE
  5
52D
330
1F
100
AcDbEntity
  8
0
  6
Continuous
 62
     7
100
AcDbPolyline
 90
        3
 70
   128
 43
0.0
 10
6201.244354248
 20
4443.4048095092
 10
6200.8629087198
 20
4442.6508835213
 10
6200.1867053702
 20
4442.4351834997
  0
LWPOLYLINE
  5
52E
330
1F
100
AcDbEntity
  8
0
  6
Continuous
 62
     7
100
AcDbPolyline
 90
        3
 70
   128
 43
0.0
 10
6200.9620666504
 20
4444.0744602426
 10
6201.1911803539
 20
4443.7226080919
 10
6201.2445611551
 20
4443.4048095092
  0
LWPOLYLINE
  5
52F
330
1F
100
AcDbEntity
  8
0
  6
Continuous
 62
     7
100
AcDbPolyline
 90
        3
 70
   128
 43
0.0
 10
6200.1838684082
 20
4444.3847620233
 10
6200.6608810478
 20
4444.2878493995
 10
6200.9641138509
 20
4444.0744602426
  0
LWPOLYLINE
  5
530
330
1F
100
AcDbEntity
  8
0
  6
Continuous
 62
     7
100
AcDbPolyline
 90
        3
 70
   128
 43
0.0
 10
6199.405670166
 20
4444.0729105219
 10
6199.8091377003
 20
4444.3261941382
 10
6200.1867053702
 20
4444.3847620233
  0
LWPOLYLINE
  5
531
330
1F
100
AcDbEntity
  8
0
  6
Continuous
 62
     7
100
AcDbPolyline
 90
        3
 70
   128
 43
0.0
 10
6199.1233825684
 20
4443.4048095092
 10
6199.2149143428
 20
4443.8050728295
 10
6199.4070617154
 20
4444.0729105219
  0
LWPOLYLINE
  5
532
330
1F
100
AcDbEntity
  8
0
  6
Continuous
 62
     7
100
AcDbPolyline
 90
        3
 70
   128
 43
0.0
 10
6186.3288879395
 20
4442.4351834997
 10
6185.5115174549
 20
4442.7833324557
 10
6185.2702034309
 20
4443.4048095092
  0
LWPOLYLINE
  5
533
330
1F
100
AcDbEntity
  8
0
  6
Continuous
 62
     7
100
AcDbPolyline
 90
        3
 70
   128
 43
0.0
 10
6187.385559082
 20
4443.4048095092
 10
6187.0064977396
 20
4442.6508835213
 10
6186.33029439
 20
4442.4351834997
  0
LWPOLYLINE
  5
534
330
1F
100
AcDbEntity
  8
0
  6
Continuous
 62
     7
100
AcDbPolyline
 90
        3
 70
   128
 43
0.0
 10
6187.1070861816
 20
4444.0744602426
 10
6187.3347693736
 20
4443.7226080919
 10
6187.3881501749
 20
4443.4048095092
  0
LWPOLYLINE
  5
535
330
1F
100
AcDbEntity
  8
0
  6
Continuous
 62
     7
100
AcDbPolyline
 90
        3
 70
   128
 43
0.0
 10
6186.3288879395
 20
4444.3847620233
 10
6186.8044700676
 20
4444.2878493995
 10
6187.1077028707
 20
4444.0744602426
  0
LWPOLYLINE
  5
536
330
1F
100
AcDbEntity
  8
0
  6
Continuous
 62
     7
100
AcDbPolyline
 90
        3
 70
   128
 43
0.0
 10
6185.546875
 20
4444.0729105219
 10
6185.9527267201
 20
4444.3261941382
 10
6186.33029439
 20
4444.3847620233
  0
LWPOLYLINE
  5
537
330
1F
100
AcDbEntity
  8
0
  6
Continuous
 62
     7
100
AcDbPolyline
 90
        3
 70
   128
 43
0.0
 10
6185.2684020996
 20
4443.4048095092
 10
6185.3585033626
 20
4443.8050728295
 10
6185.5506507352
 20
4444.0729105219
  0
LWPOLYLINE
  5
538
330
1F
100
AcDbEntity
  8
0
  6
Continuous
 62
     7
100
AcDbPolyline
 90
        3
 70
   128
 43
0.0
 10
6179.6913146973
 20
4443.9314463481
 10
6180.1767639331
 20
4443.53375022
 10
6180.3522539928
 20
4443.0996709808
  0
LWPOLYLINE
  5
539
330
1F
100
AcDbEntity
  8
0
  6
Continuous
 62
     7
100
AcDbPolyline
 90
        3
 70
   128
 43
0.0
 10
6179.313659668
 20
4444.1880517944
 10
6179.5248817513
 20
4444.0416725428
 10
6179.6926391914
 20
4443.9314463481
  0
LWPOLYLINE
  5
53A
330
1F
100
AcDbEntity
  8
0
  6
Continuous
 62
     7
100
AcDbPolyline
 90
        3
 70
   128
 43
0.0
 10
6179.1305541992
 20
4444.5210703954
 10
6179.19665415
 20
4444.3164438113
 10
6179.3162731126
 20
4444.1880517944
  0
LWPOLYLINE
  5
53B
330
1F
100
AcDbEntity
  8
0
  6
Continuous
 62
     7
100
AcDbPolyline
 90
        3
 70
   128
 43
0.0
 10
6179.5387268066
 20
4444.8473760232
 10
6179.2326104006
 20
4444.7408953818
 10
6179.1317371324
 20
4444.5210703954
  0
LWPOLYLINE
  5
53C
330
1F
100
AcDbEntity
  8
0
  6
Continuous
 62
     7
100
AcDbPolyline
 90
        3
 70
   128
 43
0.0
 10
6180.0880432129
 20
4444.5169427737
 10
6179.825538648
 20
4444.7687032088
 10
6179.5423162773
 20
4444.8473760232
  0
LWPOLYLINE
  5
53D
330
1F
100
AcDbEntity
  8
0
  6
Continuous
 62
     7
100
AcDbPolyline
 90
        3
 70
   128
 43
0.0
 10
6179.5692443848
 20
4445.1117300734
 10
6180.0468686853
 20
4444.9529336183
 10
6180.3163570955
 20
4444.6754464253
  0
LWPOLYLINE
  5
53E
330
1F
100
AcDbEntity
  8
0
  6
Continuous
 62
     7
100
AcDbPolyline
 90
        3
 70
   128
 43
0.0
 10
6178.8787841797
 20
4444.5102298006
 10
6179.1347278016
 20
4444.9830607687
 10
6179.5703602627
 20
4445.1117300734
  0
LWPOLYLINE
  5
53F
330
1F
100
AcDbEntity
  8
0
  6
Continuous
 62
     7
100
AcDbPolyline
 90
        3
 70
   128
 43
0.0
 10
6179.0351867676
 20
4444.1178300723
 10
6178.9123907801
 20
4444.3258743758
 10
6178.8804588512
 20
4444.5102298006
  0
LWPOLYLINE
  5
540
330
1F
100
AcDbEntity
  8
0
  6
Continuous
 62
     7
100
AcDbPolyline
 90
        3
 70
   128
 43
0.0
 10
6179.4929504395
 20
4443.7672579035
 10
6179.2286154414
 20
4443.952382373
 10
6179.036950846
 20
4444.1178300723
  0
LWPOLYLINE
  5
541
330
1F
100
AcDbEntity
  8
0
  6
Continuous
 62
     7
100
AcDbPolyline
 90
        3
 70
   128
 43
0.0
 10
6180.0003051758
 20
4443.3562764272
 10
6179.7323231549
 20
4443.6016746384
 10
6179.4957650497
 20
4443.7672579035
  0
LWPOLYLINE
  5
542
330
1F
100
AcDbEntity
  8
0
  6
Continuous
 62
     7
100
AcDbPolyline
 90
        3
 70
   128
 43
0.0
 10
6180.0994873047
 20
4443.1032845124
 10
6180.0664475989
 20
4443.2526768388
 10
6180.0005716875
 20
4443.3562764272
  0
LWPOLYLINE
  5
543
330
1F
100
AcDbEntity
  8
0
  6
Continuous
 62
     7
100
AcDbPolyline
 90
        3
 70
   128
 43
0.0
 10
6179.5501708984
 20
4442.6664867743
 10
6179.9645169864
 20
4442.81081266
 10
6180.1009682611
 20
4443.1032845124
  0
LWPOLYLINE
  5
544
330
1F
100
AcDbEntity
  8
0
  6
Continuous
 62
     7
100
AcDbPolyline
 90
        3
 70
   128
 43
0.0
 10
6178.9360046387
 20
4443.0960574492
 10
6179.2232147283
 20
4442.7746240514
 10
6179.552411814
 20
4442.6664867743
  0
LWPOLYLINE
  5
545
330
1F
100
AcDbEntity
  8
0
  6
Continuous
 62
     7
100
AcDbPolyline
 90
        3
 70
   128
 43
0.0
 10
6179.5501708984
 20
4442.4021401748
 10
6178.9874230198
 20
4442.6048736914
 10
6178.700966914
 20
4442.9654338702
  0
LWPOLYLINE
  5
546
330
1F
100
AcDbEntity
  8
0
  6
Continuous
 62
     7
100
AcDbPolyline
 90
        3
 70
   128
 43
0.0
 10
6180.3512573242
 20
4443.0996709808
 10
6180.0522275264
 20
4442.5562766368
 10
6179.552411814
 20
4442.4021401748
  0
LWPOLYLINE
  5
547
330
1F
100
AcDbEntity
  8
0
  6
Continuous
 62
     7
100
AcDbPolyline
 90
        3
 70
   128
 43
0.0
 10
6182.6400756836
 20
4444.0140509352
 10
6182.824720163
 20
4443.6635327652
 10
6182.8650740579
 20
4443.3604040488
  0
LWPOLYLINE
  5
548
330
1F
100
AcDbEntity
  8
0
  6
Continuous
 62
     7
100
AcDbPolyline
 90
        3
 70
   128
 43
0.0
 10
6181.8161010742
 20
4444.3847620233
 10
6182.3319135523
 20
4444.2683655317
 10
6182.6423985556
 20
4444.0140509352
  0
LWPOLYLINE
  5
549
330
1F
100
AcDbEntity
  8
0
  6
Continuous
 62
     7
100
AcDbPolyline
 90
        3
 70
   128
 43
0.0
 10
6181.0150146484
 20
4444.0336757645
 10
6181.4237519395
 20
4444.3192337501
 10
6181.8184388474
 20
4444.3847620233
  0
LWPOLYLINE
  5
54A
330
1F
100
AcDbEntity
  8
0
  6
Continuous
 62
     7
100
AcDbPolyline
 90
        3
 70
   128
 43
0.0
 10
6180.7823181152
 20
4443.4048095092
 10
6180.8571789699
 20
4443.776531726
 10
6181.0185966685
 20
4444.0336757645
  0
LWPOLYLINE
  5
54B
330
1F
100
AcDbEntity
  8
0
  6
Continuous
 62
     7
100
AcDbPolyline
 90
        3
 70
   128
 43
0.0
 10
6181.8084716797
 20
4442.4351834997
 10
6181.0096977949
 20
4442.7853538495
 10
6180.7830242112
 20
4443.4048095092
  0
LWPOLYLINE
  5
54C
330
1F
100
AcDbEntity
  8
0
  6
Continuous
 62
     7
100
AcDbPolyline
 90
        3
 70
   128
 43
0.0
 10
6182.7545166016
 20
4442.9551073655
 10
6182.3091583397
 20
4442.5355756938
 10
6181.8122697666
 20
4442.4351834997
  0
LWPOLYLINE
  5
54D
330
1F
100
AcDbEntity
  8
0
  6
Continuous
 62
     7
100
AcDbPolyline
 90
        3
 70
   128
 43
0.0
 10
6181.7779541016
 20
4442.6664867743
 10
6182.2642700505
 20
4442.7929041859
 10
6182.5341416195
 20
4443.0630141243
  0
LWPOLYLINE
  5
54E
330
1F
100
AcDbEntity
  8
0
  6
Continuous
 62
     7
100
AcDbPolyline
 90
        3
 70
   128
 43
0.0
 10
6181.0340881348
 20
4443.3604040488
 10
6181.3007834659
 20
4442.8220863625
 10
6181.7808581188
 20
4442.6664867743
  0
LWPOLYLINE
  5
54F
330
1F
100
AcDbEntity
  8
0
  6
Continuous
 62
     7
100
AcDbPolyline
 90
        3
 70
   128
 43
0.0
 10
6183.5899353027
 20
4443.7476405248
 10
6183.5518763316
 20
4443.3864384932
 10
6183.5471225575
 20
4443.1012207016
  0
LWPOLYLINE
  5
550
330
1F
100
AcDbEntity
  8
0
  6
Continuous
 62
     7
100
AcDbPolyline
 90
        3
 70
   128
 43
0.0
 10
6183.9981079102
 20
4444.1534587487
 10
6183.70181688
 20
4443.985947812
 10
6183.5919974044
 20
4443.7476405248
  0
LWPOLYLINE
  5
551
330
1F
100
AcDbEntity
  8
0
  6
Continuous
 62
     7
100
AcDbPolyline
 90
        3
 70
   128
 43
0.0
 10
6184.1239929199
 20
4444.1199013337
 10
6184.0570588697
 20
4444.1451772383
 10
6183.9986426428
 20
4444.1534587487
  0
LWPOLYLINE
  5
552
330
1F
100
AcDbEntity
  8
0
  6
Continuous
 62
     7
100
AcDbPolyline
 90
        3
 70
   128
 43
0.0
 10
6184.0438842773
 20
4444.3847620233
 10
6184.1737213063
 20
4444.3619450969
 10
6184.2650754049
 20
4444.3202250942
  0
LWPOLYLINE
  5
553
330
1F
100
AcDbEntity
  8
0
  6
Continuous
 62
     7
100
AcDbPolyline
 90
        3
 70
   128
 43
0.0
 10
6183.5441589355
 20
4444.0744602426
 10
6183.7852922305
 20
4444.3116703062
 10
6184.046318908
 20
4444.3847620233
  0
LWPOLYLINE
  5
554
330
1F
100
AcDbEntity
  8
0
  6
Continuous
 62
     7
100
AcDbPolyline
 90
        3
 70
   128
 43
0.0
 10
6184.8373413086
 20
4444.9454778179
 10
6184.7496786969
 20
4444.7908570364
 10
6184.6049783423
 20
4444.7482460483
  0
LWPOLYLINE
  5
555
330
1F
100
AcDbEntity
  8
0
  6
Continuous
 62
     7
100
AcDbPolyline
 90
        3
 70
   128
 43
0.0
 10
6184.6046447754
 20
4445.1447733983
 10
6184.7827334067
 20
4445.0754918396
 10
6184.8394332126
 20
4444.9454778179
  0
LWPOLYLINE
  5
556
330
1F
100
AcDbEntity
  8
0
  6
Continuous
 62
     7
100
AcDbPolyline
 90
        3
 70
   128
 43
0.0
 10
6184.3719482422
 20
4444.9454778179
 10
6184.4605436321
 20
4445.1012418248
 10
6184.6049783423
 20
4445.1447733983
  0
LWPOLYLINE
  5
557
330
1F
100
AcDbEntity
  8
0
  6
Continuous
 62
     7
100
AcDbPolyline
 90
        3
 70
   128
 43
0.0
 10
6184.6046447754
 20
4444.7482460483
 10
6184.4294605252
 20
4444.8172262986
 10
6184.3727660969
 20
4444.9454778179
  0
LWPOLYLINE
  5
558
330
1F
100
AcDbEntity
  8
0
  6
Continuous
 62
     7
100
AcDbPolyline
 90
        3
 70
   128
 43
0.0
 10
6191.7953491211
 20
4444.0140509352
 10
6191.9785700376
 20
4443.663534455
 10
6192.0189169839
 20
4443.3604040488
  0
LWPOLYLINE
  5
559
330
1F
100
AcDbEntity
  8
0
  6
Continuous
 62
     7
100
AcDbPolyline
 90
        3
 70
   128
 43
0.0
 10
6190.9713745117
 20
4444.3847620233
 10
6191.4857585959
 20
4444.2683682984
 10
6191.7962414816
 20
4444.0140509352
  0
LWPOLYLINE
  5
55A
330
1F
100
AcDbEntity
  8
0
  6
Continuous
 62
     7
100
AcDbPolyline
 90
        3
 70
   128
 43
0.0
 10
6190.1702880859
 20
4444.0336757645
 10
6190.5775972051
 20
4444.3192346324
 10
6190.9722817734
 20
4444.3847620233
  0
LWPOLYLINE
  5
55B
330
1F
100
AcDbEntity
  8
0
  6
Continuous
 62
     7
100
AcDbPolyline
 90
        3
 70
   128
 43
0.0
 10
6189.9337768555
 20
4443.4048095092
 10
6190.011029137
 20
4443.7765312259
 10
6190.1724470451
 20
4444.0336757645
  0
LWPOLYLINE
  5
55C
330
1F
100
AcDbEntity
  8
0
  6
Continuous
 62
     7
100
AcDbPolyline
 90
        3
 70
   128
 43
0.0
 10
6190.9637451172
 20
4442.4351834997
 10
6190.1635453535
 20
4442.7853571905
 10
6189.9368671372
 20
4443.4048095092
  0
LWPOLYLINE
  5
55D
330
1F
100
AcDbEntity
  8
0
  6
Continuous
 62
     7
100
AcDbPolyline
 90
        3
 70
   128
 43
0.0
 10
6191.9097900391
 20
4442.9551073655
 10
6191.4630012657
 20
4442.5355756938
 10
6190.9661126926
 20
4442.4351834997
  0
LWPOLYLINE
  5
55E
330
1F
100
AcDbEntity
  8
0
  6
Continuous
 62
     7
100
AcDbPolyline
 90
        3
 70
   128
 43
0.0
 10
6190.9332275391
 20
4442.6664867743
 10
6191.4181152816
 20
4442.7929056586
 10
6191.6879919961
 20
4443.0630141243
  0
LWPOLYLINE
  5
55F
330
1F
100
AcDbEntity
  8
0
  6
Continuous
 62
     7
100
AcDbPolyline
 90
        3
 70
   128
 43
0.0
 10
6190.185546875
 20
4443.3604040488
 10
6190.4546269191
 20
4442.8220859549
 10
6190.9347010449
 20
4442.6664867743
  0
LWPOLYLINE
  5
560
330
1F
100
AcDbEntity
  8
0
  6
Continuous
 62
     7
100
AcDbPolyline
 90
        3
 70
   128
 43
0.0
 10
6194.6487426758
 20
4442.4351834997
 10
6193.7924352014
 20
4442.7644634174
 10
6193.5266090229
 20
4443.3944830045
  0
LWPOLYLINE
  5
561
330
1F
100
AcDbEntity
  8
0
  6
Continuous
 62
     7
100
AcDbPolyline
 90
        3
 70
   128
 43
0.0
 10
6195.6062316895
 20
4442.869917427
 10
6195.1314553757
 20
4442.514781857
 10
6194.6512071088
 20
4442.4351834997
  0
LWPOLYLINE
  5
562
330
1F
100
AcDbEntity
  8
0
  6
Continuous
 62
     7
100
AcDbPolyline
 90
        3
 70
   128
 43
0.0
 10
6194.652557373
 20
4442.6664867743
 10
6195.1161435921
 20
4442.7719289491
 10
6195.3983289793
 20
4442.9969274744
  0
LWPOLYLINE
  5
563
330
1F
100
AcDbEntity
  8
0
  6
Continuous
 62
     7
100
AcDbPolyline
 90
        3
 70
   128
 43
0.0
 10
6193.775177002
 20
4443.4151360139
 10
6194.1050089056
 20
4442.8225339941
 10
6194.6551335648
 20
4442.6664867743
  0
LWPOLYLINE
  5
564
330
1F
100
AcDbEntity
  8
0
  6
Continuous
 62
     7
100
AcDbPolyline
 90
        3
 70
   128
 43
0.0
 10
6194.652557373
 20
4444.1534587487
 10
6193.9868772706
 20
4443.9014115339
 10
6193.7778947547
 20
4443.4151360139
  0
LWPOLYLINE
  5
565
330
1F
100
AcDbEntity
  8
0
  6
Continuous
 62
     7
100
AcDbPolyline
 90
        3
 70
   128
 43
0.0
 10
6195.3964233398
 20
4443.8230180487
 10
6195.0221997811
 20
4444.0925225903
 10
6194.6534571841
 20
4444.1534587487
  0
LWPOLYLINE
  5
566
330
1F
100
AcDbEntity
  8
0
  6
Continuous
 62
     7
100
AcDbPolyline
 90
        3
 70
   128
 43
0.0
 10
6194.6716308594
 20
4444.3847620233
 10
6195.2637687982
 20
4444.2493972962
 10
6195.6086588696
 20
4443.9433225736
  0
LWPOLYLINE
  5
567
330
1F
100
AcDbEntity
  8
0
  6
Continuous
 62
     7
100
AcDbPolyline
 90
        3
 70
   128
 43
0.0
 10
6193.5234069824
 20
4443.3944830045
 10
6193.9507736971
 20
4444.1757638725
 10
6194.6719644263
 20
4444.3847620233
  0
LWPOLYLINE
  5
568
330
1F
100
AcDbEntity
  8
0
  6
Continuous
 62
     7
100
AcDbPolyline
 90
        3
 70
   128
 43
0.0
 10
6196.9223022461
 20
4443.600491558
 10
6196.8466202161
 20
4443.7568866756
 10
6196.82917573
 20
4443.8906544193
  0
LWPOLYLINE
  5
569
330
1F
100
AcDbEntity
  8
0
  6
Continuous
 62
     7
100
AcDbPolyline
 90
        3
 70
   128
 43
0.0
 10
6197.2732543945
 20
4443.3433720216
 10
6197.0622779106
 20
4443.4695127174
 10
6196.9228444293
 20
4443.600491558
  0
LWPOLYLINE
  5
56A
330
1F
100
AcDbEntity
  8
0
  6
Continuous
 62
     7
100
AcDbPolyline
 90
        3
 70
   128
 43
0.0
 10
6197.582244873
 20
4443.1492396935
 10
6197.4197858895
 20
4443.2685419188
 10
6197.2756517723
 20
4443.3433720216
  0
LWPOLYLINE
  5
56B
330
1F
100
AcDbEntity
  8
0
  6
Continuous
 62
     7
100
AcDbPolyline
 90
        3
 70
   128
 43
0.0
 10
6197.6547241211
 20
4442.9695614919
 10
6197.6330028991
 20
4443.076019079
 10
6197.5858268931
 20
4443.1492396935
  0
LWPOLYLINE
  5
56C
330
1F
100
AcDbEntity
  8
0
  6
Continuous
 62
     7
100
AcDbPolyline
 90
        3
 70
   128
 43
0.0
 10
6197.2923278809
 20
4442.6664867743
 10
6197.5658315574
 20
4442.7717547486
 10
6197.6548192695
 20
4442.9695614919
  0
LWPOLYLINE
  5
56D
330
1F
100
AcDbEntity
  8
0
  6
Continuous
 62
     7
100
AcDbPolyline
 90
        3
 70
   128
 43
0.0
 10
6196.8879699707
 20
4442.8647541746
 10
6197.0927924634
 20
4442.7122573099
 10
6197.293600221
 20
4442.6664867743
  0
LWPOLYLINE
  5
56E
330
1F
100
AcDbEntity
  8
0
  6
Continuous
 62
     7
100
AcDbPolyline
 90
        3
 70
   128
 43
0.0
 10
6197.3037719727
 20
4442.4351834997
 10
6196.9459691438
 20
4442.5182655515
 10
6196.7214850381
 20
4442.6902392253
  0
LWPOLYLINE
  5
56F
330
1F
100
AcDbEntity
  8
0
  6
Continuous
 62
     7
100
AcDbPolyline
 90
        3
 70
   128
 43
0.0
 10
6197.9026794434
 20
4442.9793739065
 10
6197.6892256068
 20
4442.5552996391
 10
6197.306497176
 20
4442.4351834997
  0
LWPOLYLINE
  5
570
330
1F
100
AcDbEntity
  8
0
  6
Continuous
 62
     7
100
AcDbPolyline
 90
        3
 70
   128
 43
0.0
 10
6197.8073120117
 20
4443.2705723986
 10
6197.8884170447
 20
4443.1137561766
 10
6197.9060975507
 20
4442.9793739065
  0
LWPOLYLINE
  5
571
330
1F
100
AcDbEntity
  8
0
  6
Continuous
 62
     7
100
AcDbPolyline
 90
        3
 70
   128
 43
0.0
 10
6197.4411010742
 20
4443.5349189981
 10
6197.664202155
 20
4443.4048035054
 10
6197.8107450202
 20
4443.2705723986
  0
LWPOLYLINE
  5
572
330
1F
100
AcDbEntity
  8
0
  6
Continuous
 62
     7
100
AcDbPolyline
 90
        3
 70
   128
 43
0.0
 10
6197.1473693848
 20
4443.7290513262
 10
6197.3052985422
 20
4443.6094550796
 10
6197.4422393039
 20
4443.5349189981
  0
LWPOLYLINE
  5
573
330
1F
100
AcDbEntity
  8
0
  6
Continuous
 62
     7
100
AcDbPolyline
 90
        3
 70
   128
 43
0.0
 10
6197.078704834
 20
4443.8999527439
 10
6197.1040539956
 20
4443.7986335714
 10
6197.1500051811
 20
4443.7290513262
  0
LWPOLYLINE
  5
574
330
1F
100
AcDbEntity
  8
0
  6
Continuous
 62
     7
100
AcDbPolyline
 90
        3
 70
   128
 43
0.0
 10
6197.3457336426
 20
4444.1534587487
 10
6197.1410384752
 20
4444.0586297968
 10
6197.0804540113
 20
4443.8999527439
  0
LWPOLYLINE
  5
575
330
1F
100
AcDbEntity
  8
0
  6
Continuous
 62
     7
100
AcDbPolyline
 90
        3
 70
   128
 43
0.0
 10
6197.696685791
 20
4443.955198799
 10
6197.5242298763
 20
4444.102293048
 10
6197.3463205293
 20
4444.1534587487
  0
LWPOLYLINE
  5
576
330
1F
100
AcDbEntity
  8
0
  6
Continuous
 62
     7
100
AcDbPolyline
 90
        3
 70
   128
 43
0.0
 10
6197.3457336426
 20
4444.3847620233
 10
6197.6683129749
 20
4444.2827896353
 10
6197.8702006534
 20
4444.1168018922
  0
LWPOLYLINE
  5
577
330
1F
100
AcDbEntity
  8
0
  6
Continuous
 62
     7
100
AcDbPolyline
 90
        3
 70
   128
 43
0.0
 10
6196.8269348145
 20
4443.8906544193
 10
6197.0090831123
 20
4444.2731995255
 10
6197.3463205293
 20
4444.3847620233
  0
LWPOLYLINE
  5
578
330
1F
100
AcDbEntity
  8
0
  6
Continuous
 62
     7
100
AcDbPolyline
 90
        3
 70
   128
 43
0.0
 10
6184.8373413086
 20
4444.9650132402
 10
6184.7496978455
 20
4444.8104128644
 10
6184.6049783423
 20
4444.7677814707
  0
LWPOLYLINE
  5
579
330
1F
100
AcDbEntity
  8
0
  6
Continuous
 62
     7
100
AcDbPolyline
 90
        3
 70
   128
 43
0.0
 10
6184.6046447754
 20
4444.7677814707
 10
6184.4294605252
 20
4444.8367617209
 10
6184.3727660969
 20
4444.9650132402
  0
LWPOLYLINE
  5
57A
330
1F
100
AcDbEntity
  8
0
  6
Continuous
 62
     7
100
AcDbPolyline
 90
        3
 70
   128
 43
0.0
 10
6180.0994873047
 20
4443.1228199347
 10
6180.0664475989
 20
4443.2722122612
 10
6180.0005716875
 20
4443.3758118495
  0
LWPOLYLINE
  5
57B
330
1F
100
AcDbEntity
  8
0
  6
Continuous
 62
     7
100
AcDbPolyline
 90
        3
 70
   128
 43
0.0
 10
6180.0003051758
 20
4443.3758118495
 10
6179.7323231549
 20
4443.6212100608
 10
6179.4957650497
 20
4443.7867933258
  0
LWPOLYLINE
  5
57C
330
1F
100
AcDbEntity
  8
0
  6
Continuous
 62
     7
100
AcDbPolyline
 90
        3
 70
   128
 43
0.0
 10
6179.4929504395
 20
4443.7867933258
 10
6179.2286134425
 20
4443.9719193595
 10
6179.036950846
 20
4444.1373729452
  0
LWPOLYLINE
  5
57D
330
1F
100
AcDbEntity
  8
0
  6
Continuous
 62
     7
100
AcDbPolyline
 90
        3
 70
   128
 43
0.0
 10
6179.0351867676
 20
4444.1373729452
 10
6178.91239192
 20
4444.3454139718
 10
6178.8804588512
 20
4444.5297652229
  0
LWPOLYLINE
  5
57E
330
1F
100
AcDbEntity
  8
0
  6
Continuous
 62
     7
100
AcDbPolyline
 90
        3
 70
   128
 43
0.0
 10
6180.0880432129
 20
4444.536478196
 10
6179.825538648
 20
4444.7882386311
 10
6179.5423162773
 20
4444.8669114455
  0
LWPOLYLINE
  5
57F
330
1F
100
AcDbEntity
  8
0
  6
Continuous
 62
     7
100
AcDbPolyline
 90
        3
 70
   128
 43
0.0
 10
6179.5387268066
 20
4444.8669114455
 10
6179.2326100024
 20
4444.7604379042
 10
6179.1317371324
 20
4444.5406058177
  0
LWPOLYLINE
  5
580
330
1F
100
AcDbEntity
  8
0
  6
Continuous
 62
     7
100
AcDbPolyline
 90
        3
 70
   128
 43
0.0
 10
6180.3512573242
 20
4443.1192064032
 10
6180.0522275264
 20
4442.5758120591
 10
6179.552411814
 20
4442.4216755971
  0
LWPOLYLINE
  5
581
330
1F
100
AcDbEntity
  8
0
  6
Continuous
 62
     7
100
AcDbPolyline
 90
        3
 70
   128
 43
0.0
 10
6179.5501708984
 20
4442.4216755971
 10
6178.9874264702
 20
4442.6244135871
 10
6178.700966914
 20
4442.9849692925
  0
LWPOLYLINE
  5
582
330
1F
100
AcDbEntity
  8
0
  6
Continuous
 62
     7
100
AcDbPolyline
 90
        3
 70
   128
 43
0.0
 10
6187.385559082
 20
4443.4243449315
 10
6187.0064987597
 20
4442.6704197457
 10
6186.33029439
 20
4442.454718922
  0
LWPOLYLINE
  5
583
330
1F
100
AcDbEntity
  8
0
  6
Continuous
 62
     7
100
AcDbPolyline
 90
        3
 70
   128
 43
0.0
 10
6186.3288879395
 20
4442.454718922
 10
6185.5115166273
 20
4442.802868783
 10
6185.2702034309
 20
4443.4243449315
  0
LWPOLYLINE
  5
584
330
1F
100
AcDbEntity
  8
0
  6
Continuous
 62
     7
100
AcDbPolyline
 90
        3
 70
   128
 43
0.0
 10
6187.1337890625
 20
4443.4227952107
 10
6186.8441101246
 20
4443.9994941048
 10
6186.3291768029
 20
4444.172994171
  0
LWPOLYLINE
  5
585
330
1F
100
AcDbEntity
  8
0
  6
Continuous
 62
     7
100
AcDbPolyline
 90
        3
 70
   128
 43
0.0
 10
6186.3288879395
 20
4444.172994171
 10
6185.7051212918
 20
4443.8987768391
 10
6185.5214817122
 20
4443.4227952107
  0
LWPOLYLINE
  5
586
330
1F
100
AcDbEntity
  8
0
  6
Continuous
 62
     7
100
AcDbPolyline
 90
        3
 70
   128
 43
0.0
 10
6191.9097900391
 20
4442.9746427878
 10
6191.4630012657
 20
4442.5551111161
 10
6190.9661126926
 20
4442.454718922
  0
LWPOLYLINE
  5
587
330
1F
100
AcDbEntity
  8
0
  6
Continuous
 62
     7
100
AcDbPolyline
 90
        3
 70
   128
 43
0.0
 10
6190.9637451172
 20
4442.454718922
 10
6190.1635453535
 20
4442.8048926128
 10
6189.9368671372
 20
4443.4243449315
  0
LWPOLYLINE
  5
588
330
1F
100
AcDbEntity
  8
0
  6
Continuous
 62
     7
100
AcDbPolyline
 90
        3
 70
   128
 43
0.0
 10
6191.764831543
 20
4443.6112501964
 10
6191.435098859
 20
4444.0570832464
 10
6190.985186179
 20
4444.172994171
  0
LWPOLYLINE
  5
589
330
1F
100
AcDbEntity
  8
0
  6
Continuous
 62
     7
100
AcDbPolyline
 90
        3
 70
   128
 43
0.0
 10
6190.9828186035
 20
4444.172994171
 10
6190.671112408
 20
4444.1185749774
 10
6190.4579383925
 20
4443.9964154109
  0
LWPOLYLINE
  5
58A
330
1F
100
AcDbEntity
  8
0
  6
Continuous
 62
     7
100
AcDbPolyline
 90
        3
 70
   128
 43
0.0
 10
6190.4563903809
 20
4443.9964154109
 10
6190.2927484604
 20
4443.7956074328
 10
6190.2145130232
 20
4443.6112501964
  0
LWPOLYLINE
  5
58B
330
1F
100
AcDbEntity
  8
0
  6
Continuous
 62
     7
100
AcDbPolyline
 90
        3
 70
   128
 43
0.0
 10
6195.3964233398
 20
4443.842553471
 10
6195.0221997811
 20
4444.1120580126
 10
6194.6534571841
 20
4444.172994171
  0
LWPOLYLINE
  5
58C
330
1F
100
AcDbEntity
  8
0
  6
Continuous
 62
     7
100
AcDbPolyline
 90
        3
 70
   128
 43
0.0
 10
6194.652557373
 20
4444.172994171
 10
6193.9868772706
 20
4443.9209469563
 10
6193.7778947547
 20
4443.4346714362
  0
LWPOLYLINE
  5
58D
330
1F
100
AcDbEntity
  8
0
  6
Continuous
 62
     7
100
AcDbPolyline
 90
        3
 70
   128
 43
0.0
 10
6195.6062316895
 20
4442.8894528493
 10
6195.1314553757
 20
4442.5343172794
 10
6194.6512071088
 20
4442.454718922
  0
LWPOLYLINE
  5
58E
330
1F
100
AcDbEntity
  8
0
  6
Continuous
 62
     7
100
AcDbPolyline
 90
        3
 70
   128
 43
0.0
 10
6194.6487426758
 20
4442.454718922
 10
6193.7924529598
 20
4442.78398113
 10
6193.5266090229
 20
4443.4140184268
  0
LWPOLYLINE
  5
58F
330
1F
100
AcDbEntity
  8
0
  6
Continuous
 62
     7
100
AcDbPolyline
 90
        3
 70
   128
 43
0.0
 10
6184.1239929199
 20
4444.139436756
 10
6184.0570661043
 20
4444.1647109613
 10
6183.9986426428
 20
4444.172994171
  0
LWPOLYLINE
  5
590
330
1F
100
AcDbEntity
  8
0
  6
Continuous
 62
     7
100
AcDbPolyline
 90
        3
 70
   128
 43
0.0
 10
6183.9981079102
 20
4444.172994171
 10
6183.70181688
 20
4444.0054832344
 10
6183.5919974044
 20
4443.7671759471
  0
LWPOLYLINE
  5
591
330
1F
100
AcDbEntity
  8
0
  6
Continuous
 62
     7
100
AcDbPolyline
 90
        3
 70
   128
 43
0.0
 10
6183.5899353027
 20
4443.7671759471
 10
6183.5518763316
 20
4443.4059739155
 10
6183.5471225575
 20
4443.1207561239
  0
LWPOLYLINE
  5
592
330
1F
100
AcDbEntity
  8
0
  6
Continuous
 62
     7
100
AcDbPolyline
 90
        3
 70
   128
 43
0.0
 10
6201.244354248
 20
4443.4243449315
 10
6200.86290974
 20
4442.6704197457
 10
6200.1867053702
 20
4442.454718922
  0
LWPOLYLINE
  5
593
330
1F
100
AcDbEntity
  8
0
  6
Continuous
 62
     7
100
AcDbPolyline
 90
        3
 70
   128
 43
0.0
 10
6200.1838684082
 20
4442.454718922
 10
6199.3679276075
 20
4442.802868783
 10
6199.1266144112
 20
4443.4243449315
  0
LWPOLYLINE
  5
594
330
1F
100
AcDbEntity
  8
0
  6
Continuous
 62
     7
100
AcDbPolyline
 90
        3
 70
   128
 43
0.0
 10
6200.9925842285
 20
4443.4227952107
 10
6200.7005200734
 20
4443.9994949158
 10
6200.1855877832
 20
4444.172994171
  0
LWPOLYLINE
  5
595
330
1F
100
AcDbEntity
  8
0
  6
Continuous
 62
     7
100
AcDbPolyline
 90
        3
 70
   128
 43
0.0
 10
6200.1838684082
 20
4444.172994171
 10
6199.561532272
 20
4443.8987768391
 10
6199.3778926924
 20
4443.4227952107
  0
LWPOLYLINE
  5
596
330
1F
100
AcDbEntity
  8
0
  6
Continuous
 62
     7
100
AcDbPolyline
 90
        3
 70
   128
 43
0.0
 10
6197.696685791
 20
4443.9747342214
 10
6197.5242298763
 20
4444.1218284703
 10
6197.3463205293
 20
4444.172994171
  0
LWPOLYLINE
  5
597
330
1F
100
AcDbEntity
  8
0
  6
Continuous
 62
     7
100
AcDbPolyline
 90
        3
 70
   128
 43
0.0
 10
6197.3457336426
 20
4444.172994171
 10
6197.1410389864
 20
4444.0781658091
 10
6197.0804540113
 20
4443.9194881662
  0
LWPOLYLINE
  5
598
330
1F
100
AcDbEntity
  8
0
  6
Continuous
 62
     7
100
AcDbPolyline
 90
        3
 70
   128
 43
0.0
 10
6197.9026794434
 20
4442.9989093288
 10
6197.6892251512
 20
4442.5748347133
 10
6197.306497176
 20
4442.454718922
  0
LWPOLYLINE
  5
599
330
1F
100
AcDbEntity
  8
0
  6
Continuous
 62
     7
100
AcDbPolyline
 90
        3
 70
   128
 43
0.0
 10
6197.3037719727
 20
4442.454718922
 10
6196.9459691438
 20
4442.5378009739
 10
6196.7214850381
 20
4442.7097746476
  0
LWPOLYLINE
  5
59A
330
1F
100
AcDbEntity
  8
0
  6
Continuous
 62
     7
100
AcDbPolyline
 90
        3
 70
   128
 43
0.0
 10
6197.6547241211
 20
4442.9890969142
 10
6197.6330052001
 20
4443.0955566768
 10
6197.5858268931
 20
4443.1687751159
  0
LWPOLYLINE
  5
59B
330
1F
100
AcDbEntity
  8
0
  6
Continuous
 62
     7
100
AcDbPolyline
 90
        3
 70
   128
 43
0.0
 10
6197.582244873
 20
4443.1687751159
 10
6197.4197965781
 20
4443.2880709044
 10
6197.2756517723
 20
4443.3629074439
  0
LWPOLYLINE
  5
59C
330
1F
100
AcDbEntity
  8
0
  6
Continuous
 62
     7
100
AcDbPolyline
 90
        3
 70
   128
 43
0.0
 10
6197.2732543945
 20
4443.3629074439
 10
6197.062286338
 20
4443.4890416469
 10
6196.9228444293
 20
4443.6200269803
  0
LWPOLYLINE
  5
59D
330
1F
100
AcDbEntity
  8
0
  6
Continuous
 62
     7
100
AcDbPolyline
 90
        3
 70
   128
 43
0.0
 10
6196.9223022461
 20
4443.6200269803
 10
6196.8466202161
 20
4443.7764220979
 10
6196.82917573
 20
4443.9101898416
  0
LWPOLYLINE
  5
59E
330
1F
100
AcDbEntity
  8
0
  6
Continuous
 62
     7
100
AcDbPolyline
 90
        3
 70
   128
 43
0.0
 10
6182.7545166016
 20
4442.9746427878
 10
6182.3091583397
 20
4442.5551111161
 10
6181.8122697666
 20
4442.454718922
  0
LWPOLYLINE
  5
59F
330
1F
100
AcDbEntity
  8
0
  6
Continuous
 62
     7
100
AcDbPolyline
 90
        3
 70
   128
 43
0.0
 10
6181.8084716797
 20
4442.454718922
 10
6181.0096977949
 20
4442.8048892718
 10
6180.7830242112
 20
4443.4243449315
  0
LWPOLYLINE
  5
5A0
330
1F
100
AcDbEntity
  8
0
  6
Continuous
 62
     7
100
AcDbPolyline
 90
        3
 70
   128
 43
0.0
 10
6182.6133728027
 20
4443.6112501964
 10
6182.2812491621
 20
4444.0570828484
 10
6181.8313358024
 20
4444.172994171
  0
LWPOLYLINE
  5
5A1
330
1F
100
AcDbEntity
  8
0
  6
Continuous
 62
     7
100
AcDbPolyline
 90
        3
 70
   128
 43
0.0
 10
6181.827545166
 20
4444.172994171
 10
6181.5172652485
 20
4444.1185762056
 10
6181.3040954664
 20
4443.9964154109
  0
LWPOLYLINE
  5
5A2
330
1F
100
AcDbEntity
  8
0
  6
Continuous
 62
     7
100
AcDbPolyline
 90
        3
 70
   128
 43
0.0
 10
6181.3011169434
 20
4443.9964154109
 10
6181.1388990087
 20
4443.7956090261
 10
6181.0606626466
 20
4443.6112501964
  0
LWPOLYLINE
  5
5A3
330
1F
100
AcDbEntity
  8
0
  6
Continuous
 62
     7
100
AcDbPolyline
 90
        3
 70
   128
 43
0.0
 10
6191.764831543
 20
4443.591714774
 10
6191.435098859
 20
4444.0375478241
 10
6190.985186179
 20
4444.1534587487
  0
LWPOLYLINE
  5
5A4
330
1F
100
AcDbEntity
  8
0
  6
Continuous
 62
     7
100
AcDbPolyline
 90
        3
 70
   128
 43
0.0
 10
6200.1838684082
 20
4444.1534587487
 10
6199.561530515
 20
4443.8792393831
 10
6199.3778926924
 20
4443.4032597884
  0
LWPOLYLINE
  5
5A5
330
1F
100
AcDbEntity
  8
0
  6
Continuous
 62
     7
100
AcDbPolyline
 90
        3
 70
   128
 43
0.0
 10
6186.3288879395
 20
4444.1534587487
 10
6185.7051195348
 20
4443.8792393831
 10
6185.5214817122
 20
4443.4032597884
  0
LWPOLYLINE
  5
5A6
330
1F
100
AcDbEntity
  8
0
  6
Continuous
 62
     7
100
AcDbPolyline
 90
        3
 70
   128
 43
0.0
 10
6182.6133728027
 20
4443.591714774
 10
6182.2812491621
 20
4444.0375474261
 10
6181.8313358024
 20
4444.1534587487
  0
LWPOLYLINE
  5
5A7
330
1F
100
AcDbEntity
  8
0
  6
Continuous
 62
     7
100
AcDbPolyline
 90
        3
 70
   128
 43
0.0
 10
6187.1337890625
 20
4443.4032597884
 10
6186.8441101246
 20
4443.9799586825
 10
6186.3291768029
 20
4444.1534587487
  0
LWPOLYLINE
  5
5A8
330
1F
100
AcDbEntity
  8
0
  6
Continuous
 62
     7
100
AcDbPolyline
 90
        3
 70
   128
 43
0.0
 10
6190.9828186035
 20
4444.1534587487
 10
6190.671112408
 20
4444.099039555
 10
6190.4579383925
 20
4443.9768799886
  0
LWPOLYLINE
  5
5A9
330
1F
100
AcDbEntity
  8
0
  6
Continuous
 62
     7
100
AcDbPolyline
 90
        3
 70
   128
 43
0.0
 10
6190.4563903809
 20
4443.9768799886
 10
6190.2927484604
 20
4443.7760720105
 10
6190.2145130232
 20
4443.591714774
  0
LWPOLYLINE
  5
5AA
330
1F
100
AcDbEntity
  8
0
  6
Continuous
 62
     7
100
AcDbPolyline
 90
        3
 70
   128
 43
0.0
 10
6185.5201721191
 20
4443.4032597884
 10
6185.8127863707
 20
4442.8294863738
 10
6186.3291768029
 20
4442.6664867743
  0
LWPOLYLINE
  5
5AB
330
1F
100
AcDbEntity
  8
0
  6
Continuous
 62
     7
100
AcDbPolyline
 90
        3
 70
   128
 43
0.0
 10
6186.3288879395
 20
4442.6664867743
 10
6186.9543407928
 20
4442.9299073761
 10
6187.1368644431
 20
4443.4032597884
  0
LWPOLYLINE
  5
5AC
330
1F
100
AcDbEntity
  8
0
  6
Continuous
 62
     7
100
AcDbPolyline
 90
        3
 70
   128
 43
0.0
 10
6199.3751525879
 20
4443.4032597884
 10
6199.669197351
 20
4442.8294863738
 10
6200.1855877832
 20
4442.6664867743
  0
LWPOLYLINE
  5
5AD
330
1F
100
AcDbEntity
  8
0
  6
Continuous
 62
     7
100
AcDbPolyline
 90
        3
 70
   128
 43
0.0
 10
6200.9925842285
 20
4443.4032597884
 10
6200.7005200734
 20
4443.9799594935
 10
6200.1855877832
 20
4444.1534587487
  0
LWPOLYLINE
  5
5AE
330
1F
100
AcDbEntity
  8
0
  6
Continuous
 62
     7
100
AcDbPolyline
 90
        3
 70
   128
 43
0.0
 10
6200.1838684082
 20
4442.6664867743
 10
6200.810751773
 20
4442.9299073761
 10
6200.9932754233
 20
4443.4032597884
  0
LWPOLYLINE
  5
5AF
330
1F
100
AcDbEntity
  8
0
  6
Continuous
 62
     7
100
AcDbPolyline
 90
        3
 70
   128
 43
0.0
 10
6181.827545166
 20
4444.1534587487
 10
6181.5172652485
 20
4444.0990407832
 10
6181.3040954664
 20
4443.9768799886
  0
LWPOLYLINE
  5
5B0
330
1F
100
AcDbEntity
  8
0
  6
Continuous
 62
     7
100
AcDbPolyline
 90
        3
 70
   128
 43
0.0
 10
6181.3011169434
 20
4443.9768799886
 10
6181.1388990087
 20
4443.7760736037
 10
6181.0606626466
 20
4443.591714774
  0
ENDSEC
  0
SECTION
  2
OBJECTS
  0
DICTIONARY
  5
C
330
0
100
AcDbDictionary
281
     1
  3
ACAD_GROUP
350
D
  3
ACAD_LAYOUT
350
1A
  3
ACAD_MLINESTYLE
350
17
  3
ACAD_PLOTSETTINGS
350
19
  3
ACAD_PLOTSTYLENAME
350
E
  3
ACAD_SCALELIST
350
47
  3
DWGPROPS
350
5B1
  0
DICTIONARY
  5
D
102
{ACAD_REACTORS
330
C
102
}
330
C
100
AcDbDictionary
281
     1
  0
DICTIONARY
  5
1A
102
{ACAD_REACTORS
330
C
102
}
330
C
100
AcDbDictionary
281
     1
  3
Layout1
350
1E
  3
Layout2
350
26
  3
Model
350
22
  0
DICTIONARY
  5
17
102
{ACAD_REACTORS
330
C
102
}
330
C
100
AcDbDictionary
281
     1
  3
Standard
350
18
  0
DICTIONARY
  5
19
102
{ACAD_REACTORS
330
C
102
}
330
C
100
AcDbDictionary
281
     1
  0
ACDBDICTIONARYWDFLT
  5
E
102
{ACAD_REACTORS
330
C
102
}
330
C
100
AcDbDictionary
281
     1
  3
Normal
350
F
100
AcDbDictionaryWithDefault
340
F
  0
DICTIONARY
  5
47
102
{ACAD_REACTORS
330
C
102
}
330
C
100
AcDbDictionary
281
     1
  3
A0
350
48
  3
A1
350
49
  3
A2
350
4A
  3
A3
350
4B
  3
A4
350
4C
  3
A5
350
4D
  3
A6
350
4E
  3
A7
350
4F
  3
A8
350
50
  3
A9
350
51
  3
B0
350
52
  3
B1
350
53
  3
B2
350
54
  3
B3
350
55
  3
B4
350
56
  3
B5
350
57
  3
B6
350
58
  3
B7
350
59
  3
B8
350
5A
  3
B9
350
5B
  3
C0
350
5C
  3
C1
350
5D
  3
C2
350
5E
  3
C3
350
5F
  3
C4
350
60
  3
C5
350
61
  3
C6
350
62
  3
C7
350
63
  3
C8
350
64
  3
C9
350
65
  3
D0
350
66
  3
D1
350
67
  3
D2
350
68
  0
XRECORD
  5
5B1
102
{ACAD_REACTORS
330
C
102
}
330
C
100
AcDbXrecord
280
     1
  1
DWGPROPS COOKIE
  2

  3

  4

  6

  7

  8
radek.stransky
  9

300
=
301
=
302
=
303
=
304
=
305
=
306
=
307
=
308
=
309
=
 40
0.0
 41
2459103.38217213
 42
2459103.382300833
  1

 90
        0
  0
LAYOUT
  5
1E
102
{ACAD_REACTORS
330
1A
102
}
330
1A
100
AcDbPlotSettings
  1

  2
none_device
  4

  6

 40
0.0
 41
0.0
 42
0.0
 43
0.0
 44
0.0
 45
0.0
 46
0.0
 47
0.0
 48
0.0
 49
0.0
140
0.0
141
0.0
142
1.0
143
1.0
 70
   688
 72
     1
 73
     0
 74
     5
  7

 75
    16
147
1.0
148
0.0
149
0.0
100
AcDbLayout
  1
Layout1
 70
     1
 71
     1
 10
0.0
 20
0.0
 11
420.0
 21
297.0
 12
0.0
 22
0.0
 32
0.0
 14
1.0000000000E+20
 24
1.0000000000E+20
 34
1.0000000000E+20
 15
-1.0000000000E+20
 25
-1.0000000000E+20
 35
-1.0000000000E+20
146
0.0
 13
0.0
 23
0.0
 33
0.0
 16
1.0
 26
0.0
 36
0.0
 17
0.0
 27
1.0
 37
0.0
 76
     0
330
1B
  0
LAYOUT
  5
26
102
{ACAD_REACTORS
330
1A
102
}
330
1A
100
AcDbPlotSettings
  1

  2
none_device
  4

  6

 40
0.0
 41
0.0
 42
0.0
 43
0.0
 44
0.0
 45
0.0
 46
0.0
 47
0.0
 48
0.0
 49
0.0
140
0.0
141
0.0
142
1.0
143
1.0
 70
   688
 72
     1
 73
     0
 74
     5
  7

 75
    16
147
1.0
148
0.0
149
0.0
100
AcDbLayout
  1
Layout2
 70
     1
 71
     2
 10
0.0
 20
0.0
 11
0.0
 21
0.0
 12
0.0
 22
0.0
 32
0.0
 14
0.0
 24
0.0
 34
0.0
 15
0.0
 25
0.0
 35
0.0
146
0.0
 13
0.0
 23
0.0
 33
0.0
 16
1.0
 26
0.0
 36
0.0
 17
0.0
 27
1.0
 37
0.0
 76
     0
330
23
  0
LAYOUT
  5
22
102
{ACAD_REACTORS
330
1A
102
}
330
1A
100
AcDbPlotSettings
  1

  2
none_device
  4
ANSI_A_(11.00_x_8.50_Inches)
  6

 40
6.35
 41
19.05
 42
6.35000508
 43
19.05000254
 44
279.4
 45
215.9
 46
-826.6698191264
 47
-656.1821663203
 48
0.0
 49
0.0
140
0.0
141
0.0
142
0.0058445678
143
1.0
 70
  1696
 72
     0
 73
     0
 74
     0
  7

 75
     0
147
0.0179189148
148
-1300.4909072572
149
0.0
100
AcDbLayout
  1
Model
 70
     1
 71
     0
 10
0.0
 20
0.0
 11
420.0
 21
297.0
 12
0.0
 22
0.0
 32
0.0
 14
6163.9995110825
 24
4299.1106034562
 34
0.0
 15
6769.7389303456
 25
5738.9091057617
 35
0.0
146
0.0
 13
0.0
 23
0.0
 33
0.0
 16
1.0
 26
0.0
 36
0.0
 17
0.0
 27
1.0
 37
0.0
 76
     0
330
1F
331
29
  0
MLINESTYLE
  5
18
102
{ACAD_REACTORS
330
17
102
}
330
17
100
AcDbMlineStyle
  2
Standard
 70
     0
  3

 62
   256
 51
90.0
 52
90.0
 71
     2
 49
0.5
 62
   256
  6
BYLAYER
 49
-0.5
 62
   256
  6
BYLAYER
  0
ACDBPLACEHOLDER
  5
F
102
{ACAD_REACTORS
330
E
102
}
330
E
  0
SCALE
  5
48
102
{ACAD_REACTORS
330
47
102
}
330
47
100
AcDbScale
 70
     0
300
1:1
140
1.0
141
1.0
290
     1
  0
SCALE
  5
49
102
{ACAD_REACTORS
330
47
102
}
330
47
100
AcDbScale
 70
     0
300
1:2
140
1.0
141
2.0
290
     0
  0
SCALE
  5
4A
102
{ACAD_REACTORS
330
47
102
}
330
47
100
AcDbScale
 70
     0
300
1:4
140
1.0
141
4.0
290
     0
  0
SCALE
  5
4B
102
{ACAD_REACTORS
330
47
102
}
330
47
100
AcDbScale
 70
     0
300
1:5
140
1.0
141
5.0
290
     0
  0
SCALE
  5
4C
102
{ACAD_REACTORS
330
47
102
}
330
47
100
AcDbScale
 70
     0
300
1:8
140
1.0
141
8.0
290
     0
  0
SCALE
  5
4D
102
{ACAD_REACTORS
330
47
102
}
330
47
100
AcDbScale
 70
     0
300
1:10
140
1.0
141
10.0
290
     0
  0
SCALE
  5
4E
102
{ACAD_REACTORS
330
47
102
}
330
47
100
AcDbScale
 70
     0
300
1:16
140
1.0
141
16.0
290
     0
  0
SCALE
  5
4F
102
{ACAD_REACTORS
330
47
102
}
330
47
100
AcDbScale
 70
     0
300
1:20
140
1.0
141
20.0
290
     0
  0
SCALE
  5
50
102
{ACAD_REACTORS
330
47
102
}
330
47
100
AcDbScale
 70
     0
300
1:30
140
1.0
141
30.0
290
     0
  0
SCALE
  5
51
102
{ACAD_REACTORS
330
47
102
}
330
47
100
AcDbScale
 70
     0
300
1:40
140
1.0
141
40.0
290
     0
  0
SCALE
  5
52
102
{ACAD_REACTORS
330
47
102
}
330
47
100
AcDbScale
 70
     0
300
1:50
140
1.0
141
50.0
290
     0
  0
SCALE
  5
53
102
{ACAD_REACTORS
330
47
102
}
330
47
100
AcDbScale
 70
     0
300
1:100
140
1.0
141
100.0
290
     0
  0
SCALE
  5
54
102
{ACAD_REACTORS
330
47
102
}
330
47
100
AcDbScale
 70
     0
300
2:1
140
2.0
141
1.0
290
     0
  0
SCALE
  5
55
102
{ACAD_REACTORS
330
47
102
}
330
47
100
AcDbScale
 70
     0
300
4:1
140
4.0
141
1.0
290
     0
  0
SCALE
  5
56
102
{ACAD_REACTORS
330
47
102
}
330
47
100
AcDbScale
 70
     0
300
8:1
140
8.0
141
1.0
290
     0
  0
SCALE
  5
57
102
{ACAD_REACTORS
330
47
102
}
330
47
100
AcDbScale
 70
     0
300
10:1
140
10.0
141
1.0
290
     0
  0
SCALE
  5
58
102
{ACAD_REACTORS
330
47
102
}
330
47
100
AcDbScale
 70
     0
300
100:1
140
100.0
141
1.0
290
     0
  0
SCALE
  5
59
102
{ACAD_REACTORS
330
47
102
}
330
47
100
AcDbScale
 70
     0
300
1/128" = 1'-0"
140
0.0078125
141
12.0
290
     0
  0
SCALE
  5
5A
102
{ACAD_REACTORS
330
47
102
}
330
47
100
AcDbScale
 70
     0
300
1/64" = 1'-0"
140
0.015625
141
12.0
290
     0
  0
SCALE
  5
5B
102
{ACAD_REACTORS
330
47
102
}
330
47
100
AcDbScale
 70
     0
300
1/32" = 1'-0"
140
0.03125
141
12.0
290
     0
  0
SCALE
  5
5C
102
{ACAD_REACTORS
330
47
102
}
330
47
100
AcDbScale
 70
     0
300
1/16" = 1'-0"
140
0.0625
141
12.0
290
     0
  0
SCALE
  5
5D
102
{ACAD_REACTORS
330
47
102
}
330
47
100
AcDbScale
 70
     0
300
3/32" = 1'-0"
140
0.09375
141
12.0
290
     0
  0
SCALE
  5
5E
102
{ACAD_REACTORS
330
47
102
}
330
47
100
AcDbScale
 70
     0
300
1/8" = 1'-0"
140
0.125
141
12.0
290
     0
  0
SCALE
  5
5F
102
{ACAD_REACTORS
330
47
102
}
330
47
100
AcDbScale
 70
     0
300
3/16" = 1'-0"
140
0.1875
141
12.0
290
     0
  0
SCALE
  5
60
102
{ACAD_REACTORS
330
47
102
}
330
47
100
AcDbScale
 70
     0
300
1/4" = 1'-0"
140
0.25
141
12.0
290
     0
  0
SCALE
  5
61
102
{ACAD_REACTORS
330
47
102
}
330
47
100
AcDbScale
 70
     0
300
3/8" = 1'-0"
140
0.375
141
12.0
290
     0
  0
SCALE
  5
62
102
{ACAD_REACTORS
330
47
102
}
330
47
100
AcDbScale
 70
     0
300
1/2" = 1'-0"
140
0.5
141
12.0
290
     0
  0
SCALE
  5
63
102
{ACAD_REACTORS
330
47
102
}
330
47
100
AcDbScale
 70
     0
300
3/4" = 1'-0"
140
0.75
141
12.0
290
     0
  0
SCALE
  5
64
102
{ACAD_REACTORS
330
47
102
}
330
47
100
AcDbScale
 70
     0
300
1" = 1'-0"
140
1.0
141
12.0
290
     0
  0
SCALE
  5
65
102
{ACAD_REACTORS
330
47
102
}
330
47
100
AcDbScale
 70
     0
300
1-1/2" = 1'-0"
140
1.5
141
12.0
290
     0
  0
SCALE
  5
66
102
{ACAD_REACTORS
330
47
102
}
330
47
100
AcDbScale
 70
     0
300
3" = 1'-0"
140
3.0
141
12.0
290
     0
  0
SCALE
  5
67
102
{ACAD_REACTORS
330
47
102
}
330
47
100
AcDbScale
 70
     0
300
6" = 1'-0"
140
6.0
141
12.0
290
     0
  0
SCALE
  5
68
102
{ACAD_REACTORS
330
47
102
}
330
47
100
AcDbScale
 70
     0
300
1'-0" = 1'-0"
140
12.0
141
12.0
290
     0
  0
ENDSEC
  0
EOF
