  0
SECTION
  2
HEADER
  9
$ACADVER
  1
AC1015
  9
$ACADMAINTVER
 70
     6
  9
$DWGCODEPAGE
  3
ANSI_1250
  9
$INSBASE
 10
0.0
 20
0.0
 30
0.0
  9
$EXTMIN
 10
0.0
 20
0.0
 30
0.0
  9
$EXTMAX
 10
20000.0
 20
10000.0
 30
0.0
  9
$LIMMIN
 10
0.0
 20
0.0
  9
$LIMMAX
 10
20000.0
 20
10000.0
  9
$ORTHOMODE
 70
     0
  9
$REGENMODE
 70
     1
  9
$FILLMODE
 70
     1
  9
$QTEXTMODE
 70
     0
  9
$MIRRTEXT
 70
     1
  9
$LTSCALE
 40
1.0
  9
$ATTMODE
 70
     1
  9
$TEXTSIZE
 40
2.0
  9
$TRACEWID
 40
1.0
  9
$TEXTSTYLE
  7
Standard
  9
$CLAYER
  8
0
  9
$CELTYPE
  6
ByLayer
  9
$CECOLOR
 62
   256
  9
$CELTSCALE
 40
1.0
  9
$DISPSILH
 70
     0
  9
$DIMSCALE
 40
1.0
  9
$DIMASZ
 40
2.0
  9
$DIMEXO
 40
1.0
  9
$DIMDLI
 40
3.75
  9
$DIMRND
 40
0.0
  9
$DIMDLE
 40
0.0
  9
$DIMEXE
 40
1.0
  9
$DIMTP
 40
0.0
  9
$DIMTM
 40
0.0
  9
$DIMTXT
 40
2.0
  9
$DIMCEN
 40
2.5
  9
$DIMTSZ
 40
0.0
  9
$DIMTOL
 70
     0
  9
$DIMLIM
 70
     0
  9
$DIMTIH
 70
     1
  9
$DIMTOH
 70
     1
  9
$DIMSE1
 70
     0
  9
$DIMSE2
 70
     0
  9
$DIMTAD
 70
     1
  9
$DIMZIN
 70
     0
  9
$DIMBLK
  1

  9
$DIMASO
 70
     1
  9
$DIMSHO
 70
     1
  9
$DIMPOST
  1

  9
$DIMAPOST
  1

  9
$DIMALT
 70
     0
  9
$DIMALTD
 70
     3
  9
$DIMALTF
 40
0.0393700787
  9
$DIMLFAC
 40
1.0
  9
$DIMTOFL
 70
     1
  9
$DIMTVP
 40
0.0
  9
$DIMTIX
 70
     0
  9
$DIMSOXD
 70
     0
  9
$DIMSAH
 70
     0
  9
$DIMBLK1
  1

  9
$DIMBLK2
  1

  9
$DIMSTYLE
  2
ISO-25
  9
$DIMCLRD
 70
     0
  9
$DIMCLRE
 70
     0
  9
$DIMCLRT
 70
     0
  9
$DIMTFAC
 40
1.0
  9
$DIMGAP
 40
1.524
  9
$DIMJUST
 70
     0
  9
$DIMSD1
 70
     0
  9
$DIMSD2
 70
     0
  9
$DIMTOLJ
 70
     0
  9
$DIMTZIN
 70
     0
  9
$DIMALTZ
 70
     0
  9
$DIMALTTZ
 70
     0
  9
$DIMUPT
 70
     0
  9
$DIMDEC
 70
     2
  9
$DIMTDEC
 70
     0
  9
$DIMALTU
 70
     2
  9
$DIMALTTD
 70
     3
  9
$DIMTXSTY
  7
Standard
  9
$DIMAUNIT
 70
     0
  9
$DIMADEC
 70
     2
  9
$DIMALTRND
 40
0.0
  9
$DIMAZIN
 70
     0
  9
$DIMDSEP
 70
    44
  9
$DIMATFIT
 70
     3
  9
$DIMFRAC
 70
     0
  9
$DIMLDRBLK
  1

  9
$DIMLUNIT
 70
     2
  9
$DIMLWD
 70
    -2
  9
$DIMLWE
 70
    -2
  9
$DIMTMOVE
 70
     0
  9
$LUNITS
 70
     2
  9
$LUPREC
 70
     3
  9
$SKETCHINC
 40
1.0
  9
$FILLETRAD
 40
10.0
  9
$AUNITS
 70
     0
  9
$AUPREC
 70
     2
  9
$MENU
  1
.
  9
$ELEVATION
 40
0.0
  9
$PELEVATION
 40
0.0
  9
$THICKNESS
 40
0.0
  9
$LIMCHECK
 70
     0
  9
$CHAMFERA
 40
0.0
  9
$CHAMFERB
 40
0.0
  9
$CHAMFERC
 40
0.0
  9
$CHAMFERD
 40
0.0
  9
$SKPOLY
 70
     0
  9
$TDCREATE
 40
2458709.374438843
  9
$TDUCREATE
 40
2458709.291105509
  9
$TDUPDATE
 40
2458709.374439016
  9
$TDUUPDATE
 40
2458709.291105683
  9
$TDINDWG
 40
0.0000000116
  9
$TDUSRTIMER
 40
0.0000000116
  9
$USRTIMER
 70
     1
  9
$ANGBASE
 50
0.0
  9
$ANGDIR
 70
     0
  9
$PDMODE
 70
     0
  9
$PDSIZE
 40
-1.0
  9
$PLINEWID
 40
0.0
  9
$SPLFRAME
 70
     0
  9
$SPLINETYPE
 70
     6
  9
$SPLINESEGS
 70
     8
  9
$HANDSEED
  5
286
  9
$SURFTAB1
 70
     6
  9
$SURFTAB2
 70
     6
  9
$SURFTYPE
 70
     6
  9
$SURFU
 70
     6
  9
$SURFV
 70
     6
  9
$UCSBASE
  2

  9
$UCSNAME
  2

  9
$UCSORG
 10
0.0
 20
0.0
 30
0.0
  9
$UCSXDIR
 10
1.0
 20
0.0
 30
0.0
  9
$UCSYDIR
 10
0.0
 20
1.0
 30
0.0
  9
$UCSORTHOREF
  2

  9
$UCSORTHOVIEW
 70
     0
  9
$UCSORGTOP
 10
0.0
 20
0.0
 30
0.0
  9
$UCSORGBOTTOM
 10
0.0
 20
0.0
 30
0.0
  9
$UCSORGLEFT
 10
0.0
 20
0.0
 30
0.0
  9
$UCSORGRIGHT
 10
0.0
 20
0.0
 30
0.0
  9
$UCSORGFRONT
 10
0.0
 20
0.0
 30
0.0
  9
$UCSORGBACK
 10
0.0
 20
0.0
 30
0.0
  9
$PUCSBASE
  2

  9
$PUCSNAME
  2

  9
$PUCSORG
 10
0.0
 20
0.0
 30
0.0
  9
$PUCSXDIR
 10
1.0
 20
0.0
 30
0.0
  9
$PUCSYDIR
 10
0.0
 20
1.0
 30
0.0
  9
$PUCSORTHOREF
  2

  9
$PUCSORTHOVIEW
 70
     0
  9
$PUCSORGTOP
 10
0.0
 20
0.0
 30
0.0
  9
$PUCSORGBOTTOM
 10
0.0
 20
0.0
 30
0.0
  9
$PUCSORGLEFT
 10
0.0
 20
0.0
 30
0.0
  9
$PUCSORGRIGHT
 10
0.0
 20
0.0
 30
0.0
  9
$PUCSORGFRONT
 10
0.0
 20
0.0
 30
0.0
  9
$PUCSORGBACK
 10
0.0
 20
0.0
 30
0.0
  9
$USERI1
 70
     0
  9
$USERI2
 70
     0
  9
$USERI3
 70
     0
  9
$USERI4
 70
     0
  9
$USERI5
 70
     0
  9
$USERR1
 40
0.0
  9
$USERR2
 40
0.0
  9
$USERR3
 40
0.0
  9
$USERR4
 40
0.0
  9
$USERR5
 40
0.0
  9
$WORLDVIEW
 70
     1
  9
$SHADEDGE
 70
     3
  9
$SHADEDIF
 70
    70
  9
$TILEMODE
 70
     1
  9
$MAXACTVP
 70
    64
  9
$PINSBASE
 10
0.0
 20
0.0
 30
0.0
  9
$PLIMCHECK
 70
     0
  9
$PEXTMIN
 10
1.0000000000E+20
 20
1.0000000000E+20
 30
1.0000000000E+20
  9
$PEXTMAX
 10
-1.0000000000E+20
 20
-1.0000000000E+20
 30
-1.0000000000E+20
  9
$PLIMMIN
 10
0.0
 20
0.0
  9
$PLIMMAX
 10
420.0
 20
297.0
  9
$UNITMODE
 70
     0
  9
$VISRETAIN
 70
     1
  9
$PLINEGEN
 70
     0
  9
$PSLTSCALE
 70
     1
  9
$TREEDEPTH
 70
  3020
  9
$CMLSTYLE
  2
Standard
  9
$CMLJUST
 70
     0
  9
$CMLSCALE
 40
20.0
  9
$PROXYGRAPHICS
 70
     1
  9
$MEASUREMENT
 70
     1
  9
$CELWEIGHT
370
    -1
  9
$ENDCAPS
280
     0
  9
$JOINSTYLE
280
     0
  9
$LWDISPLAY
290
     1
  9
$INSUNITS
 70
     4
  9
$HYPERLINKBASE
  1

  9
$STYLESHEET
  1

  9
$XEDIT
290
     1
  9
$CEPSNTYPE
380
     0
  9
$PSTYLEMODE
290
     1
  9
$FINGERPRINTGUID
  2
{EEF38F10-4D46-49A6-9B33-98376092DFC6}
  9
$VERSIONGUID
  2
{FAEB1C32-E019-11D5-929B-00C0DF256EC4}
  9
$EXTNAMES
290
     1
  9
$PSVPSCALE
 40
0.0
  9
$OLESTARTUP
290
     0
  0
ENDSEC
  0
SECTION
  2
CLASSES
  0
CLASS
  1
ACDBDICTIONARYWDFLT
  2
AcDbDictionaryWithDefault
  3
ObjectDBX Classes
 90
        0
280
     0
281
     0
  0
CLASS
  1
VISUALSTYLE
  2
AcDbVisualStyle
  3
ObjectDBX Classes
 90
     4095
280
     0
281
     0
  0
CLASS
  1
MATERIAL
  2
AcDbMaterial
  3
ObjectDBX Classes
 90
     1153
280
     0
281
     0
  0
CLASS
  1
SCALE
  2
AcDbScale
  3
ObjectDBX Classes
 90
     1153
280
     0
281
     0
  0
CLASS
  1
TABLESTYLE
  2
AcDbTableStyle
  3
ObjectDBX Classes
 90
     4095
280
     0
281
     0
  0
CLASS
  1
MLEADERSTYLE
  2
AcDbMLeaderStyle
  3
ACDB_MLEADERSTYLE_CLASS
 90
     4095
280
     0
281
     0
  0
CLASS
  1
SUN
  2
AcDbSun
  3
SCENEOE
 90
     1153
280
     0
281
     0
  0
CLASS
  1
ACDBPLACEHOLDER
  2
AcDbPlaceHolder
  3
ObjectDBX Classes
 90
        0
280
     0
281
     0
  0
CLASS
  1
LAYOUT
  2
AcDbLayout
  3
ObjectDBX Classes
 90
        0
280
     0
281
     0
  0
ENDSEC
  0
SECTION
  2
TABLES
  0
TABLE
  2
VPORT
  5
8
330
0
100
AcDbSymbolTable
 70
     1
  0
VPORT
  5
29
330
8
100
AcDbSymbolTableRecord
100
AcDbViewportTableRecord
  2
*Active
 70
     0
 10
0.0
 20
0.0
 11
1.0
 21
1.0
 12
10000.0
 22
5000.0
 13
0.0
 23
0.0
 14
10.0
 24
10.0
 15
10.0
 25
10.0
 16
0.0
 26
0.0
 36
1.0
 17
0.0
 27
0.0
 37
0.0
 40
10000.0
 41
2.0
 42
50.0
 43
0.0
 44
0.0
 50
0.0
 51
0.0
 71
     0
 72
  2000
 73
     1
 74
     3
 75
     0
 76
     0
 77
     0
 78
     0
281
     0
 65
     1
110
0.0
120
0.0
130
0.0
111
1.0
121
0.0
131
0.0
112
0.0
122
1.0
132
0.0
 79
     0
146
0.0
  0
ENDTAB
  0
TABLE
  2
LTYPE
  5
5
330
0
100
AcDbSymbolTable
 70
     6
  0
LTYPE
  5
14
330
5
100
AcDbSymbolTableRecord
100
AcDbLinetypeTableRecord
  2
ByBlock
 70
     0
  3

 72
    65
 73
     0
 40
0.0
  0
LTYPE
  5
15
330
5
100
AcDbSymbolTableRecord
100
AcDbLinetypeTableRecord
  2
ByLayer
 70
     0
  3

 72
    65
 73
     0
 40
0.0
  0
LTYPE
  5
16
330
5
100
AcDbSymbolTableRecord
100
AcDbLinetypeTableRecord
  2
Continuous
 70
     0
  3
Solid line
 72
    65
 73
     0
 40
0.0
  0
LTYPE
  5
6E
330
5
100
AcDbSymbolTableRecord
100
AcDbLinetypeTableRecord
  2
HIDDEN
 70
     0
  3
Hidden __ __ __ __ __ __ __ __ __ __ __ __ __ __
 72
    65
 73
     2
 40
1.905
 49
1.27
 74
     0
 49
-0.635
 74
     0
  0
LTYPE
  5
6F
330
5
100
AcDbSymbolTableRecord
100
AcDbLinetypeTableRecord
  2
PHANTOM
 70
     0
  3
Phantom ______  __  __  ______  __  __  ______
 72
    65
 73
     6
 40
12.7
 49
6.35
 74
     0
 49
-1.27
 74
     0
 49
1.27
 74
     0
 49
-1.27
 74
     0
 49
1.27
 74
     0
 49
-1.27
 74
     0
  0
LTYPE
  5
70
330
5
100
AcDbSymbolTableRecord
100
AcDbLinetypeTableRecord
  2
CENTER
 70
     0
  3
Center ____ _ ____ _ ____ _ ____ _ ____ _ ____
 72
    65
 73
     4
 40
10.16
 49
6.35
 74
     0
 49
-1.27
 74
     0
 49
1.27
 74
     0
 49
-1.27
 74
     0
  0
LTYPE
  5
71
330
5
100
AcDbSymbolTableRecord
100
AcDbLinetypeTableRecord
  2
CENTERX2
 70
     0
  3
Center (2x) ________  __  ________  __  _____
 72
    65
 73
     4
 40
20.32
 49
12.7
 74
     0
 49
-2.54
 74
     0
 49
2.54
 74
     0
 49
-2.54
 74
     0
  0
LTYPE
  5
72
330
5
100
AcDbSymbolTableRecord
100
AcDbLinetypeTableRecord
  2
DOT2
 70
     0
  3
Dot (.5x) ........................................
 72
    65
 73
     2
 40
0.635
 49
0.0
 74
     0
 49
-0.635
 74
     0
  0
ENDTAB
  0
TABLE
  2
LAYER
  5
2
330
0
100
AcDbSymbolTable
 70
    13
  0
LAYER
  5
10
330
2
100
AcDbSymbolTableRecord
100
AcDbLayerTableRecord
  2
0
 70
     0
 62
     7
  6
Continuous
370
    -3
390
F
  0
LAYER
  5
73
330
2
100
AcDbSymbolTableRecord
100
AcDbLayerTableRecord
  2
FORMAT
 70
     0
 62
     7
  6
Continuous
370
    -3
390
F
  0
LAYER
  5
74
330
2
100
AcDbSymbolTableRecord
100
AcDbLayerTableRecord
  2
OSA
 70
     0
 62
     7
  6
CENTER
370
    -3
390
F
  0
LAYER
  5
75
330
2
100
AcDbSymbolTableRecord
100
AcDbLayerTableRecord
  2
0_35
 70
     0
 62
     7
  6
Continuous
370
    35
390
F
  0
LAYER
  5
76
330
2
100
AcDbSymbolTableRecord
100
AcDbLayerTableRecord
  2
0_5
 70
     0
 62
     7
  6
Continuous
370
    50
390
F
  0
LAYER
  5
77
330
2
100
AcDbSymbolTableRecord
100
AcDbLayerTableRecord
  2
0_25
 70
     0
 62
     7
  6
Continuous
370
    25
390
F
  0
LAYER
  5
78
330
2
100
AcDbSymbolTableRecord
100
AcDbLayerTableRecord
  2
0_18
 70
     0
 62
     7
  6
Continuous
370
    -3
390
F
  0
LAYER
  5
79
330
2
100
AcDbSymbolTableRecord
100
AcDbLayerTableRecord
  2
SLD-0
 70
     0
 62
   179
  6
Continuous
370
    -3
390
F
  0
LAYER
  5
7A
330
2
100
AcDbSymbolTableRecord
100
AcDbLayerTableRecord
  2
KOTY
 70
     0
 62
     7
  6
Continuous
370
    -3
390
F
  0
LAYER
  5
7B
330
2
100
AcDbSymbolTableRecord
100
AcDbLayerTableRecord
  2
SILNA
 70
     0
 62
   179
  6
Continuous
370
    -3
390
F
  0
LAYER
  5
7C
330
2
100
AcDbSymbolTableRecord
100
AcDbLayerTableRecord
  2
0_18_1
 70
     0
 62
   179
  6
Continuous
370
    -3
390
F
  0
LAYER
  5
7D
330
2
100
AcDbSymbolTableRecord
100
AcDbLayerTableRecord
  2
0_35_1
 70
     0
 62
   179
  6
Continuous
370
    35
390
F
  0
LAYER
  5
7E
330
2
100
AcDbSymbolTableRecord
100
AcDbLayerTableRecord
  2
0_5_1
 70
     0
 62
   179
  6
Continuous
370
    50
390
F
  0
ENDTAB
  0
TABLE
  2
STYLE
  5
3
330
0
100
AcDbSymbolTable
 70
     1
  0
STYLE
  5
11
330
3
100
AcDbSymbolTableRecord
100
AcDbTextStyleTableRecord
  2
Standard
 70
     0
 40
0.0
 41
1.0
 50
0.0
 71
     0
 42
2.0
  3
txt
  4

  0
ENDTAB
  0
TABLE
  2
VIEW
  5
6
330
0
100
AcDbSymbolTable
 70
     0
  0
ENDTAB
  0
TABLE
  2
UCS
  5
7
330
0
100
AcDbSymbolTable
 70
     0
  0
ENDTAB
  0
TABLE
  2
APPID
  5
9
330
0
100
AcDbSymbolTable
 70
     1
  0
APPID
  5
12
330
9
100
AcDbSymbolTableRecord
100
AcDbRegAppTableRecord
  2
ACAD
 70
     0
  0
ENDTAB
  0
TABLE
  2
DIMSTYLE
  5
A
330
0
100
AcDbSymbolTable
 70
     1
100
AcDbDimStyleTable
  0
DIMSTYLE
105
27
330
A
100
AcDbSymbolTableRecord
100
AcDbDimStyleTableRecord
  2
ISO-25
 70
     0
 41
2.5
 42
0.625
 43
3.75
 44
1.25
 73
     0
 74
     0
 77
     1
 78
     8
140
2.5
141
2.5
143
0.0393700787
147
0.625
171
     3
172
     1
178
     0
271
     2
272
     2
274
     3
278
    44
283
     0
284
     8
340
11
  0
ENDTAB
  0
TABLE
  2
BLOCK_RECORD
  5
1
330
0
100
AcDbSymbolTable
 70
     3
  0
BLOCK_RECORD
  5
1F
330
1
100
AcDbSymbolTableRecord
100
AcDbBlockTableRecord
  2
*Model_Space
340
22
  0
BLOCK_RECORD
  5
1B
330
1
100
AcDbSymbolTableRecord
100
AcDbBlockTableRecord
  2
*Paper_Space
340
1E
  0
BLOCK_RECORD
  5
23
330
1
100
AcDbSymbolTableRecord
100
AcDbBlockTableRecord
  2
*Paper_Space0
340
26
  0
BLOCK_RECORD
  5
130
330
1
100
AcDbSymbolTableRecord
100
AcDbBlockTableRecord
  2
SW_CENTERMARKSYMBOL_0
340
0
102
{BLKREFS
331
13B
102
}
  0
BLOCK_RECORD
  5
1A6
330
1
100
AcDbSymbolTableRecord
100
AcDbBlockTableRecord
  2
SW_CENTERMARKSYMBOL_1
340
0
102
{BLKREFS
331
1B1
102
}
  0
ENDTAB
  0
ENDSEC
  0
SECTION
  2
BLOCKS
  0
BLOCK
  5
20
330
1F
100
AcDbEntity
  8
0
100
AcDbBlockBegin
  2
*Model_Space
 70
     0
 10
0.0
 20
0.0
 30
0.0
  3
*Model_Space
  1

  0
ENDBLK
  5
21
330
1F
100
AcDbEntity
  8
0
100
AcDbBlockEnd
  0
BLOCK
  5
1C
330
1B
100
AcDbEntity
 67
     1
  8
0
100
AcDbBlockBegin
  2
*Paper_Space
 70
     0
 10
0.0
 20
0.0
 30
0.0
  3
*Paper_Space
  1

  0
ENDBLK
  5
1D
330
1B
100
AcDbEntity
 67
     1
  8
0
100
AcDbBlockEnd
  0
BLOCK
  5
24
330
23
100
AcDbEntity
  8
0
100
AcDbBlockBegin
  2
*Paper_Space0
 70
     0
 10
0.0
 20
0.0
 30
0.0
  3
*Paper_Space0
  1

  0
ENDBLK
  5
25
330
23
100
AcDbEntity
  8
0
100
AcDbBlockEnd
  0
BLOCK
  5
131
330
130
100
AcDbEntity
  8
0
100
AcDbBlockBegin
  2
SW_CENTERMARKSYMBOL_0
 70
     0
 10
0.0
 20
0.0
 30
0.0
  3
SW_CENTERMARKSYMBOL_0
  1

  0
LINE
  5
133
330
130
100
AcDbEntity
  8
SLD-0
 62
     0
100
AcDbLine
 10
0.0
 20
0.0
 30
0.0
 11
0.0
 21
2.5
 31
0.0
  0
LINE
  5
134
330
130
100
AcDbEntity
  8
SLD-0
 62
     0
100
AcDbLine
 10
0.0
 20
0.0
 30
0.0
 11
-2.5
 21
0.0
 31
0.0
  0
LINE
  5
135
330
130
100
AcDbEntity
  8
SLD-0
 62
     0
100
AcDbLine
 10
0.0
 20
0.0
 30
0.0
 11
0.0
 21
-2.5
 31
0.0
  0
LINE
  5
136
330
130
100
AcDbEntity
  8
SLD-0
 62
     0
100
AcDbLine
 10
0.0
 20
0.0
 30
0.0
 11
2.5
 21
0.0
 31
0.0
  0
LINE
  5
137
330
130
100
AcDbEntity
  8
SLD-0
 62
     0
100
AcDbLine
 10
0.0
 20
5.0
 30
0.0
 11
0.0
 21
15.0
 31
0.0
  0
LINE
  5
138
330
130
100
AcDbEntity
  8
SLD-0
 62
     0
100
AcDbLine
 10
-5.0
 20
0.0
 30
0.0
 11
-15.0
 21
0.0
 31
0.0
  0
LINE
  5
139
330
130
100
AcDbEntity
  8
SLD-0
 62
     0
100
AcDbLine
 10
0.0
 20
-5.0
 30
0.0
 11
0.0
 21
-15.0
 31
0.0
  0
LINE
  5
13A
330
130
100
AcDbEntity
  8
SLD-0
 62
     0
100
AcDbLine
 10
5.0
 20
0.0
 30
0.0
 11
15.0
 21
0.0
 31
0.0
  0
ENDBLK
  5
132
330
130
100
AcDbEntity
  8
0
100
AcDbBlockEnd
  0
BLOCK
  5
1A7
330
1A6
100
AcDbEntity
  8
0
100
AcDbBlockBegin
  2
SW_CENTERMARKSYMBOL_1
 70
     0
 10
0.0
 20
0.0
 30
0.0
  3
SW_CENTERMARKSYMBOL_1
  1

  0
LINE
  5
1A9
330
1A6
100
AcDbEntity
  8
SLD-0
 62
     0
100
AcDbLine
 10
0.0
 20
0.0
 30
0.0
 11
0.0
 21
2.5
 31
0.0
  0
LINE
  5
1AA
330
1A6
100
AcDbEntity
  8
SLD-0
 62
     0
100
AcDbLine
 10
0.0
 20
0.0
 30
0.0
 11
-2.5
 21
0.0
 31
0.0
  0
LINE
  5
1AB
330
1A6
100
AcDbEntity
  8
SLD-0
 62
     0
100
AcDbLine
 10
0.0
 20
0.0
 30
0.0
 11
0.0
 21
-2.5
 31
0.0
  0
LINE
  5
1AC
330
1A6
100
AcDbEntity
  8
SLD-0
 62
     0
100
AcDbLine
 10
0.0
 20
0.0
 30
0.0
 11
2.5
 21
0.0
 31
0.0
  0
LINE
  5
1AD
330
1A6
100
AcDbEntity
  8
SLD-0
 62
     0
100
AcDbLine
 10
0.0
 20
5.0
 30
0.0
 11
0.0
 21
10.0
 31
0.0
  0
LINE
  5
1AE
330
1A6
100
AcDbEntity
  8
SLD-0
 62
     0
100
AcDbLine
 10
-5.0
 20
0.0
 30
0.0
 11
-10.0
 21
0.0
 31
0.0
  0
LINE
  5
1AF
330
1A6
100
AcDbEntity
  8
SLD-0
 62
     0
100
AcDbLine
 10
0.0
 20
-5.0
 30
0.0
 11
0.0
 21
-10.0
 31
0.0
  0
LINE
  5
1B0
330
1A6
100
AcDbEntity
  8
SLD-0
 62
     0
100
AcDbLine
 10
5.0
 20
0.0
 30
0.0
 11
10.0
 21
0.0
 31
0.0
  0
ENDBLK
  5
1A8
330
1A6
100
AcDbEntity
  8
0
100
AcDbBlockEnd
  0
ENDSEC
  0
SECTION
  2
ENTITIES
  0
LINE
  5
7F
330
1F
100
AcDbEntity
  8
0
  6
Continuous
 62
     7
370
    25
100
AcDbLine
 10
6226.5187553361
 20
5153.6994545927
 30
0.0
 11
6226.5187553361
 21
5146.6994545927
 31
0.0
  0
LINE
  5
80
330
1F
100
AcDbEntity
  8
0
  6
Continuous
 62
     7
370
    25
100
AcDbLine
 10
6251.5187553361
 20
5146.6994545927
 30
0.0
 11
6251.5187553361
 21
5153.6994545927
 31
0.0
  0
LINE
  5
81
330
1F
100
AcDbEntity
  8
0
  6
Continuous
 62
     7
370
    25
100
AcDbLine
 10
6246.5187553361
 20
5153.6994545927
 30
0.0
 11
6246.5187553361
 21
5158.6994545927
 31
0.0
  0
LINE
  5
82
330
1F
100
AcDbEntity
  8
0
  6
Continuous
 62
     7
370
    25
100
AcDbLine
 10
6231.5187553361
 20
5158.6994545927
 30
0.0
 11
6231.5187553361
 21
5153.6994545927
 31
0.0
  0
LINE
  5
83
330
1F
100
AcDbEntity
  8
0
  6
Continuous
 62
     7
370
    25
100
AcDbLine
 10
6231.5187553361
 20
5173.6994545927
 30
0.0
 11
6231.5187553361
 21
5158.6994545927
 31
0.0
  0
LINE
  5
84
330
1F
100
AcDbEntity
  8
0
  6
Continuous
 62
     7
370
    25
100
AcDbLine
 10
6246.5187553361
 20
5158.6994545927
 30
0.0
 11
6246.5187553361
 21
5173.6994545927
 31
0.0
  0
LINE
  5
85
330
1F
100
AcDbEntity
  8
0
  6
Continuous
 62
     7
370
    25
100
AcDbLine
 10
6233.0187553361
 20
5146.6994545927
 30
0.0
 11
6233.0187553361
 21
5126.6994545927
 31
0.0
  0
LINE
  5
86
330
1F
100
AcDbEntity
  8
0
  6
Continuous
 62
     7
370
    25
100
AcDbLine
 10
6245.0187553361
 20
5126.6994545927
 30
0.0
 11
6245.0187553361
 21
5146.6994545927
 31
0.0
  0
SPLINE
  5
87
330
1F
100
AcDbEntity
  8
0
  6
Continuous
 62
     7
370
    25
100
AcDbSpline
210
0.0
220
0.0
230
1.0
 70
     8
 71
     3
 72
    19
 73
    15
 74
     0
 42
0.000000001
 43
0.00000001
 40
0.0
 40
0.0
 40
0.0
 40
0.0
 40
0.0433968223084437
 40
0.1307329216204673
 40
0.2180027640559825
 40
0.3051297099819157
 40
0.3920996445969985
 40
0.478936135344384
 40
0.5657114391381829
 40
0.6525411193354151
 40
0.7396688173275624
 40
0.8274853010613461
 40
0.9165742227171555
 40
1.0
 40
1.0
 40
1.0
 40
1.0
 10
6160.937653404085
 20
5062.467346122708
 30
0.0
 10
6160.501708042868
 20
5062.472798917882
 30
0.0
 10
6159.188422698292
 20
5062.489225462644
 30
0.0
 10
6157.00854110162
 20
5062.67773053545
 30
0.0
 10
6154.448472971246
 20
5063.107858499417
 30
0.0
 10
6151.984930961403
 20
5063.745940719218
 30
0.0
 10
6149.653933975017
 20
5064.574764261853
 30
0.0
 10
6147.487766448388
 20
5065.577868791726
 30
0.0
 10
6145.514908633243
 20
5066.734096409711
 30
0.0
 10
6143.759436648649
 20
5068.020023580872
 30
0.0
 10
6142.237635190354
 20
5069.41101521115
 30
0.0
 10
6140.96686690874
 20
5070.883343203404
 30
0.0
 10
6139.960198794086
 20
5072.373357567923
 30
0.0
 10
6139.502017463578
 20
5073.366832167751
 30
0.0
 10
6139.280447163371
 20
5073.847263059794
 30
0.0
  0
SPLINE
  5
88
330
1F
100
AcDbEntity
  8
0
  6
Continuous
 62
     7
370
    25
100
AcDbSpline
210
0.0
220
0.0
230
1.0
 70
     8
 71
     3
 72
    21
 73
    17
 74
     0
 42
0.000000001
 43
0.00000001
 40
0.0
 40
0.0
 40
0.0
 40
0.0
 40
0.0441274573503505
 40
0.1161105640350146
 40
0.1884481678209653
 40
0.2613750253988087
 40
0.3348799248906476
 40
0.4089068529464214
 40
0.4833692213208394
 40
0.558168056519176
 40
0.6332082577805203
 40
0.708409879589507
 40
0.7837136034747584
 40
0.8590794587662692
 40
0.9344868074773539
 40
0.9999999999999999
 40
0.9999999999999999
 40
0.9999999999999999
 40
0.9999999999999999
 10
6125.433271977365
 20
5068.080484117607
 30
0.0
 10
6125.671419826253
 20
5067.538943416715
 30
0.0
 10
6126.29804738919
 20
5066.114012092682
 30
0.0
 10
6127.559943077184
 20
5063.895625778122
 30
0.0
 10
6129.269358489986
 20
5061.468831200055
 30
0.0
 10
6131.251285261013
 20
5059.181862872787
 30
0.0
 10
6133.487150634047
 20
5057.050162475318
 30
0.0
 10
6135.960998878667
 20
5055.093118913422
 30
0.0
 10
6138.651787380829
 20
5053.328396459906
 30
0.0
 10
6141.536208667191
 20
5051.772154811722
 30
0.0
 10
6144.588613676739
 20
5050.438195954323
 30
0.0
 10
6147.781862646156
 20
5049.338468676052
 30
0.0
 10
6151.087872477159
 20
5048.480524707233
 30
0.0
 10
6154.478019367559
 20
5047.877070449707
 30
0.0
 10
6157.772472963033
 20
5047.526969912195
 30
0.0
 10
6159.933161202978
 20
5047.486268150268
 30
0.0
 10
6160.937653404085
 20
5047.467346122708
 30
0.0
  0
LINE
  5
89
330
1F
100
AcDbEntity
  8
0
  6
Continuous
 62
     7
370
    25
100
AcDbLine
 10
6317.0998572681
 20
5062.4673461227
 30
0.0
 11
6160.9376534041
 21
5062.4673461227
 31
0.0
  0
LINE
  5
8A
330
1F
100
AcDbEntity
  8
0
  6
Continuous
 62
     7
370
    25
100
AcDbLine
 10
6160.9376534041
 20
5047.4673461227
 30
0.0
 11
6317.0998572681
 21
5047.4673461227
 31
0.0
  0
SPLINE
  5
8B
330
1F
100
AcDbEntity
  8
0
  6
Continuous
 62
     7
370
    25
100
AcDbSpline
210
0.0
220
0.0
230
1.0
 70
     8
 71
     3
 72
    21
 73
    17
 74
     0
 42
0.000000001
 43
0.00000001
 40
0.0
 40
0.0
 40
0.0
 40
0.0
 40
0.0419146573166081
 40
0.1174151448725491
 40
0.1929933055595485
 40
0.2686393276310234
 40
0.3443548966504411
 40
0.4201257351600781
 40
0.4959126732455831
 40
0.5716551895781429
 40
0.6472655485028956
 40
0.7226309574164105
 40
0.7976225755838154
 40
0.8721120514471987
 40
0.945993340617997
 40
1.0
 40
1.0
 40
1.0
 40
1.0
 10
6317.099857268116
 20
5047.467346122708
 30
0.0
 10
6317.742401978679
 20
5047.475328575669
 30
0.0
 10
6319.542356579477
 20
5047.497689747888
 30
0.0
 10
6322.491483593135
 20
5047.739078503991
 30
0.0
 10
6325.910896145429
 20
5048.266085435396
 30
0.0
 10
6329.260534941132
 20
5049.051158481978
 30
0.0
 10
6332.511910216542
 20
5050.085164448103
 30
0.0
 10
6335.637025286994
 20
5051.363012292771
 30
0.0
 10
6338.607951117485
 20
5052.875935605995
 30
0.0
 10
6341.39703825306
 20
5054.613171932393
 30
0.0
 10
6343.97750373935
 20
5056.561045010136
 30
0.0
 10
6346.323174277264
 20
5058.70303561328
 30
0.0
 10
6348.412159458211
 20
5061.018689587891
 30
0.0
 10
6350.217090684128
 20
5063.487294101563
 30
0.0
 10
6351.612970212052
 20
5065.851329375932
 30
0.0
 10
6352.309919363913
 20
5067.418621722617
 30
0.0
 10
6352.604238694836
 20
5068.080484117607
 30
0.0
  0
SPLINE
  5
8C
330
1F
100
AcDbEntity
  8
0
  6
Continuous
 62
     7
370
    25
100
AcDbSpline
210
0.0
220
0.0
230
1.0
 70
     8
 71
     3
 72
    19
 73
    15
 74
     0
 42
0.000000001
 43
0.00000001
 40
0.0
 40
0.0
 40
0.0
 40
0.0
 40
0.0419272380729793
 40
0.1375644567904994
 40
0.2304631190692194
 40
0.3208830469947118
 40
0.4097925447652599
 40
0.4978571246337811
 40
0.5854975747142858
 40
0.6729631403655606
 40
0.7603709137017576
 40
0.8477774834790044
 40
0.9352030195074986
 40
1.0
 40
1.0
 40
1.0
 40
1.0
 10
6338.75706350883
 20
5073.847263059794
 30
0.0
 10
6338.650895473273
 20
5073.606035473587
 30
0.0
 10
6338.302555138656
 20
5072.814560924235
 30
0.0
 10
6337.515144719446
 20
5071.488205133498
 30
0.0
 10
6336.274752686507
 20
5069.91352887647
 30
0.0
 10
6334.777494400712
 20
5068.439902539164
 30
0.0
 10
6333.047535733566
 20
5067.087730938693
 30
0.0
 10
6331.101620471549
 20
5065.874325880496
 30
0.0
 10
6328.962010311456
 20
5064.818139614424
 30
0.0
 10
6326.655250522511
 20
5063.937546152195
 30
0.0
 10
6324.212092462281
 20
5063.247328739825
 30
0.0
 10
6321.666700270787
 20
5062.765020057299
 30
0.0
 10
6319.280346216507
 20
5062.507027885254
 30
0.0
 10
6317.750900615822
 20
5062.479194175205
 30
0.0
 10
6317.099857268116
 20
5062.467346122708
 30
0.0
  0
LINE
  5
8D
330
1F
100
AcDbEntity
  8
0
  6
Continuous
 62
     7
370
    25
100
AcDbLine
 10
6246.5187553361
 20
5183.7414425351
 30
0.0
 11
6246.5187553361
 21
5191.1994545927
 31
0.0
  0
LINE
  5
8E
330
1F
100
AcDbEntity
  8
0
  6
Continuous
 62
     7
370
    25
100
AcDbLine
 10
6231.5187553361
 20
5191.1994545927
 30
0.0
 11
6231.5187553361
 21
5183.712769068
 31
0.0
  0
LINE
  5
8F
330
1F
100
AcDbEntity
  8
0
  6
Continuous
 62
     7
370
    25
100
AcDbLine
 10
6379.0533795623
 20
5170.6066764753
 30
0.0
 11
6338.7570635088
 21
5073.8472630598
 31
0.0
  0
LINE
  5
90
330
1F
100
AcDbEntity
  8
0
  6
Continuous
 62
     7
370
    25
100
AcDbLine
 10
6352.6042386948
 20
5068.0804841176
 30
0.0
 11
6392.9005547483
 21
5164.8398975331
 31
0.0
  0
LINE
  5
91
330
1F
100
AcDbEntity
  8
0
  6
Continuous
 62
     7
370
    25
100
AcDbLine
 10
6085.1369559239
 20
5164.8398975331
 30
0.0
 11
6125.4332719774
 21
5068.0804841176
 31
0.0
  0
LINE
  5
92
330
1F
100
AcDbEntity
  8
0
  6
Continuous
 62
     7
370
    25
100
AcDbLine
 10
6139.2804471634
 20
5073.8472630598
 30
0.0
 11
6098.9841311099
 21
5170.6066764753
 31
0.0
  0
LINE
  5
93
330
1F
100
AcDbEntity
  8
0
  6
Continuous
 62
     7
370
    25
100
AcDbLine
 10
6419.0187553361
 20
5273.6994545927
 30
0.0
 11
6419.0187553361
 21
5293.6994545927
 31
0.0
  0
LINE
  5
94
330
1F
100
AcDbEntity
  8
0
  6
Continuous
 62
     7
370
    25
100
AcDbLine
 10
6059.0187553361
 20
5293.6994545927
 30
0.0
 11
6059.0187553361
 21
5273.6994545927
 31
0.0
  0
LINE
  5
95
330
1F
100
AcDbEntity
  8
0
  6
Continuous
 62
     7
370
    25
100
AcDbLine
 10
6088.3434796396
 20
5157.1404007995
 30
0.0
 11
6098.2825515139
 21
5032.9020023699
 31
0.0
  0
LINE
  5
96
330
1F
100
AcDbEntity
  8
0
  6
Continuous
 62
     7
370
    25
100
AcDbLine
 10
6379.7549591583
 20
5032.9020023699
 30
0.0
 11
6389.6940310326
 21
5157.1404007995
 31
0.0
  0
LINE
  5
97
330
1F
100
AcDbEntity
  8
0
  6
Continuous
 62
     7
370
    25
100
AcDbLine
 10
6399.0187553361
 20
5353.6969584087
 30
0.0
 11
6399.0187553361
 21
5363.6994545927
 31
0.0
  0
LINE
  5
98
330
1F
100
AcDbEntity
  8
0
  6
Continuous
 62
     7
370
    25
100
AcDbLine
 10
6399.0187553361
 20
5293.6994545927
 30
0.0
 11
6399.0187553361
 21
5313.7651908775
 31
0.0
  0
LINE
  5
99
330
1F
100
AcDbEntity
  8
0
  6
Continuous
 62
     7
370
    25
100
AcDbLine
 10
6079.0187553361
 20
5363.6994545927
 30
0.0
 11
6079.0187553361
 21
5293.6994545927
 31
0.0
  0
ARC
  5
9A
330
1F
100
AcDbEntity
  8
0
  6
Continuous
 62
     7
370
    25
100
AcDbCircle
 10
6389.0187553361
 20
5363.6994545927
 30
0.0
 40
10.0
100
AcDbArc
 50
0.0
 51
90.0
  0
ARC
  5
9B
330
1F
100
AcDbEntity
  8
0
  6
Continuous
 62
     7
370
    25
100
AcDbCircle
 10
6089.0187553361
 20
5363.6994545927
 30
0.0
 40
10.0
100
AcDbArc
 50
90.0
 51
180.0
  0
ARC
  5
9C
330
1F
100
AcDbEntity
  8
0
  6
Continuous
 62
     7
370
    25
100
AcDbCircle
 10
6108.2507042993
 20
5033.6994545927
 30
0.0
 40
10.00000000000052
100
AcDbArc
 50
184.5739212599
 51
270.0
  0
ARC
  5
9D
330
1F
100
AcDbEntity
  8
0
  6
Continuous
 62
     7
370
    25
100
AcDbCircle
 10
6369.7868063729
 20
5033.6994545927
 30
0.0
 40
10.0
100
AcDbArc
 50
270.0
 51
355.4260787401
  0
SPLINE
  5
9E
330
1F
100
AcDbEntity
  8
0
  6
Continuous
 62
     7
370
    25
100
AcDbSpline
210
0.0
220
0.0
230
1.0
 70
     8
 71
     3
 72
    10
 73
     6
 74
     0
 42
0.000000001
 43
0.00000001
 40
0.0
 40
0.0
 40
0.0
 40
0.0
 40
0.2756454880616441
 40
0.9013174337378128
 40
1.0
 40
1.0
 40
1.0
 40
1.0
 10
6098.984131109912
 20
5170.606676475297
 30
0.0
 10
6098.889597542588
 20
5170.847463885631
 30
0.0
 10
6098.580487631514
 20
5171.63480088246
 30
0.0
 10
6098.363169273446
 20
5172.504305680977
 30
0.0
 10
6098.265034749848
 20
5173.130700475457
 30
0.0
 10
6098.251665375505
 20
5173.216037482121
 30
0.0
  0
SPLINE
  5
9F
330
1F
100
AcDbEntity
  8
0
  6
Continuous
 62
     7
370
    25
100
AcDbSpline
210
0.0
220
0.0
230
1.0
 70
     8
 71
     3
 72
    10
 73
     6
 74
     0
 42
0.000000001
 43
0.00000001
 40
0.0
 40
0.0
 40
0.0
 40
0.0
 40
0.2761105802189027
 40
0.7172623751792234
 40
1.0
 40
1.0
 40
1.0
 40
1.0
 10
6083.413548625568
 20
5171.01824510902
 30
0.0
 10
6083.512398767196
 20
5170.437303781056
 30
0.0
 10
6083.769185331894
 20
5168.92817161957
 30
0.0
 10
6084.345549405296
 20
5166.858819095789
 30
0.0
 10
6084.914668632362
 20
5165.406964641422
 30
0.0
 10
6085.136955923906
 20
5164.839897533109
 30
0.0
  0
SPLINE
  5
A0
330
1F
100
AcDbEntity
  8
0
  6
Continuous
 62
     7
370
    25
100
AcDbSpline
210
0.0
220
0.0
230
1.0
 70
     8
 71
     3
 72
    10
 73
     6
 74
     0
 42
0.000000001
 43
0.00000001
 40
0.0
 40
0.0
 40
0.0
 40
0.0
 40
0.2745972463539844
 40
0.7223978850247337
 40
1.0
 40
1.0
 40
1.0
 40
1.0
 10
6392.900554748295
 20
5164.839897533109
 30
0.0
 10
6393.116741546414
 20
5165.390527342998
 30
0.0
 10
6393.685475893921
 20
5166.839099079886
 30
0.0
 10
6394.264646810176
 20
5168.907942696304
 30
0.0
 10
6394.524514204749
 20
5170.434175747709
 30
0.0
 10
6394.623962046633
 20
5171.01824510902
 30
0.0
  0
SPLINE
  5
A1
330
1F
100
AcDbEntity
  8
0
  6
Continuous
 62
     7
370
    25
100
AcDbSpline
210
0.0
220
0.0
230
1.0
 70
     8
 71
     3
 72
    10
 73
     6
 74
     0
 42
0.000000001
 43
0.00000001
 40
0.0
 40
0.0
 40
0.0
 40
0.0
 40
0.2752317898448622
 40
0.8886563194304381
 40
1.0
 40
1.0
 40
1.0
 40
1.0
 10
6379.785845296696
 20
5173.216037482121
 30
0.0
 10
6379.745337218474
 20
5172.97789809095
 30
0.0
 10
6379.61454651395
 20
5172.209004079878
 30
0.0
 10
6379.350073588455
 20
5171.337228893757
 30
0.0
 10
6379.092889830284
 20
5170.703962970109
 30
0.0
 10
6379.053379562288
 20
5170.606676475297
 30
0.0
  0
LINE
  5
A2
330
1F
100
AcDbEntity
  8
0
  6
Continuous
 62
     7
370
    25
100
AcDbLine
 10
6068.2046118806
 20
5273.6994545927
 30
0.0
 11
6083.4135486256
 21
5171.018245109
 31
0.0
  0
LINE
  5
A3
330
1F
100
AcDbEntity
  8
0
  6
Continuous
 62
     7
370
    25
100
AcDbLine
 10
6098.2516653755
 20
5173.2160374821
 30
0.0
 11
6089.9364632521
 21
5229.3550710947
 31
0.0
  0
LINE
  5
A4
330
1F
100
AcDbEntity
  8
0
  6
Continuous
 62
     7
370
    25
100
AcDbLine
 10
6388.1010474201
 20
5229.3550710947
 30
0.0
 11
6379.7858452967
 21
5173.2160374821
 31
0.0
  0
LINE
  5
A5
330
1F
100
AcDbEntity
  8
0
  6
Continuous
 62
     7
370
    25
100
AcDbLine
 10
6394.6239620466
 20
5171.018245109
 30
0.0
 11
6409.8328987916
 21
5273.6994545927
 31
0.0
  0
LINE
  5
A6
330
1F
100
AcDbEntity
  8
0
  6
Continuous
 62
     7
370
    25
100
AcDbLine
 10
6267.0187553361
 20
5373.6994545927
 30
0.0
 11
6267.0187553361
 21
5403.6994545927
 31
0.0
  0
LINE
  5
A7
330
1F
100
AcDbEntity
  8
0
  6
Continuous
 62
     7
370
    25
100
AcDbLine
 10
6211.0187553361
 20
5403.6994545927
 30
0.0
 11
6211.0187553361
 21
5373.6994545927
 31
0.0
  0
LINE
  5
A8
330
1F
100
AcDbEntity
  8
0
  6
Continuous
 62
     7
370
    25
100
AcDbLine
 10
6494.0187553361
 20
5273.6994545927
 30
0.0
 11
6494.0187553361
 21
5288.6994545927
 31
0.0
  0
LINE
  5
A9
330
1F
100
AcDbEntity
  8
0
  6
Continuous
 62
     7
370
    25
100
AcDbLine
 10
6444.0187553361
 20
5288.6994545927
 30
0.0
 11
6444.0187553361
 21
5273.6994545927
 31
0.0
  0
LINE
  5
AA
330
1F
100
AcDbEntity
  8
0
  6
Continuous
 62
     7
370
    25
100
AcDbLine
 10
6489.0187553361
 20
5288.6994545927
 30
0.0
 11
6489.0187553361
 21
5293.6994545927
 31
0.0
  0
LINE
  5
AB
330
1F
100
AcDbEntity
  8
0
  6
Continuous
 62
     7
370
    25
100
AcDbLine
 10
6449.0187553361
 20
5293.6994545927
 30
0.0
 11
6449.0187553361
 21
5288.6994545927
 31
0.0
  0
ARC
  5
AC
330
1F
100
AcDbEntity
  8
0
  6
Continuous
 62
     7
370
    25
100
AcDbCircle
 10
6429.0187553361
 20
5293.6994545927
 30
0.0
 40
20.0
100
AcDbArc
 50
0.0
 51
90.0
  0
ARC
  5
AD
330
1F
100
AcDbEntity
  8
0
  6
Continuous
 62
     7
370
    25
100
AcDbCircle
 10
6429.0187553361
 20
5293.6994545927
 30
0.0
 40
60.0
100
AcDbArc
 50
0.0
 51
90.0
  0
LINE
  5
AE
330
1F
100
AcDbEntity
  8
0
  6
Continuous
 62
     7
370
    25
100
AcDbLine
 10
6399.0105632276
 20
5313.6994545927
 30
0.0
 11
6429.0187553361
 21
5313.6994545927
 31
0.0
  0
LINE
  5
AF
330
1F
100
AcDbEntity
  8
0
  6
Continuous
 62
     7
370
    25
100
AcDbLine
 10
6429.0187553361
 20
5353.6994545927
 30
0.0
 11
6399.0184473515
 21
5353.6994545927
 31
0.0
  0
LINE
  5
B0
330
1F
100
AcDbEntity
  8
0
  6
Continuous
 62
     7
370
    25
100
AcDbLine
 10
6251.5187553361
 20
5146.6994545927
 30
0.0
 11
6226.5187553361
 21
5146.6994545927
 31
0.0
  0
LINE
  5
B1
330
1F
100
AcDbEntity
  8
0
  6
Continuous
 62
     7
370
    25
100
AcDbLine
 10
6251.5187553361
 20
5153.6994545927
 30
0.0
 11
6226.5187553361
 21
5153.6994545927
 31
0.0
  0
ARC
  5
B2
330
1F
100
AcDbEntity
  8
0
  6
Continuous
 62
     7
370
    25
100
AcDbCircle
 10
6239.0187553361
 20
5173.6994545927
 30
0.0
 40
7.5
100
AcDbArc
 50
0.0
 51
180.0
  0
LINE
  5
B3
330
1F
100
AcDbEntity
  8
0
  6
Continuous
 62
     7
370
    25
100
AcDbLine
 10
6245.0187553361
 20
5126.6994545927
 30
0.0
 11
6233.0187553361
 21
5126.6994545927
 31
0.0
  0
ARC
  5
B4
330
1F
100
AcDbEntity
  8
0
  6
Continuous
 62
     7
370
    25
100
AcDbCircle
 10
6239.0187553361
 20
5173.6994545927
 30
0.0
 40
12.5
100
AcDbArc
 50
0.0
 51
233.1301023542
  0
ARC
  5
B5
330
1F
100
AcDbEntity
  8
0
  6
Continuous
 62
     7
370
    25
100
AcDbCircle
 10
6239.0187553361
 20
5173.6994545927
 30
0.0
 40
12.5
100
AcDbArc
 50
306.8698976458
 51
0.0
  0
SPLINE
  5
B6
330
1F
100
AcDbEntity
  8
0
  6
Continuous
 62
     7
370
    25
100
AcDbSpline
210
0.0
220
0.0
230
1.0
 70
     8
 71
     3
 72
     8
 73
     4
 74
     0
 42
0.000000001
 43
0.00000001
 40
0.0
 40
0.0
 40
0.0
 40
0.0
 40
1.0
 40
1.0
 40
1.0
 40
1.0
 10
6250.944025956572
 20
5191.199454592719
 30
0.0
 10
6249.593353406097
 20
5196.20082400608
 30
0.0
 10
6248.240239894003
 20
5201.201537432571
 30
0.0
 10
6246.876872158851
 20
5206.199454592719
 30
0.0
  0
SPLINE
  5
B7
330
1F
100
AcDbEntity
  8
0
  6
Continuous
 62
     7
370
    25
100
AcDbSpline
210
0.0
220
0.0
230
1.0
 70
     8
 71
     3
 72
     8
 73
     4
 74
     0
 42
0.000000001
 43
0.00000001
 40
0.0
 40
0.0
 40
0.0
 40
0.0
 40
1.0
 40
1.0
 40
1.0
 40
1.0
 10
6227.093484715629
 20
5191.199454592719
 30
0.0
 10
6228.444157266103
 20
5196.20082400608
 30
0.0
 10
6229.797270778196
 20
5201.201537432571
 30
0.0
 10
6231.160638513349
 20
5206.199454592719
 30
0.0
  0
LINE
  5
B8
330
1F
100
AcDbEntity
  8
0
  6
Continuous
 62
     7
370
    25
100
AcDbLine
 10
6231.1606385133
 20
5206.1994545927
 30
0.0
 11
6246.8768721589
 21
5206.1994545927
 31
0.0
  0
LINE
  5
B9
330
1F
100
AcDbEntity
  8
0
  6
Continuous
 62
     7
370
    25
100
AcDbLine
 10
6227.0934847156
 20
5191.1994545927
 30
0.0
 11
6250.9440259566
 21
5191.1994545927
 31
0.0
  0
LINE
  5
BA
330
1F
100
AcDbEntity
  8
0
  6
Continuous
 62
     7
370
    25
100
AcDbLine
 10
6219.0187553361
 20
5191.1994545927
 30
0.0
 11
6219.0187553361
 21
5196.1994545927
 31
0.0
  0
LINE
  5
BB
330
1F
100
AcDbEntity
  8
0
  6
Continuous
 62
     7
370
    25
100
AcDbLine
 10
6219.0187553361
 20
5196.1994545927
 30
0.0
 11
6225.0187553361
 21
5206.1994545927
 31
0.0
  0
LINE
  5
BC
330
1F
100
AcDbEntity
  8
0
  6
Continuous
 62
     7
370
    25
100
AcDbLine
 10
6225.0187553361
 20
5206.1994545927
 30
0.0
 11
6231.1606385133
 21
5206.1994545927
 31
0.0
  0
LINE
  5
BD
330
1F
100
AcDbEntity
  8
0
  6
Continuous
 62
     7
370
    25
100
AcDbLine
 10
6227.0934847156
 20
5191.1994545927
 30
0.0
 11
6219.0187553361
 21
5191.1994545927
 31
0.0
  0
LINE
  5
BE
330
1F
100
AcDbEntity
  8
0
  6
Continuous
 62
     7
370
    25
100
AcDbLine
 10
6259.0187553361
 20
5191.1994545927
 30
0.0
 11
6259.0187553361
 21
5196.1994545927
 31
0.0
  0
LINE
  5
BF
330
1F
100
AcDbEntity
  8
0
  6
Continuous
 62
     7
370
    25
100
AcDbLine
 10
6253.0187553361
 20
5206.1994545927
 30
0.0
 11
6259.0187553361
 21
5196.1994545927
 31
0.0
  0
LINE
  5
C0
330
1F
100
AcDbEntity
  8
0
  6
Continuous
 62
     7
370
    25
100
AcDbLine
 10
6246.8768721589
 20
5206.1994545927
 30
0.0
 11
6253.0187553361
 21
5206.1994545927
 31
0.0
  0
LINE
  5
C1
330
1F
100
AcDbEntity
  8
0
  6
Continuous
 62
     7
370
    25
100
AcDbLine
 10
6259.0187553361
 20
5191.1994545927
 30
0.0
 11
6250.9440259566
 21
5191.1994545927
 31
0.0
  0
LINE
  5
C2
330
1F
100
AcDbEntity
  8
0
  6
Continuous
 62
     7
370
    25
100
AcDbLine
 10
6402.6494370556
 20
5293.6994545927
 30
0.0
 11
6061.6956913568
 21
5293.6994545927
 31
0.0
  0
LINE
  5
C3
330
1F
100
AcDbEntity
  8
0
  6
Continuous
 62
     7
370
    25
100
AcDbLine
 10
6402.6494370556
 20
5295.6994545927
 30
0.0
 11
6402.6494370556
 21
5293.6994545927
 31
0.0
  0
LINE
  5
C4
330
1F
100
AcDbEntity
  8
0
  6
Continuous
 62
     7
370
    25
100
AcDbLine
 10
6402.6494370556
 20
5295.6994545927
 30
0.0
 11
6416.5011488291
 21
5295.6994545927
 31
0.0
  0
ELLIPSE
  5
C5
330
1F
100
AcDbEntity
  8
0
  6
Continuous
 62
     7
370
    25
100
AcDbEllipse
 10
6239.0187553361
 20
5360.3661212594
 30
0.0
 11
0.0
 21
388.0
 31
0.0
210
0.0
220
0.0
230
1.0
 40
0.4639175258
 41
4.539710807224715
 42
4.544940901165008
  0
LINE
  5
C6
330
1F
100
AcDbEntity
  8
0
  6
Continuous
 62
     7
370
    25
100
AcDbLine
 10
6419.0187553361
 20
5273.6994545927
 30
0.0
 11
6059.0187553361
 21
5273.6994545927
 31
0.0
  0
SPLINE
  5
C7
330
1F
100
AcDbEntity
  8
0
  6
Continuous
 62
     7
370
    25
100
AcDbSpline
210
0.0
220
0.0
230
1.0
 70
     8
 71
     3
 72
    14
 73
    10
 74
     0
 42
0.000000001
 43
0.00000001
 40
0.0
 40
0.0
 40
0.0
 40
0.0
 40
0.0455150426303894
 40
0.0971290022760807
 40
0.1980685814682895
 40
0.2990882863176688
 40
0.5030041934333438
 40
0.751257657920976
 40
0.9999999999999999
 40
0.9999999999999999
 40
0.9999999999999999
 40
0.9999999999999999
 10
6089.929007766658
 20
5229.353673750541
 30
0.0
 10
6089.797759860238
 20
5230.145266993462
 30
0.0
 10
6089.517677112543
 20
5231.834525257324
 30
0.0
 10
6088.801945821057
 20
5235.065034842658
 30
0.0
 10
6087.85260670122
 20
5239.061382500098
 30
0.0
 10
6086.297009423726
 20
5245.203244737335
 30
0.0
 10
6084.268328823347
 20
5253.310123815
 30
0.0
 10
6081.948080398755
 20
5263.288497288794
 30
0.0
 10
6080.664994814439
 20
5270.226860482084
 30
0.0
 10
6080.022820958817
 20
5273.699454592719
 30
0.0
  0
SPLINE
  5
C8
330
1F
100
AcDbEntity
  8
0
  6
Continuous
 62
     7
370
    25
100
AcDbSpline
210
0.0
220
0.0
230
1.0
 70
     8
 71
     3
 72
    14
 73
    10
 74
     0
 42
0.000000001
 43
0.00000001
 40
0.0
 40
0.0
 40
0.0
 40
0.0
 40
0.0455150426303848
 40
0.0971290022760763
 40
0.1980685814682857
 40
0.2990882863176654
 40
0.5030041934333415
 40
0.7512576579209748
 40
1.0
 40
1.0
 40
1.0
 40
1.0
 10
6388.108502905543
 20
5229.353673750541
 30
0.0
 10
6388.239750811962
 20
5230.145266993462
 30
0.0
 10
6388.519833559656
 20
5231.834525257324
 30
0.0
 10
6389.235564851144
 20
5235.065034842659
 30
0.0
 10
6390.184903970981
 20
5239.061382500098
 30
0.0
 10
6391.740501248474
 20
5245.203244737335
 30
0.0
 10
6393.769181848853
 20
5253.310123815
 30
0.0
 10
6396.089430273446
 20
5263.288497288794
 30
0.0
 10
6397.372515857763
 20
5270.226860482084
 30
0.0
 10
6398.014689713384
 20
5273.699454592719
 30
0.0
  0
SPLINE
  5
C9
330
1F
100
AcDbEntity
  8
0
  6
Continuous
 62
     7
370
    25
100
AcDbSpline
210
0.0
220
0.0
230
1.0
 70
     8
 71
     3
 72
    17
 73
    13
 74
     0
 42
0.000000001
 43
0.00000001
 40
0.0
 40
0.0
 40
0.0
 40
0.0
 40
0.1052783985614638
 40
0.2136246798498138
 40
0.3188988841724997
 40
0.4271978317208022
 40
0.5329882739988051
 40
0.6418254293683723
 40
0.7479407285949914
 40
0.8571640974013542
 40
0.9627176448253584
 40
1.0
 40
1.0
 40
1.0
 40
1.0
 10
6397.763833999976
 20
5333.699454592719
 30
0.0
 10
6397.770551565946
 20
5332.595915340807
 30
0.0
 10
6397.784182452238
 20
5330.356678967412
 30
0.0
 10
6397.890875277983
 20
5327.107629984604
 30
0.0
 10
6398.049479639908
 20
5324.017446474472
 30
0.0
 10
6398.246163127256
 20
5321.223246630464
 30
0.0
 10
6398.460693937286
 20
5318.752178087419
 30
0.0
 10
6398.66589375068
 20
5316.720603531045
 30
0.0
 10
6398.843257098679
 20
5315.141271712284
 30
0.0
 10
6398.963446809183
 20
5314.142092265076
 30
0.0
 10
6399.021410453435
 20
5313.678130682866
 30
0.0
 10
6399.012803868182
 20
5313.747170443928
 30
0.0
 10
6399.010557417799
 20
5313.76519087749
 30
0.0
  0
SPLINE
  5
CA
330
1F
100
AcDbEntity
  8
0
  6
Continuous
 62
     7
370
    25
100
AcDbSpline
210
0.0
220
0.0
230
1.0
 70
     8
 71
     3
 72
    16
 73
    12
 74
     0
 42
0.000000001
 43
0.00000001
 40
0.0
 40
0.0
 40
0.0
 40
0.0
 40
0.1041508250853775
 40
0.2123259330735932
 40
0.3174335303779907
 40
0.4255504612170681
 40
0.5313508170264187
 40
0.6401975017318808
 40
0.7463352719627397
 40
0.855581350984548
 40
1.0
 40
1.0
 40
1.0
 40
1.0
 10
6399.018445348455
 20
5353.696958408722
 30
0.0
 10
6399.012053452639
 20
5353.646165014485
 30
0.0
 10
6398.999022684595
 20
5353.542615620455
 30
0.0
 10
6398.894245950595
 20
5352.688232726232
 30
0.0
 10
6398.737474108771
 20
5351.331673602437
 30
0.0
 10
6398.542044371625
 20
5349.483081099368
 30
0.0
 10
6398.328017027248
 20
5347.171097753864
 30
0.0
 10
6398.121439926821
 20
5344.491497227491
 30
0.0
 10
6397.944891607307
 20
5341.474514700869
 30
0.0
 10
6397.798362404847
 20
5337.876788976057
 30
0.0
 10
6397.776360384827
 20
5335.214928543412
 30
0.0
 10
6397.763833999975
 20
5333.699454592719
 30
0.0
  0
LINE
  5
CB
330
1F
100
AcDbEntity
  8
0
  6
Continuous
 62
     7
370
    25
100
AcDbLine
 10
6089.0187553361
 20
5373.6994545927
 30
0.0
 11
6389.0187553361
 21
5373.6994545927
 31
0.0
  0
LINE
  5
CC
330
1F
100
AcDbEntity
  8
0
  6
Continuous
 62
     7
370
    25
100
AcDbLine
 10
6239.0187553361
 20
5023.6994545927
 30
0.0
 11
6108.2507042993
 21
5023.6994545927
 31
0.0
  0
LINE
  5
CD
330
1F
100
AcDbEntity
  8
0
  6
Continuous
 62
     7
370
    25
100
AcDbLine
 10
6369.7868063729
 20
5023.6994545927
 30
0.0
 11
6239.0187553361
 21
5023.6994545927
 31
0.0
  0
LINE
  5
CE
330
1F
100
AcDbEntity
  8
0
  6
Continuous
 62
     7
370
    25
100
AcDbLine
 10
6139.0187553361
 20
5393.6994545927
 30
0.0
 11
6139.0187553361
 21
5373.6994545927
 31
0.0
  0
LINE
  5
CF
330
1F
100
AcDbEntity
  8
0
  6
Continuous
 62
     7
370
    25
100
AcDbLine
 10
6159.0187553361
 20
5373.6994545927
 30
0.0
 11
6159.0187553361
 21
5393.6994545927
 31
0.0
  0
LINE
  5
D0
330
1F
100
AcDbEntity
  8
0
  6
Continuous
 62
     7
370
    25
100
AcDbLine
 10
6159.0187553361
 20
5393.6994545927
 30
0.0
 11
6139.0187553361
 21
5393.6994545927
 31
0.0
  0
LINE
  5
D1
330
1F
100
AcDbEntity
  8
0
  6
Continuous
 62
     7
370
    25
100
AcDbLine
 10
6339.0187553361
 20
5393.6994545927
 30
0.0
 11
6339.0187553361
 21
5373.6994545927
 31
0.0
  0
LINE
  5
D2
330
1F
100
AcDbEntity
  8
0
  6
Continuous
 62
     7
370
    25
100
AcDbLine
 10
6319.0187553361
 20
5373.6994545927
 30
0.0
 11
6319.0187553361
 21
5393.6994545927
 31
0.0
  0
LINE
  5
D3
330
1F
100
AcDbEntity
  8
0
  6
Continuous
 62
     7
370
    25
100
AcDbLine
 10
6319.0187553361
 20
5393.6994545927
 30
0.0
 11
6339.0187553361
 21
5393.6994545927
 31
0.0
  0
LINE
  5
D4
330
1F
100
AcDbEntity
  8
0
  6
Continuous
 62
     7
370
    25
100
AcDbLine
 10
6421.0187553361
 20
5293.6994545927
 30
0.0
 11
6416.3418193154
 21
5293.6994545927
 31
0.0
  0
LINE
  5
D5
330
1F
100
AcDbEntity
  8
0
  6
Continuous
 62
     7
370
    25
100
AcDbLine
 10
6416.5011488291
 20
5295.6994545927
 30
0.0
 11
6421.0187553361
 21
5295.6994545927
 31
0.0
  0
ARC
  5
D6
330
1F
100
AcDbEntity
  8
0
  6
Continuous
 62
     7
370
    25
100
AcDbCircle
 10
6421.0187553361
 20
5292.6994545927
 30
0.0
 40
3.0
100
AcDbArc
 50
0.0
 51
90.0
  0
LINE
  5
D7
330
1F
100
AcDbEntity
  8
0
  6
Continuous
 62
     7
370
    25
100
AcDbLine
 10
6424.0187553361
 20
5292.6994545927
 30
0.0
 11
6424.0187553361
 21
5198.6994545927
 31
0.0
  0
LINE
  5
D8
330
1F
100
AcDbEntity
  8
0
  6
Continuous
 62
     7
370
    25
100
AcDbLine
 10
6424.0187553361
 20
5198.6994545927
 30
0.0
 11
6422.0187553361
 21
5198.6994545927
 31
0.0
  0
LINE
  5
D9
330
1F
100
AcDbEntity
  8
0
  6
Continuous
 62
     7
370
    25
100
AcDbLine
 10
6422.0187553361
 20
5198.6994545927
 30
0.0
 11
6422.0187553361
 21
5292.6994545927
 31
0.0
  0
ARC
  5
DA
330
1F
100
AcDbEntity
  8
0
  6
Continuous
 62
     7
370
    25
100
AcDbCircle
 10
6421.0187553361
 20
5292.6994545927
 30
0.0
 40
1.0
100
AcDbArc
 50
0.0
 51
90.0
  0
LINE
  5
DB
330
1F
100
AcDbEntity
  8
0
  6
Continuous
 62
     7
370
    25
100
AcDbLine
 10
6401.0187553361
 20
5293.6994545927
 30
0.0
 11
6401.0187553361
 21
5295.6994545927
 31
0.0
  0
LINE
  5
DC
330
1F
100
AcDbEntity
  8
0
  6
Continuous
 62
     7
370
    25
100
AcDbLine
 10
6401.0187553361
 20
5295.6994545927
 30
0.0
 11
6402.6494370556
 21
5295.6994545927
 31
0.0
  0
ARC
  5
DD
330
1F
100
AcDbEntity
  8
0
  6
Continuous
 62
     7
370
    25
100
AcDbCircle
 10
6057.0187553361
 20
5292.6994545927
 30
0.0
 40
3.0
100
AcDbArc
 50
90.0
 51
180.0
  0
LINE
  5
DE
330
1F
100
AcDbEntity
  8
0
  6
Continuous
 62
     7
370
    25
100
AcDbLine
 10
6077.0187553361
 20
5295.6994545927
 30
0.0
 11
6057.0187553361
 21
5295.6994545927
 31
0.0
  0
LINE
  5
DF
330
1F
100
AcDbEntity
  8
0
  6
Continuous
 62
     7
370
    25
100
AcDbLine
 10
6077.0187553361
 20
5295.6994545927
 30
0.0
 11
6077.0187553361
 21
5293.6994545927
 31
0.0
  0
LINE
  5
E0
330
1F
100
AcDbEntity
  8
0
  6
Continuous
 62
     7
370
    25
100
AcDbLine
 10
6061.6956913568
 20
5293.6994545927
 30
0.0
 11
6057.0187553361
 21
5293.6994545927
 31
0.0
  0
ARC
  5
E1
330
1F
100
AcDbEntity
  8
0
  6
Continuous
 62
     7
370
    25
100
AcDbCircle
 10
6057.0187553361
 20
5292.6994545927
 30
0.0
 40
1.0
100
AcDbArc
 50
90.0
 51
180.0
  0
LINE
  5
E2
330
1F
100
AcDbEntity
  8
0
  6
Continuous
 62
     7
370
    25
100
AcDbLine
 10
6056.0187553361
 20
5292.6994545927
 30
0.0
 11
6056.0187553361
 21
5198.6994545927
 31
0.0
  0
LINE
  5
E3
330
1F
100
AcDbEntity
  8
0
  6
Continuous
 62
     7
370
    25
100
AcDbLine
 10
6054.0187553361
 20
5198.6994545927
 30
0.0
 11
6056.0187553361
 21
5198.6994545927
 31
0.0
  0
LINE
  5
E4
330
1F
100
AcDbEntity
  8
0
  6
Continuous
 62
     7
370
    25
100
AcDbLine
 10
6054.0187553361
 20
5292.6994545927
 30
0.0
 11
6054.0187553361
 21
5198.6994545927
 31
0.0
  0
ARC
  5
E5
330
1F
100
AcDbEntity
  8
0
  6
Continuous
 62
     7
370
    25
100
AcDbCircle
 10
6057.0187553361
 20
5198.6994545927
 30
0.0
 40
1.0
100
AcDbArc
 50
180.0
 51
270.0
  0
ARC
  5
E6
330
1F
100
AcDbEntity
  8
0
  6
Continuous
 62
     7
370
    25
100
AcDbCircle
 10
6071.0187553361
 20
5198.6994545927
 30
0.0
 40
1.0
100
AcDbArc
 50
270.0
 51
0.0
  0
LINE
  5
E7
330
1F
100
AcDbEntity
  8
0
  6
Continuous
 62
     7
370
    25
100
AcDbLine
 10
6072.0187553361
 20
5198.6994545927
 30
0.0
 11
6074.0187553361
 21
5198.6994545927
 31
0.0
  0
ARC
  5
E8
330
1F
100
AcDbEntity
  8
0
  6
Continuous
 62
     7
370
    25
100
AcDbCircle
 10
6071.0187553361
 20
5198.6994545927
 30
0.0
 40
3.0
100
AcDbArc
 50
270.0
 51
0.0
  0
LINE
  5
E9
330
1F
100
AcDbEntity
  8
0
  6
Continuous
 62
     7
370
    25
100
AcDbLine
 10
6057.0187553361
 20
5195.6994545927
 30
0.0
 11
6071.0187553361
 21
5195.6994545927
 31
0.0
  0
ARC
  5
EA
330
1F
100
AcDbEntity
  8
0
  6
Continuous
 62
     7
370
    25
100
AcDbCircle
 10
6057.0187553361
 20
5198.6994545927
 30
0.0
 40
3.0
100
AcDbArc
 50
180.0
 51
270.0
  0
LINE
  5
EB
330
1F
100
AcDbEntity
  8
0
  6
Continuous
 62
     7
370
    25
100
AcDbLine
 10
6071.0187553361
 20
5197.6994545927
 30
0.0
 11
6057.0187553361
 21
5197.6994545927
 31
0.0
  0
LINE
  5
EC
330
1F
100
AcDbEntity
  8
0
  6
Continuous
 62
     7
370
    25
100
AcDbLine
 10
6406.0187553361
 20
5198.6994545927
 30
0.0
 11
6404.0187553361
 21
5198.6994545927
 31
0.0
  0
ELLIPSE
  5
ED
330
1F
100
AcDbEntity
  8
0
  6
Continuous
 62
     7
370
    25
100
AcDbEllipse
 10
6239.0187553361
 20
5360.3661212594
 30
0.0
 11
0.0
 21
388.0
 31
0.0
210
0.0
220
0.0
230
1.0
 40
0.4639175258
 41
4.301251118062352
 42
4.330005127178824
  0
LINE
  5
EE
330
1F
100
AcDbEntity
  8
0
  6
Continuous
 62
     7
370
    25
100
AcDbLine
 10
6406.0187553361
 20
5215.590434398
 30
0.0
 11
6406.0187553361
 21
5198.6994545927
 31
0.0
  0
LINE
  5
EF
330
1F
100
AcDbEntity
  8
0
  6
Continuous
 62
     7
370
    25
100
AcDbLine
 10
6404.0187553361
 20
5198.6994545927
 30
0.0
 11
6404.0187553361
 21
5205.3009020056
 31
0.0
  0
ARC
  5
F0
330
1F
100
AcDbEntity
  8
0
  6
Continuous
 62
     7
370
    25
100
AcDbCircle
 10
6421.0187553361
 20
5198.6994545927
 30
0.0
 40
3.0
100
AcDbArc
 50
270.0
 51
0.0
  0
LINE
  5
F1
330
1F
100
AcDbEntity
  8
0
  6
Continuous
 62
     7
370
    25
100
AcDbLine
 10
6421.0187553361
 20
5195.6994545927
 30
0.0
 11
6407.0187553361
 21
5195.6994545927
 31
0.0
  0
ARC
  5
F2
330
1F
100
AcDbEntity
  8
0
  6
Continuous
 62
     7
370
    25
100
AcDbCircle
 10
6407.0187553361
 20
5198.6994545927
 30
0.0
 40
3.0
100
AcDbArc
 50
180.0
 51
270.0
  0
LINE
  5
F3
330
1F
100
AcDbEntity
  8
0
  6
Continuous
 62
     7
370
    25
100
AcDbLine
 10
6407.0187553361
 20
5197.6994545927
 30
0.0
 11
6421.0187553361
 21
5197.6994545927
 31
0.0
  0
ARC
  5
F4
330
1F
100
AcDbEntity
  8
0
  6
Continuous
 62
     7
370
    25
100
AcDbCircle
 10
6421.0187553361
 20
5198.6994545927
 30
0.0
 40
1.0
100
AcDbArc
 50
270.0
 51
0.0
  0
ARC
  5
F5
330
1F
100
AcDbEntity
  8
0
  6
Continuous
 62
     7
370
    25
100
AcDbCircle
 10
6407.0187553361
 20
5198.6994545927
 30
0.0
 40
1.0
100
AcDbArc
 50
180.0
 51
270.0
  0
LINE
  5
F6
330
1F
100
AcDbEntity
  8
0
  6
Continuous
 62
     7
370
    25
100
AcDbLine
 10
6072.0187553361
 20
5215.6994545927
 30
0.0
 11
6074.0187553361
 21
5215.6994545927
 31
0.0
  0
LINE
  5
F7
330
1F
100
AcDbEntity
  8
0
  6
Continuous
 62
     7
370
    25
100
AcDbLine
 10
6074.0187553361
 20
5215.6994545927
 30
0.0
 11
6074.0187553361
 21
5198.6994545927
 31
0.0
  0
LINE
  5
F8
330
1F
100
AcDbEntity
  8
0
  6
Continuous
 62
     7
370
    25
100
AcDbLine
 10
6072.0187553361
 20
5198.6994545927
 30
0.0
 11
6072.0187553361
 21
5215.6994545927
 31
0.0
  0
LINE
  5
F9
330
1F
100
AcDbEntity
  8
0
  6
Continuous
 62
     7
370
    25
100
AcDbLine
 10
6406.0187553361
 20
5215.6994545927
 30
0.0
 11
6404.0187553361
 21
5215.6994545927
 31
0.0
  0
LINE
  5
FA
330
1F
100
AcDbEntity
  8
0
  6
Continuous
 62
     7
370
    25
100
AcDbLine
 10
6406.0187553361
 20
5215.590434398
 30
0.0
 11
6406.0187553361
 21
5215.6994545927
 31
0.0
  0
LINE
  5
FB
330
1F
100
AcDbEntity
  8
0
  6
Continuous
 62
     7
370
    25
100
AcDbLine
 10
6404.0187553361
 20
5215.6994545927
 30
0.0
 11
6404.0187553361
 21
5205.3009020056
 31
0.0
  0
LINE
  5
FC
330
1F
100
AcDbEntity
  8
0
  6
Continuous
 62
     7
370
    25
100
AcDbLine
 10
6267.0187553361
 20
5403.6994545927
 30
0.0
 11
6211.0187553361
 21
5403.6994545927
 31
0.0
  0
LINE
  5
FD
330
1F
100
AcDbEntity
  8
0
  6
Continuous
 62
     7
370
    25
100
AcDbLine
 10
6494.0187553361
 20
5288.6994545927
 30
0.0
 11
6444.0187553361
 21
5288.6994545927
 31
0.0
  0
LINE
  5
FE
330
1F
100
AcDbEntity
  8
0
  6
Continuous
 62
     7
370
    25
100
AcDbLine
 10
6494.0187553361
 20
5273.6994545927
 30
0.0
 11
6444.0187553361
 21
5273.6994545927
 31
0.0
  0
LINE
  5
FF
330
1F
100
AcDbEntity
  8
0
  6
Continuous
 62
     7
370
    25
100
AcDbLine
 10
6135.0187553361
 20
5375.6994545927
 30
0.0
 11
6110.0187553361
 21
5375.6994545927
 31
0.0
  0
ARC
  5
100
330
1F
100
AcDbEntity
  8
0
  6
Continuous
 62
     7
370
    25
100
AcDbCircle
 10
6139.0187553361
 20
5393.6994545927
 30
0.0
 40
3.0
100
AcDbArc
 50
90.0
 51
180.0
  0
LINE
  5
101
330
1F
100
AcDbEntity
  8
0
  6
Continuous
 62
     7
370
    25
100
AcDbLine
 10
6159.0187553361
 20
5396.6994545927
 30
0.0
 11
6139.0187553361
 21
5396.6994545927
 31
0.0
  0
LINE
  5
102
330
1F
100
AcDbEntity
  8
0
  6
Continuous
 62
     7
370
    25
100
AcDbLine
 10
6162.0187553361
 20
5376.6994545927
 30
0.0
 11
6162.0187553361
 21
5393.6994545927
 31
0.0
  0
ARC
  5
103
330
1F
100
AcDbEntity
  8
0
  6
Continuous
 62
     7
370
    25
100
AcDbCircle
 10
6163.0187553361
 20
5376.6994545927
 30
0.0
 40
1.0
100
AcDbArc
 50
180.0
 51
270.0
  0
LINE
  5
104
330
1F
100
AcDbEntity
  8
0
  6
Continuous
 62
     7
370
    25
100
AcDbLine
 10
6188.0187553361
 20
5375.6994545927
 30
0.0
 11
6163.0187553361
 21
5375.6994545927
 31
0.0
  0
LINE
  5
105
330
1F
100
AcDbEntity
  8
0
  6
Continuous
 62
     7
370
    25
100
AcDbLine
 10
6188.0187553361
 20
5373.6994545927
 30
0.0
 11
6188.0187553361
 21
5375.6994545927
 31
0.0
  0
ARC
  5
106
330
1F
100
AcDbEntity
  8
0
  6
Continuous
 62
     7
370
    25
100
AcDbCircle
 10
6163.0187553361
 20
5376.6994545927
 30
0.0
 40
3.0
100
AcDbArc
 50
180.0
 51
270.0
  0
LINE
  5
107
330
1F
100
AcDbEntity
  8
0
  6
Continuous
 62
     7
370
    25
100
AcDbLine
 10
6160.0187553361
 20
5393.6994545927
 30
0.0
 11
6160.0187553361
 21
5376.6994545927
 31
0.0
  0
ARC
  5
108
330
1F
100
AcDbEntity
  8
0
  6
Continuous
 62
     7
370
    25
100
AcDbCircle
 10
6159.0187553361
 20
5393.6994545927
 30
0.0
 40
1.0
100
AcDbArc
 50
0.0
 51
90.0
  0
LINE
  5
109
330
1F
100
AcDbEntity
  8
0
  6
Continuous
 62
     7
370
    25
100
AcDbLine
 10
6139.0187553361
 20
5394.6994545927
 30
0.0
 11
6159.0187553361
 21
5394.6994545927
 31
0.0
  0
ARC
  5
10A
330
1F
100
AcDbEntity
  8
0
  6
Continuous
 62
     7
370
    25
100
AcDbCircle
 10
6139.0187553361
 20
5393.6994545927
 30
0.0
 40
1.0
100
AcDbArc
 50
90.0
 51
180.0
  0
LINE
  5
10B
330
1F
100
AcDbEntity
  8
0
  6
Continuous
 62
     7
370
    25
100
AcDbLine
 10
6138.0187553361
 20
5376.6994545927
 30
0.0
 11
6138.0187553361
 21
5393.6994545927
 31
0.0
  0
ARC
  5
10C
330
1F
100
AcDbEntity
  8
0
  6
Continuous
 62
     7
370
    25
100
AcDbCircle
 10
6135.0187553361
 20
5376.6994545927
 30
0.0
 40
3.0
100
AcDbArc
 50
270.0
 51
0.0
  0
LINE
  5
10D
330
1F
100
AcDbEntity
  8
0
  6
Continuous
 62
     7
370
    25
100
AcDbLine
 10
6110.0187553361
 20
5375.6994545927
 30
0.0
 11
6110.0187553361
 21
5373.6994545927
 31
0.0
  0
LINE
  5
10E
330
1F
100
AcDbEntity
  8
0
  6
Continuous
 62
     7
370
    25
100
AcDbLine
 10
6136.0187553361
 20
5393.6994545927
 30
0.0
 11
6136.0187553361
 21
5376.6994545927
 31
0.0
  0
ARC
  5
10F
330
1F
100
AcDbEntity
  8
0
  6
Continuous
 62
     7
370
    25
100
AcDbCircle
 10
6135.0187553361
 20
5376.6994545927
 30
0.0
 40
1.0
100
AcDbArc
 50
270.0
 51
0.0
  0
ARC
  5
110
330
1F
100
AcDbEntity
  8
0
  6
Continuous
 62
     7
370
    25
100
AcDbCircle
 10
6159.0187553361
 20
5393.6994545927
 30
0.0
 40
3.0
100
AcDbArc
 50
0.0
 51
90.0
  0
ARC
  5
111
330
1F
100
AcDbEntity
  8
0
  6
Continuous
 62
     7
370
    25
100
AcDbCircle
 10
6319.0187553361
 20
5393.6994545927
 30
0.0
 40
1.0
100
AcDbArc
 50
90.0
 51
180.0
  0
ARC
  5
112
330
1F
100
AcDbEntity
  8
0
  6
Continuous
 62
     7
370
    25
100
AcDbCircle
 10
6315.0187553361
 20
5376.6994545927
 30
0.0
 40
3.000000000000909
100
AcDbArc
 50
270.0
 51
0.0
  0
LINE
  5
113
330
1F
100
AcDbEntity
  8
0
  6
Continuous
 62
     7
370
    25
100
AcDbLine
 10
6290.0187553361
 20
5373.6994545927
 30
0.0
 11
6290.0187553361
 21
5375.6994545927
 31
0.0
  0
LINE
  5
114
330
1F
100
AcDbEntity
  8
0
  6
Continuous
 62
     7
370
    25
100
AcDbLine
 10
6290.0187553361
 20
5375.6994545927
 30
0.0
 11
6315.0187553361
 21
5375.6994545927
 31
0.0
  0
ARC
  5
115
330
1F
100
AcDbEntity
  8
0
  6
Continuous
 62
     7
370
    25
100
AcDbCircle
 10
6315.0187553361
 20
5376.6994545927
 30
0.0
 40
1.0
100
AcDbArc
 50
270.0
 51
0.0
  0
LINE
  5
116
330
1F
100
AcDbEntity
  8
0
  6
Continuous
 62
     7
370
    25
100
AcDbLine
 10
6316.0187553361
 20
5376.6994545927
 30
0.0
 11
6316.0187553361
 21
5393.6994545927
 31
0.0
  0
ARC
  5
117
330
1F
100
AcDbEntity
  8
0
  6
Continuous
 62
     7
370
    25
100
AcDbCircle
 10
6319.0187553361
 20
5393.6994545927
 30
0.0
 40
3.0
100
AcDbArc
 50
90.0
 51
180.0
  0
LINE
  5
118
330
1F
100
AcDbEntity
  8
0
  6
Continuous
 62
     7
370
    25
100
AcDbLine
 10
6319.0187553361
 20
5396.6994545927
 30
0.0
 11
6339.0187553361
 21
5396.6994545927
 31
0.0
  0
ARC
  5
119
330
1F
100
AcDbEntity
  8
0
  6
Continuous
 62
     7
370
    25
100
AcDbCircle
 10
6339.0187553361
 20
5393.6994545927
 30
0.0
 40
3.000000000000909
100
AcDbArc
 50
0.0
 51
90.0
  0
LINE
  5
11A
330
1F
100
AcDbEntity
  8
0
  6
Continuous
 62
     7
370
    25
100
AcDbLine
 10
6342.0187553361
 20
5393.6994545927
 30
0.0
 11
6342.0187553361
 21
5376.6994545927
 31
0.0
  0
ARC
  5
11B
330
1F
100
AcDbEntity
  8
0
  6
Continuous
 62
     7
370
    25
100
AcDbCircle
 10
6343.0187553361
 20
5376.6994545927
 30
0.0
 40
1.0
100
AcDbArc
 50
180.0
 51
270.0
  0
LINE
  5
11C
330
1F
100
AcDbEntity
  8
0
  6
Continuous
 62
     7
370
    25
100
AcDbLine
 10
6343.0187553361
 20
5375.6994545927
 30
0.0
 11
6368.0187553361
 21
5375.6994545927
 31
0.0
  0
LINE
  5
11D
330
1F
100
AcDbEntity
  8
0
  6
Continuous
 62
     7
370
    25
100
AcDbLine
 10
6368.0187553361
 20
5375.6994545927
 30
0.0
 11
6368.0187553361
 21
5373.6994545927
 31
0.0
  0
ARC
  5
11E
330
1F
100
AcDbEntity
  8
0
  6
Continuous
 62
     7
370
    25
100
AcDbCircle
 10
6339.0187553361
 20
5393.6994545927
 30
0.0
 40
1.0
100
AcDbArc
 50
0.0
 51
90.0
  0
LINE
  5
11F
330
1F
100
AcDbEntity
  8
0
  6
Continuous
 62
     7
370
    25
100
AcDbLine
 10
6339.0187553361
 20
5394.6994545927
 30
0.0
 11
6319.0187553361
 21
5394.6994545927
 31
0.0
  0
LINE
  5
120
330
1F
100
AcDbEntity
  8
0
  6
Continuous
 62
     7
370
    25
100
AcDbLine
 10
6318.0187553361
 20
5393.6994545927
 30
0.0
 11
6318.0187553361
 21
5376.6994545927
 31
0.0
  0
LINE
  5
121
330
1F
100
AcDbEntity
  8
0
  6
Continuous
 62
     7
370
    25
100
AcDbLine
 10
6340.0187553361
 20
5376.6994545927
 30
0.0
 11
6340.0187553361
 21
5393.6994545927
 31
0.0
  0
ARC
  5
122
330
1F
100
AcDbEntity
  8
0
  6
Continuous
 62
     7
370
    25
100
AcDbCircle
 10
6343.0187553361
 20
5376.6994545927
 30
0.0
 40
3.0
100
AcDbArc
 50
180.0
 51
270.0
  0
LINE
  5
123
330
1F
100
AcDbEntity
  8
0
  6
Continuous
 62
     8
370
    25
100
AcDbLine
 10
6246.5187553361
 20
5158.6994545927
 30
0.0
 11
6231.5187553361
 21
5158.6994545927
 31
0.0
  0
LWPOLYLINE
  5
124
330
1F
100
AcDbEntity
  8
0
  6
Continuous
 62
     8
370
    25
100
AcDbPolyline
 90
       16
 70
   128
 43
0.0
 10
6139.2711459187
 20
5073.8693319739
 10
6138.8596047881
 20
5074.550944534
 10
6138.0710233448
 20
5075.2546852866
 10
6137.0152539542
 20
5075.7577924531
 10
6135.7416632196
 20
5076.0367413016
 10
6134.3098028284
 20
5076.0784884939
 10
6132.7866249809
 20
5075.8810819777
 10
6131.2433517805
 20
5075.4537522624
 10
6129.7521449668
 20
5074.8164808104
 10
6128.382731713
 20
5073.9990657265
 10
6127.1991442609
 20
5073.0397284317
 10
6126.2567258443
 20
5071.9833264716
 10
6125.5995429009
 20
5070.8792560277
 10
6125.2583245747
 20
5069.7791422069
 10
6125.2490258555
 20
5068.7344251088
 10
6125.4340828563
 20
5068.0785390904
  0
LINE
  5
125
330
1F
100
AcDbEntity
  8
0
  6
Continuous
 62
     8
370
    25
100
AcDbLine
 10
6160.9376534041
 20
5062.4673461135
 30
0.0
 11
6160.9376534041
 21
5047.46734714
 31
0.0
  0
LINE
  5
126
330
1F
100
AcDbEntity
  8
0
  6
Continuous
 62
     8
370
    25
100
AcDbLine
 10
6317.0998572681
 20
5062.4673461227
 30
0.0
 11
6317.0998572681
 21
5047.4673461227
 31
0.0
  0
LWPOLYLINE
  5
127
330
1F
100
AcDbEntity
  8
0
  6
Continuous
 62
     8
370
    25
100
AcDbPolyline
 90
       16
 70
   128
 43
0.0
 10
6338.7580144527
 20
5073.8495436406
 10
6339.1779058841
 20
5074.550944534
 10
6339.9664873274
 20
5075.2546852866
 10
6341.022256718
 20
5075.7577924531
 10
6342.2958474526
 20
5076.0367413016
 10
6343.7277078438
 20
5076.0784884939
 10
6345.2508856913
 20
5075.8810819777
 10
6346.7941588917
 20
5075.4537522624
 10
6348.2853657054
 20
5074.8164808104
 10
6349.6547789592
 20
5073.9990657265
 10
6350.8383664113
 20
5073.0397284317
 10
6351.7807848279
 20
5071.9833264716
 10
6352.4379677713
 20
5070.8792560277
 10
6352.7791860975
 20
5069.7791422069
 10
6352.7884848167
 20
5068.7344251088
 10
6352.6033944426
 20
5068.0784591271
  0
LWPOLYLINE
  5
128
330
1F
100
AcDbEntity
  8
0
  6
Continuous
 62
     8
370
    25
100
AcDbPolyline
 90
       16
 70
   128
 43
0.0
 10
6379.0533795623
 20
5170.6066764753
 10
6379.4742219376
 20
5171.3103579495
 10
6380.2628033809
 20
5172.0140987021
 10
6381.3185727715
 20
5172.5172058687
 10
6382.5921635061
 20
5172.7961547171
 10
6384.0240238973
 20
5172.8379019094
 10
6385.5472017448
 20
5172.6404953932
 10
6387.0904749452
 20
5172.2131656779
 10
6388.5816817589
 20
5171.5758942259
 10
6389.9510950127
 20
5170.758479142
 10
6391.1346824648
 20
5169.7991418472
 10
6392.0771008814
 20
5168.7427398871
 10
6392.7342838248
 20
5167.6386694432
 10
6393.075502151
 20
5166.5385556224
 10
6393.0848008702
 20
5165.4938385243
 10
6392.9005547483
 20
5164.8398975331
  0
LWPOLYLINE
  5
129
330
1F
100
AcDbEntity
  8
0
  6
Continuous
 62
     8
370
    25
100
AcDbPolyline
 90
       16
 70
   128
 43
0.0
 10
6098.9841311099
 20
5170.6066764753
 10
6098.5632887346
 20
5171.3103579495
 10
6097.7747072913
 20
5172.0140987021
 10
6096.7189379007
 20
5172.5172058687
 10
6095.4453471661
 20
5172.7961547171
 10
6094.0134867749
 20
5172.8379019094
 10
6092.4903089274
 20
5172.6404953932
 10
6090.947035727
 20
5172.2131656779
 10
6089.4558289133
 20
5171.5758942259
 10
6088.0864156595
 20
5170.758479142
 10
6086.9028282074
 20
5169.7991418472
 10
6085.9604097908
 20
5168.7427398871
 10
6085.3032268474
 20
5167.6386694432
 10
6084.9620085212
 20
5166.5385556224
 10
6084.952709802
 20
5165.4938385243
 10
6085.1369559239
 20
5164.8398975331
  0
LINE
  5
12A
330
1F
100
AcDbEntity
  8
0
  6
Continuous
 62
     8
370
    25
100
AcDbLine
 10
6098.2825515139
 20
5032.9020023699
 30
0.0
 11
6379.7549591583
 21
5032.9020023699
 31
0.0
  0
LINE
  5
12B
330
1F
100
AcDbEntity
  8
0
  6
Continuous
 62
     8
370
    25
100
AcDbLine
 10
6399.0187553361
 20
5363.6994545927
 30
0.0
 11
6079.0187553361
 21
5363.6994545927
 31
0.0
  0
LWPOLYLINE
  5
12C
330
1F
100
AcDbEntity
  8
0
  6
Continuous
 62
     8
370
    25
100
AcDbPolyline
 90
       16
 70
   128
 43
0.0
 10
6098.2480268943
 20
5173.2399496832
 10
6098.1200712691
 20
5173.7585602071
 10
6097.6147341821
 20
5174.7045159012
 10
6096.792272366
 20
5175.5294888344
 10
6095.691143221
 20
5176.1949041892
 10
6094.3628343222
 20
5176.6696478832
 10
6092.8694559175
 20
5176.931521429
 10
6091.2808367212
 20
5176.9682799105
 10
6089.6712588013
 20
5176.778204542
 10
6088.1159842325
 20
5176.3701830365
 10
6086.687735925
 20
5175.7632940261
 10
6085.4532971823
 20
5174.9859149665
 10
6084.470388988
 20
5174.0743952384
 10
6083.7849710369
 20
5173.0713564912
 10
6083.4290927106
 20
5172.0236997021
 10
6083.4132225926
 20
5171.0204518293
  0
LWPOLYLINE
  5
12D
330
1F
100
AcDbEntity
  8
0
  6
Continuous
 62
     8
370
    25
100
AcDbPolyline
 90
       16
 70
   128
 43
0.0
 10
6379.7894012711
 20
5173.2394211912
 10
6379.9174394031
 20
5173.7585602071
 10
6380.4227764901
 20
5174.7045159012
 10
6381.2452383062
 20
5175.5294888344
 10
6382.3463674512
 20
5176.1949041892
 10
6383.67467635
 20
5176.6696478832
 10
6385.1680547547
 20
5176.931521429
 10
6386.756673951
 20
5176.9682799105
 10
6388.3662518709
 20
5176.778204542
 10
6389.9215264397
 20
5176.3701830365
 10
6391.3497747472
 20
5175.7632940261
 10
6392.5842134899
 20
5174.9859149665
 10
6393.5671216842
 20
5174.0743952384
 10
6394.2525396353
 20
5173.0713564912
 10
6394.6084179616
 20
5172.0236997021
 10
6394.6242877829
 20
5171.0204498161
  0
LINE
  5
12E
330
1F
100
AcDbEntity
  8
0
  6
Continuous
 62
     8
370
    25
100
AcDbLine
 10
6489.0187553361
 20
5293.6994545927
 30
0.0
 11
6449.0187553361
 21
5293.6994545927
 31
0.0
  0
LINE
  5
12F
330
1F
100
AcDbEntity
  8
0
  6
Continuous
 62
     8
370
    25
100
AcDbLine
 10
6429.0187553361
 20
5353.6994545927
 30
0.0
 11
6429.0187553361
 21
5313.6994545927
 31
0.0
  0
INSERT
  5
13B
330
1F
100
AcDbEntity
  8
SLD-0
100
AcDbBlockReference
  2
SW_CENTERMARKSYMBOL_0
 10
6239.0187553361
 20
5173.6994545927
 30
0.0
  0
LINE
  5
13C
330
1F
100
AcDbEntity
  8
0
  6
Continuous
 62
     7
370
    25
100
AcDbLine
 10
7350.0175979274
 20
5273.6994545927
 30
0.0
 11
7350.0175979274
 21
5293.6994545927
 31
0.0
  0
LINE
  5
13D
330
1F
100
AcDbEntity
  8
0
  6
Continuous
 62
     7
370
    25
100
AcDbLine
 10
6990.0175979274
 20
5293.6994545927
 30
0.0
 11
6990.0175979274
 21
5273.6994545927
 31
0.0
  0
LINE
  5
13E
330
1F
100
AcDbEntity
  8
0
  6
Continuous
 62
     7
370
    25
100
AcDbLine
 10
7234.9747876952
 20
5195.6994545927
 30
0.0
 11
7258.8079194318
 21
5167.2962342229
 31
0.0
  0
LINE
  5
13F
330
1F
100
AcDbEntity
  8
0
  6
Continuous
 62
     7
370
    25
100
AcDbLine
 10
7270.2985860785
 20
5176.9380483682
 30
0.0
 11
7236.336040356
 21
5217.4130342467
 31
0.0
  0
LINE
  5
140
330
1F
100
AcDbEntity
  8
0
  6
Continuous
 62
     7
370
    25
100
AcDbLine
 10
7010.0175979274
 20
5273.6994545927
 30
0.0
 11
7029.2813941053
 21
5032.9020023699
 31
0.0
  0
LINE
  5
141
330
1F
100
AcDbEntity
  8
0
  6
Continuous
 62
     7
370
    25
100
AcDbLine
 10
7322.8144974715
 20
5183.6606988938
 30
0.0
 11
7330.0175979274
 21
5273.6994545927
 31
0.0
  0
LINE
  5
142
330
1F
100
AcDbEntity
  8
0
  6
Continuous
 62
     7
370
    25
100
AcDbLine
 10
7310.7538017496
 20
5032.9020023699
 30
0.0
 11
7316.0480498158
 21
5099.0801031972
 31
0.0
  0
LINE
  5
143
330
1F
100
AcDbEntity
  8
0
  6
Continuous
 62
     7
370
    25
100
AcDbLine
 10
7317.7524229806
 20
5120.3847677578
 30
0.0
 11
7321.2257797319
 21
5163.801727148
 31
0.0
  0
LINE
  5
144
330
1F
100
AcDbEntity
  8
0
  6
Continuous
 62
     7
370
    25
100
AcDbLine
 10
7330.0175979274
 20
5293.6994545927
 30
0.0
 11
7330.0175979274
 21
5363.6994545927
 31
0.0
  0
LINE
  5
145
330
1F
100
AcDbEntity
  8
0
  6
Continuous
 62
     7
370
    25
100
AcDbLine
 10
7010.0175979274
 20
5363.6994545927
 30
0.0
 11
7010.0175979274
 21
5293.6994545927
 31
0.0
  0
ARC
  5
146
330
1F
100
AcDbEntity
  8
0
  6
Continuous
 62
     7
370
    25
100
AcDbCircle
 10
7320.0175979274
 20
5363.6994545927
 30
0.0
 40
10.0
100
AcDbArc
 50
0.0
 51
90.0
  0
ARC
  5
147
330
1F
100
AcDbEntity
  8
0
  6
Continuous
 62
     7
370
    25
100
AcDbCircle
 10
7020.0175979274
 20
5363.6994545927
 30
0.0
 40
10.0
100
AcDbArc
 50
90.0
 51
180.0
  0
LINE
  5
148
330
1F
100
AcDbEntity
  8
0
  6
Continuous
 62
     7
370
    25
100
AcDbLine
 10
7273.9854675939
 20
5172.5441940769
 30
0.0
 11
7270.2985860785
 21
5176.9380483682
 31
0.0
  0
LINE
  5
149
330
1F
100
AcDbEntity
  8
0
  6
Continuous
 62
     7
370
    25
100
AcDbLine
 10
7258.8079194318
 20
5167.2962342229
 30
0.0
 11
7262.4948009471
 21
5162.9023799316
 31
0.0
  0
LINE
  5
14A
330
1F
100
AcDbEntity
  8
0
  6
Continuous
 62
     7
370
    25
100
AcDbLine
 10
7262.4948009471
 20
5162.9023799316
 30
0.0
 11
7343.685589057
 21
5066.1429665161
 31
0.0
  0
LINE
  5
14B
330
1F
100
AcDbEntity
  8
0
  6
Continuous
 62
     7
370
    25
100
AcDbLine
 10
7355.1762557038
 20
5075.7847806613
 30
0.0
 11
7273.9854675939
 21
5172.5441940769
 31
0.0
  0
ARC
  5
14C
330
1F
100
AcDbEntity
  8
0
  6
Continuous
 62
     7
370
    25
100
AcDbCircle
 10
7039.2495468906
 20
5033.6994545927
 30
0.0
 40
10.00000000000052
100
AcDbArc
 50
184.5739212599
 51
270.0
  0
ARC
  5
14D
330
1F
100
AcDbEntity
  8
0
  6
Continuous
 62
     7
370
    25
100
AcDbCircle
 10
7300.7856489643
 20
5033.6994545927
 30
0.0
 40
10.0
100
AcDbArc
 50
270.0
 51
355.4260787401
  0
LINE
  5
14E
330
1F
100
AcDbEntity
  8
0
  6
Continuous
 62
     7
370
    25
100
AcDbLine
 10
7368.5989360006
 20
5059.7882531954
 30
0.0
 11
7355.1762557038
 21
5075.7847806613
 31
0.0
  0
LINE
  5
14F
330
1F
100
AcDbEntity
  8
0
  6
Continuous
 62
     7
370
    25
100
AcDbLine
 10
7343.685589057
 20
5066.1429665161
 30
0.0
 11
7357.1082693538
 21
5050.1464390501
 31
0.0
  0
LINE
  5
150
330
1F
100
AcDbEntity
  8
0
  6
Continuous
 62
     7
370
    25
100
AcDbLine
 10
7198.0175979274
 20
5393.6994545927
 30
0.0
 11
7198.0175979274
 21
5403.6994545927
 31
0.0
  0
LINE
  5
151
330
1F
100
AcDbEntity
  8
0
  6
Continuous
 62
     7
370
    25
100
AcDbLine
 10
7142.0175979274
 20
5403.6994545927
 30
0.0
 11
7142.0175979274
 21
5393.6994545927
 31
0.0
  0
LINE
  5
152
330
1F
100
AcDbEntity
  8
0
  6
Continuous
 62
     7
370
    25
100
AcDbLine
 10
7340.0175979274
 20
5161.1994545927
 30
0.0
 11
7370.0175979274
 21
5161.1994545927
 31
0.0
  0
LINE
  5
153
330
1F
100
AcDbEntity
  8
0
  6
Continuous
 62
     7
370
    25
100
AcDbLine
 10
7348.9512692931
 20
5186.1994545927
 30
0.0
 11
7340.0175979274
 21
5186.1994545927
 31
0.0
  0
LINE
  5
154
330
1F
100
AcDbEntity
  8
0
  6
Continuous
 62
     7
370
    25
100
AcDbLine
 10
7370.0175979274
 20
5186.1994545927
 30
0.0
 11
7363.9231382285
 21
5186.1994545927
 31
0.0
  0
LINE
  5
155
330
1F
100
AcDbEntity
  8
0
  6
Continuous
 62
     7
370
    25
100
AcDbLine
 10
7387.5175979274
 20
5153.6994545927
 30
0.0
 11
7387.5175979274
 21
5146.6994545927
 31
0.0
  0
LINE
  5
156
330
1F
100
AcDbEntity
  8
0
  6
Continuous
 62
     7
370
    25
100
AcDbLine
 10
7412.5175979274
 20
5146.6994545927
 30
0.0
 11
7412.5175979274
 21
5153.6994545927
 31
0.0
  0
LINE
  5
157
330
1F
100
AcDbEntity
  8
0
  6
Continuous
 62
     7
370
    25
100
AcDbLine
 10
7348.4512692931
 20
5206.1994545927
 30
0.0
 11
7344.4320314066
 21
5191.1994545927
 31
0.0
  0
LINE
  5
158
330
1F
100
AcDbEntity
  8
0
  6
Continuous
 62
     7
370
    25
100
AcDbLine
 10
7368.4705071796
 20
5191.1994545927
 30
0.0
 11
7364.4512692931
 21
5206.1994545927
 31
0.0
  0
LINE
  5
159
330
1F
100
AcDbEntity
  8
0
  6
Continuous
 62
     7
370
    25
100
AcDbLine
 10
7321.2190996875
 20
5163.6994545927
 30
0.0
 11
7340.0175979274
 21
5163.6994545927
 31
0.0
  0
LINE
  5
15A
330
1F
100
AcDbEntity
  8
0
  6
Continuous
 62
     7
370
    25
100
AcDbLine
 10
7340.0175979274
 20
5183.6994545927
 30
0.0
 11
7322.8121559168
 21
5183.6994545927
 31
0.0
  0
LINE
  5
15B
330
1F
100
AcDbEntity
  8
0
  6
Continuous
 62
     7
370
    25
100
AcDbLine
 10
7363.9512692931
 20
5186.1829190371
 30
0.0
 11
7363.9512692931
 21
5191.1994545927
 31
0.0
  0
LINE
  5
15C
330
1F
100
AcDbEntity
  8
0
  6
Continuous
 62
     7
370
    25
100
AcDbLine
 10
7348.9512692931
 20
5191.1994545927
 30
0.0
 11
7348.9512692931
 21
5186.1994545927
 31
0.0
  0
LINE
  5
15D
330
1F
100
AcDbEntity
  8
0
  6
Continuous
 62
     7
370
    25
100
AcDbLine
 10
7370.0175979274
 20
5166.1994545927
 30
0.0
 11
7385.0175979274
 21
5166.1994545927
 31
0.0
  0
LINE
  5
15E
330
1F
100
AcDbEntity
  8
0
  6
Continuous
 62
     7
370
    25
100
AcDbLine
 10
7385.0175979274
 20
5181.1994545927
 30
0.0
 11
7370.0175979274
 21
5181.1994545927
 31
0.0
  0
ARC
  5
15F
330
1F
100
AcDbEntity
  8
0
  6
Continuous
 62
     7
370
    25
100
AcDbCircle
 10
7385.0175979274
 20
5158.6994545927
 30
0.0
 40
7.5
100
AcDbArc
 50
0.0
 51
90.0
  0
ARC
  5
160
330
1F
100
AcDbEntity
  8
0
  6
Continuous
 62
     7
370
    25
100
AcDbCircle
 10
7385.0175979274
 20
5158.6994545927
 30
0.0
 40
22.5
100
AcDbArc
 50
0.0
 51
90.0
  0
LINE
  5
161
330
1F
100
AcDbEntity
  8
0
  6
Continuous
 62
     7
370
    25
100
AcDbLine
 10
7407.5175979274
 20
5153.6994545927
 30
0.0
 11
7407.5175979274
 21
5158.6994545927
 31
0.0
  0
LINE
  5
162
330
1F
100
AcDbEntity
  8
0
  6
Continuous
 62
     7
370
    25
100
AcDbLine
 10
7392.5175979274
 20
5158.6994545927
 30
0.0
 11
7392.5175979274
 21
5153.6994545927
 31
0.0
  0
LINE
  5
163
330
1F
100
AcDbEntity
  8
0
  6
Continuous
 62
     7
370
    25
100
AcDbLine
 10
7394.0175979274
 20
5146.6994545927
 30
0.0
 11
7394.0175979274
 21
5126.6994545927
 31
0.0
  0
LINE
  5
164
330
1F
100
AcDbEntity
  8
0
  6
Continuous
 62
     7
370
    25
100
AcDbLine
 10
7406.0175979274
 20
5126.6994545927
 30
0.0
 11
7406.0175979274
 21
5146.6994545927
 31
0.0
  0
LINE
  5
165
330
1F
100
AcDbEntity
  8
0
  6
Continuous
 62
     7
370
    25
100
AcDbLine
 10
7245.0175979274
 20
5198.6994545927
 30
0.0
 11
7095.0175979274
 21
5198.6994545927
 31
0.0
  0
LINE
  5
166
330
1F
100
AcDbEntity
  8
0
  6
Continuous
 62
     7
370
    25
100
AcDbLine
 10
7245.0175979274
 20
5198.6994545927
 30
0.0
 11
7245.0175979274
 21
5195.6994545927
 31
0.0
  0
LINE
  5
167
330
1F
100
AcDbEntity
  8
0
  6
Continuous
 62
     7
370
    25
100
AcDbLine
 10
7245.0175979274
 20
5195.6994545927
 30
0.0
 11
7095.0175979274
 21
5195.6994545927
 31
0.0
  0
LINE
  5
168
330
1F
100
AcDbEntity
  8
0
  6
Continuous
 62
     7
370
    25
100
AcDbLine
 10
7095.0175979274
 20
5198.6994545927
 30
0.0
 11
7095.0175979274
 21
5195.6994545927
 31
0.0
  0
LINE
  5
169
330
1F
100
AcDbEntity
  8
0
  6
Continuous
 62
     7
370
    25
100
AcDbLine
 10
7095.0175979274
 20
5198.6994545927
 30
0.0
 11
7138.6258453501
 21
5292.6994545927
 31
0.0
  0
LINE
  5
16A
330
1F
100
AcDbEntity
  8
0
  6
Continuous
 62
     7
370
    25
100
AcDbLine
 10
7201.4093505048
 20
5292.6994545927
 30
0.0
 11
7138.6258453501
 21
5292.6994545927
 31
0.0
  0
LINE
  5
16B
330
1F
100
AcDbEntity
  8
0
  6
Continuous
 62
     7
370
    25
100
AcDbLine
 10
7201.4093505048
 20
5292.6994545927
 30
0.0
 11
7245.0175979274
 21
5198.6994545927
 31
0.0
  0
LINE
  5
16C
330
1F
100
AcDbEntity
  8
0
  6
Continuous
 62
     7
370
    25
100
AcDbLine
 10
7200.0175979274
 20
5295.6994545927
 30
0.0
 11
7140.0175979274
 21
5295.6994545927
 31
0.0
  0
LINE
  5
16D
330
1F
100
AcDbEntity
  8
0
  6
Continuous
 62
     7
370
    25
100
AcDbLine
 10
7201.4093505048
 20
5292.6994545927
 30
0.0
 11
7200.0175979274
 21
5295.6994545927
 31
0.0
  0
LINE
  5
16E
330
1F
100
AcDbEntity
  8
0
  6
Continuous
 62
     7
370
    25
100
AcDbLine
 10
7140.0175979274
 20
5295.6994545927
 30
0.0
 11
7138.6258453501
 21
5292.6994545927
 31
0.0
  0
LINE
  5
16F
330
1F
100
AcDbEntity
  8
0
  6
Continuous
 62
     7
370
    25
100
AcDbLine
 10
7139.0897628759
 20
5293.6994545927
 30
0.0
 11
6990.0175979274
 21
5293.6994545927
 31
0.0
  0
LINE
  5
170
330
1F
100
AcDbEntity
  8
0
  6
Continuous
 62
     7
370
    25
100
AcDbLine
 10
7350.0175979274
 20
5293.6994545927
 30
0.0
 11
7200.945432979
 21
5293.6994545927
 31
0.0
  0
LINE
  5
171
330
1F
100
AcDbEntity
  8
0
  6
Continuous
 62
     7
370
    25
100
AcDbLine
 10
7350.0175979274
 20
5273.6994545927
 30
0.0
 11
7210.2237834945
 21
5273.6994545927
 31
0.0
  0
LINE
  5
172
330
1F
100
AcDbEntity
  8
0
  6
Continuous
 62
     7
370
    25
100
AcDbLine
 10
7129.8114123604
 20
5273.6994545927
 30
0.0
 11
6990.0175979274
 21
5273.6994545927
 31
0.0
  0
SPLINE
  5
173
330
1F
100
AcDbEntity
  8
0
  6
Continuous
 62
     7
370
    25
100
AcDbSpline
210
0.0
220
0.0
230
1.0
 70
     8
 71
     3
 72
     9
 73
     5
 74
     0
 42
0.000000001
 43
0.00000001
 40
0.0
 40
0.0
 40
0.0
 40
0.0
 40
0.567650399647307
 40
1.0
 40
1.0
 40
1.0
 40
1.0
 10
7321.251211637526
 20
5165.416623920174
 30
0.0
 10
7321.23936209119
 20
5164.851045585327
 30
0.0
 10
7321.218487365579
 20
5163.854695833442
 30
0.0
 10
7321.218923339513
 20
5163.818087973563
 30
0.0
 10
7321.219111832668
 20
5163.802260579973
 30
0.0
  0
SPLINE
  5
174
330
1F
100
AcDbEntity
  8
0
  6
Continuous
 62
     7
370
    25
100
AcDbSpline
210
0.0
220
0.0
230
1.0
 70
     8
 71
     3
 72
    15
 73
    11
 74
     0
 42
0.000000001
 43
0.00000001
 40
0.0
 40
0.0
 40
0.0
 40
0.0
 40
0.1212032047815052
 40
0.2521192874799345
 40
0.3839907406054964
 40
0.5170013673404619
 40
0.6503802817391459
 40
0.7832862850158995
 40
0.9155641052152145
 40
0.9999999999999999
 40
0.9999999999999999
 40
0.9999999999999999
 40
0.9999999999999999
 10
7322.812044496492
 20
5183.660895131779
 30
0.0
 10
7322.800586657366
 20
5183.583246109104
 30
0.0
 10
7322.776752780679
 20
5183.421725493327
 30
0.0
 10
7322.552375292421
 20
5181.829695356178
 30
0.0
 10
7322.241681510694
 20
5179.384331610764
 30
0.0
 10
7321.903001387644
 20
5176.261069836622
 30
0.0
 10
7321.608661285343
 20
5172.83722521267
 30
0.0
 10
7321.400234516627
 20
5169.524342678927
 30
0.0
 10
7321.294160274393
 20
5166.982882767143
 30
0.0
 10
7321.263253514607
 20
5165.855769324711
 30
0.0
 10
7321.251211637526
 20
5165.416623920174
 30
0.0
  0
LINE
  5
175
330
1F
100
AcDbEntity
  8
0
  6
Continuous
 62
     7
370
    25
100
AcDbLine
 10
7058.2141990525
 20
5373.6994545927
 30
0.0
 11
7320.0175979274
 21
5373.6994545927
 31
0.0
  0
LINE
  5
176
330
1F
100
AcDbEntity
  8
0
  6
Continuous
 62
     7
370
    25
100
AcDbLine
 10
7300.7856489643
 20
5023.6994545927
 30
0.0
 11
7039.249546893
 21
5023.6994545927
 31
0.0
  0
LINE
  5
177
330
1F
100
AcDbEntity
  8
0
  6
Continuous
 62
     7
370
    25
100
AcDbLine
 10
7182.5175979274
 20
5375.6994545927
 30
0.0
 11
7182.5175979274
 21
5373.6994545927
 31
0.0
  0
LINE
  5
178
330
1F
100
AcDbEntity
  8
0
  6
Continuous
 62
     7
370
    25
100
AcDbLine
 10
7182.5175979274
 20
5375.6994545927
 30
0.0
 11
7157.5175979274
 21
5375.6994545927
 31
0.0
  0
LINE
  5
179
330
1F
100
AcDbEntity
  8
0
  6
Continuous
 62
     7
370
    25
100
AcDbLine
 10
7157.5175979274
 20
5375.6994545927
 30
0.0
 11
7157.5175979274
 21
5373.6994545927
 31
0.0
  0
ARC
  5
17A
330
1F
100
AcDbEntity
  8
0
  6
Continuous
 62
     7
370
    25
100
AcDbCircle
 10
7362.8536026772
 20
5054.9673461227
 30
0.0
 40
7.500000000000616
100
AcDbArc
 50
220.0
 51
40.0
  0
LINE
  5
17B
330
1F
100
AcDbEntity
  8
0
  6
Continuous
 62
     7
370
    25
100
AcDbLine
 10
7182.5175979274
 20
5376.6994545927
 30
0.0
 11
7157.5175979274
 21
5376.6994545927
 31
0.0
  0
LINE
  5
17C
330
1F
100
AcDbEntity
  8
0
  6
Continuous
 62
     7
370
    25
100
AcDbLine
 10
7182.5175979274
 20
5376.6994545927
 30
0.0
 11
7182.5175979274
 21
5375.6994545927
 31
0.0
  0
LINE
  5
17D
330
1F
100
AcDbEntity
  8
0
  6
Continuous
 62
     7
370
    25
100
AcDbLine
 10
7157.5175979274
 20
5376.6994545927
 30
0.0
 11
7157.5175979274
 21
5375.6994545927
 31
0.0
  0
LINE
  5
17E
330
1F
100
AcDbEntity
  8
0
  6
Continuous
 62
     7
370
    25
100
AcDbLine
 10
7182.5175979274
 20
5393.6994545927
 30
0.0
 11
7157.5175979274
 21
5393.6994545927
 31
0.0
  0
LINE
  5
17F
330
1F
100
AcDbEntity
  8
0
  6
Continuous
 62
     7
370
    25
100
AcDbLine
 10
7182.5175979274
 20
5393.6994545927
 30
0.0
 11
7182.5175979274
 21
5376.6994545927
 31
0.0
  0
LINE
  5
180
330
1F
100
AcDbEntity
  8
0
  6
Continuous
 62
     7
370
    25
100
AcDbLine
 10
7157.5175979274
 20
5393.6994545927
 30
0.0
 11
7157.5175979274
 21
5376.6994545927
 31
0.0
  0
LINE
  5
181
330
1F
100
AcDbEntity
  8
0
  6
Continuous
 62
     7
370
    25
100
AcDbLine
 10
7182.5175979274
 20
5396.6994545927
 30
0.0
 11
7157.5175979274
 21
5396.6994545927
 31
0.0
  0
LINE
  5
182
330
1F
100
AcDbEntity
  8
0
  6
Continuous
 62
     7
370
    25
100
AcDbLine
 10
7182.5175979274
 20
5396.6994545927
 30
0.0
 11
7182.5175979274
 21
5393.6994545927
 31
0.0
  0
LINE
  5
183
330
1F
100
AcDbEntity
  8
0
  6
Continuous
 62
     7
370
    25
100
AcDbLine
 10
7157.5175979274
 20
5396.6994545927
 30
0.0
 11
7157.5175979274
 21
5393.6994545927
 31
0.0
  0
ARC
  5
184
330
1F
100
AcDbEntity
  8
0
  6
Continuous
 62
     7
370
    25
100
AcDbCircle
 10
6970.0175979274
 20
5303.6994545927
 30
0.0
 40
70.0
100
AcDbArc
 50
90.0
 51
180.0
  0
LINE
  5
185
330
1F
100
AcDbEntity
  8
0
  6
Continuous
 62
     7
370
    25
100
AcDbLine
 10
6900.0175979274
 20
5303.6994545927
 30
0.0
 11
6900.0175979274
 21
5073.6994545927
 31
0.0
  0
LINE
  5
186
330
1F
100
AcDbEntity
  8
0
  6
Continuous
 62
     7
370
    25
100
AcDbLine
 10
6900.0175979274
 20
5073.6994545927
 30
0.0
 11
6880.0175979274
 21
5073.6994545927
 31
0.0
  0
LINE
  5
187
330
1F
100
AcDbEntity
  8
0
  6
Continuous
 62
     7
370
    25
100
AcDbLine
 10
6880.0175979274
 20
5303.6994545927
 30
0.0
 11
6880.0175979274
 21
5073.6994545927
 31
0.0
  0
ARC
  5
188
330
1F
100
AcDbEntity
  8
0
  6
Continuous
 62
     7
370
    25
100
AcDbCircle
 10
6970.0175979274
 20
5303.6994545927
 30
0.0
 40
90.0
100
AcDbArc
 50
90.0
 51
180.0
  0
LINE
  5
189
330
1F
100
AcDbEntity
  8
0
  6
Continuous
 62
     7
370
    25
100
AcDbLine
 10
6970.0175979274
 20
5393.6994545927
 30
0.0
 11
7157.5175979274
 21
5393.6994545927
 31
0.0
  0
LINE
  5
18A
330
1F
100
AcDbEntity
  8
0
  6
Continuous
 62
     7
370
    25
100
AcDbLine
 10
7182.5175979274
 20
5393.6994545927
 30
0.0
 11
7270.0175979274
 21
5393.6994545927
 31
0.0
  0
LINE
  5
18B
330
1F
100
AcDbEntity
  8
0
  6
Continuous
 62
     7
370
    25
100
AcDbLine
 10
7270.0175979274
 20
5393.6994545927
 30
0.0
 11
7270.0175979274
 21
5373.6994545927
 31
0.0
  0
LINE
  5
18C
330
1F
100
AcDbEntity
  8
0
  6
Continuous
 62
     7
370
    25
100
AcDbLine
 10
6970.0175979274
 20
5373.6994545927
 30
0.0
 11
7058.2141990525
 21
5373.6994545927
 31
0.0
  0
LINE
  5
18D
330
1F
100
AcDbEntity
  8
0
  6
Continuous
 62
     7
370
    25
100
AcDbLine
 10
7198.0175979274
 20
5403.6994545927
 30
0.0
 11
7142.0175979274
 21
5403.6994545927
 31
0.0
  0
LINE
  5
18E
330
1F
100
AcDbEntity
  8
0
  6
Continuous
 62
     7
370
    25
100
AcDbLine
 10
7357.9512692931
 20
5191.1994545927
 30
0.0
 11
7357.9512692931
 21
5196.1994545927
 31
0.0
  0
LINE
  5
18F
330
1F
100
AcDbEntity
  8
0
  6
Continuous
 62
     7
370
    25
100
AcDbLine
 10
7354.9512692931
 20
5191.1994545927
 30
0.0
 11
7354.9512692931
 21
5196.1994545927
 31
0.0
  0
LINE
  5
190
330
1F
100
AcDbEntity
  8
0
  6
Continuous
 62
     7
370
    25
100
AcDbLine
 10
7354.9512692931
 20
5196.1994545927
 30
0.0
 11
7357.9512692931
 21
5196.1994545927
 31
0.0
  0
LINE
  5
191
330
1F
100
AcDbEntity
  8
0
  6
Continuous
 62
     7
370
    25
100
AcDbLine
 10
7357.9512692931
 20
5191.1994545927
 30
0.0
 11
7354.9512692931
 21
5191.1994545927
 31
0.0
  0
LINE
  5
192
330
1F
100
AcDbEntity
  8
0
  6
Continuous
 62
     7
370
    25
100
AcDbLine
 10
7354.9512692931
 20
5196.1994545927
 30
0.0
 11
7354.9512692931
 21
5206.1994545927
 31
0.0
  0
LINE
  5
193
330
1F
100
AcDbEntity
  8
0
  6
Continuous
 62
     7
370
    25
100
AcDbLine
 10
7354.9512692931
 20
5206.1994545927
 30
0.0
 11
7357.9512692931
 21
5206.1994545927
 31
0.0
  0
LINE
  5
194
330
1F
100
AcDbEntity
  8
0
  6
Continuous
 62
     7
370
    25
100
AcDbLine
 10
7357.9512692931
 20
5196.1994545927
 30
0.0
 11
7357.9512692931
 21
5206.1994545927
 31
0.0
  0
SPLINE
  5
195
330
1F
100
AcDbEntity
  8
0
  6
Continuous
 62
     7
370
    25
100
AcDbSpline
210
0.0
220
0.0
230
1.0
 70
     8
 71
     3
 72
    18
 73
    14
 74
     0
 42
0.000000001
 43
0.00000001
 40
0.0
 40
0.0
 40
0.0
 40
0.0
 40
0.0952644983920513
 40
0.1902434867486966
 40
0.2925622939669624
 40
0.4072597249216727
 40
0.4941847543560094
 40
0.5812477590452676
 40
0.667328953326312
 40
0.7685083064180319
 40
0.8836540644330111
 40
0.9913667965877127
 40
1.0
 40
1.0
 40
1.0
 40
1.0
 10
7348.951269293099
 20
5186.199454592719
 30
0.0
 10
7349.02092638146
 20
5186.157025232831
 30
0.0
 10
7349.160031794184
 20
5186.072293674886
 30
0.0
 10
7350.228480211451
 20
5185.460327775118
 30
0.0
 10
7351.875219845935
 20
5184.649418121108
 30
0.0
 10
7353.993862423012
 20
5183.912166931244
 30
0.0
 10
7356.307575518409
 20
5183.622814302401
 30
0.0
 10
7358.414739736568
 20
5183.826228812048
 30
0.0
 10
7360.396958240501
 20
5184.401595748827
 30
0.0
 10
7362.215306851265
 20
5185.212733469684
 30
0.0
 10
7363.498555224795
 20
5185.924979731276
 30
0.0
 10
7364.05580635807
 20
5186.261486214948
 30
0.0
 10
7363.932302565505
 20
5186.188196903735
 30
0.0
 10
7363.923138228494
 20
5186.182758625821
 30
0.0
  0
LINE
  5
196
330
1F
100
AcDbEntity
  8
0
  6
Continuous
 62
     7
370
    25
100
AcDbLine
 10
7370.0175979274
 20
5186.1994545927
 30
0.0
 11
7370.0175979274
 21
5161.1994545927
 31
0.0
  0
LINE
  5
197
330
1F
100
AcDbEntity
  8
0
  6
Continuous
 62
     7
370
    25
100
AcDbLine
 10
7340.0175979274
 20
5186.1994545927
 30
0.0
 11
7340.0175979274
 21
5161.1994545927
 31
0.0
  0
LINE
  5
198
330
1F
100
AcDbEntity
  8
0
  6
Continuous
 62
     7
370
    25
100
AcDbLine
 10
7412.5175979274
 20
5153.6994545927
 30
0.0
 11
7387.5175979274
 21
5153.6994545927
 31
0.0
  0
LINE
  5
199
330
1F
100
AcDbEntity
  8
0
  6
Continuous
 62
     7
370
    25
100
AcDbLine
 10
7412.5175979274
 20
5146.6994545927
 30
0.0
 11
7387.5175979274
 21
5146.6994545927
 31
0.0
  0
LINE
  5
19A
330
1F
100
AcDbEntity
  8
0
  6
Continuous
 62
     7
370
    25
100
AcDbLine
 10
7348.4512692931
 20
5206.1994545927
 30
0.0
 11
7354.9512692931
 21
5206.1994545927
 31
0.0
  0
LINE
  5
19B
330
1F
100
AcDbEntity
  8
0
  6
Continuous
 62
     7
370
    25
100
AcDbLine
 10
7344.4320314066
 20
5191.1994545927
 30
0.0
 11
7354.9512692931
 21
5191.1994545927
 31
0.0
  0
LINE
  5
19C
330
1F
100
AcDbEntity
  8
0
  6
Continuous
 62
     7
370
    25
100
AcDbLine
 10
7357.9512692931
 20
5206.1994545927
 30
0.0
 11
7364.4512692931
 21
5206.1994545927
 31
0.0
  0
LINE
  5
19D
330
1F
100
AcDbEntity
  8
0
  6
Continuous
 62
     7
370
    25
100
AcDbLine
 10
7357.9512692931
 20
5191.1994545927
 30
0.0
 11
7368.4705071796
 21
5191.1994545927
 31
0.0
  0
LINE
  5
19E
330
1F
100
AcDbEntity
  8
0
  6
Continuous
 62
     7
370
    25
100
AcDbLine
 10
7406.0175979274
 20
5126.6994545927
 30
0.0
 11
7394.0175979274
 21
5126.6994545927
 31
0.0
  0
LWPOLYLINE
  5
19F
330
1F
100
AcDbEntity
  8
0
  6
Continuous
 62
     8
370
    25
100
AcDbPolyline
 90
       16
 70
   128
 43
0.0
 10
7270.2985860785
 20
5176.9380483682
 10
7270.313093011
 20
5176.778204542
 10
7270.1013692541
 20
5176.3701830365
 10
7269.630221736
 20
5175.7632940261
 10
7268.921680791
 20
5174.9859149665
 10
7268.0088770062
 20
5174.0743952384
 10
7266.9344920721
 20
5173.0713564912
 10
7265.748763034
 20
5172.0236997021
 10
7264.5071332641
 20
5170.980412138
 10
7263.2676599903
 20
5169.990276766
 10
7262.0882996053
 20
5169.0995912155
 10
7261.02419769
 20
5168.350002953
 10
7260.1251104673
 20
5167.7765618925
 10
7259.4330782565
 20
5167.4060815007
 10
7258.9804597145
 20
5167.2558850289
 10
7258.8079194318
 20
5167.2962342229
  0
LINE
  5
1A0
330
1F
100
AcDbEntity
  8
0
  6
Continuous
 62
     8
370
    25
100
AcDbLine
 10
7029.2813941053
 20
5032.9020023699
 30
0.0
 11
7310.7538017496
 21
5032.9020023699
 31
0.0
  0
LINE
  5
1A1
330
1F
100
AcDbEntity
  8
0
  6
Continuous
 62
     8
370
    25
100
AcDbLine
 10
7330.0175979274
 20
5363.6994545927
 30
0.0
 11
7010.0175979274
 21
5363.6994545927
 31
0.0
  0
LWPOLYLINE
  5
1A2
330
1F
100
AcDbEntity
  8
0
  6
Continuous
 62
     8
370
    25
100
AcDbPolyline
 90
       16
 70
   128
 43
0.0
 10
7273.9854675939
 20
5172.5441940769
 10
7274.1436154382
 20
5172.2131656779
 10
7274.1242552269
 20
5171.5758942259
 10
7273.8297600594
 20
5170.758479142
 10
7273.2739002024
 20
5169.7991418472
 10
7272.482667045
 20
5168.7427398871
 10
7271.4930577704
 20
5167.6386694432
 10
7270.3513454083
 20
5166.5385556224
 10
7269.1109151598
 20
5165.4938385243
 10
7267.8297681647
 20
5164.5533679593
 10
7266.5678094327
 20
5163.7611192856
 10
7265.3840467514
 20
5163.1541371709
 10
7264.3338315482
 20
5162.7608034242
 10
7263.4662707187
 20
5162.5995098942
 10
7262.8219304432
 20
5162.6777984872
 10
7262.4948009471
 20
5162.9023799316
  0
LWPOLYLINE
  5
1A3
330
1F
100
AcDbEntity
  8
0
  6
Continuous
 62
     8
370
    25
100
AcDbPolyline
 90
       16
 70
   128
 43
0.0
 10
7355.1762557038
 20
5075.7847806613
 10
7355.3344035481
 20
5075.4537522624
 10
7355.3150433368
 20
5074.8164808104
 10
7355.0205481692
 20
5073.9990657265
 10
7354.4646883122
 20
5073.0397284317
 10
7353.6734551549
 20
5071.9833264716
 10
7352.6838458803
 20
5070.8792560277
 10
7351.5421335182
 20
5069.7791422069
 10
7350.3017032697
 20
5068.7344251088
 10
7349.0205562746
 20
5067.7939545438
 10
7347.7585975426
 20
5067.0017058701
 10
7346.5748348613
 20
5066.3947237554
 10
7345.5246196581
 20
5066.0013900087
 10
7344.6570588286
 20
5065.8400964787
 10
7344.012718553
 20
5065.9183850717
 10
7343.685589057
 20
5066.1429665161
  0
LINE
  5
1A4
330
1F
100
AcDbEntity
  8
0
  6
Continuous
 62
     8
370
    25
100
AcDbLine
 10
7385.0175979274
 20
5181.1994545927
 30
0.0
 11
7385.0175979274
 21
5166.1994545927
 31
0.0
  0
LINE
  5
1A5
330
1F
100
AcDbEntity
  8
0
  6
Continuous
 62
     8
370
    25
100
AcDbLine
 10
7407.5175979274
 20
5158.6994545927
 30
0.0
 11
7392.5175979274
 21
5158.6994545927
 31
0.0
  0
INSERT
  5
1B1
330
1F
100
AcDbEntity
  8
SLD-0
100
AcDbBlockReference
  2
SW_CENTERMARKSYMBOL_1
 10
7362.8536026772
 20
5054.9673461227
 30
0.0
  0
LINE
  5
1B2
330
1F
100
AcDbEntity
  8
0
  6
Continuous
 62
     7
370
    25
100
AcDbLine
 10
6397.763834
 20
4332.2880794226
 30
0.0
 11
6429.0187553361
 21
4332.2880794226
 31
0.0
  0
LINE
  5
1B3
330
1F
100
AcDbEntity
  8
0
  6
Continuous
 62
     7
370
    25
100
AcDbLine
 10
6429.0187553361
 20
4372.2880794226
 30
0.0
 11
6397.7713021722
 21
4372.2880794226
 31
0.0
  0
LINE
  5
1B4
330
1F
100
AcDbEntity
  8
0
  6
Continuous
 62
     7
370
    25
100
AcDbLine
 10
6429.0187553361
 20
4332.2880794226
 30
0.0
 11
6469.0187553361
 21
4332.2880794226
 31
0.0
  0
LINE
  5
1B5
330
1F
100
AcDbEntity
  8
0
  6
Continuous
 62
     7
370
    25
100
AcDbLine
 10
6469.0187553361
 20
4372.2880794226
 30
0.0
 11
6429.0187553361
 21
4372.2880794226
 31
0.0
  0
LINE
  5
1B6
330
1F
100
AcDbEntity
  8
0
  6
Continuous
 62
     7
370
    25
100
AcDbLine
 10
6394.5907176766
 20
4256.4486794187
 30
0.0
 11
6395.9440033453
 21
4264.1151440215
 31
0.0
  0
LINE
  5
1B7
330
1F
100
AcDbEntity
  8
0
  6
Continuous
 62
     7
370
    25
100
AcDbLine
 10
6082.0935073269
 20
4264.1151440215
 30
0.0
 11
6083.4467929956
 21
4256.4486794187
 31
0.0
  0
LINE
  5
1B8
330
1F
100
AcDbEntity
  8
0
  6
Continuous
 62
     7
370
    25
100
AcDbLine
 10
6226.5187553361
 20
4172.7226317441
 30
0.0
 11
6226.5187553361
 21
4167.354408057
 31
0.0
  0
LINE
  5
1B9
330
1F
100
AcDbEntity
  8
0
  6
Continuous
 62
     7
370
    25
100
AcDbLine
 10
6226.5187553361
 20
4164.354408057
 30
0.0
 11
6226.5187553361
 21
4152.2880794226
 31
0.0
  0
LINE
  5
1BA
330
1F
100
AcDbEntity
  8
0
  6
Continuous
 62
     7
370
    25
100
AcDbLine
 10
6251.5187553361
 20
4152.2880794226
 30
0.0
 11
6251.5187553361
 21
4164.354408057
 31
0.0
  0
LINE
  5
1BB
330
1F
100
AcDbEntity
  8
0
  6
Continuous
 62
     7
370
    25
100
AcDbLine
 10
6251.5187553361
 20
4167.354408057
 30
0.0
 11
6251.5187553361
 21
4172.7226317441
 31
0.0
  0
LINE
  5
1BC
330
1F
100
AcDbEntity
  8
0
  6
Continuous
 62
     7
370
    25
100
AcDbLine
 10
6231.5187553361
 20
4152.2880794226
 30
0.0
 11
6231.5187553361
 21
4137.2880794226
 31
0.0
  0
LINE
  5
1BD
330
1F
100
AcDbEntity
  8
0
  6
Continuous
 62
     7
370
    25
100
AcDbLine
 10
6246.5187553361
 20
4137.2880794226
 30
0.0
 11
6246.5187553361
 21
4152.2880794226
 31
0.0
  0
LINE
  5
1BE
330
1F
100
AcDbEntity
  8
0
  6
Continuous
 62
     7
370
    25
100
AcDbLine
 10
6231.5187553361
 20
4137.2880794226
 30
0.0
 11
6231.5187553361
 21
4122.2880794226
 31
0.0
  0
LINE
  5
1BF
330
1F
100
AcDbEntity
  8
0
  6
Continuous
 62
     7
370
    25
100
AcDbLine
 10
6246.5187553361
 20
4122.2880794226
 30
0.0
 11
6246.5187553361
 21
4137.2880794226
 31
0.0
  0
SPLINE
  5
1C0
330
1F
100
AcDbEntity
  8
0
  6
Continuous
 62
     7
370
    25
100
AcDbSpline
210
0.0
220
0.0
230
1.0
 70
     8
 71
     3
 72
    10
 73
     6
 74
     0
 42
0.000000001
 43
0.00000001
 40
0.0
 40
0.0
 40
0.0
 40
0.0
 40
0.2736621425588213
 40
0.7080785846916019
 40
1.0
 40
1.0
 40
1.0
 40
1.0
 10
6392.695040671757
 20
4250.731253316053
 30
0.0
 10
6392.930112426637
 20
4251.233645094258
 30
0.0
 10
6393.538341515028
 20
4252.533543048522
 30
0.0
 10
6394.182641211784
 20
4254.448469761793
 30
0.0
 10
6394.473727571671
 20
4255.875245864435
 30
0.0
 10
6394.5907176766
 20
4256.448679418729
 30
0.0
  0
SPLINE
  5
1C1
330
1F
100
AcDbEntity
  8
0
  6
Continuous
 62
     7
370
    25
100
AcDbSpline
210
0.0
220
0.0
230
1.0
 70
     8
 71
     3
 72
    10
 73
     6
 74
     0
 42
0.000000001
 43
0.00000001
 40
0.0
 40
0.0
 40
0.0
 40
0.0
 40
0.2769727952026523
 40
0.6961844168529386
 40
1.0
 40
1.0
 40
1.0
 40
1.0
 10
6083.446792995601
 20
4256.448679418729
 30
0.0
 10
6083.557109001291
 20
4255.904509394811
 30
0.0
 10
6083.834393577323
 20
4254.536711916748
 30
0.0
 10
6084.464716376684
 20
4252.618200786631
 30
0.0
 10
6085.08276595208
 20
4251.289551093349
 30
0.0
 10
6085.342470000443
 20
4250.731253316053
 30
0.0
  0
LINE
  5
1C2
330
1F
100
AcDbEntity
  8
0
  6
Continuous
 62
     7
370
    25
100
AcDbLine
 10
6085.3424700004
 20
4250.7312533161
 30
0.0
 11
6125.6387860539
 21
4169.5404652062
 31
0.0
  0
LINE
  5
1C3
330
1F
100
AcDbEntity
  8
0
  6
Continuous
 62
     7
370
    25
100
AcDbLine
 10
6139.0749330868
 20
4176.2090447333
 30
0.0
 11
6117.6645244181
 21
4219.347676842
 31
0.0
  0
LINE
  5
1C4
330
1F
100
AcDbEntity
  8
0
  6
Continuous
 62
     7
370
    25
100
AcDbLine
 10
6360.3729862541
 20
4219.347676842
 30
0.0
 11
6338.9625775854
 21
4176.2090447333
 31
0.0
  0
LINE
  5
1C5
330
1F
100
AcDbEntity
  8
0
  6
Continuous
 62
     7
370
    25
100
AcDbLine
 10
6352.3987246183
 20
4169.5404652062
 30
0.0
 11
6392.6950406718
 21
4250.7312533161
 31
0.0
  0
SPLINE
  5
1C6
330
1F
100
AcDbEntity
  8
0
  6
Continuous
 62
     7
370
    25
100
AcDbSpline
210
0.0
220
0.0
230
1.0
 70
     8
 71
     3
 72
    21
 73
    17
 74
     0
 42
0.000000001
 43
0.00000001
 40
0.0
 40
0.0
 40
0.0
 40
0.0
 40
0.0415807360647105
 40
0.1181165949469108
 40
0.1947664367893731
 40
0.2715725312681607
 40
0.3485908763313896
 40
0.4258632139672432
 40
0.5034046929187583
 40
0.5811857725090437
 40
0.6590879803502474
 40
0.7368564378809517
 40
0.8141670305677633
 40
0.8906330019106934
 40
0.9658885949812183
 40
1.0
 40
1.0
 40
1.0
 40
1.0
 10
6317.099857268116
 20
4151.952074672899
 30
0.0
 10
6317.725789182162
 20
4151.958608795388
 30
0.0
 10
6319.503846844265
 20
4151.977169993975
 30
0.0
 10
6322.426638043419
 20
4152.179971504142
 30
0.0
 10
6325.833013389986
 20
4152.627707829978
 30
0.0
 10
6329.17365683041
 20
4153.297220673806
 30
0.0
 10
6332.4224378827
 20
4154.18272001628
 30
0.0
 10
6335.553677198079
 20
4155.282812801603
 30
0.0
 10
6338.5412565572
 20
4156.594034086192
 30
0.0
 10
6341.357941215818
 20
4158.111953110955
 30
0.0
 10
6343.97469945104
 20
4159.829363201235
 30
0.0
 10
6346.360733648521
 20
4161.735272304704
 30
0.0
 10
6348.48712033298
 20
4163.81272736203
 30
0.0
 10
6350.320931340384
 20
4166.04151697873
 30
0.0
 10
6351.587954719766
 20
4167.974501731081
 30
0.0
 10
6352.205967382458
 20
4169.168163778319
 30
0.0
 10
6352.398724618299
 20
4169.540465206174
 30
0.0
  0
SPLINE
  5
1C7
330
1F
100
AcDbEntity
  8
0
  6
Continuous
 62
     7
370
    25
100
AcDbSpline
210
0.0
220
0.0
230
1.0
 70
     8
 71
     3
 72
    20
 73
    16
 74
     0
 42
0.000000001
 43
0.00000001
 40
0.0
 40
0.0
 40
0.0
 40
0.0
 40
0.0417970309271982
 40
0.1331042029281462
 40
0.2203202614391737
 40
0.3050163716468691
 40
0.3887905922310271
 40
0.4724235496568588
 40
0.5562082100033747
 40
0.64036336854006
 40
0.7249509846456291
 40
0.8099428774969931
 40
0.8952595261369258
 40
0.976390239387985
 40
1.0
 40
1.0
 40
1.0
 40
1.0
 10
6338.962577585366
 20
4176.209044733288
 30
0.0
 10
6338.875446974742
 20
4176.042777475359
 30
0.0
 10
6338.597976297503
 20
4175.513293195046
 30
0.0
 10
6337.941146684614
 20
4174.571779709995
 30
0.0
 10
6336.866095058956
 20
4173.401868859502
 30
0.0
 10
6335.531407251754
 20
4172.262304169994
 30
0.0
 10
6333.950129772232
 20
4171.178134049846
 30
0.0
 10
6332.13262775489
 20
4170.171813184155
 30
0.0
 10
6330.098266389084
 20
4169.267154370673
 30
0.0
 10
6327.872230906158
 20
4168.486088049113
 30
0.0
 10
6325.483914841546
 20
4167.847733192597
 30
0.0
 10
6322.967030747843
 20
4167.36731504884
 30
0.0
 10
6320.403769363692
 20
4167.064128748851
 30
0.0
 10
6318.4329280682
 20
4166.95989018725
 30
0.0
 10
6317.345072889244
 20
4166.953512320626
 30
0.0
 10
6317.099857268116
 20
4166.952074672899
 30
0.0
  0
SPLINE
  5
1C8
330
1F
100
AcDbEntity
  8
0
  6
Continuous
 62
     7
370
    25
100
AcDbSpline
210
0.0
220
0.0
230
1.0
 70
     8
 71
     3
 72
    20
 73
    16
 74
     0
 42
0.000000001
 43
0.00000001
 40
0.0
 40
0.0
 40
0.0
 40
0.0
 40
0.0435686264347365
 40
0.1291406004165163
 40
0.2145766948110082
 40
0.2997113259126705
 40
0.3844309092916692
 40
0.4686459495784572
 40
0.5523101019215303
 40
0.635450991524519
 40
0.7182189240510781
 40
0.8009336562843725
 40
0.8840449372367002
 40
0.9685358275030497
 40
0.9999999999999999
 40
0.9999999999999999
 40
0.9999999999999999
 40
0.9999999999999999
 10
6160.937653404085
 20
4166.952074672899
 30
0.0
 10
6160.485095432618
 20
4166.956817231248
 30
0.0
 10
6159.143680452597
 20
4166.970874521618
 30
0.0
 10
6156.925211516076
 20
4167.129919405158
 30
0.0
 10
6154.333790339106
 20
4167.488400271814
 30
0.0
 10
6151.8433915718
 20
4168.017752865637
 30
0.0
 10
6149.492759748406
 20
4168.701467833853
 30
0.0
 10
6147.317001875475
 20
4169.522462443568
 30
0.0
 10
6145.347242645764
 20
4170.458292313514
 30
0.0
 10
6143.609118214976
 20
4171.482871282859
 30
0.0
 10
6142.121852916463
 20
4172.566660051038
 30
0.0
 10
6140.896135278428
 20
4173.677891204852
 30
0.0
 10
6139.93626486126
 20
4174.783550393166
 30
0.0
 10
6139.377491875226
 20
4175.624415292304
 30
0.0
 10
6139.139509204677
 20
4176.084265347848
 30
0.0
 10
6139.074933086834
 20
4176.209044733288
 30
0.0
  0
SPLINE
  5
1C9
330
1F
100
AcDbEntity
  8
0
  6
Continuous
 62
     7
370
    25
100
AcDbSpline
210
0.0
220
0.0
230
1.0
 70
     8
 71
     3
 72
    21
 73
    17
 74
     0
 42
0.000000001
 43
0.00000001
 40
0.0
 40
0.0
 40
0.0
 40
0.0
 40
0.045009669408708
 40
0.1166476014387698
 40
0.1891556814859947
 40
0.2629655691660747
 40
0.3379300811214221
 40
0.4137912234060516
 40
0.490244758303017
 40
0.567011026761015
 40
0.6438512564304136
 40
0.7206347240597437
 40
0.7973183734488061
 40
0.8739040808214757
 40
0.950422905991686
 40
1.0
 40
1.0
 40
1.0
 40
1.0
 10
6125.638786053902
 20
4169.540465206174
 30
0.0
 10
6125.89571125373
 20
4169.050213167814
 30
0.0
 10
6126.561561696599
 20
4167.779670079488
 30
0.0
 10
6127.882069990416
 20
4165.828228810072
 30
0.0
 10
6129.644545606534
 20
4163.718185674629
 30
0.0
 10
6131.681502198473
 20
4161.736474949702
 30
0.0
 10
6133.977150289695
 20
4159.895184990498
 30
0.0
 10
6136.513809328522
 20
4158.213453960332
 30
0.0
 10
6139.26656766081
 20
4156.708119105441
 30
0.0
 10
6142.207144291403
 20
4155.3935702316
 30
0.0
 10
6145.305475483864
 20
4154.280561757996
 30
0.0
 10
6148.531683576595
 20
4153.37695335605
 30
0.0
 10
6151.857220684255
 20
4152.686527104784
 30
0.0
 10
6155.254396381766
 20
4152.216802988632
 30
0.0
 10
6158.293013143756
 20
4151.984610888238
 30
0.0
 10
6160.191303259427
 20
4151.961256794712
 30
0.0
 10
6160.937653404085
 20
4151.952074672899
 30
0.0
  0
LINE
  5
1CA
330
1F
100
AcDbEntity
  8
0
  6
Continuous
 62
     7
370
    25
100
AcDbLine
 10
6317.0998572681
 20
4166.9520746729
 30
0.0
 11
6259.0187553361
 21
4166.9520746729
 31
0.0
  0
LINE
  5
1CB
330
1F
100
AcDbEntity
  8
0
  6
Continuous
 62
     7
370
    25
100
AcDbLine
 10
6219.0187553361
 20
4166.9520746729
 30
0.0
 11
6160.9376534041
 21
4166.9520746729
 31
0.0
  0
LINE
  5
1CC
330
1F
100
AcDbEntity
  8
0
  6
Continuous
 62
     7
370
    25
100
AcDbLine
 10
6160.9376534041
 20
4151.9520746729
 30
0.0
 11
6231.5187553361
 21
4151.9520746729
 31
0.0
  0
LINE
  5
1CD
330
1F
100
AcDbEntity
  8
0
  6
Continuous
 62
     7
370
    25
100
AcDbLine
 10
6246.5187553361
 20
4151.9520746729
 30
0.0
 11
6317.0998572681
 21
4151.9520746729
 31
0.0
  0
CIRCLE
  5
1CE
330
1F
100
AcDbEntity
  8
0
  6
Continuous
 62
     7
370
    25
100
AcDbCircle
 10
6239.0187553361
 20
4352.2880794226
 30
0.0
 40
15.00000000000091
  0
CIRCLE
  5
1CF
330
1F
100
AcDbEntity
  8
0
  6
Continuous
 62
     7
370
    25
100
AcDbCircle
 10
6239.0187553361
 20
4352.2880794226
 30
0.0
 40
28.00000000000091
  0
LINE
  5
1D0
330
1F
100
AcDbEntity
  8
0
  6
Continuous
 62
     7
370
    25
100
AcDbLine
 10
6159.0187553361
 20
4339.7880794226
 30
0.0
 11
6159.0187553361
 21
4364.7880794226
 31
0.0
  0
LINE
  5
1D1
330
1F
100
AcDbEntity
  8
0
  6
Continuous
 62
     7
370
    25
100
AcDbLine
 10
6159.0187553361
 20
4339.7880794226
 30
0.0
 11
6139.0187553361
 21
4339.7880794226
 31
0.0
  0
LINE
  5
1D2
330
1F
100
AcDbEntity
  8
0
  6
Continuous
 62
     7
370
    25
100
AcDbLine
 10
6139.0187553361
 20
4339.7880794226
 30
0.0
 11
6139.0187553361
 21
4364.7880794226
 31
0.0
  0
LINE
  5
1D3
330
1F
100
AcDbEntity
  8
0
  6
Continuous
 62
     7
370
    25
100
AcDbLine
 10
6159.0187553361
 20
4364.7880794226
 30
0.0
 11
6139.0187553361
 21
4364.7880794226
 31
0.0
  0
LINE
  5
1D4
330
1F
100
AcDbEntity
  8
0
  6
Continuous
 62
     7
370
    25
100
AcDbLine
 10
6339.0187553361
 20
4339.7880794226
 30
0.0
 11
6339.0187553361
 21
4364.7880794226
 31
0.0
  0
LINE
  5
1D5
330
1F
100
AcDbEntity
  8
0
  6
Continuous
 62
     7
370
    25
100
AcDbLine
 10
6319.0187553361
 20
4339.7880794226
 30
0.0
 11
6339.0187553361
 21
4339.7880794226
 31
0.0
  0
LINE
  5
1D6
330
1F
100
AcDbEntity
  8
0
  6
Continuous
 62
     7
370
    25
100
AcDbLine
 10
6319.0187553361
 20
4339.7880794226
 30
0.0
 11
6319.0187553361
 21
4364.7880794226
 31
0.0
  0
LINE
  5
1D7
330
1F
100
AcDbEntity
  8
0
  6
Continuous
 62
     7
370
    25
100
AcDbLine
 10
6319.0187553361
 20
4364.7880794226
 30
0.0
 11
6339.0187553361
 21
4364.7880794226
 31
0.0
  0
LINE
  5
1D8
330
1F
100
AcDbEntity
  8
0
  6
Continuous
 62
     7
370
    25
100
AcDbLine
 10
6316.0187553361
 20
4339.7880794226
 30
0.0
 11
6319.0187553361
 21
4339.7880794226
 31
0.0
  0
LINE
  5
1D9
330
1F
100
AcDbEntity
  8
0
  6
Continuous
 62
     7
370
    25
100
AcDbLine
 10
6316.0187553361
 20
4339.7880794226
 30
0.0
 11
6316.0187553361
 21
4364.7880794226
 31
0.0
  0
LINE
  5
1DA
330
1F
100
AcDbEntity
  8
0
  6
Continuous
 62
     7
370
    25
100
AcDbLine
 10
6316.0187553361
 20
4364.7880794226
 30
0.0
 11
6319.0187553361
 21
4364.7880794226
 31
0.0
  0
LINE
  5
1DB
330
1F
100
AcDbEntity
  8
0
  6
Continuous
 62
     7
370
    25
100
AcDbLine
 10
6162.0187553361
 20
4339.7880794226
 30
0.0
 11
6162.0187553361
 21
4364.7880794226
 31
0.0
  0
LINE
  5
1DC
330
1F
100
AcDbEntity
  8
0
  6
Continuous
 62
     7
370
    25
100
AcDbLine
 10
6162.0187553361
 20
4339.7880794226
 30
0.0
 11
6159.0187553361
 21
4339.7880794226
 31
0.0
  0
LINE
  5
1DD
330
1F
100
AcDbEntity
  8
0
  6
Continuous
 62
     7
370
    25
100
AcDbLine
 10
6162.0187553361
 20
4364.7880794226
 30
0.0
 11
6159.0187553361
 21
4364.7880794226
 31
0.0
  0
LINE
  5
1DE
330
1F
100
AcDbEntity
  8
0
  6
Continuous
 62
     7
370
    25
100
AcDbLine
 10
6342.0187553361
 20
4339.7880794226
 30
0.0
 11
6342.0187553361
 21
4364.7880794226
 31
0.0
  0
LINE
  5
1DF
330
1F
100
AcDbEntity
  8
0
  6
Continuous
 62
     7
370
    25
100
AcDbLine
 10
6339.0187553361
 20
4339.7880794226
 30
0.0
 11
6342.0187553361
 21
4339.7880794226
 31
0.0
  0
LINE
  5
1E0
330
1F
100
AcDbEntity
  8
0
  6
Continuous
 62
     7
370
    25
100
AcDbLine
 10
6339.0187553361
 20
4364.7880794226
 30
0.0
 11
6342.0187553361
 21
4364.7880794226
 31
0.0
  0
LINE
  5
1E1
330
1F
100
AcDbEntity
  8
0
  6
Continuous
 62
     7
370
    25
100
AcDbLine
 10
6139.0187553361
 20
4339.7880794226
 30
0.0
 11
6136.0187553361
 21
4339.7880794226
 31
0.0
  0
LINE
  5
1E2
330
1F
100
AcDbEntity
  8
0
  6
Continuous
 62
     7
370
    25
100
AcDbLine
 10
6136.0187553361
 20
4339.7880794226
 30
0.0
 11
6136.0187553361
 21
4364.7880794226
 31
0.0
  0
LINE
  5
1E3
330
1F
100
AcDbEntity
  8
0
  6
Continuous
 62
     7
370
    25
100
AcDbLine
 10
6139.0187553361
 20
4364.7880794226
 30
0.0
 11
6136.0187553361
 21
4364.7880794226
 31
0.0
  0
LINE
  5
1E4
330
1F
100
AcDbEntity
  8
0
  6
Continuous
 62
     7
370
    25
100
AcDbLine
 10
6319.0187553361
 20
4552.2880794226
 30
0.0
 11
6339.0187553361
 21
4552.2880794226
 31
0.0
  0
LINE
  5
1E5
330
1F
100
AcDbEntity
  8
0
  6
Continuous
 62
     7
370
    25
100
AcDbLine
 10
6319.0187553361
 20
4642.2880794226
 30
0.0
 11
6319.0187553361
 21
4552.2880794226
 31
0.0
  0
LINE
  5
1E6
330
1F
100
AcDbEntity
  8
0
  6
Continuous
 62
     7
370
    25
100
AcDbLine
 10
6339.0187553361
 20
4642.2880794226
 30
0.0
 11
6319.0187553361
 21
4642.2880794226
 31
0.0
  0
LINE
  5
1E7
330
1F
100
AcDbEntity
  8
0
  6
Continuous
 62
     7
370
    25
100
AcDbLine
 10
6339.0187553361
 20
4642.2880794226
 30
0.0
 11
6339.0187553361
 21
4552.2880794226
 31
0.0
  0
LINE
  5
1E8
330
1F
100
AcDbEntity
  8
0
  6
Continuous
 62
     7
370
    25
100
AcDbLine
 10
6159.0187553361
 20
4552.2880794226
 30
0.0
 11
6139.0187553361
 21
4552.2880794226
 31
0.0
  0
LINE
  5
1E9
330
1F
100
AcDbEntity
  8
0
  6
Continuous
 62
     7
370
    25
100
AcDbLine
 10
6139.0187553361
 20
4642.2880794226
 30
0.0
 11
6139.0187553361
 21
4552.2880794226
 31
0.0
  0
LINE
  5
1EA
330
1F
100
AcDbEntity
  8
0
  6
Continuous
 62
     7
370
    25
100
AcDbLine
 10
6139.0187553361
 20
4642.2880794226
 30
0.0
 11
6159.0187553361
 21
4642.2880794226
 31
0.0
  0
LINE
  5
1EB
330
1F
100
AcDbEntity
  8
0
  6
Continuous
 62
     7
370
    25
100
AcDbLine
 10
6159.0187553361
 20
4642.2880794226
 30
0.0
 11
6159.0187553361
 21
4552.2880794226
 31
0.0
  0
LINE
  5
1EC
330
1F
100
AcDbEntity
  8
0
  6
Continuous
 62
     7
370
    25
100
AcDbLine
 10
6319.0187553361
 20
4252.2880794226
 30
0.0
 11
6339.0187553361
 21
4252.2880794226
 31
0.0
  0
LINE
  5
1ED
330
1F
100
AcDbEntity
  8
0
  6
Continuous
 62
     7
370
    25
100
AcDbLine
 10
6319.0187553361
 20
4552.2880794226
 30
0.0
 11
6319.0187553361
 21
4364.7880794226
 31
0.0
  0
LINE
  5
1EE
330
1F
100
AcDbEntity
  8
0
  6
Continuous
 62
     7
370
    25
100
AcDbLine
 10
6319.0187553361
 20
4339.7880794226
 30
0.0
 11
6319.0187553361
 21
4252.2880794226
 31
0.0
  0
LINE
  5
1EF
330
1F
100
AcDbEntity
  8
0
  6
Continuous
 62
     7
370
    25
100
AcDbLine
 10
6339.0187553361
 20
4552.2880794226
 30
0.0
 11
6339.0187553361
 21
4364.7880794226
 31
0.0
  0
LINE
  5
1F0
330
1F
100
AcDbEntity
  8
0
  6
Continuous
 62
     7
370
    25
100
AcDbLine
 10
6339.0187553361
 20
4339.7880794226
 30
0.0
 11
6339.0187553361
 21
4252.2880794226
 31
0.0
  0
LINE
  5
1F1
330
1F
100
AcDbEntity
  8
0
  6
Continuous
 62
     7
370
    25
100
AcDbLine
 10
6159.0187553361
 20
4252.2880794226
 30
0.0
 11
6139.0187553361
 21
4252.2880794226
 31
0.0
  0
LINE
  5
1F2
330
1F
100
AcDbEntity
  8
0
  6
Continuous
 62
     7
370
    25
100
AcDbLine
 10
6139.0187553361
 20
4552.2880794226
 30
0.0
 11
6139.0187553361
 21
4364.7880794226
 31
0.0
  0
LINE
  5
1F3
330
1F
100
AcDbEntity
  8
0
  6
Continuous
 62
     7
370
    25
100
AcDbLine
 10
6139.0187553361
 20
4339.7880794226
 30
0.0
 11
6139.0187553361
 21
4252.2880794226
 31
0.0
  0
LINE
  5
1F4
330
1F
100
AcDbEntity
  8
0
  6
Continuous
 62
     7
370
    25
100
AcDbLine
 10
6159.0187553361
 20
4552.2880794226
 30
0.0
 11
6159.0187553361
 21
4364.7880794226
 31
0.0
  0
LINE
  5
1F5
330
1F
100
AcDbEntity
  8
0
  6
Continuous
 62
     7
370
    25
100
AcDbLine
 10
6159.0187553361
 20
4339.7880794226
 30
0.0
 11
6159.0187553361
 21
4252.2880794226
 31
0.0
  0
LINE
  5
1F6
330
1F
100
AcDbEntity
  8
0
  6
Continuous
 62
     7
370
    25
100
AcDbLine
 10
6315.0187553361
 20
4339.7880794226
 30
0.0
 11
6315.0187553361
 21
4364.7880794226
 31
0.0
  0
LINE
  5
1F7
330
1F
100
AcDbEntity
  8
0
  6
Continuous
 62
     7
370
    25
100
AcDbLine
 10
6315.0187553361
 20
4339.7880794226
 30
0.0
 11
6316.0187553361
 21
4339.7880794226
 31
0.0
  0
LINE
  5
1F8
330
1F
100
AcDbEntity
  8
0
  6
Continuous
 62
     7
370
    25
100
AcDbLine
 10
6315.0187553361
 20
4364.7880794226
 30
0.0
 11
6316.0187553361
 21
4364.7880794226
 31
0.0
  0
LINE
  5
1F9
330
1F
100
AcDbEntity
  8
0
  6
Continuous
 62
     7
370
    25
100
AcDbLine
 10
6163.0187553361
 20
4339.7880794226
 30
0.0
 11
6163.0187553361
 21
4364.7880794226
 31
0.0
  0
LINE
  5
1FA
330
1F
100
AcDbEntity
  8
0
  6
Continuous
 62
     7
370
    25
100
AcDbLine
 10
6163.0187553361
 20
4339.7880794226
 30
0.0
 11
6162.0187553361
 21
4339.7880794226
 31
0.0
  0
LINE
  5
1FB
330
1F
100
AcDbEntity
  8
0
  6
Continuous
 62
     7
370
    25
100
AcDbLine
 10
6163.0187553361
 20
4364.7880794226
 30
0.0
 11
6162.0187553361
 21
4364.7880794226
 31
0.0
  0
LINE
  5
1FC
330
1F
100
AcDbEntity
  8
0
  6
Continuous
 62
     7
370
    25
100
AcDbLine
 10
6343.0187553361
 20
4339.7880794226
 30
0.0
 11
6343.0187553361
 21
4364.7880794226
 31
0.0
  0
LINE
  5
1FD
330
1F
100
AcDbEntity
  8
0
  6
Continuous
 62
     7
370
    25
100
AcDbLine
 10
6342.0187553361
 20
4339.7880794226
 30
0.0
 11
6343.0187553361
 21
4339.7880794226
 31
0.0
  0
LINE
  5
1FE
330
1F
100
AcDbEntity
  8
0
  6
Continuous
 62
     7
370
    25
100
AcDbLine
 10
6342.0187553361
 20
4364.7880794226
 30
0.0
 11
6343.0187553361
 21
4364.7880794226
 31
0.0
  0
LINE
  5
1FF
330
1F
100
AcDbEntity
  8
0
  6
Continuous
 62
     7
370
    25
100
AcDbLine
 10
6135.0187553361
 20
4339.7880794226
 30
0.0
 11
6135.0187553361
 21
4364.7880794226
 31
0.0
  0
LINE
  5
200
330
1F
100
AcDbEntity
  8
0
  6
Continuous
 62
     7
370
    25
100
AcDbLine
 10
6136.0187553361
 20
4339.7880794226
 30
0.0
 11
6135.0187553361
 21
4339.7880794226
 31
0.0
  0
LINE
  5
201
330
1F
100
AcDbEntity
  8
0
  6
Continuous
 62
     7
370
    25
100
AcDbLine
 10
6136.0187553361
 20
4364.7880794226
 30
0.0
 11
6135.0187553361
 21
4364.7880794226
 31
0.0
  0
LINE
  5
202
330
1F
100
AcDbEntity
  8
0
  6
Continuous
 62
     7
370
    25
100
AcDbLine
 10
6110.0187553361
 20
4339.7880794226
 30
0.0
 11
6110.0187553361
 21
4364.7880794226
 31
0.0
  0
LINE
  5
203
330
1F
100
AcDbEntity
  8
0
  6
Continuous
 62
     7
370
    25
100
AcDbLine
 10
6135.0187553361
 20
4339.7880794226
 30
0.0
 11
6110.0187553361
 21
4339.7880794226
 31
0.0
  0
LINE
  5
204
330
1F
100
AcDbEntity
  8
0
  6
Continuous
 62
     7
370
    25
100
AcDbLine
 10
6135.0187553361
 20
4364.7880794226
 30
0.0
 11
6110.0187553361
 21
4364.7880794226
 31
0.0
  0
LINE
  5
205
330
1F
100
AcDbEntity
  8
0
  6
Continuous
 62
     7
370
    25
100
AcDbLine
 10
6188.0187553361
 20
4339.7880794226
 30
0.0
 11
6188.0187553361
 21
4364.7880794226
 31
0.0
  0
LINE
  5
206
330
1F
100
AcDbEntity
  8
0
  6
Continuous
 62
     7
370
    25
100
AcDbLine
 10
6188.0187553361
 20
4339.7880794226
 30
0.0
 11
6163.0187553361
 21
4339.7880794226
 31
0.0
  0
LINE
  5
207
330
1F
100
AcDbEntity
  8
0
  6
Continuous
 62
     7
370
    25
100
AcDbLine
 10
6188.0187553361
 20
4364.7880794226
 30
0.0
 11
6163.0187553361
 21
4364.7880794226
 31
0.0
  0
LINE
  5
208
330
1F
100
AcDbEntity
  8
0
  6
Continuous
 62
     7
370
    25
100
AcDbLine
 10
6368.0187553361
 20
4339.7880794226
 30
0.0
 11
6368.0187553361
 21
4364.7880794226
 31
0.0
  0
LINE
  5
209
330
1F
100
AcDbEntity
  8
0
  6
Continuous
 62
     7
370
    25
100
AcDbLine
 10
6343.0187553361
 20
4339.7880794226
 30
0.0
 11
6368.0187553361
 21
4339.7880794226
 31
0.0
  0
LINE
  5
20A
330
1F
100
AcDbEntity
  8
0
  6
Continuous
 62
     7
370
    25
100
AcDbLine
 10
6343.0187553361
 20
4364.7880794226
 30
0.0
 11
6368.0187553361
 21
4364.7880794226
 31
0.0
  0
LINE
  5
20B
330
1F
100
AcDbEntity
  8
0
  6
Continuous
 62
     7
370
    25
100
AcDbLine
 10
6290.0187553361
 20
4339.7880794226
 30
0.0
 11
6290.0187553361
 21
4364.7880794226
 31
0.0
  0
LINE
  5
20C
330
1F
100
AcDbEntity
  8
0
  6
Continuous
 62
     7
370
    25
100
AcDbLine
 10
6290.0187553361
 20
4339.7880794226
 30
0.0
 11
6315.0187553361
 21
4339.7880794226
 31
0.0
  0
LINE
  5
20D
330
1F
100
AcDbEntity
  8
0
  6
Continuous
 62
     7
370
    25
100
AcDbLine
 10
6290.0187553361
 20
4364.7880794226
 30
0.0
 11
6315.0187553361
 21
4364.7880794226
 31
0.0
  0
ARC
  5
20E
330
1F
100
AcDbEntity
  8
0
  6
Continuous
 62
     7
370
    25
100
AcDbCircle
 10
6239.0187553361
 20
4352.2880794226
 30
0.0
 40
160.0000000000005
100
AcDbArc
 50
60.0
 51
90.0
  0
ARC
  5
20F
330
1F
100
AcDbEntity
  8
0
  6
Continuous
 62
     7
370
    25
100
AcDbCircle
 10
6239.0187553361
 20
4352.2880794226
 30
0.0
 40
160.0000000000002
100
AcDbArc
 50
128.6821874535
 51
51.3178125465
  0
ARC
  5
210
330
1F
100
AcDbEntity
  8
0
  6
Continuous
 62
     7
370
    25
100
AcDbCircle
 10
6239.0187553361
 20
4352.2880794226
 30
0.0
 40
160.0000000000005
100
AcDbArc
 50
90.0
 51
120.0
  0
ARC
  5
211
330
1F
100
AcDbEntity
  8
0
  6
Continuous
 62
     7
370
    25
100
AcDbCircle
 10
6239.0187553361
 20
4352.2880794226
 30
0.0
 40
150.0000000000006
100
AcDbArc
 50
131.8103148958
 51
48.1896851042
  0
ARC
  5
212
330
1F
100
AcDbEntity
  8
0
  6
Continuous
 62
     7
370
    25
100
AcDbCircle
 10
6239.0187553361
 20
4352.2880794226
 30
0.0
 40
149.9999999999996
100
AcDbArc
 50
57.7690473645
 51
122.2309526355
  0
ARC
  5
213
330
1F
100
AcDbEntity
  8
0
  6
Continuous
 62
     7
370
    25
100
AcDbCircle
 10
6469.0187553361
 20
4352.2880794226
 30
0.0
 40
20.00000000000091
100
AcDbArc
 50
270.0
 51
90.0
  0
LINE
  5
214
330
1F
100
AcDbEntity
  8
0
  6
Continuous
 62
     7
370
    25
100
AcDbLine
 10
6416.3418193154
 20
4383.2159144742
 30
0.0
 11
6421.0187553361
 21
4383.2159144742
 31
0.0
  0
ELLIPSE
  5
215
330
1F
100
AcDbEntity
  8
0
  6
Continuous
 62
     7
370
    25
100
AcDbEllipse
 10
6421.0187553361
 20
4383.679832
 30
0.0
 11
1.0
 21
0.0
 31
0.0
210
0.0
220
0.0
230
1.0
 40
0.4639175258
 41
4.712388980384696
 42
6.283185307179586
  0
LINE
  5
216
330
1F
100
AcDbEntity
  8
0
  6
Continuous
 62
     7
370
    25
100
AcDbLine
 10
6422.0187553361
 20
4383.679832
 30
0.0
 11
6422.0187553361
 21
4427.2880794226
 31
0.0
  0
LINE
  5
217
330
1F
100
AcDbEntity
  8
0
  6
Continuous
 62
     7
370
    25
100
AcDbLine
 10
6424.0187553361
 20
4427.2880794226
 30
0.0
 11
6422.0187553361
 21
4427.2880794226
 31
0.0
  0
LINE
  5
218
330
1F
100
AcDbEntity
  8
0
  6
Continuous
 62
     7
370
    25
100
AcDbLine
 10
6424.0187553361
 20
4427.2880794226
 30
0.0
 11
6424.0187553361
 21
4383.679832
 31
0.0
  0
ELLIPSE
  5
219
330
1F
100
AcDbEntity
  8
0
  6
Continuous
 62
     7
370
    25
100
AcDbEllipse
 10
6421.0187553361
 20
4383.679832
 30
0.0
 11
3.0
 21
0.0
 31
0.0
210
0.0
220
0.0
230
1.0
 40
0.4639175258
 41
4.712388980384696
 42
6.283185307179586
  0
LINE
  5
21A
330
1F
100
AcDbEntity
  8
0
  6
Continuous
 62
     7
370
    25
100
AcDbLine
 10
6416.5011488291
 20
4382.2880794226
 30
0.0
 11
6421.0187553361
 21
4382.2880794226
 31
0.0
  0
LINE
  5
21B
330
1F
100
AcDbEntity
  8
0
  6
Continuous
 62
     7
370
    25
100
AcDbLine
 10
6401.0187553361
 20
4277.2880794226
 30
0.0
 11
6402.6494370556
 21
4277.2880794226
 31
0.0
  0
LINE
  5
21C
330
1F
100
AcDbEntity
  8
0
  6
Continuous
 62
     7
370
    25
100
AcDbLine
 10
6401.0187553361
 20
4277.2880794226
 30
0.0
 11
6401.0187553361
 21
4332.2880794226
 31
0.0
  0
LINE
  5
21D
330
1F
100
AcDbEntity
  8
0
  6
Continuous
 62
     7
370
    25
100
AcDbLine
 10
6401.0187553361
 20
4372.2880794226
 30
0.0
 11
6401.0187553361
 21
4427.2880794226
 31
0.0
  0
LINE
  5
21E
330
1F
100
AcDbEntity
  8
0
  6
Continuous
 62
     7
370
    25
100
AcDbLine
 10
6401.0187553361
 20
4427.2880794226
 30
0.0
 11
6402.6494370556
 21
4427.2880794226
 31
0.0
  0
LINE
  5
21F
330
1F
100
AcDbEntity
  8
0
  6
Continuous
 62
     7
370
    25
100
AcDbLine
 10
6416.5011488291
 20
4322.2880794226
 30
0.0
 11
6421.0187553361
 21
4322.2880794226
 31
0.0
  0
ARC
  5
220
330
1F
100
AcDbEntity
  8
0
  6
Continuous
 62
     7
370
    25
100
AcDbCircle
 10
6239.0187553361
 20
4352.2880794226
 30
0.0
 40
180.0000000000006
100
AcDbArc
 50
9.5940682269
 51
24.6243183522
  0
ARC
  5
221
330
1F
100
AcDbEntity
  8
0
  6
Continuous
 62
     7
370
    25
100
AcDbCircle
 10
6239.0187553361
 20
4352.2880794226
 30
0.0
 40
180.0000000000005
100
AcDbArc
 50
335.3756816478
 51
350.4059317731
  0
LINE
  5
222
330
1F
100
AcDbEntity
  8
0
  6
Continuous
 62
     7
370
    25
100
AcDbLine
 10
6057.0187553361
 20
4383.2159144742
 30
0.0
 11
6061.6956913568
 21
4383.2159144742
 31
0.0
  0
LINE
  5
223
330
1F
100
AcDbEntity
  8
0
  6
Continuous
 62
     7
370
    25
100
AcDbLine
 10
6077.0187553361
 20
4383.2159144742
 30
0.0
 11
6061.6956913568
 21
4383.2159144742
 31
0.0
  0
LINE
  5
224
330
1F
100
AcDbEntity
  8
0
  6
Continuous
 62
     7
370
    25
100
AcDbLine
 10
6077.0187553361
 20
4383.2159144742
 30
0.0
 11
6077.0187553361
 21
4382.2880794226
 31
0.0
  0
LINE
  5
225
330
1F
100
AcDbEntity
  8
0
  6
Continuous
 62
     7
370
    25
100
AcDbLine
 10
6077.0187553361
 20
4382.2880794226
 30
0.0
 11
6057.0187553361
 21
4382.2880794226
 31
0.0
  0
ELLIPSE
  5
226
330
1F
100
AcDbEntity
  8
0
  6
Continuous
 62
     7
370
    25
100
AcDbEllipse
 10
6057.0187553361
 20
4383.679832
 30
0.0
 11
3.000000000000909
 21
0.0
 31
0.0
210
0.0
220
0.0
230
1.0
 40
0.4639175258
 41
3.141592653589793
 42
4.712388980384696
  0
LINE
  5
227
330
1F
100
AcDbEntity
  8
0
  6
Continuous
 62
     7
370
    25
100
AcDbLine
 10
6054.0187553361
 20
4427.2880794226
 30
0.0
 11
6054.0187553361
 21
4383.679832
 31
0.0
  0
LINE
  5
228
330
1F
100
AcDbEntity
  8
0
  6
Continuous
 62
     7
370
    25
100
AcDbLine
 10
6054.0187553361
 20
4427.2880794226
 30
0.0
 11
6056.0187553361
 21
4427.2880794226
 31
0.0
  0
LINE
  5
229
330
1F
100
AcDbEntity
  8
0
  6
Continuous
 62
     7
370
    25
100
AcDbLine
 10
6056.0187553361
 20
4427.2880794226
 30
0.0
 11
6056.0187553361
 21
4383.679832
 31
0.0
  0
ELLIPSE
  5
22A
330
1F
100
AcDbEntity
  8
0
  6
Continuous
 62
     7
370
    25
100
AcDbEllipse
 10
6057.0187553361
 20
4383.679832
 30
0.0
 11
1.0
 21
0.0
 31
0.0
210
0.0
220
0.0
230
1.0
 40
0.4639175258
 41
3.141592653589793
 42
4.712388980384696
  0
LINE
  5
22B
330
1F
100
AcDbEntity
  8
0
  6
Continuous
 62
     7
370
    25
100
AcDbLine
 10
6057.0187553361
 20
4322.2880794226
 30
0.0
 11
6057.0187553361
 21
4382.2880794226
 31
0.0
  0
LINE
  5
22C
330
1F
100
AcDbEntity
  8
0
  6
Continuous
 62
     7
370
    25
100
AcDbLine
 10
6077.0187553361
 20
4322.2880794226
 30
0.0
 11
6077.0187553361
 21
4382.2880794226
 31
0.0
  0
LINE
  5
22D
330
1F
100
AcDbEntity
  8
0
  6
Continuous
 62
     7
370
    25
100
AcDbLine
 10
6077.0187553361
 20
4322.2880794226
 30
0.0
 11
6057.0187553361
 21
4322.2880794226
 31
0.0
  0
LINE
  5
22E
330
1F
100
AcDbEntity
  8
0
  6
Continuous
 62
     7
370
    25
100
AcDbLine
 10
6424.0187553361
 20
4320.8963268453
 30
0.0
 11
6424.0187553361
 21
4332.2880794226
 31
0.0
  0
LINE
  5
22F
330
1F
100
AcDbEntity
  8
0
  6
Continuous
 62
     7
370
    25
100
AcDbLine
 10
6424.0187553361
 20
4372.2880794226
 30
0.0
 11
6424.0187553361
 21
4383.679832
 31
0.0
  0
ELLIPSE
  5
230
330
1F
100
AcDbEntity
  8
0
  6
Continuous
 62
     7
370
    25
100
AcDbEllipse
 10
6421.0187553361
 20
4320.8963268453
 30
0.0
 11
3.0
 21
0.0
 31
0.0
210
0.0
220
0.0
230
1.0
 40
0.4639175258
 41
0.0
 42
1.570796326794897
  0
ELLIPSE
  5
231
330
1F
100
AcDbEntity
  8
0
  6
Continuous
 62
     7
370
    25
100
AcDbEllipse
 10
6057.0187553361
 20
4320.8963268453
 30
0.0
 11
3.000000000000909
 21
0.0
 31
0.0
210
0.0
220
0.0
230
1.0
 40
0.4639175258
 41
1.570796326794897
 42
3.141592653589793
  0
LINE
  5
232
330
1F
100
AcDbEntity
  8
0
  6
Continuous
 62
     7
370
    25
100
AcDbLine
 10
6054.0187553361
 20
4320.8963268453
 30
0.0
 11
6054.0187553361
 21
4383.679832
 31
0.0
  0
LINE
  5
233
330
1F
100
AcDbEntity
  8
0
  6
Continuous
 62
     7
370
    25
100
AcDbLine
 10
6077.0187553361
 20
4321.3602443711
 30
0.0
 11
6061.6956913568
 21
4321.3602443711
 31
0.0
  0
LINE
  5
234
330
1F
100
AcDbEntity
  8
0
  6
Continuous
 62
     7
370
    25
100
AcDbLine
 10
6061.6956913568
 20
4321.3602443711
 30
0.0
 11
6057.0187553361
 21
4321.3602443711
 31
0.0
  0
ELLIPSE
  5
235
330
1F
100
AcDbEntity
  8
0
  6
Continuous
 62
     7
370
    25
100
AcDbEllipse
 10
6057.0187553361
 20
4320.8963268453
 30
0.0
 11
1.0
 21
0.0
 31
0.0
210
0.0
220
0.0
230
1.0
 40
0.4639175258
 41
1.570796326794897
 42
3.141592653589793
  0
LINE
  5
236
330
1F
100
AcDbEntity
  8
0
  6
Continuous
 62
     7
370
    25
100
AcDbLine
 10
6056.0187553361
 20
4320.8963268453
 30
0.0
 11
6056.0187553361
 21
4277.2880794226
 31
0.0
  0
LINE
  5
237
330
1F
100
AcDbEntity
  8
0
  6
Continuous
 62
     7
370
    25
100
AcDbLine
 10
6054.0187553361
 20
4277.2880794226
 30
0.0
 11
6056.0187553361
 21
4277.2880794226
 31
0.0
  0
LINE
  5
238
330
1F
100
AcDbEntity
  8
0
  6
Continuous
 62
     7
370
    25
100
AcDbLine
 10
6054.0187553361
 20
4320.8963268453
 30
0.0
 11
6054.0187553361
 21
4277.2880794226
 31
0.0
  0
LINE
  5
239
330
1F
100
AcDbEntity
  8
0
  6
Continuous
 62
     7
370
    25
100
AcDbLine
 10
6077.0187553361
 20
4322.2880794226
 30
0.0
 11
6077.0187553361
 21
4321.3602443711
 31
0.0
  0
LINE
  5
23A
330
1F
100
AcDbEntity
  8
0
  6
Continuous
 62
     7
370
    25
100
AcDbLine
 10
6421.0187553361
 20
4321.3602443711
 30
0.0
 11
6416.3418193154
 21
4321.3602443711
 31
0.0
  0
LINE
  5
23B
330
1F
100
AcDbEntity
  8
0
  6
Continuous
 62
     7
370
    25
100
AcDbLine
 10
6424.0187553361
 20
4320.8963268453
 30
0.0
 11
6424.0187553361
 21
4277.2880794226
 31
0.0
  0
LINE
  5
23C
330
1F
100
AcDbEntity
  8
0
  6
Continuous
 62
     7
370
    25
100
AcDbLine
 10
6424.0187553361
 20
4277.2880794226
 30
0.0
 11
6422.0187553361
 21
4277.2880794226
 31
0.0
  0
LINE
  5
23D
330
1F
100
AcDbEntity
  8
0
  6
Continuous
 62
     7
370
    25
100
AcDbLine
 10
6422.0187553361
 20
4277.2880794226
 30
0.0
 11
6422.0187553361
 21
4320.8963268453
 31
0.0
  0
ELLIPSE
  5
23E
330
1F
100
AcDbEntity
  8
0
  6
Continuous
 62
     7
370
    25
100
AcDbEllipse
 10
6421.0187553361
 20
4320.8963268453
 30
0.0
 11
1.0
 21
0.0
 31
0.0
210
0.0
220
0.0
230
1.0
 40
0.4639175258
 41
0.0
 42
1.570796326794897
  0
ARC
  5
23F
330
1F
100
AcDbEntity
  8
0
  6
Continuous
 62
     7
370
    25
100
AcDbCircle
 10
6239.0187553361
 20
4352.2880794226
 30
0.0
 40
180.0000000000004
100
AcDbArc
 50
123.7489885959
 51
170.1062694639
  0
ARC
  5
240
330
1F
100
AcDbEntity
  8
0
  6
Continuous
 62
     7
370
    25
100
AcDbCircle
 10
6239.0187553361
 20
4352.2880794226
 30
0.0
 40
180.0000000000007
100
AcDbArc
 50
63.6122000388
 51
116.3877999612
  0
ARC
  5
241
330
1F
100
AcDbEntity
  8
0
  6
Continuous
 62
     7
370
    25
100
AcDbCircle
 10
6239.0187553361
 20
4352.2880794226
 30
0.0
 40
180.0000000000006
100
AcDbArc
 50
24.6243183522
 51
56.2510114041
  0
ARC
  5
242
330
1F
100
AcDbEntity
  8
0
  6
Continuous
 62
     7
370
    25
100
AcDbCircle
 10
6239.0187553361
 20
4352.2880794226
 30
0.0
 40
180.0000000000002
100
AcDbArc
 50
189.8937305361
 51
335.3756816478
  0
ARC
  5
243
330
1F
100
AcDbEntity
  8
0
  6
Continuous
 62
     7
370
    25
100
AcDbCircle
 10
6469.0187553361
 20
4352.2880794226
 30
0.0
 40
25.0
100
AcDbArc
 50
233.1301023542
 51
0.0
  0
ARC
  5
244
330
1F
100
AcDbEntity
  8
0
  6
Continuous
 62
     7
370
    25
100
AcDbCircle
 10
6469.0187553361
 20
4352.2880794226
 30
0.0
 40
25.00000000000073
100
AcDbArc
 50
0.0
 51
126.8698976458
  0
LINE
  5
245
330
1F
100
AcDbEntity
  8
0
  6
Continuous
 62
     7
370
    25
100
AcDbLine
 10
6072.0187553361
 20
4427.2880794226
 30
0.0
 11
6074.0187553361
 21
4427.2880794226
 31
0.0
  0
LINE
  5
246
330
1F
100
AcDbEntity
  8
0
  6
Continuous
 62
     7
370
    25
100
AcDbLine
 10
6074.0187553361
 20
4427.2880794226
 30
0.0
 11
6074.0187553361
 21
4424.2255522723
 31
0.0
  0
LINE
  5
247
330
1F
100
AcDbEntity
  8
0
  6
Continuous
 62
     7
370
    25
100
AcDbLine
 10
6072.0187553361
 20
4419.4520578635
 30
0.0
 11
6072.0187553361
 21
4427.2880794226
 31
0.0
  0
LINE
  5
248
330
1F
100
AcDbEntity
  8
0
  6
Continuous
 62
     7
370
    25
100
AcDbLine
 10
6072.0187553361
 20
4277.2880794226
 30
0.0
 11
6074.0187553361
 21
4277.2880794226
 31
0.0
  0
LINE
  5
249
330
1F
100
AcDbEntity
  8
0
  6
Continuous
 62
     7
370
    25
100
AcDbLine
 10
6074.0187553361
 20
4280.350606573
 30
0.0
 11
6074.0187553361
 21
4277.2880794226
 31
0.0
  0
LINE
  5
24A
330
1F
100
AcDbEntity
  8
0
  6
Continuous
 62
     7
370
    25
100
AcDbLine
 10
6072.0187553361
 20
4277.2880794226
 30
0.0
 11
6072.0187553361
 21
4285.1241009818
 31
0.0
  0
LINE
  5
24B
330
1F
100
AcDbEntity
  8
0
  6
Continuous
 62
     7
370
    25
100
AcDbLine
 10
6406.0187553361
 20
4427.2880794226
 30
0.0
 11
6404.0187553361
 21
4427.2880794226
 31
0.0
  0
LINE
  5
24C
330
1F
100
AcDbEntity
  8
0
  6
Continuous
 62
     7
370
    25
100
AcDbLine
 10
6404.0187553361
 20
4424.2255522723
 30
0.0
 11
6404.0187553361
 21
4427.2880794226
 31
0.0
  0
LINE
  5
24D
330
1F
100
AcDbEntity
  8
0
  6
Continuous
 62
     7
370
    25
100
AcDbLine
 10
6406.0187553361
 20
4427.2880794226
 30
0.0
 11
6406.0187553361
 21
4419.4520578635
 31
0.0
  0
LINE
  5
24E
330
1F
100
AcDbEntity
  8
0
  6
Continuous
 62
     7
370
    25
100
AcDbLine
 10
6406.0187553361
 20
4277.2880794226
 30
0.0
 11
6404.0187553361
 21
4277.2880794226
 31
0.0
  0
LINE
  5
24F
330
1F
100
AcDbEntity
  8
0
  6
Continuous
 62
     7
370
    25
100
AcDbLine
 10
6404.0187553361
 20
4277.2880794226
 30
0.0
 11
6404.0187553361
 21
4280.350606573
 31
0.0
  0
LINE
  5
250
330
1F
100
AcDbEntity
  8
0
  6
Continuous
 62
     7
370
    25
100
AcDbLine
 10
6406.0187553361
 20
4285.1241009818
 30
0.0
 11
6406.0187553361
 21
4277.2880794226
 31
0.0
  0
ARC
  5
251
330
1F
100
AcDbEntity
  8
0
  6
Continuous
 62
     7
370
    25
100
AcDbCircle
 10
6239.0187553361
 20
4165.854408057
 30
0.0
 40
8.000000000000211
100
AcDbArc
 50
10.8069228749
 51
54.2709916529
  0
ARC
  5
252
330
1F
100
AcDbEntity
  8
0
  6
Continuous
 62
     7
370
    25
100
AcDbCircle
 10
6239.0187553361
 20
4165.854408057
 30
0.0
 40
8.000000000000211
100
AcDbArc
 50
125.7290083471
 51
169.1930771251
  0
ARC
  5
253
330
1F
100
AcDbEntity
  8
0
  6
Continuous
 62
     7
370
    25
100
AcDbCircle
 10
6239.0187553361
 20
4165.854408057
 30
0.0
 40
12.01923788646712
100
AcDbArc
 50
7.1692019169
 51
33.9369114283
  0
ARC
  5
254
330
1F
100
AcDbEntity
  8
0
  6
Continuous
 62
     7
370
    25
100
AcDbCircle
 10
6239.0187553361
 20
4165.854408057
 30
0.0
 40
12.01923788646787
100
AcDbArc
 50
146.0630885717
 51
172.8307980831
  0
LINE
  5
255
330
1F
100
AcDbEntity
  8
0
  6
Continuous
 62
     7
370
    25
100
AcDbLine
 10
6246.8768721589
 20
4164.354408057
 30
0.0
 11
6253.0187553361
 21
4164.354408057
 31
0.0
  0
ARC
  5
256
330
1F
100
AcDbEntity
  8
0
  6
Continuous
 62
     7
370
    25
100
AcDbCircle
 10
6239.0187553361
 20
4165.854408057
 30
0.0
 40
8.000000000000211
100
AcDbArc
 50
190.8069228749
 51
349.1930771251
  0
LINE
  5
257
330
1F
100
AcDbEntity
  8
0
  6
Continuous
 62
     7
370
    25
100
AcDbLine
 10
6225.0187553361
 20
4164.354408057
 30
0.0
 11
6231.1606385133
 21
4164.354408057
 31
0.0
  0
LINE
  5
258
330
1F
100
AcDbEntity
  8
0
  6
Continuous
 62
     7
370
    25
100
AcDbLine
 10
6225.0187553361
 20
4167.354408057
 30
0.0
 11
6225.0187553361
 21
4164.354408057
 31
0.0
  0
LINE
  5
259
330
1F
100
AcDbEntity
  8
0
  6
Continuous
 62
     7
370
    25
100
AcDbLine
 10
6231.1606385133
 20
4167.354408057
 30
0.0
 11
6225.0187553361
 21
4167.354408057
 31
0.0
  0
LINE
  5
25A
330
1F
100
AcDbEntity
  8
0
  6
Continuous
 62
     7
370
    25
100
AcDbLine
 10
6253.0187553361
 20
4167.354408057
 30
0.0
 11
6246.8768721589
 21
4167.354408057
 31
0.0
  0
LINE
  5
25B
330
1F
100
AcDbEntity
  8
0
  6
Continuous
 62
     7
370
    25
100
AcDbLine
 10
6253.0187553361
 20
4167.354408057
 30
0.0
 11
6253.0187553361
 21
4164.354408057
 31
0.0
  0
LINE
  5
25C
330
1F
100
AcDbEntity
  8
0
  6
Continuous
 62
     7
370
    25
100
AcDbLine
 10
6219.0187553361
 20
4164.354408057
 30
0.0
 11
6225.0187553361
 21
4164.354408057
 31
0.0
  0
LINE
  5
25D
330
1F
100
AcDbEntity
  8
0
  6
Continuous
 62
     7
370
    25
100
AcDbLine
 10
6219.0187553361
 20
4167.354408057
 30
0.0
 11
6219.0187553361
 21
4164.354408057
 31
0.0
  0
LINE
  5
25E
330
1F
100
AcDbEntity
  8
0
  6
Continuous
 62
     7
370
    25
100
AcDbLine
 10
6219.0187553361
 20
4167.354408057
 30
0.0
 11
6225.0187553361
 21
4167.354408057
 31
0.0
  0
LINE
  5
25F
330
1F
100
AcDbEntity
  8
0
  6
Continuous
 62
     7
370
    25
100
AcDbLine
 10
6259.0187553361
 20
4167.354408057
 30
0.0
 11
6259.0187553361
 21
4164.354408057
 31
0.0
  0
LINE
  5
260
330
1F
100
AcDbEntity
  8
0
  6
Continuous
 62
     7
370
    25
100
AcDbLine
 10
6253.0187553361
 20
4164.354408057
 30
0.0
 11
6259.0187553361
 21
4164.354408057
 31
0.0
  0
LINE
  5
261
330
1F
100
AcDbEntity
  8
0
  6
Continuous
 62
     7
370
    25
100
AcDbLine
 10
6253.0187553361
 20
4167.354408057
 30
0.0
 11
6259.0187553361
 21
4167.354408057
 31
0.0
  0
ARC
  5
262
330
1F
100
AcDbEntity
  8
0
  6
Continuous
 62
     7
370
    25
100
AcDbCircle
 10
6239.0187553361
 20
4165.854408057
 30
0.0
 40
12.01923788646694
100
AcDbArc
 50
187.1692019169
 51
352.8307980831
  0
LINE
  5
263
330
1F
100
AcDbEntity
  8
0
  6
Continuous
 62
     7
370
    25
100
AcDbLine
 10
6072.0187553361
 20
4277.2880794226
 30
0.0
 11
6071.0187553361
 21
4277.2880794226
 31
0.0
  0
LINE
  5
264
330
1F
100
AcDbEntity
  8
0
  6
Continuous
 62
     7
370
    25
100
AcDbLine
 10
6072.0187553361
 20
4427.2880794226
 30
0.0
 11
6071.0187553361
 21
4427.2880794226
 31
0.0
  0
LINE
  5
265
330
1F
100
AcDbEntity
  8
0
  6
Continuous
 62
     7
370
    25
100
AcDbLine
 10
6406.0187553361
 20
4277.2880794226
 30
0.0
 11
6407.0187553361
 21
4277.2880794226
 31
0.0
  0
LINE
  5
266
330
1F
100
AcDbEntity
  8
0
  6
Continuous
 62
     7
370
    25
100
AcDbLine
 10
6406.0187553361
 20
4427.2880794226
 30
0.0
 11
6407.0187553361
 21
4427.2880794226
 31
0.0
  0
LINE
  5
267
330
1F
100
AcDbEntity
  8
0
  6
Continuous
 62
     7
370
    25
100
AcDbLine
 10
6057.0187553361
 20
4277.2880794226
 30
0.0
 11
6056.0187553361
 21
4277.2880794226
 31
0.0
  0
LINE
  5
268
330
1F
100
AcDbEntity
  8
0
  6
Continuous
 62
     7
370
    25
100
AcDbLine
 10
6057.0187553361
 20
4427.2880794226
 30
0.0
 11
6056.0187553361
 21
4427.2880794226
 31
0.0
  0
LINE
  5
269
330
1F
100
AcDbEntity
  8
0
  6
Continuous
 62
     7
370
    25
100
AcDbLine
 10
6421.0187553361
 20
4277.2880794226
 30
0.0
 11
6422.0187553361
 21
4277.2880794226
 31
0.0
  0
LINE
  5
26A
330
1F
100
AcDbEntity
  8
0
  6
Continuous
 62
     7
370
    25
100
AcDbLine
 10
6421.0187553361
 20
4427.2880794226
 30
0.0
 11
6422.0187553361
 21
4427.2880794226
 31
0.0
  0
LINE
  5
26B
330
1F
100
AcDbEntity
  8
0
  6
Continuous
 62
     7
370
    25
100
AcDbLine
 10
6407.0187553361
 20
4277.2880794226
 30
0.0
 11
6421.0187553361
 21
4277.2880794226
 31
0.0
  0
LINE
  5
26C
330
1F
100
AcDbEntity
  8
0
  6
Continuous
 62
     7
370
    25
100
AcDbLine
 10
6407.0187553361
 20
4427.2880794226
 30
0.0
 11
6421.0187553361
 21
4427.2880794226
 31
0.0
  0
LINE
  5
26D
330
1F
100
AcDbEntity
  8
0
  6
Continuous
 62
     7
370
    25
100
AcDbLine
 10
6071.0187553361
 20
4277.2880794226
 30
0.0
 11
6057.0187553361
 21
4277.2880794226
 31
0.0
  0
LINE
  5
26E
330
1F
100
AcDbEntity
  8
0
  6
Continuous
 62
     7
370
    25
100
AcDbLine
 10
6071.0187553361
 20
4427.2880794226
 30
0.0
 11
6057.0187553361
 21
4427.2880794226
 31
0.0
  0
LINE
  5
26F
330
1F
100
AcDbEntity
  8
0
  6
Continuous
 62
     7
370
    25
100
AcDbLine
 10
6251.5187553361
 20
4152.2880794226
 30
0.0
 11
6226.5187553361
 21
4152.2880794226
 31
0.0
  0
ARC
  5
270
330
1F
100
AcDbEntity
  8
0
  6
Continuous
 62
     7
370
    25
100
AcDbCircle
 10
6239.0187553361
 20
4122.2880794226
 30
0.0
 40
7.5
100
AcDbArc
 50
180.0
 51
0.0
  0
ARC
  5
271
330
1F
100
AcDbEntity
  8
0
  6
Continuous
 62
     7
370
    25
100
AcDbCircle
 10
6239.0187553361
 20
4122.2880794226
 30
0.0
 40
12.49999999999927
100
AcDbArc
 50
126.8698976458
 51
53.1301023542
  0
LINE
  5
272
330
1F
100
AcDbEntity
  8
0
  6
Continuous
 62
     8
370
    25
100
AcDbLine
 10
6429.0187553361
 20
4372.2880794226
 30
0.0
 11
6429.0187553361
 21
4332.2880794226
 31
0.0
  0
LINE
  5
273
330
1F
100
AcDbEntity
  8
0
  6
Continuous
 62
     8
370
    25
100
AcDbLine
 10
6421.0187553361
 20
4322.2880794226
 30
0.0
 11
6421.0187553361
 21
4332.2880794226
 31
0.0
  0
LINE
  5
274
330
1F
100
AcDbEntity
  8
0
  6
Continuous
 62
     8
370
    25
100
AcDbLine
 10
6421.0187553361
 20
4372.2880794226
 30
0.0
 11
6421.0187553361
 21
4382.2880794226
 31
0.0
  0
ARC
  5
275
330
1F
100
AcDbEntity
  8
0
  6
Continuous
 62
     8
370
    25
100
AcDbCircle
 10
6388.6843160936
 20
4258.1404486399
 30
0.0
 40
6.1439126586749
100
AcDbArc
 50
268.2049972752
 51
344.0167111718
  0
ARC
  5
276
330
1F
100
AcDbEntity
  8
0
  6
Continuous
 62
     8
370
    25
100
AcDbCircle
 10
6089.3531945786
 20
4258.1404486399
 30
0.0
 40
6.143912658675483
100
AcDbArc
 50
195.9832888282
 51
271.7950027248
  0
LINE
  5
277
330
1F
100
AcDbEntity
  8
0
  6
Continuous
 62
     8
370
    25
100
AcDbLine
 10
6071.0187553361
 20
4277.2880794226
 30
0.0
 11
6071.0187553361
 21
4287.666101737
 31
0.0
  0
LINE
  5
278
330
1F
100
AcDbEntity
  8
0
  6
Continuous
 62
     8
370
    25
100
AcDbLine
 10
6071.0187553361
 20
4416.9100571083
 30
0.0
 11
6071.0187553361
 21
4427.2880794226
 31
0.0
  0
LINE
  5
279
330
1F
100
AcDbEntity
  8
0
  6
Continuous
 62
     8
370
    25
100
AcDbLine
 10
6407.0187553361
 20
4277.2880794226
 30
0.0
 11
6407.0187553361
 21
4287.666101737
 31
0.0
  0
LINE
  5
27A
330
1F
100
AcDbEntity
  8
0
  6
Continuous
 62
     8
370
    25
100
AcDbLine
 10
6407.0187553361
 20
4416.9100571083
 30
0.0
 11
6407.0187553361
 21
4427.2880794226
 31
0.0
  0
LINE
  5
27B
330
1F
100
AcDbEntity
  8
0
  6
Continuous
 62
     8
370
    25
100
AcDbLine
 10
6057.0187553361
 20
4277.2880794226
 30
0.0
 11
6057.0187553361
 21
4321.3602443711
 31
0.0
  0
LINE
  5
27C
330
1F
100
AcDbEntity
  8
0
  6
Continuous
 62
     8
370
    25
100
AcDbLine
 10
6057.0187553361
 20
4383.2159144742
 30
0.0
 11
6057.0187553361
 21
4427.2880794226
 31
0.0
  0
LINE
  5
27D
330
1F
100
AcDbEntity
  8
0
  6
Continuous
 62
     8
370
    25
100
AcDbLine
 10
6421.0187553361
 20
4277.2880794226
 30
0.0
 11
6421.0187553361
 21
4321.3602443711
 31
0.0
  0
LINE
  5
27E
330
1F
100
AcDbEntity
  8
0
  6
Continuous
 62
     8
370
    25
100
AcDbLine
 10
6421.0187553361
 20
4383.2159144742
 30
0.0
 11
6421.0187553361
 21
4427.2880794226
 31
0.0
  0
LINE
  5
27F
330
1F
100
AcDbEntity
  8
0
  6
Continuous
 62
     8
370
    25
100
AcDbLine
 10
6246.5187553361
 20
4137.2880794226
 30
0.0
 11
6231.5187553361
 21
4137.2880794226
 31
0.0
  0
ARC
  5
280
330
1F
100
AcDbEntity
  8
0
  6
Continuous
 62
     8
370
    25
100
AcDbCircle
 10
6387.7302186849
 20
4253.9964205014
 30
0.0
 40
5.942600928557336
100
AcDbArc
 50
252.6597070289
 51
326.6437507156
  0
ARC
  5
281
330
1F
100
AcDbEntity
  8
0
  6
Continuous
 62
     8
370
    25
100
AcDbCircle
 10
6090.3072917703
 20
4253.9964080463
 30
0.0
 40
5.942589104183683
100
AcDbArc
 50
213.3557693984
 51
287.3403307602
  0
LWPOLYLINE
  5
282
330
1F
100
AcDbEntity
  8
0
  6
Continuous
 62
     8
370
    25
100
AcDbPolyline
 90
       16
 70
   128
 43
0.0
 10
6139.0749330868
 20
4176.2090447333
 10
6139.3256366729
 20
4175.5726373909
 10
6139.5019286266
 20
4174.3745428038
 10
6139.3441250923
 20
4173.1063198045
 10
6138.8596047881
 20
4171.8272690908
 10
6138.0710233448
 20
4170.5971976527
 10
6137.0152539542
 20
4169.4736222634
 10
6135.7416632196
 20
4168.5090800593
 10
6134.3098028284
 20
4167.748671962
 10
6132.7866249809
 20
4167.2279538088
 10
6131.2433517805
 20
4166.971273802
 10
6129.7521449668
 20
4166.9906340133
 10
6128.382731713
 20
4167.2851291809
 10
6127.1991442609
 20
4167.8409890378
 10
6126.2567258443
 20
4168.6322221952
 10
6125.6387860539
 20
4169.5404652062
  0
LWPOLYLINE
  5
283
330
1F
100
AcDbEntity
  8
0
  6
Continuous
 62
     8
370
    25
100
AcDbPolyline
 90
       16
 70
   128
 43
0.0
 10
6338.9625775854
 20
4176.2090447333
 10
6338.7118739993
 20
4175.5726373909
 10
6338.5355820456
 20
4174.3745428038
 10
6338.6933855799
 20
4173.1063198045
 10
6339.1779058841
 20
4171.8272690908
 10
6339.9664873274
 20
4170.5971976527
 10
6341.022256718
 20
4169.4736222634
 10
6342.2958474526
 20
4168.5090800593
 10
6343.7277078438
 20
4167.748671962
 10
6345.2508856913
 20
4167.2279538088
 10
6346.7941588917
 20
4166.971273802
 10
6348.2853657054
 20
4166.9906340133
 10
6349.6547789592
 20
4167.2851291809
 10
6350.8383664113
 20
4167.8409890378
 10
6351.7807848279
 20
4168.6322221952
 10
6352.3987246183
 20
4169.5404652062
  0
LINE
  5
284
330
1F
100
AcDbEntity
  8
0
  6
Continuous
 62
     8
370
    25
100
AcDbLine
 10
6317.0998572681
 20
4166.9520746729
 30
0.0
 11
6317.0998572681
 21
4151.9520755647
 31
0.0
  0
LINE
  5
285
330
1F
100
AcDbEntity
  8
0
  6
Continuous
 62
     8
370
    25
100
AcDbLine
 10
6160.9376534041
 20
4166.9520746729
 30
0.0
 11
6160.9376534041
 21
4151.9520755598
 31
0.0
  0
ENDSEC
  0
SECTION
  2
OBJECTS
  0
DICTIONARY
  5
C
330
0
100
AcDbDictionary
281
     1
  3
ACAD_GROUP
350
D
  3
ACAD_LAYOUT
350
1A
  3
ACAD_MLINESTYLE
350
17
  3
ACAD_PLOTSETTINGS
350
19
  3
ACAD_PLOTSTYLENAME
350
E
  3
ACAD_SCALELIST
350
47
  0
DICTIONARY
  5
D
102
{ACAD_REACTORS
330
C
102
}
330
C
100
AcDbDictionary
281
     1
  0
DICTIONARY
  5
1A
102
{ACAD_REACTORS
330
C
102
}
330
C
100
AcDbDictionary
281
     1
  3
Layout1
350
1E
  3
Layout2
350
26
  3
Model
350
22
  0
DICTIONARY
  5
17
102
{ACAD_REACTORS
330
C
102
}
330
C
100
AcDbDictionary
281
     1
  3
Standard
350
18
  0
DICTIONARY
  5
19
102
{ACAD_REACTORS
330
C
102
}
330
C
100
AcDbDictionary
281
     1
  0
ACDBDICTIONARYWDFLT
  5
E
102
{ACAD_REACTORS
330
C
102
}
330
C
100
AcDbDictionary
281
     1
  3
Normal
350
F
100
AcDbDictionaryWithDefault
340
F
  0
DICTIONARY
  5
47
102
{ACAD_REACTORS
330
C
102
}
330
C
100
AcDbDictionary
281
     1
  3
A0
350
48
  3
A1
350
49
  3
A2
350
4A
  3
A3
350
4B
  3
A4
350
4C
  3
A5
350
4D
  3
A6
350
4E
  3
A7
350
4F
  3
A8
350
50
  3
A9
350
51
  3
B0
350
52
  3
B1
350
53
  3
B2
350
54
  3
B3
350
55
  3
B4
350
56
  3
B5
350
57
  3
B6
350
58
  3
B7
350
59
  3
B8
350
5A
  3
B9
350
5B
  3
C0
350
5C
  3
C1
350
5D
  3
C2
350
5E
  3
C3
350
5F
  3
C4
350
60
  3
C5
350
61
  3
C6
350
62
  3
C7
350
63
  3
C8
350
64
  3
C9
350
65
  3
D0
350
66
  3
D1
350
67
  3
D2
350
68
  0
LAYOUT
  5
1E
102
{ACAD_REACTORS
330
1A
102
}
330
1A
100
AcDbPlotSettings
  1

  2
none_device
  4

  6

 40
0.0
 41
0.0
 42
0.0
 43
0.0
 44
0.0
 45
0.0
 46
0.0
 47
0.0
 48
0.0
 49
0.0
140
0.0
141
0.0
142
1.0
143
1.0
 70
   688
 72
     1
 73
     0
 74
     5
  7

 75
    16
147
1.0
148
0.0
149
0.0
100
AcDbLayout
  1
Layout1
 70
     1
 71
     1
 10
0.0
 20
0.0
 11
420.0
 21
297.0
 12
0.0
 22
0.0
 32
0.0
 14
1.0000000000E+20
 24
1.0000000000E+20
 34
1.0000000000E+20
 15
-1.0000000000E+20
 25
-1.0000000000E+20
 35
-1.0000000000E+20
146
0.0
 13
0.0
 23
0.0
 33
0.0
 16
1.0
 26
0.0
 36
0.0
 17
0.0
 27
1.0
 37
0.0
 76
     0
330
1B
  0
LAYOUT
  5
26
102
{ACAD_REACTORS
330
1A
102
}
330
1A
100
AcDbPlotSettings
  1

  2
none_device
  4

  6

 40
0.0
 41
0.0
 42
0.0
 43
0.0
 44
0.0
 45
0.0
 46
0.0
 47
0.0
 48
0.0
 49
0.0
140
0.0
141
0.0
142
1.0
143
1.0
 70
   688
 72
     1
 73
     0
 74
     5
  7

 75
    16
147
1.0
148
0.0
149
0.0
100
AcDbLayout
  1
Layout2
 70
     1
 71
     2
 10
0.0
 20
0.0
 11
0.0
 21
0.0
 12
0.0
 22
0.0
 32
0.0
 14
0.0
 24
0.0
 34
0.0
 15
0.0
 25
0.0
 35
0.0
146
0.0
 13
0.0
 23
0.0
 33
0.0
 16
1.0
 26
0.0
 36
0.0
 17
0.0
 27
1.0
 37
0.0
 76
     0
330
23
  0
LAYOUT
  5
22
102
{ACAD_REACTORS
330
1A
102
}
330
1A
100
AcDbPlotSettings
  1

  2
none_device
  4
Letter_(8.50_x_11.00_Inches)
  6

 40
6.35
 41
6.35
 42
6.35000508
 43
6.35000508
 44
215.9
 45
279.4
 46
0.0
 47
0.0
 48
0.0
 49
0.0
140
0.0
141
0.0
142
1.0
143
1.0
 70
  1712
 72
     1
 73
     0
 74
     0
  7

 75
     0
147
1.0
148
0.0
149
0.0
100
AcDbLayout
  1
Model
 70
     1
 71
     0
 10
0.0
 20
0.0
 11
20000.0
 21
10000.0
 12
0.0
 22
0.0
 32
0.0
 14
0.0
 24
0.0
 34
0.0
 15
20000.0
 25
10000.0
 35
0.0
146
0.0
 13
0.0
 23
0.0
 33
0.0
 16
1.0
 26
0.0
 36
0.0
 17
0.0
 27
1.0
 37
0.0
 76
     0
330
1F
331
29
  0
MLINESTYLE
  5
18
102
{ACAD_REACTORS
330
17
102
}
330
17
100
AcDbMlineStyle
  2
Standard
 70
     0
  3

 62
   256
 51
90.0
 52
90.0
 71
     2
 49
0.5
 62
   256
  6
BYLAYER
 49
-0.5
 62
   256
  6
BYLAYER
  0
ACDBPLACEHOLDER
  5
F
102
{ACAD_REACTORS
330
E
102
}
330
E
  0
SCALE
  5
48
102
{ACAD_REACTORS
330
47
102
}
330
47
100
AcDbScale
 70
     0
300
1:1
140
1.0
141
1.0
290
     1
  0
SCALE
  5
49
102
{ACAD_REACTORS
330
47
102
}
330
47
100
AcDbScale
 70
     0
300
1:2
140
1.0
141
2.0
290
     0
  0
SCALE
  5
4A
102
{ACAD_REACTORS
330
47
102
}
330
47
100
AcDbScale
 70
     0
300
1:4
140
1.0
141
4.0
290
     0
  0
SCALE
  5
4B
102
{ACAD_REACTORS
330
47
102
}
330
47
100
AcDbScale
 70
     0
300
1:5
140
1.0
141
5.0
290
     0
  0
SCALE
  5
4C
102
{ACAD_REACTORS
330
47
102
}
330
47
100
AcDbScale
 70
     0
300
1:8
140
1.0
141
8.0
290
     0
  0
SCALE
  5
4D
102
{ACAD_REACTORS
330
47
102
}
330
47
100
AcDbScale
 70
     0
300
1:10
140
1.0
141
10.0
290
     0
  0
SCALE
  5
4E
102
{ACAD_REACTORS
330
47
102
}
330
47
100
AcDbScale
 70
     0
300
1:16
140
1.0
141
16.0
290
     0
  0
SCALE
  5
4F
102
{ACAD_REACTORS
330
47
102
}
330
47
100
AcDbScale
 70
     0
300
1:20
140
1.0
141
20.0
290
     0
  0
SCALE
  5
50
102
{ACAD_REACTORS
330
47
102
}
330
47
100
AcDbScale
 70
     0
300
1:30
140
1.0
141
30.0
290
     0
  0
SCALE
  5
51
102
{ACAD_REACTORS
330
47
102
}
330
47
100
AcDbScale
 70
     0
300
1:40
140
1.0
141
40.0
290
     0
  0
SCALE
  5
52
102
{ACAD_REACTORS
330
47
102
}
330
47
100
AcDbScale
 70
     0
300
1:50
140
1.0
141
50.0
290
     0
  0
SCALE
  5
53
102
{ACAD_REACTORS
330
47
102
}
330
47
100
AcDbScale
 70
     0
300
1:100
140
1.0
141
100.0
290
     0
  0
SCALE
  5
54
102
{ACAD_REACTORS
330
47
102
}
330
47
100
AcDbScale
 70
     0
300
2:1
140
2.0
141
1.0
290
     0
  0
SCALE
  5
55
102
{ACAD_REACTORS
330
47
102
}
330
47
100
AcDbScale
 70
     0
300
4:1
140
4.0
141
1.0
290
     0
  0
SCALE
  5
56
102
{ACAD_REACTORS
330
47
102
}
330
47
100
AcDbScale
 70
     0
300
8:1
140
8.0
141
1.0
290
     0
  0
SCALE
  5
57
102
{ACAD_REACTORS
330
47
102
}
330
47
100
AcDbScale
 70
     0
300
10:1
140
10.0
141
1.0
290
     0
  0
SCALE
  5
58
102
{ACAD_REACTORS
330
47
102
}
330
47
100
AcDbScale
 70
     0
300
100:1
140
100.0
141
1.0
290
     0
  0
SCALE
  5
59
102
{ACAD_REACTORS
330
47
102
}
330
47
100
AcDbScale
 70
     0
300
1/128" = 1'-0"
140
0.0078125
141
12.0
290
     0
  0
SCALE
  5
5A
102
{ACAD_REACTORS
330
47
102
}
330
47
100
AcDbScale
 70
     0
300
1/64" = 1'-0"
140
0.015625
141
12.0
290
     0
  0
SCALE
  5
5B
102
{ACAD_REACTORS
330
47
102
}
330
47
100
AcDbScale
 70
     0
300
1/32" = 1'-0"
140
0.03125
141
12.0
290
     0
  0
SCALE
  5
5C
102
{ACAD_REACTORS
330
47
102
}
330
47
100
AcDbScale
 70
     0
300
1/16" = 1'-0"
140
0.0625
141
12.0
290
     0
  0
SCALE
  5
5D
102
{ACAD_REACTORS
330
47
102
}
330
47
100
AcDbScale
 70
     0
300
3/32" = 1'-0"
140
0.09375
141
12.0
290
     0
  0
SCALE
  5
5E
102
{ACAD_REACTORS
330
47
102
}
330
47
100
AcDbScale
 70
     0
300
1/8" = 1'-0"
140
0.125
141
12.0
290
     0
  0
SCALE
  5
5F
102
{ACAD_REACTORS
330
47
102
}
330
47
100
AcDbScale
 70
     0
300
3/16" = 1'-0"
140
0.1875
141
12.0
290
     0
  0
SCALE
  5
60
102
{ACAD_REACTORS
330
47
102
}
330
47
100
AcDbScale
 70
     0
300
1/4" = 1'-0"
140
0.25
141
12.0
290
     0
  0
SCALE
  5
61
102
{ACAD_REACTORS
330
47
102
}
330
47
100
AcDbScale
 70
     0
300
3/8" = 1'-0"
140
0.375
141
12.0
290
     0
  0
SCALE
  5
62
102
{ACAD_REACTORS
330
47
102
}
330
47
100
AcDbScale
 70
     0
300
1/2" = 1'-0"
140
0.5
141
12.0
290
     0
  0
SCALE
  5
63
102
{ACAD_REACTORS
330
47
102
}
330
47
100
AcDbScale
 70
     0
300
3/4" = 1'-0"
140
0.75
141
12.0
290
     0
  0
SCALE
  5
64
102
{ACAD_REACTORS
330
47
102
}
330
47
100
AcDbScale
 70
     0
300
1" = 1'-0"
140
1.0
141
12.0
290
     0
  0
SCALE
  5
65
102
{ACAD_REACTORS
330
47
102
}
330
47
100
AcDbScale
 70
     0
300
1-1/2" = 1'-0"
140
1.5
141
12.0
290
     0
  0
SCALE
  5
66
102
{ACAD_REACTORS
330
47
102
}
330
47
100
AcDbScale
 70
     0
300
3" = 1'-0"
140
3.0
141
12.0
290
     0
  0
SCALE
  5
67
102
{ACAD_REACTORS
330
47
102
}
330
47
100
AcDbScale
 70
     0
300
6" = 1'-0"
140
6.0
141
12.0
290
     0
  0
SCALE
  5
68
102
{ACAD_REACTORS
330
47
102
}
330
47
100
AcDbScale
 70
     0
300
1'-0" = 1'-0"
140
12.0
141
12.0
290
     0
  0
ENDSEC
  0
EOF
