  0
SECTION
  2
HEADER
  9
$ACADVER
  1
AC1015
  9
$ACADMAINTVER
 70
     6
  9
$DWGCODEPAGE
  3
ANSI_1250
  9
$INSBASE
 10
0.0
 20
0.0
 30
0.0
  9
$EXTMIN
 10
0.0
 20
0.0
 30
0.0
  9
$EXTMAX
 10
20000.0
 20
10000.0
 30
0.0
  9
$LIMMIN
 10
0.0
 20
0.0
  9
$LIMMAX
 10
20000.0
 20
10000.0
  9
$ORTHOMODE
 70
     0
  9
$REGENMODE
 70
     1
  9
$FILLMODE
 70
     1
  9
$QTEXTMODE
 70
     0
  9
$MIRRTEXT
 70
     1
  9
$LTSCALE
 40
1.0
  9
$ATTMODE
 70
     1
  9
$TEXTSIZE
 40
2.0
  9
$TRACEWID
 40
1.0
  9
$TEXTSTYLE
  7
Standard
  9
$CLAYER
  8
0
  9
$CELTYPE
  6
ByLayer
  9
$CECOLOR
 62
   256
  9
$CELTSCALE
 40
1.0
  9
$DISPSILH
 70
     0
  9
$DIMSCALE
 40
1.0
  9
$DIMASZ
 40
2.0
  9
$DIMEXO
 40
1.0
  9
$DIMDLI
 40
3.75
  9
$DIMRND
 40
0.0
  9
$DIMDLE
 40
0.0
  9
$DIMEXE
 40
1.0
  9
$DIMTP
 40
0.0
  9
$DIMTM
 40
0.0
  9
$DIMTXT
 40
2.0
  9
$DIMCEN
 40
2.5
  9
$DIMTSZ
 40
0.0
  9
$DIMTOL
 70
     0
  9
$DIMLIM
 70
     0
  9
$DIMTIH
 70
     1
  9
$DIMTOH
 70
     1
  9
$DIMSE1
 70
     0
  9
$DIMSE2
 70
     0
  9
$DIMTAD
 70
     1
  9
$DIMZIN
 70
     0
  9
$DIMBLK
  1

  9
$DIMASO
 70
     1
  9
$DIMSHO
 70
     1
  9
$DIMPOST
  1

  9
$DIMAPOST
  1

  9
$DIMALT
 70
     0
  9
$DIMALTD
 70
     3
  9
$DIMALTF
 40
0.0393700787
  9
$DIMLFAC
 40
1.0
  9
$DIMTOFL
 70
     1
  9
$DIMTVP
 40
0.0
  9
$DIMTIX
 70
     0
  9
$DIMSOXD
 70
     0
  9
$DIMSAH
 70
     0
  9
$DIMBLK1
  1

  9
$DIMBLK2
  1

  9
$DIMSTYLE
  2
ISO-25
  9
$DIMCLRD
 70
     0
  9
$DIMCLRE
 70
     0
  9
$DIMCLRT
 70
     0
  9
$DIMTFAC
 40
1.0
  9
$DIMGAP
 40
1.524
  9
$DIMJUST
 70
     0
  9
$DIMSD1
 70
     0
  9
$DIMSD2
 70
     0
  9
$DIMTOLJ
 70
     0
  9
$DIMTZIN
 70
     0
  9
$DIMALTZ
 70
     0
  9
$DIMALTTZ
 70
     0
  9
$DIMUPT
 70
     0
  9
$DIMDEC
 70
     2
  9
$DIMTDEC
 70
     0
  9
$DIMALTU
 70
     2
  9
$DIMALTTD
 70
     3
  9
$DIMTXSTY
  7
Standard
  9
$DIMAUNIT
 70
     0
  9
$DIMADEC
 70
     2
  9
$DIMALTRND
 40
0.0
  9
$DIMAZIN
 70
     0
  9
$DIMDSEP
 70
    44
  9
$DIMATFIT
 70
     3
  9
$DIMFRAC
 70
     0
  9
$DIMLDRBLK
  1

  9
$DIMLUNIT
 70
     2
  9
$DIMLWD
 70
    -2
  9
$DIMLWE
 70
    -2
  9
$DIMTMOVE
 70
     0
  9
$LUNITS
 70
     2
  9
$LUPREC
 70
     3
  9
$SKETCHINC
 40
1.0
  9
$FILLETRAD
 40
10.0
  9
$AUNITS
 70
     0
  9
$AUPREC
 70
     2
  9
$MENU
  1
.
  9
$ELEVATION
 40
0.0
  9
$PELEVATION
 40
0.0
  9
$THICKNESS
 40
0.0
  9
$LIMCHECK
 70
     0
  9
$CHAMFERA
 40
0.0
  9
$CHAMFERB
 40
0.0
  9
$CHAMFERC
 40
0.0
  9
$CHAMFERD
 40
0.0
  9
$SKPOLY
 70
     0
  9
$TDCREATE
 40
2460286.37022743
  9
$TDUCREATE
 40
2460286.328560764
  9
$TDUPDATE
 40
2460286.370228276
  9
$TDUUPDATE
 40
2460286.328561609
  9
$TDINDWG
 40
0.0000000116
  9
$TDUSRTIMER
 40
0.0000000116
  9
$USRTIMER
 70
     1
  9
$ANGBASE
 50
0.0
  9
$ANGDIR
 70
     0
  9
$PDMODE
 70
     0
  9
$PDSIZE
 40
-1.0
  9
$PLINEWID
 40
0.0
  9
$SPLFRAME
 70
     0
  9
$SPLINETYPE
 70
     6
  9
$SPLINESEGS
 70
     8
  9
$HANDSEED
  5
1B7
  9
$SURFTAB1
 70
     6
  9
$SURFTAB2
 70
     6
  9
$SURFTYPE
 70
     6
  9
$SURFU
 70
     6
  9
$SURFV
 70
     6
  9
$UCSBASE
  2

  9
$UCSNAME
  2

  9
$UCSORG
 10
0.0
 20
0.0
 30
0.0
  9
$UCSXDIR
 10
1.0
 20
0.0
 30
0.0
  9
$UCSYDIR
 10
0.0
 20
1.0
 30
0.0
  9
$UCSORTHOREF
  2

  9
$UCSORTHOVIEW
 70
     0
  9
$UCSORGTOP
 10
0.0
 20
0.0
 30
0.0
  9
$UCSORGBOTTOM
 10
0.0
 20
0.0
 30
0.0
  9
$UCSORGLEFT
 10
0.0
 20
0.0
 30
0.0
  9
$UCSORGRIGHT
 10
0.0
 20
0.0
 30
0.0
  9
$UCSORGFRONT
 10
0.0
 20
0.0
 30
0.0
  9
$UCSORGBACK
 10
0.0
 20
0.0
 30
0.0
  9
$PUCSBASE
  2

  9
$PUCSNAME
  2

  9
$PUCSORG
 10
0.0
 20
0.0
 30
0.0
  9
$PUCSXDIR
 10
1.0
 20
0.0
 30
0.0
  9
$PUCSYDIR
 10
0.0
 20
1.0
 30
0.0
  9
$PUCSORTHOREF
  2

  9
$PUCSORTHOVIEW
 70
     0
  9
$PUCSORGTOP
 10
0.0
 20
0.0
 30
0.0
  9
$PUCSORGBOTTOM
 10
0.0
 20
0.0
 30
0.0
  9
$PUCSORGLEFT
 10
0.0
 20
0.0
 30
0.0
  9
$PUCSORGRIGHT
 10
0.0
 20
0.0
 30
0.0
  9
$PUCSORGFRONT
 10
0.0
 20
0.0
 30
0.0
  9
$PUCSORGBACK
 10
0.0
 20
0.0
 30
0.0
  9
$USERI1
 70
     0
  9
$USERI2
 70
     0
  9
$USERI3
 70
     0
  9
$USERI4
 70
     0
  9
$USERI5
 70
     0
  9
$USERR1
 40
0.0
  9
$USERR2
 40
0.0
  9
$USERR3
 40
0.0
  9
$USERR4
 40
0.0
  9
$USERR5
 40
0.0
  9
$WORLDVIEW
 70
     1
  9
$SHADEDGE
 70
     3
  9
$SHADEDIF
 70
    70
  9
$TILEMODE
 70
     1
  9
$MAXACTVP
 70
    64
  9
$PINSBASE
 10
0.0
 20
0.0
 30
0.0
  9
$PLIMCHECK
 70
     0
  9
$PEXTMIN
 10
1.0000000000E+20
 20
1.0000000000E+20
 30
1.0000000000E+20
  9
$PEXTMAX
 10
-1.0000000000E+20
 20
-1.0000000000E+20
 30
-1.0000000000E+20
  9
$PLIMMIN
 10
0.0
 20
0.0
  9
$PLIMMAX
 10
420.0
 20
297.0
  9
$UNITMODE
 70
     0
  9
$VISRETAIN
 70
     1
  9
$PLINEGEN
 70
     0
  9
$PSLTSCALE
 70
     1
  9
$TREEDEPTH
 70
  3020
  9
$CMLSTYLE
  2
Standard
  9
$CMLJUST
 70
     0
  9
$CMLSCALE
 40
20.0
  9
$PROXYGRAPHICS
 70
     1
  9
$MEASUREMENT
 70
     1
  9
$CELWEIGHT
370
    -1
  9
$ENDCAPS
280
     0
  9
$JOINSTYLE
280
     0
  9
$LWDISPLAY
290
     1
  9
$INSUNITS
 70
     4
  9
$HYPERLINKBASE
  1

  9
$STYLESHEET
  1

  9
$XEDIT
290
     1
  9
$CEPSNTYPE
380
     0
  9
$PSTYLEMODE
290
     1
  9
$FINGERPRINTGUID
  2
{04c7da11-a421-42a4-97a1-3b4901423489}
  9
$VERSIONGUID
  2
{FAEB1C32-E019-11D5-929B-00C0DF256EC4}
  9
$EXTNAMES
290
     1
  9
$PSVPSCALE
 40
0.0
  9
$OLESTARTUP
290
     0
  0
ENDSEC
  0
SECTION
  2
CLASSES
  0
CLASS
  1
ACDBDICTIONARYWDFLT
  2
AcDbDictionaryWithDefault
  3
ObjectDBX Classes
 90
        0
280
     0
281
     0
  0
CLASS
  1
VISUALSTYLE
  2
AcDbVisualStyle
  3
ObjectDBX Classes
 90
     4095
280
     0
281
     0
  0
CLASS
  1
MATERIAL
  2
AcDbMaterial
  3
ObjectDBX Classes
 90
     1153
280
     0
281
     0
  0
CLASS
  1
SCALE
  2
AcDbScale
  3
ObjectDBX Classes
 90
     1153
280
     0
281
     0
  0
CLASS
  1
TABLESTYLE
  2
AcDbTableStyle
  3
ObjectDBX Classes
 90
     4095
280
     0
281
     0
  0
CLASS
  1
MLEADERSTYLE
  2
AcDbMLeaderStyle
  3
ACDB_MLEADERSTYLE_CLASS
 90
     4095
280
     0
281
     0
  0
CLASS
  1
SUN
  2
AcDbSun
  3
SCENEOE
 90
     1153
280
     0
281
     0
  0
CLASS
  1
ACDBPLACEHOLDER
  2
AcDbPlaceHolder
  3
ObjectDBX Classes
 90
        0
280
     0
281
     0
  0
CLASS
  1
LAYOUT
  2
AcDbLayout
  3
ObjectDBX Classes
 90
        0
280
     0
281
     0
  0
ENDSEC
  0
SECTION
  2
TABLES
  0
TABLE
  2
VPORT
  5
8
330
0
100
AcDbSymbolTable
 70
     1
  0
VPORT
  5
29
330
8
100
AcDbSymbolTableRecord
100
AcDbViewportTableRecord
  2
*Active
 70
     0
 10
0.0
 20
0.0
 11
1.0
 21
1.0
 12
10000.0
 22
5000.0
 13
0.0
 23
0.0
 14
10.0
 24
10.0
 15
10.0
 25
10.0
 16
0.0
 26
0.0
 36
1.0
 17
0.0
 27
0.0
 37
0.0
 40
10000.0
 41
2.0
 42
50.0
 43
0.0
 44
0.0
 50
0.0
 51
0.0
 71
     0
 72
  2000
 73
     1
 74
     3
 75
     0
 76
     0
 77
     0
 78
     0
281
     0
 65
     1
110
0.0
120
0.0
130
0.0
111
1.0
121
0.0
131
0.0
112
0.0
122
1.0
132
0.0
 79
     0
146
0.0
  0
ENDTAB
  0
TABLE
  2
LTYPE
  5
5
330
0
100
AcDbSymbolTable
 70
     6
  0
LTYPE
  5
14
330
5
100
AcDbSymbolTableRecord
100
AcDbLinetypeTableRecord
  2
ByBlock
 70
     0
  3

 72
    65
 73
     0
 40
0.0
  0
LTYPE
  5
15
330
5
100
AcDbSymbolTableRecord
100
AcDbLinetypeTableRecord
  2
ByLayer
 70
     0
  3

 72
    65
 73
     0
 40
0.0
  0
LTYPE
  5
16
330
5
100
AcDbSymbolTableRecord
100
AcDbLinetypeTableRecord
  2
Continuous
 70
     0
  3
Solid line
 72
    65
 73
     0
 40
0.0
  0
LTYPE
  5
6E
330
5
100
AcDbSymbolTableRecord
100
AcDbLinetypeTableRecord
  2
HIDDEN
 70
     0
  3
Hidden __ __ __ __ __ __ __ __ __ __ __ __ __ __
 72
    65
 73
     2
 40
1.905
 49
1.27
 74
     0
 49
-0.635
 74
     0
  0
LTYPE
  5
6F
330
5
100
AcDbSymbolTableRecord
100
AcDbLinetypeTableRecord
  2
PHANTOM
 70
     0
  3
Phantom ______  __  __  ______  __  __  ______
 72
    65
 73
     6
 40
12.7
 49
6.35
 74
     0
 49
-1.27
 74
     0
 49
1.27
 74
     0
 49
-1.27
 74
     0
 49
1.27
 74
     0
 49
-1.27
 74
     0
  0
LTYPE
  5
70
330
5
100
AcDbSymbolTableRecord
100
AcDbLinetypeTableRecord
  2
CENTER
 70
     0
  3
Center ____ _ ____ _ ____ _ ____ _ ____ _ ____
 72
    65
 73
     4
 40
10.16
 49
6.35
 74
     0
 49
-1.27
 74
     0
 49
1.27
 74
     0
 49
-1.27
 74
     0
  0
LTYPE
  5
71
330
5
100
AcDbSymbolTableRecord
100
AcDbLinetypeTableRecord
  2
CENTERX2
 70
     0
  3
Center (2x) ________  __  ________  __  _____
 72
    65
 73
     4
 40
20.32
 49
12.7
 74
     0
 49
-2.54
 74
     0
 49
2.54
 74
     0
 49
-2.54
 74
     0
  0
LTYPE
  5
72
330
5
100
AcDbSymbolTableRecord
100
AcDbLinetypeTableRecord
  2
DOT2
 70
     0
  3
Dot (.5x) ........................................
 72
    65
 73
     2
 40
0.635
 49
0.0
 74
     0
 49
-0.635
 74
     0
  0
ENDTAB
  0
TABLE
  2
LAYER
  5
2
330
0
100
AcDbSymbolTable
 70
    13
  0
LAYER
  5
10
330
2
100
AcDbSymbolTableRecord
100
AcDbLayerTableRecord
  2
0
 70
     0
 62
     7
  6
Continuous
370
    -3
390
F
  0
LAYER
  5
73
330
2
100
AcDbSymbolTableRecord
100
AcDbLayerTableRecord
  2
FORMAT
 70
     0
 62
     7
  6
Continuous
370
    -3
390
F
  0
LAYER
  5
74
330
2
100
AcDbSymbolTableRecord
100
AcDbLayerTableRecord
  2
OSA
 70
     0
 62
     7
  6
CENTER
370
    -3
390
F
  0
LAYER
  5
75
330
2
100
AcDbSymbolTableRecord
100
AcDbLayerTableRecord
  2
0_35
 70
     0
 62
     7
  6
Continuous
370
    35
390
F
  0
LAYER
  5
76
330
2
100
AcDbSymbolTableRecord
100
AcDbLayerTableRecord
  2
0_5
 70
     0
 62
     7
  6
Continuous
370
    50
390
F
  0
LAYER
  5
77
330
2
100
AcDbSymbolTableRecord
100
AcDbLayerTableRecord
  2
0_25
 70
     0
 62
     7
  6
Continuous
370
    25
390
F
  0
LAYER
  5
78
330
2
100
AcDbSymbolTableRecord
100
AcDbLayerTableRecord
  2
0_18
 70
     0
 62
     7
  6
Continuous
370
    -3
390
F
  0
LAYER
  5
79
330
2
100
AcDbSymbolTableRecord
100
AcDbLayerTableRecord
  2
SLD-0
 70
     0
 62
   179
  6
Continuous
370
    -3
390
F
  0
LAYER
  5
7A
330
2
100
AcDbSymbolTableRecord
100
AcDbLayerTableRecord
  2
KOTY
 70
     0
 62
     7
  6
Continuous
370
    -3
390
F
  0
LAYER
  5
7B
330
2
100
AcDbSymbolTableRecord
100
AcDbLayerTableRecord
  2
SILNA
 70
     0
 62
   179
  6
Continuous
370
    -3
390
F
  0
LAYER
  5
7C
330
2
100
AcDbSymbolTableRecord
100
AcDbLayerTableRecord
  2
0_18_1
 70
     0
 62
   179
  6
Continuous
370
    -3
390
F
  0
LAYER
  5
7D
330
2
100
AcDbSymbolTableRecord
100
AcDbLayerTableRecord
  2
0_35_1
 70
     0
 62
   179
  6
Continuous
370
    35
390
F
  0
LAYER
  5
7E
330
2
100
AcDbSymbolTableRecord
100
AcDbLayerTableRecord
  2
0_5_1
 70
     0
 62
   179
  6
Continuous
370
    50
390
F
  0
ENDTAB
  0
TABLE
  2
STYLE
  5
3
330
0
100
AcDbSymbolTable
 70
     1
  0
STYLE
  5
11
330
3
100
AcDbSymbolTableRecord
100
AcDbTextStyleTableRecord
  2
Standard
 70
     0
 40
0.0
 41
1.0
 50
0.0
 71
     0
 42
2.0
  3
txt
  4

  0
ENDTAB
  0
TABLE
  2
VIEW
  5
6
330
0
100
AcDbSymbolTable
 70
     0
  0
ENDTAB
  0
TABLE
  2
UCS
  5
7
330
0
100
AcDbSymbolTable
 70
     0
  0
ENDTAB
  0
TABLE
  2
APPID
  5
9
330
0
100
AcDbSymbolTable
 70
     1
  0
APPID
  5
12
330
9
100
AcDbSymbolTableRecord
100
AcDbRegAppTableRecord
  2
ACAD
 70
     0
  0
ENDTAB
  0
TABLE
  2
DIMSTYLE
  5
A
330
0
100
AcDbSymbolTable
 70
     1
100
AcDbDimStyleTable
  0
DIMSTYLE
105
27
330
A
100
AcDbSymbolTableRecord
100
AcDbDimStyleTableRecord
  2
ISO-25
 70
     0
 41
2.5
 42
0.625
 43
3.75
 44
1.25
 73
     0
 74
     0
 77
     1
 78
     8
140
2.5
141
2.5
143
0.0393700787
147
0.625
171
     3
172
     1
178
     0
271
     2
272
     2
274
     3
278
    44
283
     0
284
     8
340
11
  0
ENDTAB
  0
TABLE
  2
BLOCK_RECORD
  5
1
330
0
100
AcDbSymbolTable
 70
     1
  0
BLOCK_RECORD
  5
1F
330
1
100
AcDbSymbolTableRecord
100
AcDbBlockTableRecord
  2
*Model_Space
340
22
  0
BLOCK_RECORD
  5
1B
330
1
100
AcDbSymbolTableRecord
100
AcDbBlockTableRecord
  2
*Paper_Space
340
1E
  0
BLOCK_RECORD
  5
23
330
1
100
AcDbSymbolTableRecord
100
AcDbBlockTableRecord
  2
*Paper_Space0
340
26
  0
ENDTAB
  0
ENDSEC
  0
SECTION
  2
BLOCKS
  0
BLOCK
  5
20
330
1F
100
AcDbEntity
  8
0
100
AcDbBlockBegin
  2
*Model_Space
 70
     0
 10
0.0
 20
0.0
 30
0.0
  3
*Model_Space
  1

  0
ENDBLK
  5
21
330
1F
100
AcDbEntity
  8
0
100
AcDbBlockEnd
  0
BLOCK
  5
1C
330
1B
100
AcDbEntity
 67
     1
  8
0
100
AcDbBlockBegin
  2
*Paper_Space
 70
     0
 10
0.0
 20
0.0
 30
0.0
  3
*Paper_Space
  1

  0
ENDBLK
  5
1D
330
1B
100
AcDbEntity
 67
     1
  8
0
100
AcDbBlockEnd
  0
BLOCK
  5
24
330
23
100
AcDbEntity
  8
0
100
AcDbBlockBegin
  2
*Paper_Space0
 70
     0
 10
0.0
 20
0.0
 30
0.0
  3
*Paper_Space0
  1

  0
ENDBLK
  5
25
330
23
100
AcDbEntity
  8
0
100
AcDbBlockEnd
  0
ENDSEC
  0
SECTION
  2
ENTITIES
  0
ARC
  5
7F
330
1F
100
AcDbEntity
  8
0
  6
Continuous
 62
     7
370
    25
100
AcDbCircle
 10
6696.334194157
 20
5106.7572457042
 30
0.0
 40
1.999999999999998
100
AcDbArc
 50
343.4540335323
 51
89.9999227721
  0
ARC
  5
80
330
1F
100
AcDbEntity
  8
0
  6
Continuous
 62
     7
370
    25
100
AcDbCircle
 10
6376.8340834911
 20
5368.2572457042
 30
0.0
 40
4.324969328314234
100
AcDbArc
 50
26.059831153
 51
61.4762140417
  0
ARC
  5
81
330
1F
100
AcDbEntity
  8
0
  6
Continuous
 62
     7
370
    25
100
AcDbCircle
 10
6376.8340834911
 20
5368.2572457042
 30
0.0
 40
4.324969328314634
100
AcDbArc
 50
298.5237859583
 51
333.940168847
  0
LINE
  5
82
330
1F
100
AcDbEntity
  8
0
  6
Continuous
 62
     7
370
    25
100
AcDbLine
 10
6378.8993582164
 20
5372.0572457042
 30
0.0
 11
6378.5193582164
 21
5372.0572457042
 31
0.0
  0
LINE
  5
83
330
1F
100
AcDbEntity
  8
0
  6
Continuous
 62
     7
370
    25
100
AcDbLine
 10
6378.5193582164
 20
5364.4572457042
 30
0.0
 11
6378.8993582164
 21
5364.4572457042
 31
0.0
  0
LINE
  5
84
330
1F
100
AcDbEntity
  8
0
  6
Continuous
 62
     7
370
    25
100
AcDbLine
 10
6378.8993582164
 20
5222.0572457042
 30
0.0
 11
6378.5193582164
 21
5222.0572457042
 31
0.0
  0
LINE
  5
85
330
1F
100
AcDbEntity
  8
0
  6
Continuous
 62
     7
370
    25
100
AcDbLine
 10
6378.5193582164
 20
5214.4572457042
 30
0.0
 11
6378.8993582164
 21
5214.4572457042
 31
0.0
  0
ARC
  5
86
330
1F
100
AcDbEntity
  8
0
  6
Continuous
 62
     7
370
    25
100
AcDbCircle
 10
6376.8340834911
 20
5218.2572457042
 30
0.0
 40
4.324969328314634
100
AcDbArc
 50
26.059831153
 51
61.4762140417
  0
ARC
  5
87
330
1F
100
AcDbEntity
  8
0
  6
Continuous
 62
     7
370
    25
100
AcDbCircle
 10
6376.8340834911
 20
5218.2572457042
 30
0.0
 40
4.324969328314602
100
AcDbArc
 50
298.5237859583
 51
333.940168847
  0
LINE
  5
88
330
1F
100
AcDbEntity
  8
0
  6
Continuous
 62
     7
370
    25
100
AcDbLine
 10
6378.5193582164
 20
5404.7572457042
 30
0.0
 11
6378.4193582164
 21
5404.7572457042
 31
0.0
  0
LINE
  5
89
330
1F
100
AcDbEntity
  8
0
  6
Continuous
 62
     7
370
    25
100
AcDbLine
 10
6378.5193582164
 20
5404.7572457042
 30
0.0
 11
6378.5193582164
 21
5108.7572457042
 31
0.0
  0
LINE
  5
8A
330
1F
100
AcDbEntity
  8
0
  6
Continuous
 62
     7
370
    25
100
AcDbLine
 10
6018.4193582164
 20
4709.7572457042
 30
0.0
 11
6018.4193582164
 21
5557.7572457042
 31
0.0
  0
LINE
  5
8B
330
1F
100
AcDbEntity
  8
0
  6
Continuous
 62
     7
370
    25
100
AcDbLine
 10
6378.4193582164
 20
5557.7572457042
 30
0.0
 11
6018.4193582164
 21
5557.7572457042
 31
0.0
  0
LINE
  5
8C
330
1F
100
AcDbEntity
  8
0
  6
Continuous
 62
     7
370
    25
100
AcDbLine
 10
6378.4193582164
 20
5108.7572457042
 30
0.0
 11
6378.4193582164
 21
5557.7572457042
 31
0.0
  0
LINE
  5
8D
330
1F
100
AcDbEntity
  8
0
  6
Continuous
 62
     7
370
    25
100
AcDbLine
 10
6018.4193582164
 20
4709.7572457042
 30
0.0
 11
6245.1700608775
 21
4709.7572457042
 31
0.0
  0
ARC
  5
8E
330
1F
100
AcDbEntity
  8
0
  6
Continuous
 62
     7
370
    25
100
AcDbCircle
 10
6020.4193582164
 20
5557.7572457042
 30
0.0
 40
2.0
100
AcDbArc
 50
90.0
 51
180.0
  0
LINE
  5
8F
330
1F
100
AcDbEntity
  8
0
  6
Continuous
 62
     7
370
    25
100
AcDbLine
 10
6020.4193582164
 20
5559.7572457042
 30
0.0
 11
6376.4193582164
 21
5559.7572457042
 31
0.0
  0
ARC
  5
90
330
1F
100
AcDbEntity
  8
0
  6
Continuous
 62
     7
370
    25
100
AcDbCircle
 10
6376.4193582164
 20
5557.7572457042
 30
0.0
 40
2.000000000000909
100
AcDbArc
 50
0.0
 51
90.0
  0
CIRCLE
  5
91
330
1F
100
AcDbEntity
  8
0
  6
Continuous
 62
     7
370
    25
100
AcDbCircle
 10
6098.4193582164
 20
5619.7572457042
 30
0.0
 40
22.5
  0
CIRCLE
  5
92
330
1F
100
AcDbEntity
  8
0
  6
Continuous
 62
     7
370
    25
100
AcDbCircle
 10
6098.4193582164
 20
5619.7572457042
 30
0.0
 40
15.0
  0
CIRCLE
  5
93
330
1F
100
AcDbEntity
  8
0
  6
Continuous
 62
     7
370
    25
100
AcDbCircle
 10
6298.4193582164
 20
5619.7572457042
 30
0.0
 40
22.49999999999909
  0
CIRCLE
  5
94
330
1F
100
AcDbEntity
  8
0
  6
Continuous
 62
     7
370
    25
100
AcDbCircle
 10
6298.4193582164
 20
5619.7572457042
 30
0.0
 40
14.99999999999909
  0
LINE
  5
95
330
1F
100
AcDbEntity
  8
0
  6
Continuous
 62
     7
370
    25
100
AcDbLine
 10
6020.4193582164
 20
5584.7572457042
 30
0.0
 11
6376.4193582164
 21
5584.7572457042
 31
0.0
  0
LINE
  5
96
330
1F
100
AcDbEntity
  8
0
  6
Continuous
 62
     7
370
    25
100
AcDbLine
 10
6378.4193582164
 20
5582.7572457042
 30
0.0
 11
6376.4193582164
 21
5584.7572457042
 31
0.0
  0
LINE
  5
97
330
1F
100
AcDbEntity
  8
0
  6
Continuous
 62
     7
370
    25
100
AcDbLine
 10
6378.4193582164
 20
5582.7572457042
 30
0.0
 11
6018.4193582164
 21
5582.7572457042
 31
0.0
  0
LINE
  5
98
330
1F
100
AcDbEntity
  8
0
  6
Continuous
 62
     7
370
    25
100
AcDbLine
 10
6020.4193582164
 20
5584.7572457042
 30
0.0
 11
6018.4193582164
 21
5582.7572457042
 31
0.0
  0
LINE
  5
99
330
1F
100
AcDbEntity
  8
0
  6
Continuous
 62
     7
370
    25
100
AcDbLine
 10
6376.4193582164
 20
5715.7572457042
 30
0.0
 11
6020.4193582164
 21
5715.7572457042
 31
0.0
  0
LINE
  5
9A
330
1F
100
AcDbEntity
  8
0
  6
Continuous
 62
     7
370
    25
100
AcDbLine
 10
6376.4193582164
 20
5584.7572457042
 30
0.0
 11
6376.4193582164
 21
5715.7572457042
 31
0.0
  0
LINE
  5
9B
330
1F
100
AcDbEntity
  8
0
  6
Continuous
 62
     7
370
    25
100
AcDbLine
 10
6020.4193582164
 20
5715.7572457042
 30
0.0
 11
6020.4193582164
 21
5584.7572457042
 31
0.0
  0
LINE
  5
9C
330
1F
100
AcDbEntity
  8
0
  6
Continuous
 62
     7
370
    25
100
AcDbLine
 10
6020.4193582164
 20
5715.7572457042
 30
0.0
 11
6018.4193582164
 21
5715.7572457042
 31
0.0
  0
ARC
  5
9D
330
1F
100
AcDbEntity
  8
0
  6
Continuous
 62
     7
370
    25
100
AcDbCircle
 10
6020.4193582164
 20
5715.7572457042
 30
0.0
 40
2.0
100
AcDbArc
 50
90.0
 51
180.0
  0
LINE
  5
9E
330
1F
100
AcDbEntity
  8
0
  6
Continuous
 62
     7
370
    25
100
AcDbLine
 10
6020.4193582164
 20
5715.7572457042
 30
0.0
 11
6020.4193582164
 21
5717.7572457042
 31
0.0
  0
LINE
  5
9F
330
1F
100
AcDbEntity
  8
0
  6
Continuous
 62
     7
370
    25
100
AcDbLine
 10
6018.4193582164
 20
5582.7572457042
 30
0.0
 11
6018.4193582164
 21
5715.7572457042
 31
0.0
  0
LINE
  5
A0
330
1F
100
AcDbEntity
  8
0
  6
Continuous
 62
     7
370
    25
100
AcDbLine
 10
6020.4193582164
 20
5717.7572457042
 30
0.0
 11
6376.4193582164
 21
5717.7572457042
 31
0.0
  0
LINE
  5
A1
330
1F
100
AcDbEntity
  8
0
  6
Continuous
 62
     7
370
    25
100
AcDbLine
 10
6376.4193582164
 20
5717.7572457042
 30
0.0
 11
6376.4193582164
 21
5715.7572457042
 31
0.0
  0
LINE
  5
A2
330
1F
100
AcDbEntity
  8
0
  6
Continuous
 62
     7
370
    25
100
AcDbLine
 10
6378.4193582164
 20
5715.7572457042
 30
0.0
 11
6376.4193582164
 21
5715.7572457042
 31
0.0
  0
LINE
  5
A3
330
1F
100
AcDbEntity
  8
0
  6
Continuous
 62
     7
370
    25
100
AcDbLine
 10
6378.4193582164
 20
5715.7572457042
 30
0.0
 11
6378.4193582164
 21
5582.7572457042
 31
0.0
  0
ARC
  5
A4
330
1F
100
AcDbEntity
  8
0
  6
Continuous
 62
     7
370
    25
100
AcDbCircle
 10
6376.4193582164
 20
5715.7572457042
 30
0.0
 40
2.000000000000909
100
AcDbArc
 50
0.0
 51
90.0
  0
LINE
  5
A5
330
1F
100
AcDbEntity
  8
0
  6
Continuous
 62
     7
370
    25
100
AcDbLine
 10
6020.4193582164
 20
5582.7572457042
 30
0.0
 11
6020.4193582164
 21
5559.7572457042
 31
0.0
  0
LINE
  5
A6
330
1F
100
AcDbEntity
  8
0
  6
Continuous
 62
     7
370
    25
100
AcDbLine
 10
6018.4193582164
 20
5557.7572457042
 30
0.0
 11
6018.4193582164
 21
5582.7572457042
 31
0.0
  0
LINE
  5
A7
330
1F
100
AcDbEntity
  8
0
  6
Continuous
 62
     7
370
    25
100
AcDbLine
 10
6376.4193582164
 20
5559.7572457042
 30
0.0
 11
6376.4193582164
 21
5582.7572457042
 31
0.0
  0
LINE
  5
A8
330
1F
100
AcDbEntity
  8
0
  6
Continuous
 62
     7
370
    25
100
AcDbLine
 10
6378.4193582164
 20
5582.7572457042
 30
0.0
 11
6378.4193582164
 21
5557.7572457042
 31
0.0
  0
SPLINE
  5
A9
330
1F
100
AcDbEntity
  8
0
  6
Continuous
 62
     7
370
    25
100
AcDbSpline
210
0.0
220
0.0
230
1.0
 70
     8
 71
     3
 72
    18
 73
    14
 74
     0
 42
0.00000001
 43
0.00000001
 40
0.0
 40
0.0
 40
0.0
 40
0.0
 40
0.0576293068161199
 40
0.115281444182587
 40
0.2001441974454316
 40
0.2850776204171012
 40
0.3702242539298585
 40
0.4554422921259876
 40
0.591053026086844
 40
0.7269452137558654
 40
0.8631222300372752
 40
0.931542602846163
 40
1.0
 40
1.0
 40
1.0
 40
1.0
 10
6491.285894028724
 20
5106.248122324913
 30
0.0
 10
6489.47364475679
 20
5106.249890804956
 30
0.0
 10
6485.848428268347
 20
5106.253428465643
 30
0.0
 10
6479.600154074518
 20
5106.259179475062
 30
0.0
 10
6472.551138173126
 20
5106.265481656816
 30
0.0
 10
6464.73066742823
 20
5106.272109534144
 30
0.0
 10
6456.985269042814
 20
5106.278328395731
 30
0.0
 10
6447.814097422453
 20
5106.285254452951
 30
0.0
 10
6437.3011059335
 20
5106.29250027959
 30
0.0
 10
6425.56416055142
 20
5106.299592729406
 30
0.0
 10
6416.018842337889
 20
5106.304463246713
 30
0.0
 10
6408.52187483916
 20
5106.307769698983
 30
0.0
 10
6404.836814406364
 20
5106.309156697613
 30
0.0
 10
6402.99378580024
 20
5106.309850384512
 30
0.0
  0
LINE
  5
AA
330
1F
100
AcDbEntity
  8
0
  6
Continuous
 62
     7
370
    25
100
AcDbLine
 10
6429.996138521
 20
4709.7572457042
 30
0.0
 11
6583.6357372813
 21
4709.7572457042
 31
0.0
  0
LINE
  5
AB
330
1F
100
AcDbEntity
  8
0
  6
Continuous
 62
     7
370
    25
100
AcDbLine
 10
6245.1700608775
 20
4709.7572457042
 30
0.0
 11
6429.996138521
 21
4709.7572457042
 31
0.0
  0
LINE
  5
AC
330
1F
100
AcDbEntity
  8
0
  6
Continuous
 62
     7
370
    25
100
AcDbLine
 10
6245.1700608775
 20
4709.7572457042
 30
0.0
 11
6198.7052757631
 21
5106.3171742112
 31
0.0
  0
LINE
  5
AD
330
1F
100
AcDbEntity
  8
0
  6
Continuous
 62
     7
370
    25
100
AcDbLine
 10
6366.7457141769
 20
5106.3171742112
 30
0.0
 11
6198.7052757631
 21
5106.3171742112
 31
0.0
  0
SPLINE
  5
AE
330
1F
100
AcDbEntity
  8
0
  6
Continuous
 62
     7
370
    25
100
AcDbSpline
210
0.0
220
0.0
230
1.0
 70
     8
 71
     3
 72
    16
 73
    12
 74
     0
 42
0.00000001
 43
0.00000001
 40
0.0
 40
0.0
 40
0.0
 40
0.0
 40
0.0844871660925002
 40
0.1689743679410806
 40
0.2534802554806044
 40
0.3380425083027631
 40
0.422623502788645
 40
0.5667344573585618
 40
0.7109384081609689
 40
0.8554223296028796
 40
0.9999999999999999
 40
0.9999999999999999
 40
0.9999999999999999
 40
0.9999999999999999
 10
6402.99378580024
 20
5106.309850384512
 30
0.0
 10
6401.903538010316
 20
5106.310244056695
 30
0.0
 10
6399.72304196906
 20
5106.311031401227
 30
0.0
 10
6396.496249010007
 20
5106.3120344333
 30
0.0
 10
6393.301228616323
 20
5106.312915899152
 30
0.0
 10
6390.142403867449
 20
5106.313707547204
 30
0.0
 10
6386.286260859456
 20
5106.314549912475
 30
0.0
 10
6381.770681400672
 20
5106.315407811872
 30
0.0
 10
6376.644762749726
 20
5106.31619425904
 30
0.0
 10
6371.62082842349
 20
5106.316890185792
 30
0.0
 10
6368.37110357788
 20
5106.317079515604
 30
0.0
 10
6366.745714176884
 20
5106.317174211213
 30
0.0
  0
ARC
  5
AF
330
1F
100
AcDbEntity
  8
0
  6
Continuous
 62
     7
370
    25
100
AcDbCircle
 10
6494.1465338608
 20
5106.9690721963
 30
0.0
 40
2.950089653887037
100
AcDbArc
 50
142.6889293477
 51
194.1453360631
  0
SPLINE
  5
B0
330
1F
100
AcDbEntity
  8
0
  6
Continuous
 62
     7
370
    25
100
AcDbSpline
210
0.0
220
0.0
230
1.0
 70
    24
 71
     3
 72
    36
 73
    32
 74
     0
 42
0.00000001
 43
0.00000001
 40
0.0
 40
0.0
 40
0.0
 40
0.0
 40
0.0384564294251948
 40
0.066919292886255
 40
0.0957798262499634
 40
0.1395536458162175
 40
0.1833274608879971
 40
0.2244286982322977
 40
0.2608468250912744
 40
0.2972649058550152
 40
0.3319669605401192
 40
0.3666689708758053
 40
0.4077701320973511
 40
0.4441879089480296
 40
0.480605729371382
 40
0.5153067953456436
 40
0.5500079067291703
 40
0.577682941536689
 40
0.6053579866319286
 40
0.652773230503932
 40
0.6781601169630218
 40
0.703547009005912
 40
0.7334016172565166
 40
0.775305090306218
 40
0.8065071020007114
 40
0.8471423536958973
 40
0.8863905557273587
 40
0.9167535223146591
 40
0.946386709311553
 40
0.9760199286687463
 40
1.0
 40
1.0
 40
1.0
 40
1.0
 10
6491.800161240899
 20
5108.757245704188
 30
0.0
 10
6495.494293855407
 20
5108.757245704188
 30
0.0
 10
6501.922575057948
 20
5108.757245704188
 30
0.0
 10
6511.284341734089
 20
5108.757245704188
 30
0.0
 10
6521.231402268945
 20
5108.757245704188
 30
0.0
 10
6532.762920427965
 20
5108.757245704188
 30
0.0
 10
6545.517420406917
 20
5108.757245704188
 30
0.0
 10
6557.478923089681
 20
5108.757245704188
 30
0.0
 10
6568.598285294998
 20
5108.757245704188
 30
0.0
 10
6578.944360232907
 20
5108.757245704188
 30
0.0
 10
6588.93624433284
 20
5108.757245704188
 30
0.0
 10
6599.136258625537
 20
5108.757245704188
 30
0.0
 10
6609.189693466434
 20
5108.757245704188
 30
0.0
 10
6619.022276577333
 20
5108.757245704188
 30
0.0
 10
6627.931736815332
 20
5108.757245704188
 30
0.0
 10
6636.30131405067
 20
5108.757245704188
 30
0.0
 10
6643.594850846152
 20
5108.757245704188
 30
0.0
 10
6650.012816633852
 20
5108.757245704188
 30
0.0
 10
6656.967255435688
 20
5108.757245704188
 30
0.0
 10
6663.255544612342
 20
5108.757245704188
 30
0.0
 10
6668.873396037638
 20
5108.757245704188
 30
0.0
 10
6673.178017519896
 20
5108.757245704188
 30
0.0
 10
6677.945578117591
 20
5108.757245704188
 30
0.0
 10
6682.405704887197
 20
5108.757245704188
 30
0.0
 10
6686.636732811111
 20
5108.757245704188
 30
0.0
 10
6690.088334560803
 20
5108.757245704188
 30
0.0
 10
6692.740249913254
 20
5108.757245704188
 30
0.0
 10
6694.515046638567
 20
5108.757245704188
 30
0.0
 10
6695.620759697429
 20
5108.757245704188
 30
0.0
 10
6696.242558595913
 20
5108.757245704188
 30
0.0
 10
6696.289858807712
 20
5108.757245704188
 30
0.0
 10
6696.311015174694
 20
5108.757245704188
 30
0.0
  0
LWPOLYLINE
  5
B1
330
1F
100
AcDbEntity
  8
0
  6
Continuous
 62
     7
370
    25
100
AcDbPolyline
 90
        9
 70
   128
 43
0.0
 10
6402.9937858002
 20
5106.3098503845
 10
6402.964781445
 20
5106.7551331848
 10
6402.9932474059
 20
5107.2005220575
 10
6403.0777543684
 20
5107.6236534252
 10
6403.2140591237
 20
5108.0032812897
 10
6403.3953176258
 20
5108.3203440227
 10
6403.6124286402
 20
5108.5589214757
 10
6403.8544907293
 20
5108.7070343521
 10
6404.1093496283
 20
5108.7572457042
  0
SPLINE
  5
B2
330
1F
100
AcDbEntity
  8
0
  6
Continuous
 62
     7
370
    25
100
AcDbSpline
210
0.0
220
0.0
230
1.0
 70
    24
 71
     3
 72
    15
 73
    11
 74
     0
 42
0.00000001
 43
0.00000001
 40
0.0
 40
0.0
 40
0.0
 40
0.0
 40
0.1457504809077246
 40
0.2915904232594698
 40
0.4373408711628009
 40
0.5864352860419304
 40
0.7356254612723192
 40
0.8847198475969817
 40
0.9423488714550868
 40
1.0
 40
1.0
 40
1.0
 40
1.0
 10
6404.10934962833
 20
5108.757245704188
 30
0.0
 10
6408.027416473228
 20
5108.757245704188
 30
0.0
 10
6415.865955067047
 20
5108.757245704188
 30
0.0
 10
6428.103131185181
 20
5108.757245704188
 30
0.0
 10
6440.749821257468
 20
5108.757245704188
 30
0.0
 10
6453.823368807426
 20
5108.757245704188
 30
0.0
 10
6467.284782821666
 20
5108.757245704188
 30
0.0
 10
6478.202375247636
 20
5108.757245704188
 30
0.0
 10
6486.399346001687
 20
5108.757245704188
 30
0.0
 10
6489.999659377406
 20
5108.757245704188
 30
0.0
 10
6491.800161240899
 20
5108.757245704188
 30
0.0
  0
LWPOLYLINE
  5
B3
330
1F
100
AcDbEntity
  8
0
  6
Continuous
 62
     7
370
    25
100
AcDbPolyline
 90
        9
 70
   128
 43
0.0
 10
6366.7457141769
 20
5106.3171742112
 10
6366.7110578772
 20
5106.7617053311
 10
6366.7471156276
 20
5107.2060134584
 10
6366.8520844502
 20
5107.6278820722
 10
6367.0207156405
 20
5108.0062166834
 10
6367.2445772159
 20
5108.3220996125
 10
6367.5124755361
 20
5108.5597359203
 10
6367.811015013
 20
5108.7072431955
 10
6368.1252679238
 20
5108.7572457042
  0
SPLINE
  5
B4
330
1F
100
AcDbEntity
  8
0
  6
Continuous
 62
     7
370
    25
100
AcDbSpline
210
0.0
220
0.0
230
1.0
 70
    24
 71
     3
 72
    11
 73
     7
 74
     0
 42
0.00000001
 43
0.00000001
 40
0.0
 40
0.0
 40
0.0
 40
0.0
 40
0.0851125836115478
 40
0.4257061745484498
 40
0.7124859260959633
 40
1.0
 40
1.0
 40
1.0
 40
1.0
 10
6368.125267923765
 20
5108.757245704188
 30
0.0
 10
6369.072520543589
 20
5108.757245704188
 30
0.0
 10
6373.810378002563
 20
5108.757245704188
 30
0.0
 10
6382.073570676724
 20
5108.757245704188
 30
0.0
 10
6393.148787735498
 20
5108.757245704188
 30
0.0
 10
6400.452715934856
 20
5108.757245704188
 30
0.0
 10
6404.10934962833
 20
5108.757245704188
 30
0.0
  0
SPLINE
  5
B5
330
1F
100
AcDbEntity
  8
0
  6
Continuous
 62
     7
370
    25
100
AcDbSpline
210
0.0
220
0.0
230
1.0
 70
     8
 71
     3
 72
    14
 73
    10
 74
     0
 42
0.00000001
 43
0.00000001
 40
0.0
 40
0.0
 40
0.0
 40
0.0
 40
0.0030467252929824
 40
0.0529044244180834
 40
0.2626326271059343
 40
0.4576991528241618
 40
0.6408842406012777
 40
0.8203827035463372
 40
0.9999999999999999
 40
0.9999999999999999
 40
0.9999999999999999
 40
0.9999999999999999
 10
6200.667394619692
 20
5108.757245704188
 30
0.0
 10
6200.664118947009
 20
5108.757240406156
 30
0.0
 10
6200.607238998493
 20
5108.75714840924
 30
0.0
 10
6200.325003121831
 20
5108.744345530656
 30
0.0
 10
6199.840646663477
 20
5108.618966106785
 30
0.0
 10
6199.292029090031
 20
5108.255956587757
 30
0.0
 10
6198.898637538571
 20
5107.755013268552
 30
0.0
 10
6198.665245755534
 20
5107.157344313124
 30
0.0
 10
6198.675736519031
 20
5106.735493708217
 30
0.0
 10
6198.680983636506
 20
5106.524498609346
 30
0.0
  0
LINE
  5
B6
330
1F
100
AcDbEntity
  8
0
  6
Continuous
 62
     7
370
    25
100
AcDbLine
 10
6198.7052757631
 20
5106.3171742112
 30
0.0
 11
6198.6809836365
 21
5106.5244986093
 31
0.0
  0
LINE
  5
B7
330
1F
100
AcDbEntity
  8
0
  6
Continuous
 62
     7
370
    25
100
AcDbLine
 10
6200.6673946197
 20
5108.7572457042
 30
0.0
 11
6368.1252679238
 21
5108.7572457042
 31
0.0
  0
LINE
  5
B8
330
1F
100
AcDbEntity
  8
0
  6
Continuous
 62
     7
370
    25
100
AcDbLine
 10
6198.6809836365
 20
5106.5244986093
 30
0.0
 11
6198.6809792101
 21
5106.5244986093
 31
0.0
  0
SPLINE
  5
B9
330
1F
100
AcDbEntity
  8
0
  6
Continuous
 62
     7
370
    25
100
AcDbSpline
210
0.0
220
0.0
230
1.0
 70
     8
 71
     3
 72
    18
 73
    14
 74
     0
 42
0.00000001
 43
0.00000001
 40
0.0
 40
0.0
 40
0.0
 40
0.0
 40
0.0576293068161199
 40
0.115281444182587
 40
0.2001441974454316
 40
0.2850776204171012
 40
0.3702242539298585
 40
0.4554422921259876
 40
0.591053026086844
 40
0.7269452137558654
 40
0.8631222300372752
 40
0.931542602846163
 40
1.0
 40
1.0
 40
1.0
 40
1.0
 10
6491.285894028724
 20
5106.248122324913
 30
0.0
 10
6489.47364475679
 20
5106.249890804956
 30
0.0
 10
6485.848428268347
 20
5106.253428465643
 30
0.0
 10
6479.600154074518
 20
5106.259179475062
 30
0.0
 10
6472.551138173126
 20
5106.265481656816
 30
0.0
 10
6464.73066742823
 20
5106.272109534144
 30
0.0
 10
6456.985269042814
 20
5106.278328395731
 30
0.0
 10
6447.814097422453
 20
5106.285254452951
 30
0.0
 10
6437.3011059335
 20
5106.29250027959
 30
0.0
 10
6425.56416055142
 20
5106.299592729406
 30
0.0
 10
6416.018842337889
 20
5106.304463246713
 30
0.0
 10
6408.52187483916
 20
5106.307769698983
 30
0.0
 10
6404.836814406364
 20
5106.309156697613
 30
0.0
 10
6402.99378580024
 20
5106.309850384512
 30
0.0
  0
LINE
  5
BA
330
1F
100
AcDbEntity
  8
0
  6
Continuous
 62
     7
370
    25
100
AcDbLine
 10
6366.7457141769
 20
5106.3171742112
 30
0.0
 11
6198.7052757631
 21
5106.3171742112
 31
0.0
  0
SPLINE
  5
BB
330
1F
100
AcDbEntity
  8
0
  6
Continuous
 62
     7
370
    25
100
AcDbSpline
210
0.0
220
0.0
230
1.0
 70
     8
 71
     3
 72
    16
 73
    12
 74
     0
 42
0.00000001
 43
0.00000001
 40
0.0
 40
0.0
 40
0.0
 40
0.0
 40
0.0844871660925002
 40
0.1689743679410806
 40
0.2534802554806044
 40
0.3380425083027631
 40
0.422623502788645
 40
0.5667344573585618
 40
0.7109384081609689
 40
0.8554223296028796
 40
0.9999999999999999
 40
0.9999999999999999
 40
0.9999999999999999
 40
0.9999999999999999
 10
6402.99378580024
 20
5106.309850384512
 30
0.0
 10
6401.903538010316
 20
5106.310244056695
 30
0.0
 10
6399.72304196906
 20
5106.311031401227
 30
0.0
 10
6396.496249010007
 20
5106.3120344333
 30
0.0
 10
6393.301228616323
 20
5106.312915899152
 30
0.0
 10
6390.142403867449
 20
5106.313707547204
 30
0.0
 10
6386.286260859456
 20
5106.314549912475
 30
0.0
 10
6381.770681400672
 20
5106.315407811872
 30
0.0
 10
6376.644762749726
 20
5106.31619425904
 30
0.0
 10
6371.62082842349
 20
5106.316890185792
 30
0.0
 10
6368.37110357788
 20
5106.317079515604
 30
0.0
 10
6366.745714176884
 20
5106.317174211213
 30
0.0
  0
SPLINE
  5
BC
330
1F
100
AcDbEntity
  8
0
  6
Continuous
 62
     7
370
    25
100
AcDbSpline
210
0.0
220
0.0
230
1.0
 70
    24
 71
     3
 72
    36
 73
    32
 74
     0
 42
0.00000001
 43
0.00000001
 40
0.0
 40
0.0
 40
0.0
 40
0.0
 40
0.0384564294251948
 40
0.066919292886255
 40
0.0957798262499634
 40
0.1395536458162175
 40
0.1833274608879971
 40
0.2244286982322977
 40
0.2608468250912744
 40
0.2972649058550152
 40
0.3319669605401192
 40
0.3666689708758053
 40
0.4077701320973511
 40
0.4441879089480296
 40
0.480605729371382
 40
0.5153067953456436
 40
0.5500079067291703
 40
0.577682941536689
 40
0.6053579866319286
 40
0.652773230503932
 40
0.6781601169630218
 40
0.703547009005912
 40
0.7334016172565166
 40
0.775305090306218
 40
0.8065071020007114
 40
0.8471423536958973
 40
0.8863905557273587
 40
0.9167535223146591
 40
0.946386709311553
 40
0.9760199286687463
 40
1.0
 40
1.0
 40
1.0
 40
1.0
 10
6491.800161240899
 20
5108.757245704188
 30
0.0
 10
6495.494293855407
 20
5108.757245704188
 30
0.0
 10
6501.922575057948
 20
5108.757245704188
 30
0.0
 10
6511.284341734089
 20
5108.757245704188
 30
0.0
 10
6521.231402268945
 20
5108.757245704188
 30
0.0
 10
6532.762920427965
 20
5108.757245704188
 30
0.0
 10
6545.517420406917
 20
5108.757245704188
 30
0.0
 10
6557.478923089681
 20
5108.757245704188
 30
0.0
 10
6568.598285294998
 20
5108.757245704188
 30
0.0
 10
6578.944360232907
 20
5108.757245704188
 30
0.0
 10
6588.93624433284
 20
5108.757245704188
 30
0.0
 10
6599.136258625537
 20
5108.757245704188
 30
0.0
 10
6609.189693466434
 20
5108.757245704188
 30
0.0
 10
6619.022276577333
 20
5108.757245704188
 30
0.0
 10
6627.931736815332
 20
5108.757245704188
 30
0.0
 10
6636.30131405067
 20
5108.757245704188
 30
0.0
 10
6643.594850846152
 20
5108.757245704188
 30
0.0
 10
6650.012816633852
 20
5108.757245704188
 30
0.0
 10
6656.967255435688
 20
5108.757245704188
 30
0.0
 10
6663.255544612342
 20
5108.757245704188
 30
0.0
 10
6668.873396037638
 20
5108.757245704188
 30
0.0
 10
6673.178017519896
 20
5108.757245704188
 30
0.0
 10
6677.945578117591
 20
5108.757245704188
 30
0.0
 10
6682.405704887197
 20
5108.757245704188
 30
0.0
 10
6686.636732811111
 20
5108.757245704188
 30
0.0
 10
6690.088334560803
 20
5108.757245704188
 30
0.0
 10
6692.740249913254
 20
5108.757245704188
 30
0.0
 10
6694.515046638567
 20
5108.757245704188
 30
0.0
 10
6695.620759697429
 20
5108.757245704188
 30
0.0
 10
6696.242558595913
 20
5108.757245704188
 30
0.0
 10
6696.289858807712
 20
5108.757245704188
 30
0.0
 10
6696.311015174694
 20
5108.757245704188
 30
0.0
  0
LWPOLYLINE
  5
BD
330
1F
100
AcDbEntity
  8
0
  6
Continuous
 62
     7
370
    25
100
AcDbPolyline
 90
        9
 70
   128
 43
0.0
 10
6402.9937858002
 20
5106.3098503845
 10
6402.964781445
 20
5106.7551331848
 10
6402.9932474059
 20
5107.2005220575
 10
6403.0777543684
 20
5107.6236534252
 10
6403.2140591237
 20
5108.0032812897
 10
6403.3953176258
 20
5108.3203440227
 10
6403.6124286402
 20
5108.5589214757
 10
6403.8544907293
 20
5108.7070343521
 10
6404.1093496283
 20
5108.7572457042
  0
SPLINE
  5
BE
330
1F
100
AcDbEntity
  8
0
  6
Continuous
 62
     7
370
    25
100
AcDbSpline
210
0.0
220
0.0
230
1.0
 70
    24
 71
     3
 72
    15
 73
    11
 74
     0
 42
0.00000001
 43
0.00000001
 40
0.0
 40
0.0
 40
0.0
 40
0.0
 40
0.1457504809077246
 40
0.2915904232594698
 40
0.4373408711628009
 40
0.5864352860419304
 40
0.7356254612723192
 40
0.8847198475969817
 40
0.9423488714550868
 40
1.0
 40
1.0
 40
1.0
 40
1.0
 10
6404.10934962833
 20
5108.757245704188
 30
0.0
 10
6408.027416473228
 20
5108.757245704188
 30
0.0
 10
6415.865955067047
 20
5108.757245704188
 30
0.0
 10
6428.103131185181
 20
5108.757245704188
 30
0.0
 10
6440.749821257468
 20
5108.757245704188
 30
0.0
 10
6453.823368807426
 20
5108.757245704188
 30
0.0
 10
6467.284782821666
 20
5108.757245704188
 30
0.0
 10
6478.202375247636
 20
5108.757245704188
 30
0.0
 10
6486.399346001687
 20
5108.757245704188
 30
0.0
 10
6489.999659377406
 20
5108.757245704188
 30
0.0
 10
6491.800161240899
 20
5108.757245704188
 30
0.0
  0
LWPOLYLINE
  5
BF
330
1F
100
AcDbEntity
  8
0
  6
Continuous
 62
     7
370
    25
100
AcDbPolyline
 90
        9
 70
   128
 43
0.0
 10
6366.7457141769
 20
5106.3171742112
 10
6366.7110578772
 20
5106.7617053311
 10
6366.7471156276
 20
5107.2060134584
 10
6366.8520844502
 20
5107.6278820722
 10
6367.0207156405
 20
5108.0062166834
 10
6367.2445772159
 20
5108.3220996125
 10
6367.5124755361
 20
5108.5597359203
 10
6367.811015013
 20
5108.7072431955
 10
6368.1252679238
 20
5108.7572457042
  0
SPLINE
  5
C0
330
1F
100
AcDbEntity
  8
0
  6
Continuous
 62
     7
370
    25
100
AcDbSpline
210
0.0
220
0.0
230
1.0
 70
    24
 71
     3
 72
    11
 73
     7
 74
     0
 42
0.00000001
 43
0.00000001
 40
0.0
 40
0.0
 40
0.0
 40
0.0
 40
0.0851125836115478
 40
0.4257061745484498
 40
0.7124859260959633
 40
1.0
 40
1.0
 40
1.0
 40
1.0
 10
6368.125267923765
 20
5108.757245704188
 30
0.0
 10
6369.072520543589
 20
5108.757245704188
 30
0.0
 10
6373.810378002563
 20
5108.757245704188
 30
0.0
 10
6382.073570676724
 20
5108.757245704188
 30
0.0
 10
6393.148787735498
 20
5108.757245704188
 30
0.0
 10
6400.452715934856
 20
5108.757245704188
 30
0.0
 10
6404.10934962833
 20
5108.757245704188
 30
0.0
  0
SPLINE
  5
C1
330
1F
100
AcDbEntity
  8
0
  6
Continuous
 62
     7
370
    25
100
AcDbSpline
210
0.0
220
0.0
230
1.0
 70
     8
 71
     3
 72
    14
 73
    10
 74
     0
 42
0.00000001
 43
0.00000001
 40
0.0
 40
0.0
 40
0.0
 40
0.0
 40
0.0030467252929824
 40
0.0529044244180834
 40
0.2626326271059343
 40
0.4576991528241618
 40
0.6408842406012777
 40
0.8203827035463372
 40
0.9999999999999999
 40
0.9999999999999999
 40
0.9999999999999999
 40
0.9999999999999999
 10
6200.667394619692
 20
5108.757245704188
 30
0.0
 10
6200.664118947009
 20
5108.757240406156
 30
0.0
 10
6200.607238998493
 20
5108.75714840924
 30
0.0
 10
6200.325003121831
 20
5108.744345530656
 30
0.0
 10
6199.840646663477
 20
5108.618966106785
 30
0.0
 10
6199.292029090031
 20
5108.255956587757
 30
0.0
 10
6198.898637538571
 20
5107.755013268552
 30
0.0
 10
6198.665245755534
 20
5107.157344313124
 30
0.0
 10
6198.675736519031
 20
5106.735493708217
 30
0.0
 10
6198.680983636506
 20
5106.524498609346
 30
0.0
  0
LINE
  5
C2
330
1F
100
AcDbEntity
  8
0
  6
Continuous
 62
     7
370
    25
100
AcDbLine
 10
6198.7052757631
 20
5106.3171742112
 30
0.0
 11
6198.6809836365
 21
5106.5244986093
 31
0.0
  0
LINE
  5
C3
330
1F
100
AcDbEntity
  8
0
  6
Continuous
 62
     7
370
    25
100
AcDbLine
 10
6200.6673946197
 20
5108.7572457042
 30
0.0
 11
6368.1252679238
 21
5108.7572457042
 31
0.0
  0
LINE
  5
C4
330
1F
100
AcDbEntity
  8
0
  6
Continuous
 62
     7
370
    25
100
AcDbLine
 10
6380.7193582164
 20
5370.1572457042
 30
0.0
 11
6380.7193582164
 21
5366.3572457042
 31
0.0
  0
LINE
  5
C5
330
1F
100
AcDbEntity
  8
0
  6
Continuous
 62
     7
370
    25
100
AcDbLine
 10
6378.8993582164
 20
5371.7692991566
 30
0.0
 11
6378.8993582164
 21
5364.4572457042
 31
0.0
  0
LINE
  5
C6
330
1F
100
AcDbEntity
  8
0
  6
Continuous
 62
     7
370
    25
100
AcDbLine
 10
6378.8993582164
 20
5372.0572457042
 30
0.0
 11
6378.8993582164
 21
5371.7692991566
 31
0.0
  0
LINE
  5
C7
330
1F
100
AcDbEntity
  8
0
  6
Continuous
 62
     7
370
    25
100
AcDbLine
 10
6378.8993582164
 20
5222.0572457042
 30
0.0
 11
6378.8993582164
 21
5214.4572457042
 31
0.0
  0
LINE
  5
C8
330
1F
100
AcDbEntity
  8
0
  6
Continuous
 62
     7
370
    25
100
AcDbLine
 10
6380.7193582164
 20
5220.1572457042
 30
0.0
 11
6380.7193582164
 21
5216.3572457042
 31
0.0
  0
CIRCLE
  5
C9
330
1F
100
AcDbEntity
  8
0
  6
Continuous
 62
     7
370
    25
100
AcDbCircle
 10
6198.4193582164
 20
5664.7572457042
 30
0.0
 40
22.5
  0
LWPOLYLINE
  5
CA
330
1F
100
AcDbEntity
  8
0
  6
Continuous
 62
     7
370
    25
100
AcDbPolyline
 90
       20
 70
   128
 43
0.0
 10
6198.4193582164
 20
5651.4207311375
 10
6199.5179686958
 20
5651.2911003167
 10
6200.4975276831
 20
5650.9162553652
 10
6201.2518847625
 20
5650.3368165498
 10
6201.6992936395
 20
5649.6155750571
 10
6201.7912706199
 20
5648.830688594
 10
6201.5178485709
 20
5648.0672117875
 10
6200.9086570138
 20
5647.4078791963
 10
6200.0297113066
 20
5646.9241397371
 10
6198.9762588549
 20
5646.6684140864
 10
6197.8624575778
 20
5646.6684140864
 10
6196.8090051261
 20
5646.9241397371
 10
6195.9300594189
 20
5647.4078791963
 10
6195.3208678619
 20
5648.0672117875
 10
6195.0474458128
 20
5648.830688594
 10
6195.1394227932
 20
5649.6155750571
 10
6195.5868316702
 20
5650.3368165498
 10
6196.3411887497
 20
5650.9162553652
 10
6197.320747737
 20
5651.2911003167
 10
6198.4193582164
 20
5651.4207311375
  0
LWPOLYLINE
  5
CB
330
1F
100
AcDbEntity
  8
0
  6
Continuous
 62
     7
370
    25
100
AcDbPolyline
 90
       17
 70
   128
 43
0.0
 10
6198.4193582164
 20
5651.4207311375
 10
6197.4626496355
 20
5651.2861678906
 10
6196.6515912634
 20
5650.9029641845
 10
6196.1096593851
 20
5650.3294593097
 10
6195.9193582164
 20
5649.6529641845
 10
6196.1096593851
 20
5648.9764690594
 10
6196.6515912634
 20
5648.4029641845
 10
6197.4626496355
 20
5648.0197604784
 10
6198.4193582164
 20
5647.8851972316
 10
6199.3760667973
 20
5648.0197604784
 10
6200.1871251693
 20
5648.4029641845
 10
6200.7290570477
 20
5648.9764690594
 10
6200.9193582164
 20
5649.6529641845
 10
6200.7290570477
 20
5650.3294593097
 10
6200.1871251693
 20
5650.9029641845
 10
6199.3760667973
 20
5651.2861678906
 10
6198.4193582164
 20
5651.4207311375
  0
LWPOLYLINE
  5
CC
330
1F
100
AcDbEntity
  8
0
  6
Continuous
 62
     7
370
    25
100
AcDbPolyline
 90
       20
 70
   128
 43
0.0
 10
6198.4193582164
 20
5651.4207311375
 10
6199.5179686958
 20
5651.2911003167
 10
6200.4975276831
 20
5650.9162553652
 10
6201.2518847625
 20
5650.3368165498
 10
6201.6992936395
 20
5649.6155750571
 10
6201.7912706199
 20
5648.830688594
 10
6201.5178485709
 20
5648.0672117875
 10
6200.9086570138
 20
5647.4078791963
 10
6200.0297113066
 20
5646.9241397371
 10
6198.9762588549
 20
5646.6684140864
 10
6197.8624575778
 20
5646.6684140864
 10
6196.8090051261
 20
5646.9241397371
 10
6195.9300594189
 20
5647.4078791963
 10
6195.3208678619
 20
5648.0672117875
 10
6195.0474458128
 20
5648.830688594
 10
6195.1394227932
 20
5649.6155750571
 10
6195.5868316702
 20
5650.3368165498
 10
6196.3411887497
 20
5650.9162553652
 10
6197.320747737
 20
5651.2911003167
 10
6198.4193582164
 20
5651.4207311375
  0
LWPOLYLINE
  5
CD
330
1F
100
AcDbEntity
  8
0
  6
Continuous
 62
     7
370
    25
100
AcDbPolyline
 90
       17
 70
   128
 43
0.0
 10
6198.4193582164
 20
5651.4207311375
 10
6197.4626496355
 20
5651.2861678906
 10
6196.6515912634
 20
5650.9029641845
 10
6196.1096593851
 20
5650.3294593097
 10
6195.9193582164
 20
5649.6529641845
 10
6196.1096593851
 20
5648.9764690594
 10
6196.6515912634
 20
5648.4029641845
 10
6197.4626496355
 20
5648.0197604784
 10
6198.4193582164
 20
5647.8851972316
 10
6199.3760667973
 20
5648.0197604784
 10
6200.1871251693
 20
5648.4029641845
 10
6200.7290570477
 20
5648.9764690594
 10
6200.9193582164
 20
5649.6529641845
 10
6200.7290570477
 20
5650.3294593097
 10
6200.1871251693
 20
5650.9029641845
 10
6199.3760667973
 20
5651.2861678906
 10
6198.4193582164
 20
5651.4207311375
  0
SPLINE
  5
CE
330
1F
100
AcDbEntity
  8
0
  6
Continuous
 62
     8
370
    25
100
AcDbSpline
210
0.0
220
0.0
230
1.0
 70
     8
 71
     3
 72
    38
 73
    34
 74
     0
 42
0.00000001
 43
0.00000001
 40
0.0
 40
0.0
 40
0.0
 40
0.0
 40
0.0253915733793918
 40
0.0560249241254625
 40
0.0832459157756532
 40
0.1140503798891867
 40
0.1493940734025617
 40
0.1875344090109347
 40
0.2269583725088154
 40
0.2665915237542245
 40
0.2940295097022984
 40
0.3381612079057578
 40
0.3825868822488192
 40
0.4162093724727946
 40
0.4499612223018525
 40
0.4829570316232414
 40
0.5160750660013778
 40
0.5466980618776597
 40
0.5765698488590376
 40
0.6048947012306661
 40
0.6332966956195732
 40
0.6601642812032928
 40
0.687097768168488
 40
0.7210798697235544
 40
0.755195676324737
 40
0.7858713922062118
 40
0.8166453589788246
 40
0.8426812585697933
 40
0.8687770875633452
 40
0.8959463053522393
 40
0.9313971418161667
 40
0.9669999390536753
 40
1.0
 40
1.0
 40
1.0
 40
1.0
 10
6698.217766715936
 20
5106.196339169926
 30
0.0
 10
6698.197173878971
 20
5106.193714648032
 30
0.0
 10
6698.151737067661
 20
5106.187923804048
 30
0.0
 10
6697.485134868891
 20
5106.180011542634
 30
0.0
 10
6696.356929622956
 20
5106.172072846985
 30
0.0
 10
6694.660959855985
 20
5106.164362300153
 30
0.0
 10
6692.148996639991
 20
5106.156524058322
 30
0.0
 10
6688.690880202182
 20
5106.149049380319
 30
0.0
 10
6684.313062484714
 20
5106.142388108667
 30
0.0
 10
6679.624346317916
 20
5106.137406732832
 30
0.0
 10
6674.123180971957
 20
5106.133143245998
 30
0.0
 10
6667.726635337393
 20
5106.129772698569
 30
0.0
 10
6660.177737678683
 20
5106.127630747122
 30
0.0
 10
6652.658186016051
 20
5106.126822034286
 30
0.0
 10
6645.457338222381
 20
5106.126987838808
 30
0.0
 10
6637.877284990384
 20
5106.128027963102
 30
0.0
 10
6630.16256140244
 20
5106.12988140932
 30
0.0
 10
6622.376883744653
 20
5106.132449187119
 30
0.0
 10
6614.724713549532
 20
5106.135584083234
 30
0.0
 10
6607.036885449506
 20
5106.139283545483
 30
0.0
 10
6599.422622023229
 20
5106.143449824412
 30
0.0
 10
6591.769669253357
 20
5106.148126399376
 30
0.0
 10
6583.445477384304
 20
5106.15368840567
 30
0.0
 10
6574.271932920176
 20
5106.160422493776
 30
0.0
 10
6564.587031231174
 20
5106.168204572112
 30
0.0
 10
6555.114203223343
 20
5106.176446847202
 30
0.0
 10
6546.380042294733
 20
5106.184597311261
 30
0.0
 10
6538.073969985538
 20
5106.192812543815
 30
0.0
 10
6530.121147184487
 20
5106.201120412746
 30
0.0
 10
6521.235595371201
 20
5106.210866292724
 30
0.0
 10
6511.443626080239
 20
5106.222273458123
 30
0.0
 10
6501.154980295339
 20
5106.234983712245
 30
0.0
 10
6494.491318155029
 20
5106.243854976864
 30
0.0
 10
6491.285894028724
 20
5106.248122324913
 30
0.0
  0
SPLINE
  5
CF
330
1F
100
AcDbEntity
  8
0
  6
Continuous
 62
     8
370
    25
100
AcDbSpline
210
0.0
220
0.0
230
1.0
 70
     8
 71
     3
 72
    38
 73
    34
 74
     0
 42
0.00000001
 43
0.00000001
 40
0.0
 40
0.0
 40
0.0
 40
0.0
 40
0.0253915733793914
 40
0.0560249241254621
 40
0.0832459157756529
 40
0.1140503798891864
 40
0.1493940734025614
 40
0.1875344090109343
 40
0.2269583725088151
 40
0.2665915237542242
 40
0.2940295097022981
 40
0.3381612079057576
 40
0.382586882248819
 40
0.4162093724727944
 40
0.4499612223018524
 40
0.4829570316232412
 40
0.5160750660013776
 40
0.5466980618776596
 40
0.5765698488590375
 40
0.604894701230666
 40
0.6332966956195731
 40
0.6601642812032927
 40
0.6870977681684879
 40
0.7210798697235543
 40
0.755195676324737
 40
0.7858713922062118
 40
0.8166453589788245
 40
0.8426812585697933
 40
0.8687770875633452
 40
0.8959463053522393
 40
0.9313971418161667
 40
0.9669999390536753
 40
1.0
 40
1.0
 40
1.0
 40
1.0
 10
6698.217766715936
 20
5106.196339169926
 30
0.0
 10
6698.197173878971
 20
5106.193714648032
 30
0.0
 10
6698.151737067661
 20
5106.187923804048
 30
0.0
 10
6697.485134868891
 20
5106.180011542634
 30
0.0
 10
6696.356929622955
 20
5106.172072846985
 30
0.0
 10
6694.660959855985
 20
5106.164362300153
 30
0.0
 10
6692.148996639991
 20
5106.156524058322
 30
0.0
 10
6688.690880202182
 20
5106.149049380319
 30
0.0
 10
6684.313062484714
 20
5106.142388108668
 30
0.0
 10
6679.624346317916
 20
5106.137406732831
 30
0.0
 10
6674.123180971957
 20
5106.133143245998
 30
0.0
 10
6667.726635337393
 20
5106.129772698569
 30
0.0
 10
6660.177737678683
 20
5106.127630747122
 30
0.0
 10
6652.658186016051
 20
5106.126822034286
 30
0.0
 10
6645.457338222381
 20
5106.126987838808
 30
0.0
 10
6637.877284990384
 20
5106.128027963102
 30
0.0
 10
6630.16256140244
 20
5106.12988140932
 30
0.0
 10
6622.376883744653
 20
5106.132449187119
 30
0.0
 10
6614.724713549532
 20
5106.135584083234
 30
0.0
 10
6607.036885449506
 20
5106.139283545483
 30
0.0
 10
6599.422622023229
 20
5106.143449824412
 30
0.0
 10
6591.769669253357
 20
5106.148126399376
 30
0.0
 10
6583.445477384304
 20
5106.15368840567
 30
0.0
 10
6574.271932920176
 20
5106.160422493776
 30
0.0
 10
6564.587031231174
 20
5106.168204572112
 30
0.0
 10
6555.114203223343
 20
5106.176446847203
 30
0.0
 10
6546.380042294734
 20
5106.184597311261
 30
0.0
 10
6538.073969985538
 20
5106.192812543815
 30
0.0
 10
6530.121147184487
 20
5106.201120412746
 30
0.0
 10
6521.235595371201
 20
5106.210866292724
 30
0.0
 10
6511.443626080239
 20
5106.222273458123
 30
0.0
 10
6501.154980295339
 20
5106.234983712245
 30
0.0
 10
6494.491318155029
 20
5106.243854976864
 30
0.0
 10
6491.285894028724
 20
5106.248122324913
 30
0.0
  0
LINE
  5
D0
330
1F
100
AcDbEntity
  8
SLD-0
 62
     7
370
    18
100
AcDbLine
 10
6583.6356090058
 20
4709.7572457042
 30
0.0
 11
6698.251051846
 21
5106.186582406
 31
0.0
  0
ARC
  5
D1
330
1F
100
AcDbEntity
  8
0
  6
Continuous
 62
     7
370
    25
100
AcDbCircle
 10
7546.3503212107
 20
5557.7572457042
 30
0.0
 40
2.0
100
AcDbArc
 50
0.0
 51
90.0
  0
LINE
  5
D2
330
1F
100
AcDbEntity
  8
0
  6
Continuous
 62
     7
370
    25
100
AcDbLine
 10
7548.3503212107
 20
4709.7572457042
 30
0.0
 11
7548.3503212107
 21
5557.7572457042
 31
0.0
  0
LINE
  5
D3
330
1F
100
AcDbEntity
  8
0
  6
Continuous
 62
     7
370
    25
100
AcDbLine
 10
7193.3503212107
 20
5597.2572457042
 30
0.0
 11
7195.3503212107
 21
5597.2572457042
 31
0.0
  0
LINE
  5
D4
330
1F
100
AcDbEntity
  8
0
  6
Continuous
 62
     7
370
    25
100
AcDbLine
 10
7195.3503212107
 20
5642.2572457042
 30
0.0
 11
7193.3503212107
 21
5642.2572457042
 31
0.0
  0
SPLINE
  5
D5
330
1F
100
AcDbEntity
  8
0
  6
Continuous
 62
     7
370
    25
100
AcDbSpline
210
0.0
220
0.0
230
1.0
 70
     8
 71
     3
 72
    35
 73
    31
 74
     0
 42
0.00000001
 43
0.00000001
 40
0.0
 40
0.0
 40
0.0
 40
0.0
 40
0.0529857041852289
 40
0.1033459547180437
 40
0.1510694533377554
 40
0.1961455457524705
 40
0.2385642672681705
 40
0.2783163858916777
 40
0.3153934320964594
 40
0.3497877322939749
 40
0.3783806752310286
 40
0.4048005720173642
 40
0.4290437018623457
 40
0.4511070256783065
 40
0.4709882798883959
 40
0.4886861271688155
 40
0.504881353106417
 40
0.5276632053686858
 40
0.5533665948928901
 40
0.581992689831829
 40
0.613542768546795
 40
0.6480182204228065
 40
0.6854205461203875
 40
0.7257513574671249
 40
0.7652953311619028
 40
0.8073029009418063
 40
0.8517755524109271
 40
0.898714847915769
 40
0.9481224258409919
 40
1.0
 40
1.0
 40
1.0
 40
1.0
 10
7753.566563738351
 20
4709.757245704188
 30
0.0
 10
7755.541467985786
 20
4716.785700302612
 30
0.0
 10
7759.393419527552
 20
4730.494347980998
 30
0.0
 10
7765.066053738381
 20
4750.505313078048
 30
0.0
 10
7770.462842373225
 20
4769.451638503449
 30
0.0
 10
7775.578341873515
 20
4787.331302734092
 30
0.0
 10
7780.404775593932
 20
4804.144810229108
 30
0.0
 10
7784.93694429732
 20
4819.892038736304
 30
0.0
 10
7789.170694741774
 20
4834.573019910354
 30
0.0
 10
7792.984396086764
 20
4847.777127305797
 30
0.0
 10
7796.395362788269
 20
4859.573488992539
 30
0.0
 10
7799.421748251614
 20
4870.030798403189
 30
0.0
 10
7802.201311204138
 20
4879.628355652399
 30
0.0
 10
7804.733439312392
 20
4888.366156554184
 30
0.0
 10
7807.017672790058
 20
4896.244269975576
 30
0.0
 10
7809.079688499251
 20
4903.352596940368
 30
0.0
 10
7811.256057695191
 20
4910.852381647792
 30
0.0
 10
7813.740527382031
 20
4919.410142966536
 30
0.0
 10
7816.703917153423
 20
4929.612299294085
 30
0.0
 10
7820.005716735253
 20
4940.97330042921
 30
0.0
 10
7823.646433444816
 20
4953.493304569593
 30
0.0
 10
7827.626514107451
 20
4967.172264037153
 30
0.0
 10
7831.946410778886
 20
4982.010194747064
 30
0.0
 10
7836.463380755348
 20
4997.515653700031
 30
0.0
 10
7841.159554667794
 20
5013.627045568139
 30
0.0
 10
7846.017011754446
 20
5030.282804114865
 30
0.0
 10
7851.16114127873
 20
5047.912436706711
 30
0.0
 10
7856.592103483122
 20
5066.515841824746
 30
0.0
 10
7862.309921992495
 20
5086.093429398724
 30
0.0
 10
7866.217829947177
 20
5099.467212428627
 30
0.0
 10
7868.219434136476
 20
5106.317174211213
 30
0.0
  0
ARC
  5
D6
330
1F
100
AcDbEntity
  8
0
  6
Continuous
 62
     7
370
    25
100
AcDbCircle
 10
7866.2651466503
 20
5106.7572457298
 30
0.0
 40
1.999999974399458
100
AcDbArc
 50
343.3893182513
 51
90.0005940451
  0
SPLINE
  5
D7
330
1F
100
AcDbEntity
  8
0
  6
Continuous
 62
     7
370
    25
100
AcDbSpline
210
0.0
220
0.0
230
1.0
 70
     8
 71
     3
 72
    35
 73
    31
 74
     0
 42
0.00000001
 43
0.00000001
 40
0.0
 40
0.0
 40
0.0
 40
0.0
 40
0.0529857041852289
 40
0.1033459547180437
 40
0.1510694533377554
 40
0.1961455457524705
 40
0.2385642672681705
 40
0.2783163858916777
 40
0.3153934320964594
 40
0.3497877322939749
 40
0.3783806752310286
 40
0.4048005720173642
 40
0.4290437018623457
 40
0.4511070256783065
 40
0.4709882798883959
 40
0.4886861271688155
 40
0.504881353106417
 40
0.5276632053686858
 40
0.5533665948928901
 40
0.581992689831829
 40
0.613542768546795
 40
0.6480182204228065
 40
0.6854205461203875
 40
0.7257513574671249
 40
0.7652953311619028
 40
0.8073029009418063
 40
0.8517755524109271
 40
0.898714847915769
 40
0.9481224258409919
 40
1.0
 40
1.0
 40
1.0
 40
1.0
 10
7753.566563738351
 20
4709.757245704188
 30
0.0
 10
7755.541467985786
 20
4716.785700302612
 30
0.0
 10
7759.393419527552
 20
4730.494347980998
 30
0.0
 10
7765.066053738381
 20
4750.505313078048
 30
0.0
 10
7770.462842373225
 20
4769.451638503449
 30
0.0
 10
7775.578341873515
 20
4787.331302734092
 30
0.0
 10
7780.404775593932
 20
4804.144810229108
 30
0.0
 10
7784.93694429732
 20
4819.892038736304
 30
0.0
 10
7789.170694741774
 20
4834.573019910354
 30
0.0
 10
7792.984396086764
 20
4847.777127305797
 30
0.0
 10
7796.395362788269
 20
4859.573488992539
 30
0.0
 10
7799.421748251614
 20
4870.030798403189
 30
0.0
 10
7802.201311204138
 20
4879.628355652399
 30
0.0
 10
7804.733439312392
 20
4888.366156554184
 30
0.0
 10
7807.017672790058
 20
4896.244269975576
 30
0.0
 10
7809.079688499251
 20
4903.352596940368
 30
0.0
 10
7811.256057695191
 20
4910.852381647792
 30
0.0
 10
7813.740527382031
 20
4919.410142966536
 30
0.0
 10
7816.703917153423
 20
4929.612299294085
 30
0.0
 10
7820.005716735253
 20
4940.97330042921
 30
0.0
 10
7823.646433444816
 20
4953.493304569593
 30
0.0
 10
7827.626514107451
 20
4967.172264037153
 30
0.0
 10
7831.946410778886
 20
4982.010194747064
 30
0.0
 10
7836.463380755348
 20
4997.515653700031
 30
0.0
 10
7841.159554667794
 20
5013.627045568139
 30
0.0
 10
7846.017011754446
 20
5030.282804114865
 30
0.0
 10
7851.16114127873
 20
5047.912436706711
 30
0.0
 10
7856.592103483122
 20
5066.515841824746
 30
0.0
 10
7862.309921992495
 20
5086.093429398724
 30
0.0
 10
7866.217829947177
 20
5099.467212428627
 30
0.0
 10
7868.219434136476
 20
5106.317174211213
 30
0.0
  0
LINE
  5
D8
330
1F
100
AcDbEntity
  8
0
  6
Continuous
 62
     7
370
    25
100
AcDbLine
 10
7195.8503212107
 20
5687.2572457042
 30
0.0
 11
7193.3503212107
 21
5687.2572457042
 31
0.0
  0
LINE
  5
D9
330
1F
100
AcDbEntity
  8
0
  6
Continuous
 62
     7
370
    25
100
AcDbLine
 10
7195.3503212107
 20
5642.2572457042
 30
0.0
 11
7195.8503212107
 21
5642.2572457042
 31
0.0
  0
ARC
  5
DA
330
1F
100
AcDbEntity
  8
0
  6
Continuous
 62
     7
370
    25
100
AcDbCircle
 10
7195.8503212107
 20
5664.7572457042
 30
0.0
 40
22.50000000000115
100
AcDbArc
 50
323.6487392478
 51
0.0
  0
ARC
  5
DB
330
1F
100
AcDbEntity
  8
0
  6
Continuous
 62
     7
370
    25
100
AcDbCircle
 10
7195.8503212107
 20
5664.7572457042
 30
0.0
 40
22.50000000000188
100
AcDbArc
 50
270.0
 51
306.3512607522
  0
ARC
  5
DC
330
1F
100
AcDbEntity
  8
0
  6
Continuous
 62
     7
370
    25
100
AcDbCircle
 10
7195.8503212107
 20
5664.7572457042
 30
0.0
 40
22.5
100
AcDbArc
 50
0.0
 51
90.0
  0
LINE
  5
DD
330
1F
100
AcDbEntity
  8
0
  6
Continuous
 62
     7
370
    25
100
AcDbLine
 10
7195.8503212107
 20
5687.2572457042
 30
0.0
 11
7193.3503212107
 21
5687.2572457042
 31
0.0
  0
LINE
  5
DE
330
1F
100
AcDbEntity
  8
0
  6
Continuous
 62
     7
370
    25
100
AcDbLine
 10
7195.3503212107
 20
5642.2572457042
 30
0.0
 11
7195.8503212107
 21
5642.2572457042
 31
0.0
  0
LINE
  5
DF
330
1F
100
AcDbEntity
  8
0
  6
Continuous
 62
     7
370
    25
100
AcDbLine
 10
7108.3503212107
 20
4709.7572457042
 30
0.0
 11
7108.3503212107
 21
5715.7572457042
 31
0.0
  0
LINE
  5
E0
330
1F
100
AcDbEntity
  8
0
  6
Continuous
 62
     7
370
    25
100
AcDbLine
 10
7191.3503212107
 20
5715.7572457042
 30
0.0
 11
7108.3503212107
 21
5715.7572457042
 31
0.0
  0
LINE
  5
E1
330
1F
100
AcDbEntity
  8
0
  6
Continuous
 62
     7
370
    25
100
AcDbLine
 10
7191.3503212107
 20
5582.7572457042
 30
0.0
 11
7191.3503212107
 21
5715.7572457042
 31
0.0
  0
LINE
  5
E2
330
1F
100
AcDbEntity
  8
0
  6
Continuous
 62
     7
370
    25
100
AcDbLine
 10
7186.3503212107
 20
5582.7572457042
 30
0.0
 11
7191.3503212107
 21
5582.7572457042
 31
0.0
  0
LINE
  5
E3
330
1F
100
AcDbEntity
  8
0
  6
Continuous
 62
     7
370
    25
100
AcDbLine
 10
7186.3503212107
 20
5557.7572457042
 30
0.0
 11
7186.3503212107
 21
5582.7572457042
 31
0.0
  0
LINE
  5
E4
330
1F
100
AcDbEntity
  8
0
  6
Continuous
 62
     7
370
    25
100
AcDbLine
 10
7368.3503212107
 20
5557.7572457042
 30
0.0
 11
7186.3503212107
 21
5557.7572457042
 31
0.0
  0
LINE
  5
E5
330
1F
100
AcDbEntity
  8
0
  6
Continuous
 62
     7
370
    25
100
AcDbLine
 10
7368.3503212107
 20
4709.7572457042
 30
0.0
 11
7368.3503212107
 21
5557.7572457042
 31
0.0
  0
LINE
  5
E6
330
1F
100
AcDbEntity
  8
0
  6
Continuous
 62
     7
370
    25
100
AcDbLine
 10
7108.3503212107
 20
4709.7572457042
 30
0.0
 11
7368.3503212107
 21
4709.7572457042
 31
0.0
  0
LINE
  5
E7
330
1F
100
AcDbEntity
  8
0
  6
Continuous
 62
     7
370
    25
100
AcDbLine
 10
7108.3503212107
 20
5717.7572457042
 30
0.0
 11
7191.3503212107
 21
5717.7572457042
 31
0.0
  0
LINE
  5
E8
330
1F
100
AcDbEntity
  8
0
  6
Continuous
 62
     7
370
    25
100
AcDbLine
 10
7191.3503212107
 20
5717.7572457042
 30
0.0
 11
7191.3503212107
 21
5715.7572457042
 31
0.0
  0
LINE
  5
E9
330
1F
100
AcDbEntity
  8
0
  6
Continuous
 62
     7
370
    25
100
AcDbLine
 10
7108.3503212107
 20
5715.7572457042
 30
0.0
 11
7108.3503212107
 21
5717.7572457042
 31
0.0
  0
LINE
  5
EA
330
1F
100
AcDbEntity
  8
0
  6
Continuous
 62
     7
370
    25
100
AcDbLine
 10
7188.3503212107
 20
5559.7572457042
 30
0.0
 11
7368.3503212107
 21
5559.7572457042
 31
0.0
  0
LINE
  5
EB
330
1F
100
AcDbEntity
  8
0
  6
Continuous
 62
     7
370
    25
100
AcDbLine
 10
7368.3503212107
 20
5557.7572457042
 30
0.0
 11
7368.3503212107
 21
5559.7572457042
 31
0.0
  0
LINE
  5
EC
330
1F
100
AcDbEntity
  8
0
  6
Continuous
 62
     7
370
    25
100
AcDbLine
 10
7188.3503212107
 20
5559.7572457042
 30
0.0
 11
7186.3503212107
 21
5557.7572457042
 31
0.0
  0
LINE
  5
ED
330
1F
100
AcDbEntity
  8
0
  6
Continuous
 62
     7
370
    25
100
AcDbLine
 10
7188.3503212107
 20
5582.7572457042
 30
0.0
 11
7188.3503212107
 21
5559.7572457042
 31
0.0
  0
LINE
  5
EE
330
1F
100
AcDbEntity
  8
0
  6
Continuous
 62
     7
370
    25
100
AcDbLine
 10
7193.3503212107
 20
5715.7572457042
 30
0.0
 11
7193.3503212107
 21
5584.7572457042
 31
0.0
  0
ARC
  5
EF
330
1F
100
AcDbEntity
  8
0
  6
Continuous
 62
     7
370
    25
100
AcDbCircle
 10
7191.3503212107
 20
5584.7572457042
 30
0.0
 40
2.000000000000909
100
AcDbArc
 50
270.0
 51
0.0
  0
LINE
  5
F0
330
1F
100
AcDbEntity
  8
0
  6
Continuous
 62
     7
370
    25
100
AcDbLine
 10
7193.3503212107
 20
5715.7572457042
 30
0.0
 11
7191.3503212107
 21
5715.7572457042
 31
0.0
  0
ARC
  5
F1
330
1F
100
AcDbEntity
  8
0
  6
Continuous
 62
     7
370
    25
100
AcDbCircle
 10
7191.3503212107
 20
5715.7572457042
 30
0.0
 40
2.000000000000909
100
AcDbArc
 50
0.0
 51
90.0
  0
LINE
  5
F2
330
1F
100
AcDbEntity
  8
0
  6
Continuous
 62
     7
370
    25
100
AcDbLine
 10
7368.3503212107
 20
5559.7572457042
 30
0.0
 11
7546.3503212107
 21
5559.7572457042
 31
0.0
  0
LINE
  5
F3
330
1F
100
AcDbEntity
  8
0
  6
Continuous
 62
     7
370
    25
100
AcDbLine
 10
7368.3503212107
 20
4709.7572457042
 30
0.0
 11
7548.3503212107
 21
4709.7572457042
 31
0.0
  0
LINE
  5
F4
330
1F
100
AcDbEntity
  8
0
  6
Continuous
 62
     7
370
    25
100
AcDbLine
 10
7195.3503212107
 20
5642.2572457042
 30
0.0
 11
7195.3503212107
 21
5597.2572457042
 31
0.0
  0
LINE
  5
F5
330
1F
100
AcDbEntity
  8
0
  6
Continuous
 62
     7
370
    25
100
AcDbLine
 10
7548.5364237982
 20
5108.7572457042
 30
0.0
 11
7621.6193194229
 21
5108.7572457042
 31
0.0
  0
SPLINE
  5
F6
330
1F
100
AcDbEntity
  8
0
  6
Continuous
 62
     7
370
    25
100
AcDbSpline
210
0.0
220
0.0
230
1.0
 70
     8
 71
     3
 72
    14
 73
    10
 74
     0
 42
0.00000001
 43
0.00000001
 40
0.0
 40
0.0
 40
0.0
 40
0.0
 40
0.0030467252929824
 40
0.0529044244180834
 40
0.2626326271059343
 40
0.4576991528241618
 40
0.6408842406012777
 40
0.8203827035463372
 40
0.9999999999999999
 40
0.9999999999999999
 40
0.9999999999999999
 40
0.9999999999999999
 10
7621.619319422919
 20
5108.757245704188
 30
0.0
 10
7621.62067625109
 20
5108.757240406156
 30
0.0
 10
7621.644236699282
 20
5108.75714840924
 30
0.0
 10
7621.761142636787
 20
5108.744345530656
 30
0.0
 10
7621.961769668116
 20
5108.618966106785
 30
0.0
 10
7622.189014526748
 20
5108.255956587757
 30
0.0
 10
7622.351962656504
 20
5107.755013268552
 30
0.0
 10
7622.448636706566
 20
5107.157344313124
 30
0.0
 10
7622.444291289678
 20
5106.735493708217
 30
0.0
 10
7622.442117862273
 20
5106.524498609346
 30
0.0
  0
LINE
  5
F7
330
1F
100
AcDbEntity
  8
0
  6
Continuous
 62
     7
370
    25
100
AcDbLine
 10
7622.4421178623
 20
5106.5244986093
 30
0.0
 11
7548.5158009476
 21
5106.5244986093
 31
0.0
  0
SPLINE
  5
F8
330
1F
100
AcDbEntity
  8
0
  6
Continuous
 62
     7
370
    25
100
AcDbSpline
210
0.0
220
0.0
230
1.0
 70
     8
 71
     3
 72
    12
 73
     8
 74
     0
 42
0.00000001
 43
0.00000001
 40
0.0
 40
0.0
 40
0.0
 40
0.0
 40
0.1999613830994075
 40
0.3999232110474243
 40
0.5998704740356602
 40
0.7997731337690319
 40
0.9999999999999999
 40
0.9999999999999999
 40
0.9999999999999999
 40
0.9999999999999999
 10
7548.515800947628
 20
5106.524498609346
 30
0.0
 10
7548.519279016415
 20
5106.750399034857
 30
0.0
 10
7548.526235161726
 20
5107.202200388434
 30
0.0
 10
7548.535612655877
 20
5107.837842241088
 30
0.0
 10
7548.541666992808
 20
5108.345409402709
 30
0.0
 10
7548.542984468158
 20
5108.690769778399
 30
0.0
 10
7548.538547242546
 20
5108.735075096073
 30
0.0
 10
7548.536326832102
 20
5108.757245704188
 30
0.0
  0
LINE
  5
F9
330
1F
100
AcDbEntity
  8
0
  6
Continuous
 62
     7
370
    25
100
AcDbLine
 10
7548.5158009476
 20
5106.5244986093
 30
0.0
 11
7548.3503212107
 21
5095.8234414122
 31
0.0
  0
LINE
  5
FA
330
1F
100
AcDbEntity
  8
0
  6
Continuous
 62
     7
370
    25
100
AcDbLine
 10
7622.4163080601
 20
5106.3171742112
 30
0.0
 11
7622.4421178623
 21
5106.5244986093
 31
0.0
  0
LINE
  5
FB
330
1F
100
AcDbEntity
  8
0
  6
Continuous
 62
     7
370
    25
100
AcDbLine
 10
7548.3503212107
 20
4739.3375760405
 30
0.0
 11
7622.4163080601
 21
5106.3171742112
 31
0.0
  0
SPLINE
  5
FC
330
1F
100
AcDbEntity
  8
0
  6
Continuous
 62
     7
370
    25
100
AcDbSpline
210
0.0
220
0.0
230
1.0
 70
     8
 71
     3
 72
    14
 73
    10
 74
     0
 42
0.00000001
 43
0.00000001
 40
0.0
 40
0.0
 40
0.0
 40
0.0
 40
0.1152817304336499
 40
0.2850688196421926
 40
0.4554242431348476
 40
0.5909843706964053
 40
0.7265444771714588
 40
0.8632722462615428
 40
1.0
 40
1.0
 40
1.0
 40
1.0
 10
7862.314089944058
 20
5106.248122324913
 30
0.0
 10
7861.269353011527
 20
5106.251593351126
 30
0.0
 10
7858.685926105348
 20
5106.260176509461
 30
0.0
 10
7853.718369594787
 20
5106.272308901268
 30
0.0
 10
7847.741389502914
 20
5106.283526330873
 30
0.0
 10
7841.500977392953
 20
5106.292496431688
 30
0.0
 10
7835.182370575892
 20
5106.299569695877
 30
0.0
 10
7828.342933142361
 20
5106.305508982076
 30
0.0
 10
7823.32843564436
 20
5106.308403250422
 30
0.0
 10
7820.821187036114
 20
5106.309850384512
 30
0.0
  0
LINE
  5
FD
330
1F
100
AcDbEntity
  8
0
  6
Continuous
 62
     7
370
    25
100
AcDbLine
 10
7868.1386446279
 20
5106.196411675
 30
0.0
 11
7868.1371468244
 21
5106.1968752413
 31
0.0
  0
LINE
  5
FE
330
1F
100
AcDbEntity
  8
0
  6
Continuous
 62
     7
370
    25
100
AcDbLine
 10
7727.2063221289
 20
4709.7572457042
 30
0.0
 11
7752.0289666763
 21
4709.7572457042
 31
0.0
  0
LINE
  5
FF
330
1F
100
AcDbEntity
  8
0
  6
Continuous
 62
     7
370
    25
100
AcDbLine
 10
7548.5925136275
 20
4709.7572457042
 30
0.0
 11
7727.2063221289
 21
4709.7572457042
 31
0.0
  0
LINE
  5
100
330
1F
100
AcDbEntity
  8
0
  6
Continuous
 62
     7
370
    25
100
AcDbLine
 10
7790.4567464739
 20
5106.3171742112
 30
0.0
 11
7622.4163080601
 21
5106.3171742112
 31
0.0
  0
SPLINE
  5
101
330
1F
100
AcDbEntity
  8
0
  6
Continuous
 62
     7
370
    25
100
AcDbSpline
210
0.0
220
0.0
230
1.0
 70
     8
 71
     3
 72
    11
 73
     7
 74
     0
 42
0.00000001
 43
0.00000001
 40
0.0
 40
0.0
 40
0.0
 40
0.0
 40
0.0844950609604796
 40
0.4226161766368824
 40
0.7109348338775395
 40
1.0
 40
1.0
 40
1.0
 40
1.0
 10
7820.821187036114
 20
5106.309850384512
 30
0.0
 10
7820.053168843094
 20
5106.310242977554
 30
0.0
 10
7816.211797422892
 20
5106.312206597298
 30
0.0
 10
7809.361718735305
 20
5106.31439719436
 30
0.0
 10
7799.984068432876
 20
5106.316350439966
 30
0.0
 10
7793.635256620697
 20
5106.316899384217
 30
0.0
 10
7790.456746473881
 20
5106.317174211213
 30
0.0
  0
LWPOLYLINE
  5
102
330
1F
100
AcDbEntity
  8
0
  6
Continuous
 62
     7
370
    25
100
AcDbPolyline
 90
        9
 70
   128
 43
0.0
 10
7790.4567464739
 20
5106.3171742112
 10
7790.4914027736
 20
5106.7617053311
 10
7790.4553450232
 20
5107.2060134584
 10
7790.3503762006
 20
5107.6278820722
 10
7790.1817450103
 20
5108.0062166834
 10
7789.9578834349
 20
5108.3220996125
 10
7789.6899851147
 20
5108.5597359203
 10
7789.3914456378
 20
5108.7072431955
 10
7789.077192727
 20
5108.7572457042
  0
LINE
  5
103
330
1F
100
AcDbEntity
  8
0
  6
Continuous
 62
     7
370
    25
100
AcDbLine
 10
7621.6193194229
 20
5108.7572457042
 30
0.0
 11
7789.077192727
 21
5108.7572457042
 31
0.0
  0
LINE
  5
104
330
1F
100
AcDbEntity
  8
0
  6
Continuous
 62
     7
370
    25
100
AcDbLine
 10
7548.3503212107
 20
5108.7572457042
 30
0.0
 11
7548.5364237983
 21
5108.7572457042
 31
0.0
  0
ARC
  5
105
330
1F
100
AcDbEntity
  8
0
  6
Continuous
 62
     7
370
    25
100
AcDbCircle
 10
7818.9627501811
 20
5106.8417421174
 30
0.0
 40
1.933053636040451
100
AcDbArc
 50
344.0286758892
 51
82.2734792743
  0
SPLINE
  5
106
330
1F
100
AcDbEntity
  8
0
  6
Continuous
 62
     7
370
    25
100
AcDbSpline
210
0.0
220
0.0
230
1.0
 70
    24
 71
     3
 72
    11
 73
     7
 74
     0
 42
0.00000001
 43
0.00000001
 40
0.0
 40
0.0
 40
0.0
 40
0.0
 40
0.0851125836115478
 40
0.4257061745484499
 40
0.712485926095971
 40
1.0
 40
1.0
 40
1.0
 40
1.0
 10
7789.077192727
 20
5108.757245704188
 30
0.0
 10
7790.015619293858
 20
5108.757245704188
 30
0.0
 10
7794.709331632504
 20
5108.757245704188
 30
0.0
 10
7802.223672360369
 20
5108.757245704188
 30
0.0
 10
7811.334087663508
 20
5108.757245704188
 30
0.0
 10
7816.590881568937
 20
5108.757245704188
 30
0.0
 10
7819.22263932854
 20
5108.757245704188
 30
0.0
  0
ARC
  5
107
330
1F
100
AcDbEntity
  8
0
  6
Continuous
 62
     7
370
    25
100
AcDbCircle
 10
7860.4003639656
 20
5106.7733609848
 30
0.0
 40
1.98449559596022
100
AcDbArc
 50
344.6525887469
 51
88.5783246361
  0
SPLINE
  5
108
330
1F
100
AcDbEntity
  8
0
  6
Continuous
 62
     7
370
    25
100
AcDbSpline
210
0.0
220
0.0
230
1.0
 70
    24
 71
     3
 72
    14
 73
    10
 74
     0
 42
0.00000001
 43
0.00000001
 40
0.0
 40
0.0
 40
0.0
 40
0.0
 40
0.1457512863598535
 40
0.2915920346581125
 40
0.4373432880133933
 40
0.5864385268240306
 40
0.7356295265151236
 40
0.8847247367711372
 40
1.0
 40
1.0
 40
1.0
 40
1.0
 10
7819.22263932854
 20
5108.757245704188
 30
0.0
 10
7821.874047307469
 20
5108.757245704188
 30
0.0
 10
7827.178490695885
 20
5108.757245704188
 30
0.0
 10
7834.385101114836
 20
5108.757245704188
 30
0.0
 10
7841.071244553176
 20
5108.757245704188
 30
0.0
 10
7847.150425738471
 20
5108.757245704188
 30
0.0
 10
7852.59362944961
 20
5108.757245704188
 30
0.0
 10
7857.03079186562
 20
5108.757245704188
 30
0.0
 10
7859.411516439129
 20
5108.757245704188
 30
0.0
 10
7860.449600035489
 20
5108.757245704188
 30
0.0
  0
SPLINE
  5
109
330
1F
100
AcDbEntity
  8
0
  6
Continuous
 62
     7
370
    25
100
AcDbSpline
210
0.0
220
0.0
230
1.0
 70
    24
 71
     3
 72
    11
 73
     7
 74
     0
 42
0.00000001
 43
0.00000001
 40
0.0
 40
0.0
 40
0.0
 40
0.0
 40
0.3132609868204629
 40
0.6276413588068054
 40
0.942022005330342
 40
1.0
 40
1.0
 40
1.0
 40
1.0
 10
7860.449600035489
 20
5108.757245704188
 30
0.0
 10
7861.551254203258
 20
5108.757245704188
 30
0.0
 10
7863.758499113686
 20
5108.757245704188
 30
0.0
 10
7865.544163315981
 20
5108.757245704188
 30
0.0
 10
7866.366582217445
 20
5108.757245704188
 30
0.0
 10
7866.197526155513
 20
5108.757245704188
 30
0.0
 10
7866.171203330222
 20
5108.757245704188
 30
0.0
  0
SPLINE
  5
10A
330
1F
100
AcDbEntity
  8
0
  6
Continuous
 62
     7
370
    25
100
AcDbSpline
210
0.0
220
0.0
230
1.0
 70
     8
 71
     3
 72
    14
 73
    10
 74
     0
 42
0.00000001
 43
0.00000001
 40
0.0
 40
0.0
 40
0.0
 40
0.0
 40
0.0030467252929824
 40
0.0529044244180834
 40
0.2626326271059343
 40
0.4576991528241618
 40
0.6408842406012777
 40
0.8203827035463372
 40
0.9999999999999999
 40
0.9999999999999999
 40
0.9999999999999999
 40
0.9999999999999999
 10
7621.619319422919
 20
5108.757245704188
 30
0.0
 10
7621.62067625109
 20
5108.757240406156
 30
0.0
 10
7621.644236699282
 20
5108.75714840924
 30
0.0
 10
7621.761142636787
 20
5108.744345530656
 30
0.0
 10
7621.961769668116
 20
5108.618966106785
 30
0.0
 10
7622.189014526748
 20
5108.255956587757
 30
0.0
 10
7622.351962656504
 20
5107.755013268552
 30
0.0
 10
7622.448636706566
 20
5107.157344313124
 30
0.0
 10
7622.444291289678
 20
5106.735493708217
 30
0.0
 10
7622.442117862273
 20
5106.524498609346
 30
0.0
  0
SPLINE
  5
10B
330
1F
100
AcDbEntity
  8
0
  6
Continuous
 62
     7
370
    25
100
AcDbSpline
210
0.0
220
0.0
230
1.0
 70
     8
 71
     3
 72
    12
 73
     8
 74
     0
 42
0.00000001
 43
0.00000001
 40
0.0
 40
0.0
 40
0.0
 40
0.0
 40
0.1999613830994075
 40
0.3999232110474243
 40
0.5998704740356602
 40
0.7997731337690319
 40
0.9999999999999999
 40
0.9999999999999999
 40
0.9999999999999999
 40
0.9999999999999999
 10
7548.515800947628
 20
5106.524498609346
 30
0.0
 10
7548.519279016415
 20
5106.750399034857
 30
0.0
 10
7548.526235161726
 20
5107.202200388434
 30
0.0
 10
7548.535612655877
 20
5107.837842241088
 30
0.0
 10
7548.541666992808
 20
5108.345409402709
 30
0.0
 10
7548.542984468158
 20
5108.690769778399
 30
0.0
 10
7548.538547242546
 20
5108.735075096073
 30
0.0
 10
7548.536326832102
 20
5108.757245704188
 30
0.0
  0
LINE
  5
10C
330
1F
100
AcDbEntity
  8
0
  6
Continuous
 62
     7
370
    25
100
AcDbLine
 10
7622.4163080601
 20
5106.3171742112
 30
0.0
 11
7622.4421178623
 21
5106.5244986093
 31
0.0
  0
SPLINE
  5
10D
330
1F
100
AcDbEntity
  8
0
  6
Continuous
 62
     7
370
    25
100
AcDbSpline
210
0.0
220
0.0
230
1.0
 70
     8
 71
     3
 72
    14
 73
    10
 74
     0
 42
0.00000001
 43
0.00000001
 40
0.0
 40
0.0
 40
0.0
 40
0.0
 40
0.1152817304336499
 40
0.2850688196421926
 40
0.4554242431348476
 40
0.5909843706964053
 40
0.7265444771714588
 40
0.8632722462615428
 40
1.0
 40
1.0
 40
1.0
 40
1.0
 10
7862.314089944058
 20
5106.248122324913
 30
0.0
 10
7861.269353011527
 20
5106.251593351126
 30
0.0
 10
7858.685926105348
 20
5106.260176509461
 30
0.0
 10
7853.718369594787
 20
5106.272308901268
 30
0.0
 10
7847.741389502914
 20
5106.283526330873
 30
0.0
 10
7841.500977392953
 20
5106.292496431688
 30
0.0
 10
7835.182370575892
 20
5106.299569695877
 30
0.0
 10
7828.342933142361
 20
5106.305508982076
 30
0.0
 10
7823.32843564436
 20
5106.308403250422
 30
0.0
 10
7820.821187036114
 20
5106.309850384512
 30
0.0
  0
LINE
  5
10E
330
1F
100
AcDbEntity
  8
0
  6
Continuous
 62
     7
370
    25
100
AcDbLine
 10
7868.1386446279
 20
5106.196411675
 30
0.0
 11
7868.1371468244
 21
5106.1968752413
 31
0.0
  0
LINE
  5
10F
330
1F
100
AcDbEntity
  8
0
  6
Continuous
 62
     7
370
    25
100
AcDbLine
 10
7753.1344127125
 20
4709.7572457042
 30
0.0
 11
7753.5667118221
 21
4709.7572457042
 31
0.0
  0
LINE
  5
110
330
1F
100
AcDbEntity
  8
0
  6
Continuous
 62
     7
370
    25
100
AcDbLine
 10
7790.4567464739
 20
5106.3171742112
 30
0.0
 11
7622.4163080601
 21
5106.3171742112
 31
0.0
  0
SPLINE
  5
111
330
1F
100
AcDbEntity
  8
0
  6
Continuous
 62
     7
370
    25
100
AcDbSpline
210
0.0
220
0.0
230
1.0
 70
     8
 71
     3
 72
    11
 73
     7
 74
     0
 42
0.00000001
 43
0.00000001
 40
0.0
 40
0.0
 40
0.0
 40
0.0
 40
0.0844950609604796
 40
0.4226161766368824
 40
0.7109348338775395
 40
1.0
 40
1.0
 40
1.0
 40
1.0
 10
7820.821187036114
 20
5106.309850384512
 30
0.0
 10
7820.053168843094
 20
5106.310242977554
 30
0.0
 10
7816.211797422892
 20
5106.312206597298
 30
0.0
 10
7809.361718735305
 20
5106.31439719436
 30
0.0
 10
7799.984068432876
 20
5106.316350439966
 30
0.0
 10
7793.635256620697
 20
5106.316899384217
 30
0.0
 10
7790.456746473881
 20
5106.317174211213
 30
0.0
  0
LWPOLYLINE
  5
112
330
1F
100
AcDbEntity
  8
0
  6
Continuous
 62
     7
370
    25
100
AcDbPolyline
 90
        9
 70
   128
 43
0.0
 10
7790.4567464739
 20
5106.3171742112
 10
7790.4914027736
 20
5106.7617053311
 10
7790.4553450232
 20
5107.2060134584
 10
7790.3503762006
 20
5107.6278820722
 10
7790.1817450103
 20
5108.0062166834
 10
7789.9578834349
 20
5108.3220996125
 10
7789.6899851147
 20
5108.5597359203
 10
7789.3914456378
 20
5108.7072431955
 10
7789.077192727
 20
5108.7572457042
  0
LINE
  5
113
330
1F
100
AcDbEntity
  8
0
  6
Continuous
 62
     7
370
    25
100
AcDbLine
 10
7621.6193194229
 20
5108.7572457042
 30
0.0
 11
7789.077192727
 21
5108.7572457042
 31
0.0
  0
SPLINE
  5
114
330
1F
100
AcDbEntity
  8
0
  6
Continuous
 62
     7
370
    25
100
AcDbSpline
210
0.0
220
0.0
230
1.0
 70
    24
 71
     3
 72
    11
 73
     7
 74
     0
 42
0.00000001
 43
0.00000001
 40
0.0
 40
0.0
 40
0.0
 40
0.0
 40
0.0851125836115478
 40
0.4257061745484499
 40
0.712485926095971
 40
1.0
 40
1.0
 40
1.0
 40
1.0
 10
7789.077192727
 20
5108.757245704188
 30
0.0
 10
7790.015619293858
 20
5108.757245704188
 30
0.0
 10
7794.709331632504
 20
5108.757245704188
 30
0.0
 10
7802.223672360369
 20
5108.757245704188
 30
0.0
 10
7811.334087663508
 20
5108.757245704188
 30
0.0
 10
7816.590881568937
 20
5108.757245704188
 30
0.0
 10
7819.22263932854
 20
5108.757245704188
 30
0.0
  0
SPLINE
  5
115
330
1F
100
AcDbEntity
  8
0
  6
Continuous
 62
     7
370
    25
100
AcDbSpline
210
0.0
220
0.0
230
1.0
 70
    24
 71
     3
 72
    14
 73
    10
 74
     0
 42
0.00000001
 43
0.00000001
 40
0.0
 40
0.0
 40
0.0
 40
0.0
 40
0.1457512863598535
 40
0.2915920346581125
 40
0.4373432880133933
 40
0.5864385268240306
 40
0.7356295265151236
 40
0.8847247367711372
 40
1.0
 40
1.0
 40
1.0
 40
1.0
 10
7819.22263932854
 20
5108.757245704188
 30
0.0
 10
7821.874047307469
 20
5108.757245704188
 30
0.0
 10
7827.178490695885
 20
5108.757245704188
 30
0.0
 10
7834.385101114836
 20
5108.757245704188
 30
0.0
 10
7841.071244553176
 20
5108.757245704188
 30
0.0
 10
7847.150425738471
 20
5108.757245704188
 30
0.0
 10
7852.59362944961
 20
5108.757245704188
 30
0.0
 10
7857.03079186562
 20
5108.757245704188
 30
0.0
 10
7859.411516439129
 20
5108.757245704188
 30
0.0
 10
7860.449600035489
 20
5108.757245704188
 30
0.0
  0
SPLINE
  5
116
330
1F
100
AcDbEntity
  8
0
  6
Continuous
 62
     7
370
    25
100
AcDbSpline
210
0.0
220
0.0
230
1.0
 70
    24
 71
     3
 72
    11
 73
     7
 74
     0
 42
0.00000001
 43
0.00000001
 40
0.0
 40
0.0
 40
0.0
 40
0.0
 40
0.3132609868204629
 40
0.6276413588068054
 40
0.942022005330342
 40
1.0
 40
1.0
 40
1.0
 40
1.0
 10
7860.449600035489
 20
5108.757245704188
 30
0.0
 10
7861.551254203258
 20
5108.757245704188
 30
0.0
 10
7863.758499113686
 20
5108.757245704188
 30
0.0
 10
7865.544163315981
 20
5108.757245704188
 30
0.0
 10
7866.366582217445
 20
5108.757245704188
 30
0.0
 10
7866.197526155513
 20
5108.757245704188
 30
0.0
 10
7866.171203330222
 20
5108.757245704188
 30
0.0
  0
LINE
  5
117
330
1F
100
AcDbEntity
  8
0
  6
Continuous
 62
     7
370
    25
100
AcDbLine
 10
7209.1868357774
 20
5646.6357838644
 30
0.0
 11
7213.9717830505
 21
5651.4207311375
 31
0.0
  0
LINE
  5
118
330
1F
100
AcDbEntity
  8
0
  6
Continuous
 62
     8
370
    25
100
AcDbLine
 10
7548.3503212107
 20
5557.7572457042
 30
0.0
 11
7368.3503212107
 21
5557.7572457042
 31
0.0
  0
SPLINE
  5
119
330
1F
100
AcDbEntity
  8
0
  6
Continuous
 62
     8
370
    25
100
AcDbSpline
210
0.0
220
0.0
230
1.0
 70
     8
 71
     3
 72
    12
 73
     8
 74
     0
 42
0.00000001
 43
0.00000001
 40
0.0
 40
0.0
 40
0.0
 40
0.0
 40
0.0924731194116752
 40
0.3176968953953182
 40
0.5429204226423536
 40
0.7714602309057949
 40
1.0
 40
1.0
 40
1.0
 40
1.0
 10
7868.137146824352
 20
5106.196875241263
 30
0.0
 10
7868.141500816379
 20
5106.198264962874
 30
0.0
 10
7868.156459214649
 20
5106.203039434029
 30
0.0
 10
7867.644974820563
 20
5106.211776430084
 30
0.0
 10
7866.505707805644
 20
5106.223225675765
 30
0.0
 10
7864.783944276158
 20
5106.235302318814
 30
0.0
 10
7863.13737467439
 20
5106.243848989791
 30
0.0
 10
7862.314089944058
 20
5106.248122324913
 30
0.0
  0
SPLINE
  5
11A
330
1F
100
AcDbEntity
  8
0
  6
Continuous
 62
     8
370
    25
100
AcDbSpline
210
0.0
220
0.0
230
1.0
 70
     8
 71
     3
 72
    12
 73
     8
 74
     0
 42
0.00000001
 43
0.00000001
 40
0.0
 40
0.0
 40
0.0
 40
0.0
 40
0.0924731194116752
 40
0.3176968953953182
 40
0.5429204226423536
 40
0.7714602309057949
 40
1.0
 40
1.0
 40
1.0
 40
1.0
 10
7868.137146824352
 20
5106.196875241263
 30
0.0
 10
7868.141500816379
 20
5106.198264962874
 30
0.0
 10
7868.156459214649
 20
5106.203039434029
 30
0.0
 10
7867.644974820563
 20
5106.211776430084
 30
0.0
 10
7866.505707805644
 20
5106.223225675765
 30
0.0
 10
7864.783944276158
 20
5106.235302318814
 30
0.0
 10
7863.13737467439
 20
5106.243848989791
 30
0.0
 10
7862.314089944058
 20
5106.248122324913
 30
0.0
  0
LINE
  5
11B
330
1F
100
AcDbEntity
  8
0
  6
Continuous
 62
     8
370
    25
100
AcDbLine
 10
7195.8503212107
 20
5687.2572457042
 30
0.0
 11
7195.8503212107
 21
5642.2572457042
 31
0.0
  0
LINE
  5
11C
330
1F
100
AcDbEntity
  8
0
  6
Continuous
 62
     7
370
    25
100
AcDbLine
 10
6275.9193582164
 20
4248.8101544149
 30
0.0
 11
6275.9193582164
 21
4246.8101544149
 31
0.0
  0
LINE
  5
11D
330
1F
100
AcDbEntity
  8
0
  6
Continuous
 62
     7
370
    25
100
AcDbLine
 10
6320.9193582164
 20
4246.8101544149
 30
0.0
 11
6320.9193582164
 21
4248.8101544149
 31
0.0
  0
LINE
  5
11E
330
1F
100
AcDbEntity
  8
0
  6
Continuous
 62
     7
370
    25
100
AcDbLine
 10
6075.9193582164
 20
4248.8101544149
 30
0.0
 11
6075.9193582164
 21
4246.8101544149
 31
0.0
  0
LINE
  5
11F
330
1F
100
AcDbEntity
  8
0
  6
Continuous
 62
     7
370
    25
100
AcDbLine
 10
6120.9193582164
 20
4246.8101544149
 30
0.0
 11
6120.9193582164
 21
4248.8101544149
 31
0.0
  0
LINE
  5
120
330
1F
100
AcDbEntity
  8
0
  6
Continuous
 62
     7
370
    25
100
AcDbLine
 10
6452.4969590415
 20
4073.5621179632
 30
0.0
 11
6378.5883769017
 21
4073.5621223885
 31
0.0
  0
SPLINE
  5
121
330
1F
100
AcDbEntity
  8
0
  6
Continuous
 62
     7
370
    25
100
AcDbSpline
210
0.0
220
0.0
230
1.0
 70
     8
 71
     3
 72
    11
 73
     7
 74
     0
 42
0.00000001
 43
0.00000001
 40
0.0
 40
0.0
 40
0.0
 40
0.0
 40
0.0329390199654484
 40
0.0934407565856327
 40
0.6813275979048425
 40
1.0
 40
1.0
 40
1.0
 40
1.0
 10
6620.535230078125
 20
3905.493218945974
 30
0.0
 10
6618.700686840732
 20
3907.34860861998
 30
0.0
 10
6613.49649107927
 20
3912.611941138137
 30
0.0
 10
6575.263989716113
 20
3950.705232162886
 30
0.0
 10
6521.162720357668
 20
4004.93835299202
 30
0.0
 10
6470.376005473288
 20
4055.708662785596
 30
0.0
 10
6452.523532461406
 20
4073.555369103541
 30
0.0
  0
LINE
  5
122
330
1F
100
AcDbEntity
  8
0
  6
Continuous
 62
     7
370
    25
100
AcDbLine
 10
6198.6673902428
 20
3893.6411352987
 30
0.0
 11
6198.6673902428
 21
3893.6410880155
 31
0.0
  0
LINE
  5
123
330
1F
100
AcDbEntity
  8
0
  6
Continuous
 62
     7
370
    25
100
AcDbLine
 10
6198.6673902436
 20
3893.6282173391
 30
0.0
 11
6198.6673946681
 21
3819.7325535898
 31
0.0
  0
SPLINE
  5
124
330
1F
100
AcDbEntity
  8
0
  6
Continuous
 62
     7
370
    25
100
AcDbSpline
210
0.0
220
0.0
230
1.0
 70
     8
 71
     3
 72
    11
 73
     7
 74
     0
 42
0.00000001
 43
0.00000001
 40
0.0
 40
0.0
 40
0.0
 40
0.0
 40
0.185624461136704
 40
0.700320116338562
 40
0.9576637440748113
 40
1.0
 40
1.0
 40
1.0
 40
1.0
 10
6198.67414352774
 20
3819.705980169886
 30
0.0
 10
6209.070377840833
 20
3809.307695841604
 30
0.0
 10
6248.293074995312
 20
3770.077264432345
 30
0.0
 10
6301.988499004067
 20
3716.490970550203
 30
0.0
 10
6347.497490414675
 20
3670.769395620007
 30
0.0
 10
6364.357999731291
 20
3654.058682375517
 30
0.0
 10
6366.739910818335
 20
3651.697933218892
 30
0.0
  0
SPLINE
  5
125
330
1F
100
AcDbEntity
  8
0
  6
Continuous
 62
     7
370
    25
100
AcDbSpline
210
0.0
220
0.0
230
1.0
 70
     8
 71
     3
 72
    18
 73
    14
 74
     0
 42
0.00000001
 43
0.00000001
 40
0.0
 40
0.0
 40
0.0
 40
0.0
 40
0.0684752195244677
 40
0.1517602007848246
 40
0.2420847885555408
 40
0.3424195947270318
 40
0.440150734872593
 40
0.5377674978948778
 40
0.6352783435159135
 40
0.7326539127842167
 40
0.8298680440272583
 40
0.9268983183681087
 40
1.0
 40
1.0
 40
1.0
 40
1.0
 10
6692.451579156389
 20
3780.962796319454
 30
0.0
 10
6691.855985999458
 20
3783.120188688007
 30
0.0
 10
6690.535985308559
 20
3787.90157239582
 30
0.0
 10
6688.096837632425
 20
3795.43039839059
 30
0.0
 10
6685.120988999643
 20
3803.874923309491
 30
0.0
 10
6681.727707881035
 20
3812.670041092115
 30
0.0
 10
6677.942026348785
 20
3821.562986947702
 30
0.0
 10
6673.905190161701
 20
3830.243081954038
 30
0.0
 10
6669.587227289379
 20
3838.773698638982
 30
0.0
 10
6664.997309930668
 20
3847.146476387843
 30
0.0
 10
6660.130779786117
 20
3855.342340532379
 30
0.0
 10
6655.450768097278
 20
3862.723877672433
 30
0.0
 10
6652.274763006408
 20
3867.288272914102
 30
0.0
 10
6650.910108660981
 20
3869.249485702674
 30
0.0
  0
SPLINE
  5
126
330
1F
100
AcDbEntity
  8
0
  6
Continuous
 62
     7
370
    25
100
AcDbSpline
210
0.0
220
0.0
230
1.0
 70
     8
 71
     3
 72
    56
 73
    52
 74
     0
 42
0.00000001
 43
0.00000001
 40
0.0
 40
0.0
 40
0.0
 40
0.0
 40
0.0171296266778473
 40
0.0370077621729936
 40
0.0579366054274599
 40
0.0787350424859069
 40
0.0995279426243182
 40
0.1203632306980982
 40
0.1412665138735924
 40
0.1617139803937544
 40
0.1822361735418589
 40
0.2028842938782336
 40
0.2236476567315172
 40
0.2445129727820888
 40
0.2654644254449799
 40
0.2864840725634999
 40
0.3075523192158182
 40
0.3286484511850674
 40
0.3497487789988515
 40
0.3708274772998075
 40
0.3918643276788716
 40
0.4128405898725632
 40
0.4337395328891196
 40
0.4545469036940556
 40
0.4752513190994517
 40
0.4958445730137001
 40
0.5162988791793998
 40
0.5369001440403096
 40
0.5576851296215323
 40
0.578521223971312
 40
0.5993926361662107
 40
0.6202821084417954
 40
0.6411672507668779
 40
0.6620282771329661
 40
0.6828476273086208
 40
0.7036205454076615
 40
0.7243110139182115
 40
0.7450771702662685
 40
0.7659449242534394
 40
0.7868781618553354
 40
0.8078389805060484
 40
0.8287789923943061
 40
0.8496560802187628
 40
0.8704333129401871
 40
0.889034708171665
 40
0.9086769435090813
 40
0.9286153334727071
 40
0.9492377810677564
 40
0.9706055117697614
 40
0.9927872690153006
 40
1.0
 40
1.0
 40
1.0
 40
1.0
 10
6491.26889190796
 20
3579.782241366461
 30
0.0
 10
6493.172586531114
 20
3579.278160658697
 30
0.0
 10
6497.285430271882
 20
3578.189117721583
 30
0.0
 10
6503.802637779113
 20
3576.804073117514
 30
0.0
 10
6510.784031882778
 20
3575.605766276896
 30
0.0
 10
6517.917321838762
 20
3574.709822099349
 30
0.0
 10
6525.072056986317
 20
3574.12856605375
 30
0.0
 10
6532.257507561629
 20
3573.861210532591
 30
0.0
 10
6539.408195541778
 20
3573.91204628988
 30
0.0
 10
6546.513103906126
 20
3574.28671692525
 30
0.0
 10
6553.565325759155
 20
3574.971075643993
 30
0.0
 10
6560.616665736783
 20
3575.969526861131
 30
0.0
 10
6567.656419161205
 20
3577.282278696789
 30
0.0
 10
6574.666301515678
 20
3578.908198682754
 30
0.0
 10
6581.627338710822
 20
3580.844915070944
 30
0.0
 10
6588.520034645466
 20
3583.088870394868
 30
0.0
 10
6595.324591503147
 20
3585.635251613383
 30
0.0
 10
6602.02089086924
 20
3588.477888750294
 30
0.0
 10
6608.588541135752
 20
3591.609117888582
 30
0.0
 10
6615.007690430091
 20
3595.020008740701
 30
0.0
 10
6621.259533208587
 20
3598.700655248898
 30
0.0
 10
6627.326715070678
 20
3602.640554840276
 30
0.0
 10
6633.193028396258
 20
3606.828530556892
 30
0.0
 10
6638.843502068888
 20
3611.252967488934
 30
0.0
 10
6644.264657327938
 20
3615.901804128911
 30
0.0
 10
6649.442023462541
 20
3620.761644770762
 30
0.0
 10
6654.387729444265
 20
3625.840312505369
 30
0.0
 10
6659.123682891338
 20
3631.144632437102
 30
0.0
 10
6663.651105632134
 20
3636.684909274185
 30
0.0
 10
6667.950643603961
 20
3642.442632440022
 30
0.0
 10
6672.0010983599
 20
3648.392771816706
 30
0.0
 10
6675.790313105243
 20
3654.51922745372
 30
0.0
 10
6679.306851745702
 20
3660.804808756032
 30
0.0
 10
6682.540210068483
 20
3667.231626248043
 30
0.0
 10
6685.482236551843
 20
3673.782802304524
 30
0.0
 10
6688.123236248332
 20
3680.439967341948
 30
0.0
 10
6690.463917338112
 20
3687.202028224351
 30
0.0
 10
6692.509870206924
 20
3694.070352991273
 30
0.0
 10
6694.261288885268
 20
3701.048407574792
 30
0.0
 10
6695.711690901987
 20
3708.118034354459
 30
0.0
 10
6696.853753840514
 20
3715.252393091728
 30
0.0
 10
6697.682135630243
 20
3722.423467782724
 30
0.0
 10
6698.19284630007
 20
3729.602976325556
 30
0.0
 10
6698.38004784132
 20
3736.529242847204
 30
0.0
 10
6698.270871917003
 20
3743.315002567861
 30
0.0
 10
6697.853982348477
 20
3749.992587195767
 30
0.0
 10
6697.121867677601
 20
3756.876097976119
 30
0.0
 10
6696.077501755572
 20
3763.920349650607
 30
0.0
 10
6694.685120194362
 20
3771.1652900349
 30
0.0
 10
6693.418451084257
 20
3776.864486518098
 30
0.0
 10
6692.528277067307
 20
3780.124239897117
 30
0.0
 10
6692.309848848263
 20
3780.924108362768
 30
0.0
  0
SPLINE
  5
127
330
1F
100
AcDbEntity
  8
0
  6
Continuous
 62
     7
370
    25
100
AcDbSpline
210
0.0
220
0.0
230
1.0
 70
     8
 71
     3
 72
    18
 73
    14
 74
     0
 42
0.00000001
 43
0.00000001
 40
0.0
 40
0.0
 40
0.0
 40
0.0
 40
0.0661934313645637
 40
0.1627523631264073
 40
0.2593456535778569
 40
0.3560314138787564
 40
0.4528764771173091
 40
0.5499462258599829
 40
0.6473045383751788
 40
0.7450137304751725
 40
0.8432329317429715
 40
0.9284771648475975
 40
0.9999999999999999
 40
0.9999999999999999
 40
0.9999999999999999
 40
0.9999999999999999
 10
6402.976213770268
 20
3621.313882149105
 30
0.0
 10
6404.751863424522
 20
3620.077891832118
 30
0.0
 10
6409.117722262125
 20
3617.038914387617
 30
0.0
 10
6416.264637241988
 20
3612.477448843495
 30
0.0
 10
6424.396962278819
 20
3607.617775478915
 30
0.0
 10
6432.69969915824
 20
3603.034415424523
 30
0.0
 10
6441.162208642229
 20
3598.719474904323
 30
0.0
 10
6449.783199577612
 20
3594.678325257229
 30
0.0
 10
6458.558099407775
 20
3590.911147829991
 30
0.0
 10
6467.48887348174
 20
3587.425080348068
 30
0.0
 10
6476.148950194223
 20
3584.349133211133
 30
0.0
 10
6484.075361586313
 20
3581.768548356749
 30
0.0
 10
6489.01318509175
 20
3580.399980336048
 30
0.0
 10
6491.265999668928
 20
3579.775589856416
 30
0.0
  0
SPLINE
  5
128
330
1F
100
AcDbEntity
  8
0
  6
Continuous
 62
     7
370
    25
100
AcDbSpline
210
0.0
220
0.0
230
1.0
 70
     8
 71
     3
 72
    13
 73
     9
 74
     0
 42
0.00000001
 43
0.00000001
 40
0.0
 40
0.0
 40
0.0
 40
0.0
 40
0.1040353791609963
 40
0.3021761824232875
 40
0.4744168228519845
 40
0.6556608873598424
 40
0.843373322132265
 40
0.9999999999999999
 40
0.9999999999999999
 40
0.9999999999999999
 40
0.9999999999999999
 10
6650.897043343732
 20
3869.240481286813
 30
0.0
 10
6649.962506074397
 20
3870.590713603433
 30
0.0
 10
6647.248093855617
 20
3874.512533758375
 30
0.0
 10
6642.716351194336
 20
3880.476787017682
 30
0.0
 10
6637.266230212291
 20
3887.267559477752
 30
0.0
 10
6631.66278912387
 20
3893.716872487809
 30
0.0
 10
6626.05232425302
 20
3899.828942905068
 30
0.0
 10
6622.25392064389
 20
3903.716217196201
 30
0.0
 10
6620.526172279966
 20
3905.48438943058
 30
0.0
  0
SPLINE
  5
129
330
1F
100
AcDbEntity
  8
0
  6
Continuous
 62
     7
370
    25
100
AcDbSpline
210
0.0
220
0.0
230
1.0
 70
     8
 71
     3
 72
    13
 73
     9
 74
     0
 42
0.00000001
 43
0.00000001
 40
0.0
 40
0.0
 40
0.0
 40
0.0
 40
0.1350975687254926
 40
0.3303059927613654
 40
0.5077385257850991
 40
0.6972940580327824
 40
0.8790777095424498
 40
1.0
 40
1.0
 40
1.0
 40
1.0
 10
6366.751577178945
 20
3651.709926496658
 30
0.0
 10
6368.272506022524
 20
3650.215398872504
 30
0.0
 10
6371.991091903359
 20
3646.561362495223
 30
0.0
 10
6377.885814916644
 20
3641.1303894524
 30
0.0
 10
6384.567513803347
 20
3635.289543431474
 30
0.0
 10
6391.312795264736
 20
3629.85383821029
 30
0.0
 10
6397.499429473611
 20
3625.150205672405
 30
0.0
 10
6401.420165058178
 20
3622.419525645448
 30
0.0
 10
6402.98638580721
 20
3621.328697757431
 30
0.0
  0
LINE
  5
12A
330
1F
100
AcDbEntity
  8
0
  6
Continuous
 62
     7
370
    25
100
AcDbLine
 10
6350.851806655
 20
3977.9462484712
 30
0.0
 11
6350.6831400971
 21
3978.1149150291
 31
0.0
  0
LINE
  5
12B
330
1F
100
AcDbEntity
  8
0
  6
Continuous
 62
     7
370
    25
100
AcDbLine
 10
6294.106268736
 20
3921.5547014003
 30
0.0
 11
6294.265854782
 21
3921.3951153543
 31
0.0
  0
LINE
  5
12C
330
1F
100
AcDbEntity
  8
0
  6
Continuous
 62
     7
370
    25
100
AcDbLine
 10
6452.5072392758
 20
4073.5621179626
 30
0.0
 11
6378.5883769017
 21
4073.5621223885
 31
0.0
  0
SPLINE
  5
12D
330
1F
100
AcDbEntity
  8
0
  6
Continuous
 62
     7
370
    25
100
AcDbSpline
210
0.0
220
0.0
230
1.0
 70
     8
 71
     3
 72
    11
 73
     7
 74
     0
 42
0.00000001
 43
0.00000001
 40
0.0
 40
0.0
 40
0.0
 40
0.0
 40
0.0329390199654484
 40
0.0934407565856327
 40
0.6813275979048425
 40
1.0
 40
1.0
 40
1.0
 40
1.0
 10
6620.535230078125
 20
3905.493218945974
 30
0.0
 10
6618.700686840732
 20
3907.34860861998
 30
0.0
 10
6613.49649107927
 20
3912.611941138137
 30
0.0
 10
6575.263989716113
 20
3950.705232162886
 30
0.0
 10
6521.162720357668
 20
4004.93835299202
 30
0.0
 10
6470.376005473288
 20
4055.708662785596
 30
0.0
 10
6452.523532461406
 20
4073.555369103541
 30
0.0
  0
LINE
  5
12E
330
1F
100
AcDbEntity
  8
0
  6
Continuous
 62
     7
370
    25
100
AcDbLine
 10
6198.6673902428
 20
3893.6411352987
 30
0.0
 11
6198.6673946687
 21
3819.7222733555
 31
0.0
  0
SPLINE
  5
12F
330
1F
100
AcDbEntity
  8
0
  6
Continuous
 62
     7
370
    25
100
AcDbSpline
210
0.0
220
0.0
230
1.0
 70
     8
 71
     3
 72
    11
 73
     7
 74
     0
 42
0.00000001
 43
0.00000001
 40
0.0
 40
0.0
 40
0.0
 40
0.0
 40
0.185624461136704
 40
0.700320116338562
 40
0.9576637440748113
 40
1.0
 40
1.0
 40
1.0
 40
1.0
 10
6198.67414352774
 20
3819.705980169886
 30
0.0
 10
6209.070377840833
 20
3809.307695841604
 30
0.0
 10
6248.293074995312
 20
3770.077264432345
 30
0.0
 10
6301.988499004067
 20
3716.490970550203
 30
0.0
 10
6347.497490414675
 20
3670.769395620007
 30
0.0
 10
6364.357999731291
 20
3654.058682375517
 30
0.0
 10
6366.739910818335
 20
3651.697933218892
 30
0.0
  0
SPLINE
  5
130
330
1F
100
AcDbEntity
  8
0
  6
Continuous
 62
     7
370
    25
100
AcDbSpline
210
0.0
220
0.0
230
1.0
 70
     8
 71
     3
 72
    18
 73
    14
 74
     0
 42
0.00000001
 43
0.00000001
 40
0.0
 40
0.0
 40
0.0
 40
0.0
 40
0.0684752195244677
 40
0.1517602007848246
 40
0.2420847885555408
 40
0.3424195947270318
 40
0.440150734872593
 40
0.5377674978948778
 40
0.6352783435159135
 40
0.7326539127842167
 40
0.8298680440272583
 40
0.9268983183681087
 40
1.0
 40
1.0
 40
1.0
 40
1.0
 10
6692.451579156389
 20
3780.962796319454
 30
0.0
 10
6691.855985999458
 20
3783.120188688007
 30
0.0
 10
6690.535985308559
 20
3787.90157239582
 30
0.0
 10
6688.096837632425
 20
3795.43039839059
 30
0.0
 10
6685.120988999643
 20
3803.874923309491
 30
0.0
 10
6681.727707881035
 20
3812.670041092115
 30
0.0
 10
6677.942026348785
 20
3821.562986947702
 30
0.0
 10
6673.905190161701
 20
3830.243081954038
 30
0.0
 10
6669.587227289379
 20
3838.773698638982
 30
0.0
 10
6664.997309930668
 20
3847.146476387843
 30
0.0
 10
6660.130779786117
 20
3855.342340532379
 30
0.0
 10
6655.450768097278
 20
3862.723877672433
 30
0.0
 10
6652.274763006408
 20
3867.288272914102
 30
0.0
 10
6650.910108660981
 20
3869.249485702674
 30
0.0
  0
SPLINE
  5
131
330
1F
100
AcDbEntity
  8
0
  6
Continuous
 62
     7
370
    25
100
AcDbSpline
210
0.0
220
0.0
230
1.0
 70
     8
 71
     3
 72
    56
 73
    52
 74
     0
 42
0.00000001
 43
0.00000001
 40
0.0
 40
0.0
 40
0.0
 40
0.0
 40
0.0171296266778473
 40
0.0370077621729936
 40
0.0579366054274599
 40
0.0787350424859069
 40
0.0995279426243182
 40
0.1203632306980982
 40
0.1412665138735924
 40
0.1617139803937544
 40
0.1822361735418589
 40
0.2028842938782336
 40
0.2236476567315172
 40
0.2445129727820888
 40
0.2654644254449799
 40
0.2864840725634999
 40
0.3075523192158182
 40
0.3286484511850674
 40
0.3497487789988515
 40
0.3708274772998075
 40
0.3918643276788716
 40
0.4128405898725632
 40
0.4337395328891196
 40
0.4545469036940556
 40
0.4752513190994517
 40
0.4958445730137001
 40
0.5162988791793998
 40
0.5369001440403096
 40
0.5576851296215323
 40
0.578521223971312
 40
0.5993926361662107
 40
0.6202821084417954
 40
0.6411672507668779
 40
0.6620282771329661
 40
0.6828476273086208
 40
0.7036205454076615
 40
0.7243110139182115
 40
0.7450771702662685
 40
0.7659449242534394
 40
0.7868781618553354
 40
0.8078389805060484
 40
0.8287789923943061
 40
0.8496560802187628
 40
0.8704333129401871
 40
0.889034708171665
 40
0.9086769435090813
 40
0.9286153334727071
 40
0.9492377810677564
 40
0.9706055117697614
 40
0.9927872690153006
 40
1.0
 40
1.0
 40
1.0
 40
1.0
 10
6491.26889190796
 20
3579.782241366461
 30
0.0
 10
6493.172586531114
 20
3579.278160658697
 30
0.0
 10
6497.285430271882
 20
3578.189117721583
 30
0.0
 10
6503.802637779113
 20
3576.804073117514
 30
0.0
 10
6510.784031882778
 20
3575.605766276896
 30
0.0
 10
6517.917321838762
 20
3574.709822099349
 30
0.0
 10
6525.072056986317
 20
3574.12856605375
 30
0.0
 10
6532.257507561629
 20
3573.861210532591
 30
0.0
 10
6539.408195541778
 20
3573.91204628988
 30
0.0
 10
6546.513103906126
 20
3574.28671692525
 30
0.0
 10
6553.565325759155
 20
3574.971075643993
 30
0.0
 10
6560.616665736783
 20
3575.969526861131
 30
0.0
 10
6567.656419161205
 20
3577.282278696789
 30
0.0
 10
6574.666301515678
 20
3578.908198682754
 30
0.0
 10
6581.627338710822
 20
3580.844915070944
 30
0.0
 10
6588.520034645466
 20
3583.088870394868
 30
0.0
 10
6595.324591503147
 20
3585.635251613383
 30
0.0
 10
6602.02089086924
 20
3588.477888750294
 30
0.0
 10
6608.588541135752
 20
3591.609117888582
 30
0.0
 10
6615.007690430091
 20
3595.020008740701
 30
0.0
 10
6621.259533208587
 20
3598.700655248898
 30
0.0
 10
6627.326715070678
 20
3602.640554840276
 30
0.0
 10
6633.193028396258
 20
3606.828530556892
 30
0.0
 10
6638.843502068888
 20
3611.252967488934
 30
0.0
 10
6644.264657327938
 20
3615.901804128911
 30
0.0
 10
6649.442023462541
 20
3620.761644770762
 30
0.0
 10
6654.387729444265
 20
3625.840312505369
 30
0.0
 10
6659.123682891338
 20
3631.144632437102
 30
0.0
 10
6663.651105632134
 20
3636.684909274185
 30
0.0
 10
6667.950643603961
 20
3642.442632440022
 30
0.0
 10
6672.0010983599
 20
3648.392771816706
 30
0.0
 10
6675.790313105243
 20
3654.51922745372
 30
0.0
 10
6679.306851745702
 20
3660.804808756032
 30
0.0
 10
6682.540210068483
 20
3667.231626248043
 30
0.0
 10
6685.482236551843
 20
3673.782802304524
 30
0.0
 10
6688.123236248332
 20
3680.439967341948
 30
0.0
 10
6690.463917338112
 20
3687.202028224351
 30
0.0
 10
6692.509870206924
 20
3694.070352991273
 30
0.0
 10
6694.261288885268
 20
3701.048407574792
 30
0.0
 10
6695.711690901987
 20
3708.118034354459
 30
0.0
 10
6696.853753840514
 20
3715.252393091728
 30
0.0
 10
6697.682135630243
 20
3722.423467782724
 30
0.0
 10
6698.19284630007
 20
3729.602976325556
 30
0.0
 10
6698.38004784132
 20
3736.529242847204
 30
0.0
 10
6698.270871917003
 20
3743.315002567861
 30
0.0
 10
6697.853982348477
 20
3749.992587195767
 30
0.0
 10
6697.121867677601
 20
3756.876097976119
 30
0.0
 10
6696.077501755572
 20
3763.920349650607
 30
0.0
 10
6694.685120194362
 20
3771.1652900349
 30
0.0
 10
6693.418451084257
 20
3776.864486518098
 30
0.0
 10
6692.528277067307
 20
3780.124239897117
 30
0.0
 10
6692.309848848263
 20
3780.924108362768
 30
0.0
  0
SPLINE
  5
132
330
1F
100
AcDbEntity
  8
0
  6
Continuous
 62
     7
370
    25
100
AcDbSpline
210
0.0
220
0.0
230
1.0
 70
     8
 71
     3
 72
    18
 73
    14
 74
     0
 42
0.00000001
 43
0.00000001
 40
0.0
 40
0.0
 40
0.0
 40
0.0
 40
0.0661934313645637
 40
0.1627523631264073
 40
0.2593456535778569
 40
0.3560314138787564
 40
0.4528764771173091
 40
0.5499462258599829
 40
0.6473045383751788
 40
0.7450137304751725
 40
0.8432329317429715
 40
0.9284771648475975
 40
0.9999999999999999
 40
0.9999999999999999
 40
0.9999999999999999
 40
0.9999999999999999
 10
6402.976213770268
 20
3621.313882149105
 30
0.0
 10
6404.751863424522
 20
3620.077891832118
 30
0.0
 10
6409.117722262125
 20
3617.038914387617
 30
0.0
 10
6416.264637241988
 20
3612.477448843495
 30
0.0
 10
6424.396962278819
 20
3607.617775478915
 30
0.0
 10
6432.69969915824
 20
3603.034415424523
 30
0.0
 10
6441.162208642229
 20
3598.719474904323
 30
0.0
 10
6449.783199577612
 20
3594.678325257229
 30
0.0
 10
6458.558099407775
 20
3590.911147829991
 30
0.0
 10
6467.48887348174
 20
3587.425080348068
 30
0.0
 10
6476.148950194223
 20
3584.349133211133
 30
0.0
 10
6484.075361586313
 20
3581.768548356749
 30
0.0
 10
6489.01318509175
 20
3580.399980336048
 30
0.0
 10
6491.265999668928
 20
3579.775589856416
 30
0.0
  0
SPLINE
  5
133
330
1F
100
AcDbEntity
  8
0
  6
Continuous
 62
     7
370
    25
100
AcDbSpline
210
0.0
220
0.0
230
1.0
 70
     8
 71
     3
 72
    13
 73
     9
 74
     0
 42
0.00000001
 43
0.00000001
 40
0.0
 40
0.0
 40
0.0
 40
0.0
 40
0.1040353791609963
 40
0.3021761824232875
 40
0.4744168228519845
 40
0.6556608873598424
 40
0.843373322132265
 40
0.9999999999999999
 40
0.9999999999999999
 40
0.9999999999999999
 40
0.9999999999999999
 10
6650.897043343732
 20
3869.240481286813
 30
0.0
 10
6649.962506074397
 20
3870.590713603433
 30
0.0
 10
6647.248093855617
 20
3874.512533758375
 30
0.0
 10
6642.716351194336
 20
3880.476787017682
 30
0.0
 10
6637.266230212291
 20
3887.267559477752
 30
0.0
 10
6631.66278912387
 20
3893.716872487809
 30
0.0
 10
6626.05232425302
 20
3899.828942905068
 30
0.0
 10
6622.25392064389
 20
3903.716217196201
 30
0.0
 10
6620.526172279966
 20
3905.48438943058
 30
0.0
  0
SPLINE
  5
134
330
1F
100
AcDbEntity
  8
0
  6
Continuous
 62
     7
370
    25
100
AcDbSpline
210
0.0
220
0.0
230
1.0
 70
     8
 71
     3
 72
    13
 73
     9
 74
     0
 42
0.00000001
 43
0.00000001
 40
0.0
 40
0.0
 40
0.0
 40
0.0
 40
0.1350975687254926
 40
0.3303059927613654
 40
0.5077385257850991
 40
0.6972940580327824
 40
0.8790777095424498
 40
1.0
 40
1.0
 40
1.0
 40
1.0
 10
6366.751577178945
 20
3651.709926496658
 30
0.0
 10
6368.272506022524
 20
3650.215398872504
 30
0.0
 10
6371.991091903359
 20
3646.561362495223
 30
0.0
 10
6377.885814916644
 20
3641.1303894524
 30
0.0
 10
6384.567513803347
 20
3635.289543431474
 30
0.0
 10
6391.312795264736
 20
3629.85383821029
 30
0.0
 10
6397.499429473611
 20
3625.150205672405
 30
0.0
 10
6401.420165058178
 20
3622.419525645448
 30
0.0
 10
6402.98638580721
 20
3621.328697757431
 30
0.0
  0
LINE
  5
135
330
1F
100
AcDbEntity
  8
0
  6
Continuous
 62
     7
370
    25
100
AcDbLine
 10
6350.851806655
 20
3977.9462484712
 30
0.0
 11
6350.6831400971
 21
3978.1149150291
 31
0.0
  0
LINE
  5
136
330
1F
100
AcDbEntity
  8
0
  6
Continuous
 62
     7
370
    25
100
AcDbLine
 10
6294.106268736
 20
3921.5547014003
 30
0.0
 11
6294.265854782
 21
3921.3951153543
 31
0.0
  0
LINE
  5
137
330
1F
100
AcDbEntity
  8
0
  6
Continuous
 62
     7
370
    25
100
AcDbLine
 10
6378.8993582164
 20
4139.1101544149
 30
0.0
 11
6378.5193582164
 21
4139.1101544149
 31
0.0
  0
LINE
  5
138
330
1F
100
AcDbEntity
  8
0
  6
Continuous
 62
     7
370
    25
100
AcDbLine
 10
6378.5193582164
 20
4131.5101544149
 30
0.0
 11
6378.8993582164
 21
4131.5101544149
 31
0.0
  0
ARC
  5
139
330
1F
100
AcDbEntity
  8
0
  6
Continuous
 62
     7
370
    25
100
AcDbCircle
 10
6376.8340834911
 20
4135.3101544149
 30
0.0
 40
4.324969328314634
100
AcDbArc
 50
26.059831153
 51
61.4762140417
  0
ARC
  5
13A
330
1F
100
AcDbEntity
  8
0
  6
Continuous
 62
     7
370
    25
100
AcDbCircle
 10
6376.8340834911
 20
4135.3101544149
 30
0.0
 40
4.324969328314602
100
AcDbArc
 50
298.5237859583
 51
333.940168847
  0
LINE
  5
13B
330
1F
100
AcDbEntity
  8
0
  6
Continuous
 62
     7
370
    25
100
AcDbLine
 10
6378.8993582164
 20
4301.1101544149
 30
0.0
 11
6378.5193582164
 21
4301.1101544149
 31
0.0
  0
LINE
  5
13C
330
1F
100
AcDbEntity
  8
0
  6
Continuous
 62
     7
370
    25
100
AcDbLine
 10
6378.5193582164
 20
4293.5101544149
 30
0.0
 11
6378.8993582164
 21
4293.5101544149
 31
0.0
  0
ARC
  5
13D
330
1F
100
AcDbEntity
  8
0
  6
Continuous
 62
     7
370
    25
100
AcDbCircle
 10
6376.8340834911
 20
4297.3101544149
 30
0.0
 40
4.324969328314634
100
AcDbArc
 50
26.059831153
 51
61.4762140417
  0
ARC
  5
13E
330
1F
100
AcDbEntity
  8
0
  6
Continuous
 62
     7
370
    25
100
AcDbCircle
 10
6376.8340834911
 20
4297.3101544149
 30
0.0
 40
4.324969328314602
100
AcDbArc
 50
298.5237859583
 51
333.940168847
  0
LINE
  5
13F
330
1F
100
AcDbEntity
  8
0
  6
Continuous
 62
     7
370
    25
100
AcDbLine
 10
6220.9193582164
 20
4246.3101544149
 30
0.0
 11
6220.9193582164
 21
4248.8101544149
 31
0.0
  0
LINE
  5
140
330
1F
100
AcDbEntity
  8
0
  6
Continuous
 62
     7
370
    25
100
AcDbLine
 10
6175.9193582164
 20
4248.8101544149
 30
0.0
 11
6175.9193582164
 21
4246.3101544149
 31
0.0
  0
ARC
  5
141
330
1F
100
AcDbEntity
  8
0
  6
Continuous
 62
     7
370
    25
100
AcDbCircle
 10
6198.4193582164
 20
4246.3101544149
 30
0.0
 40
22.5
100
AcDbArc
 50
180.0
 51
270.0
  0
ARC
  5
142
330
1F
100
AcDbEntity
  8
0
  6
Continuous
 62
     7
370
    25
100
AcDbCircle
 10
6198.4193582164
 20
4246.3101544149
 30
0.0
 40
22.5
100
AcDbArc
 50
270.0
 51
0.0
  0
LINE
  5
143
330
1F
100
AcDbEntity
  8
0
  6
Continuous
 62
     7
370
    25
100
AcDbLine
 10
6220.9193582164
 20
4246.3101544149
 30
0.0
 11
6220.9193582164
 21
4248.8101544149
 31
0.0
  0
LINE
  5
144
330
1F
100
AcDbEntity
  8
0
  6
Continuous
 62
     7
370
    25
100
AcDbLine
 10
6175.9193582164
 20
4248.8101544149
 30
0.0
 11
6175.9193582164
 21
4246.3101544149
 31
0.0
  0
LINE
  5
145
330
1F
100
AcDbEntity
  8
0
  6
Continuous
 62
     7
370
    25
100
AcDbLine
 10
6378.5193582164
 20
4303.8101544149
 30
0.0
 11
6378.5193582164
 21
4128.8101544149
 31
0.0
  0
LINE
  5
146
330
1F
100
AcDbEntity
  8
0
  6
Continuous
 62
     7
370
    25
100
AcDbLine
 10
6378.5193582164
 20
4128.8101544149
 30
0.0
 11
6378.4193582164
 21
4128.8101544149
 31
0.0
  0
LINE
  5
147
330
1F
100
AcDbEntity
  8
0
  6
Continuous
 62
     7
370
    25
100
AcDbLine
 10
6378.5193582164
 20
4303.8101544149
 30
0.0
 11
6378.4193582164
 21
4303.8101544149
 31
0.0
  0
LINE
  5
148
330
1F
100
AcDbEntity
  8
0
  6
Continuous
 62
     7
370
    25
100
AcDbLine
 10
6020.4193582164
 20
4333.8101544149
 30
0.0
 11
6020.4193582164
 21
4250.8101544149
 31
0.0
  0
LINE
  5
149
330
1F
100
AcDbEntity
  8
0
  6
Continuous
 62
     7
370
    25
100
AcDbLine
 10
6020.4193582164
 20
4250.8101544149
 30
0.0
 11
6018.4193582164
 21
4250.8101544149
 31
0.0
  0
LINE
  5
14A
330
1F
100
AcDbEntity
  8
0
  6
Continuous
 62
     7
370
    25
100
AcDbLine
 10
6018.4193582164
 20
4250.8101544149
 30
0.0
 11
6018.4193582164
 21
4333.8101544149
 31
0.0
  0
LINE
  5
14B
330
1F
100
AcDbEntity
  8
0
  6
Continuous
 62
     7
370
    25
100
AcDbLine
 10
6018.4193582164
 20
4333.8101544149
 30
0.0
 11
6020.4193582164
 21
4333.8101544149
 31
0.0
  0
LINE
  5
14C
330
1F
100
AcDbEntity
  8
0
  6
Continuous
 62
     7
370
    25
100
AcDbLine
 10
6378.4193582164
 20
4333.8101544149
 30
0.0
 11
6378.4193582164
 21
4250.8101544149
 31
0.0
  0
LINE
  5
14D
330
1F
100
AcDbEntity
  8
0
  6
Continuous
 62
     7
370
    25
100
AcDbLine
 10
6378.4193582164
 20
4250.8101544149
 30
0.0
 11
6376.4193582164
 21
4250.8101544149
 31
0.0
  0
LINE
  5
14E
330
1F
100
AcDbEntity
  8
0
  6
Continuous
 62
     7
370
    25
100
AcDbLine
 10
6376.4193582164
 20
4250.8101544149
 30
0.0
 11
6376.4193582164
 21
4333.8101544149
 31
0.0
  0
LINE
  5
14F
330
1F
100
AcDbEntity
  8
0
  6
Continuous
 62
     7
370
    25
100
AcDbLine
 10
6376.4193582164
 20
4333.8101544149
 30
0.0
 11
6378.4193582164
 21
4333.8101544149
 31
0.0
  0
LINE
  5
150
330
1F
100
AcDbEntity
  8
0
  6
Continuous
 62
     7
370
    25
100
AcDbLine
 10
6020.4193582164
 20
4250.8101544149
 30
0.0
 11
6376.4193582164
 21
4250.8101544149
 31
0.0
  0
LINE
  5
151
330
1F
100
AcDbEntity
  8
0
  6
Continuous
 62
     7
370
    25
100
AcDbLine
 10
6376.4193582164
 20
4333.8101544149
 30
0.0
 11
6020.4193582164
 21
4333.8101544149
 31
0.0
  0
ARC
  5
152
330
1F
100
AcDbEntity
  8
0
  6
Continuous
 62
     7
370
    25
100
AcDbCircle
 10
6020.4193582164
 20
4250.8101544149
 30
0.0
 40
2.0
100
AcDbArc
 50
180.0
 51
270.0
  0
LINE
  5
153
330
1F
100
AcDbEntity
  8
0
  6
Continuous
 62
     7
370
    25
100
AcDbLine
 10
6020.4193582164
 20
4248.8101544149
 30
0.0
 11
6020.4193582164
 21
4250.8101544149
 31
0.0
  0
ARC
  5
154
330
1F
100
AcDbEntity
  8
0
  6
Continuous
 62
     7
370
    25
100
AcDbCircle
 10
6376.4193582164
 20
4250.8101544149
 30
0.0
 40
2.000000000000909
100
AcDbArc
 50
270.0
 51
0.0
  0
LINE
  5
155
330
1F
100
AcDbEntity
  8
0
  6
Continuous
 62
     7
370
    25
100
AcDbLine
 10
6376.4193582164
 20
4250.8101544149
 30
0.0
 11
6376.4193582164
 21
4248.8101544149
 31
0.0
  0
LINE
  5
156
330
1F
100
AcDbEntity
  8
0
  6
Continuous
 62
     7
370
    25
100
AcDbLine
 10
6376.4193582164
 20
4248.8101544149
 30
0.0
 11
6020.4193582164
 21
4248.8101544149
 31
0.0
  0
LINE
  5
157
330
1F
100
AcDbEntity
  8
0
  6
Continuous
 62
     7
370
    25
100
AcDbLine
 10
6320.9193582164
 20
4246.8101544149
 30
0.0
 11
6275.9193582164
 21
4246.8101544149
 31
0.0
  0
LINE
  5
158
330
1F
100
AcDbEntity
  8
0
  6
Continuous
 62
     7
370
    25
100
AcDbLine
 10
6120.9193582164
 20
4246.8101544149
 30
0.0
 11
6075.9193582164
 21
4246.8101544149
 31
0.0
  0
LINE
  5
159
330
1F
100
AcDbEntity
  8
0
  6
Continuous
 62
     7
370
    25
100
AcDbLine
 10
6018.4193582164
 20
4073.8101544149
 30
0.0
 11
6020.4193582164
 21
4073.8101544149
 31
0.0
  0
LINE
  5
15A
330
1F
100
AcDbEntity
  8
0
  6
Continuous
 62
     7
370
    25
100
AcDbLine
 10
6018.4193582164
 20
4073.8101544149
 30
0.0
 11
6018.4193582164
 21
4250.8101544149
 31
0.0
  0
LINE
  5
15B
330
1F
100
AcDbEntity
  8
0
  6
Continuous
 62
     7
370
    25
100
AcDbLine
 10
6378.4193582164
 20
4073.8101544149
 30
0.0
 11
6376.4193582164
 21
4073.8101544149
 31
0.0
  0
LINE
  5
15C
330
1F
100
AcDbEntity
  8
0
  6
Continuous
 62
     7
370
    25
100
AcDbLine
 10
6378.4193582164
 20
4250.8101544149
 30
0.0
 11
6378.4193582164
 21
4073.8101544149
 31
0.0
  0
ARC
  5
15D
330
1F
100
AcDbEntity
  8
0
  6
Continuous
 62
     7
370
    25
100
AcDbCircle
 10
6198.4193582164
 20
4073.8101544149
 30
0.0
 40
178.0
100
AcDbArc
 50
180.0
 51
0.0
  0
SPLINE
  5
15E
330
1F
100
AcDbEntity
  8
0
  6
Continuous
 62
     7
370
    25
100
AcDbSpline
210
0.0
220
0.0
230
1.0
 70
    11
 71
     3
 72
    70
 73
    66
 74
     0
 42
0.00000001
 43
0.00000001
 40
0.0
 40
0.0
 40
0.0
 40
0.0
 40
0.03125
 40
0.03125
 40
0.0625
 40
0.0625
 40
0.09375
 40
0.09375
 40
0.125
 40
0.125
 40
0.1562500000000001
 40
0.1562500000000001
 40
0.1875000000000001
 40
0.1875000000000001
 40
0.2187500000000001
 40
0.2187500000000001
 40
0.2500000000000001
 40
0.2500000000000001
 40
0.28125
 40
0.28125
 40
0.3125
 40
0.3125
 40
0.34375
 40
0.34375
 40
0.375
 40
0.375
 40
0.40625
 40
0.40625
 40
0.4375
 40
0.4375
 40
0.46875
 40
0.46875
 40
0.5
 40
0.5
 40
0.53125
 40
0.53125
 40
0.5625
 40
0.5625
 40
0.59375
 40
0.59375
 40
0.625
 40
0.625
 40
0.65625
 40
0.65625
 40
0.6875
 40
0.6875
 40
0.71875
 40
0.71875
 40
0.75
 40
0.75
 40
0.78125
 40
0.78125
 40
0.8125
 40
0.8125
 40
0.84375
 40
0.84375
 40
0.875
 40
0.875
 40
0.90625
 40
0.90625
 40
0.9375
 40
0.9375
 40
0.96875
 40
0.96875
 40
1.0
 40
1.0
 40
1.0
 40
1.0
 10
6195.925511163759
 20
4092.759467849095
 30
0.0
 10
6196.173203437356
 20
4092.924376025417
 30
0.0
 10
6196.433054280341
 20
4093.062269001037
 30
0.0
 10
6196.97613761812
 20
4093.286103488571
 30
0.0
 10
6197.262677862501
 20
4093.372541041877
 30
0.0
 10
6197.84270108056
 20
4093.486380710009
 30
0.0
 10
6198.135144826473
 20
4093.514391617506
 30
0.0
 10
6198.724862867822
 20
4093.512996520152
 30
0.0
 10
6199.023609605344
 20
4093.482644748196
 30
0.0
 10
6199.600231637623
 20
4093.365954968628
 30
0.0
 10
6199.8813205588
 20
4093.279929623079
 30
0.0
 10
6200.428685904258
 20
4093.051106132879
 30
0.0
 10
6200.689788367627
 20
4092.910014178747
 30
0.0
 10
6201.176445454669
 20
4092.582254727791
 30
0.0
 10
6201.405631966596
 20
4092.393005119586
 30
0.0
 10
6201.822270973265
 20
4091.973043369191
 30
0.0
 10
6202.007228334641
 20
4091.745602321817
 30
0.0
 10
6202.331554422733
 20
4091.256648196145
 30
0.0
 10
6202.471693683887
 20
4090.992273089726
 30
0.0
 10
6202.694368757208
 20
4090.449127411126
 30
0.0
 10
6202.778500835539
 20
4090.168933117033
 30
0.0
 10
6202.891856297908
 20
4089.591143626913
 30
0.0
 10
6202.92008413951
 20
4089.294779494885
 30
0.0
 10
6202.918603457638
 20
4088.709851379518
 30
0.0
 10
6202.889618223609
 20
4088.418106785828
 30
0.0
 10
6202.772779325016
 20
4087.836553996976
 30
0.0
 10
6202.686850124971
 20
4087.556256190586
 30
0.0
 10
6202.462129868673
 20
4087.015796144735
 30
0.0
 10
6202.321423290844
 20
4086.753008174655
 30
0.0
 10
6201.993214951718
 20
4086.263358041864
 30
0.0
 10
6201.807067875389
 20
4086.037157899126
 30
0.0
 10
6201.391030409221
 20
4085.621718505973
 30
0.0
 10
6201.159069709609
 20
4085.431759997749
 30
0.0
 10
6200.669949538086
 20
4085.10586842648
 30
0.0
 10
6200.410951673918
 20
4084.967560444506
 30
0.0
 10
6199.86338426108
 20
4084.74140839337
 30
0.0
 10
6199.57819018678
 20
4084.655567669476
 30
0.0
 10
6199.001865378739
 20
4084.541911449805
 30
0.0
 10
6198.706440351841
 20
4084.513065111778
 30
0.0
 10
6198.112504053844
 20
4084.514369928767
 30
0.0
 10
6197.819918844169
 20
4084.544123696198
 30
0.0
 10
6197.243263383008
 20
4084.660167826543
 30
0.0
 10
6196.956297646674
 20
4084.747991313445
 30
0.0
 10
6196.412388126293
 20
4084.975273212928
 30
0.0
 10
6196.153931215445
 20
4085.114357835836
 30
0.0
 10
6195.664109837807
 20
4085.443596420509
 30
0.0
 10
6195.433720401118
 20
4085.63406765279
 30
0.0
 10
6195.020360159248
 20
4086.050126866669
 30
0.0
 10
6194.834529604889
 20
4086.277443541745
 30
0.0
 10
6194.506133508559
 20
4086.772099108892
 30
0.0
 10
6194.368750304273
 20
4087.031726782697
 30
0.0
 10
6194.146138052368
 20
4087.573131038024
 30
0.0
 10
6194.060265383415
 20
4087.858290518459
 30
0.0
 10
6193.946882937814
 20
4088.436089424868
 30
0.0
 10
6193.918922644301
 20
4088.727190523376
 30
0.0
 10
6193.919803947305
 20
4089.31374535052
 30
0.0
 10
6193.949586772687
 20
4089.611190126265
 30
0.0
 10
6194.064797660172
 20
4090.18573294588
 30
0.0
 10
6194.149849286387
 20
4090.465732019931
 30
0.0
 10
6194.376039541232
 20
4091.010869207583
 30
0.0
 10
6194.516414486552
 20
4091.272633678889
 30
0.0
 10
6194.842022705112
 20
4091.759319829343
 30
0.0
 10
6195.029064355098
 20
4091.987594566815
 30
0.0
 10
6195.449051907409
 20
4092.40713887236
 30
0.0
 10
6195.677818890164
 20
4092.594559672773
 30
0.0
 10
6195.925511163759
 20
4092.759467849095
 30
0.0
  0
SPLINE
  5
15F
330
1F
100
AcDbEntity
  8
0
  6
Continuous
 62
     7
370
    25
100
AcDbSpline
210
0.0
220
0.0
230
1.0
 70
    11
 71
     3
 72
    70
 73
    66
 74
     0
 42
0.00000001
 43
0.00000001
 40
0.0
 40
0.0
 40
0.0
 40
0.0
 40
0.03125
 40
0.03125
 40
0.0625
 40
0.0625
 40
0.09375
 40
0.09375
 40
0.125
 40
0.125
 40
0.15625
 40
0.15625
 40
0.1875
 40
0.1875
 40
0.21875
 40
0.21875
 40
0.25
 40
0.25
 40
0.28125
 40
0.28125
 40
0.3125
 40
0.3125
 40
0.34375
 40
0.34375
 40
0.375
 40
0.375
 40
0.40625
 40
0.40625
 40
0.4375
 40
0.4375
 40
0.46875
 40
0.46875
 40
0.5
 40
0.5
 40
0.53125
 40
0.53125
 40
0.5625
 40
0.5625
 40
0.59375
 40
0.59375
 40
0.625
 40
0.625
 40
0.65625
 40
0.65625
 40
0.6875
 40
0.6875
 40
0.71875
 40
0.71875
 40
0.75
 40
0.75
 40
0.78125
 40
0.78125
 40
0.8125
 40
0.8125
 40
0.84375
 40
0.84375
 40
0.875
 40
0.875
 40
0.90625
 40
0.90625
 40
0.9375
 40
0.9375
 40
0.96875
 40
0.96875
 40
1.0
 40
1.0
 40
1.0
 40
1.0
 10
6185.316717999007
 20
4088.364609623187
 30
0.0
 10
6185.56464425678
 20
4088.529883046469
 30
0.0
 10
6185.824603789669
 20
4088.667962548901
 30
0.0
 10
6186.367569084511
 20
4088.892039738904
 30
0.0
 10
6186.653856176947
 20
4088.978529382126
 30
0.0
 10
6187.233126964203
 20
4089.092575127574
 30
0.0
 10
6187.525041246061
 20
4089.120725680707
 30
0.0
 10
6188.113380535098
 20
4089.119881819305
 30
0.0
 10
6188.411301973884
 20
4089.089956929491
 30
0.0
 10
6188.98638393652
 20
4088.974457375976
 30
0.0
 10
6189.266694311391
 20
4088.889196734254
 30
0.0
 10
6189.8125179259
 20
4088.662374334304
 30
0.0
 10
6190.073298909262
 20
4088.522291884997
 30
0.0
 10
6190.559322986522
 20
4088.196884926344
 30
0.0
 10
6190.788098900955
 20
4088.009195056125
 30
0.0
 10
6191.205478392323
 20
4087.591276819363
 30
0.0
 10
6191.390909407356
 20
4087.364861382772
 30
0.0
 10
6191.716421819874
 20
4086.87799447069
 30
0.0
 10
6191.857455982396
 20
4086.614467523712
 30
0.0
 10
6192.082348922371
 20
4086.071805931095
 30
0.0
 10
6192.167550105857
 20
4085.791825407445
 30
0.0
 10
6192.283068212361
 20
4085.214440259796
 30
0.0
 10
6192.312522970013
 20
4084.917086876476
 30
0.0
 10
6192.312987207092
 20
4084.330654543567
 30
0.0
 10
6192.284840903084
 20
4084.038310715818
 30
0.0
 10
6192.169514159535
 20
4083.455438049351
 30
0.0
 10
6192.083740638357
 20
4083.172937695269
 30
0.0
 10
6191.859488080051
 20
4082.630295583541
 30
0.0
 10
6191.719039515895
 20
4082.366749787396
 30
0.0
 10
6191.390279018931
 20
4081.874601556753
 30
0.0
 10
6191.203815762964
 20
4081.64751583754
 30
0.0
 10
6190.787323228955
 20
4081.23080528919
 30
0.0
 10
6190.555030022837
 20
4081.040282553025
 30
0.0
 10
6190.065291374437
 20
4080.713553251062
 30
0.0
 10
6189.806143344541
 20
4080.57504862639
 30
0.0
 10
6189.258760017698
 20
4080.348682060309
 30
0.0
 10
6188.973665297102
 20
4080.262743532801
 30
0.0
 10
6188.398025706414
 20
4080.148894667238
 30
0.0
 10
6188.103202088572
 20
4080.119926846517
 30
0.0
 10
6187.51060634633
 20
4080.12069752203
 30
0.0
 10
6187.218760468568
 20
4080.15005757755
 30
0.0
 10
6186.643697724557
 20
4080.264935249822
 30
0.0
 10
6186.357596517476
 20
4080.351955069452
 30
0.0
 10
6185.814926266155
 20
4080.577412769655
 30
0.0
 10
6185.55700000736
 20
4080.715436037514
 30
0.0
 10
6185.068028275087
 20
4081.04218983289
 30
0.0
 10
6184.837556842617
 20
4081.231534333813
 30
0.0
 10
6184.423800206354
 20
4081.64531631659
 30
0.0
 10
6184.237641543116
 20
4081.871449090892
 30
0.0
 10
6183.908277102976
 20
4082.363603927878
 30
0.0
 10
6183.769553641553
 20
4082.623282137935
 30
0.0
 10
6183.545002126041
 20
4083.16364240286
 30
0.0
 10
6183.458117793415
 20
4083.448035070132
 30
0.0
 10
6183.342310954999
 20
4084.026827456933
 30
0.0
 10
6183.313299928626
 20
4084.31839308767
 30
0.0
 10
6183.312228052303
 20
4084.905800886892
 30
0.0
 10
6183.341123549046
 20
4085.20424608718
 30
0.0
 10
6183.45515437724
 20
4085.781251200269
 30
0.0
 10
6183.539796064597
 20
4086.062280048325
 30
0.0
 10
6183.765282229024
 20
4086.609133459942
 30
0.0
 10
6183.905905850241
 20
4086.872597009742
 30
0.0
 10
6184.231855149883
 20
4087.361372332159
 30
0.0
 10
6184.418836470571
 20
4087.590145671437
 30
0.0
 10
6184.839648180548
 20
4088.011363322398
 30
0.0
 10
6185.068791741232
 20
4088.199336199905
 30
0.0
 10
6185.316717999007
 20
4088.364609623187
 30
0.0
  0
SPLINE
  5
160
330
1F
100
AcDbEntity
  8
0
  6
Continuous
 62
     7
370
    25
100
AcDbSpline
210
0.0
220
0.0
230
1.0
 70
    11
 71
     3
 72
    70
 73
    66
 74
     0
 42
0.00000001
 43
0.00000001
 40
0.0
 40
0.0
 40
0.0
 40
0.0
 40
0.03125
 40
0.03125
 40
0.0625
 40
0.0625
 40
0.09375
 40
0.09375
 40
0.125
 40
0.125
 40
0.15625
 40
0.15625
 40
0.1875
 40
0.1875
 40
0.21875
 40
0.21875
 40
0.25
 40
0.25
 40
0.28125
 40
0.28125
 40
0.3125
 40
0.3125
 40
0.34375
 40
0.34375
 40
0.375
 40
0.375
 40
0.40625
 40
0.40625
 40
0.4375
 40
0.4375
 40
0.46875
 40
0.46875
 40
0.5
 40
0.5
 40
0.53125
 40
0.53125
 40
0.5625
 40
0.5625
 40
0.59375
 40
0.59375
 40
0.625
 40
0.625
 40
0.65625
 40
0.65625
 40
0.6875
 40
0.6875
 40
0.71875
 40
0.71875
 40
0.75
 40
0.75
 40
0.78125
 40
0.78125
 40
0.8125
 40
0.8125
 40
0.84375
 40
0.84375
 40
0.875
 40
0.875
 40
0.90625
 40
0.90625
 40
0.9375
 40
0.9375
 40
0.96875
 40
0.96875
 40
1.0
 40
1.0
 40
1.0
 40
1.0
 10
6180.231412076682
 20
4077.189710346525
 30
0.0
 10
6180.441249187096
 20
4077.400336489423
 30
0.0
 10
6180.668145767882
 20
4077.586749438875
 30
0.0
 10
6181.154569211857
 20
4077.913262455484
 30
0.0
 10
6181.417138767109
 20
4078.054482024725
 30
0.0
 10
6181.960911311774
 20
4078.280986929458
 30
0.0
 10
6182.240702611321
 20
4078.366506263711
 30
0.0
 10
6182.815916807271
 20
4078.482705640913
 30
0.0
 10
6183.113326263215
 20
4078.512834486046
 30
0.0
 10
6183.6991795371
 20
4078.514540669373
 30
0.0
 10
6183.990475785161
 20
4078.487060629026
 30
0.0
 10
6184.569735098486
 20
4078.374177281212
 30
0.0
 10
6184.853854786358
 20
4078.288962490593
 30
0.0
 10
6185.395341370007
 20
4078.067233939103
 30
0.0
 10
6185.65659035754
 20
4077.929377601272
 30
0.0
 10
6186.150412346679
 20
4077.602443194001
 30
0.0
 10
6186.377784952338
 20
4077.41719628744
 30
0.0
 10
6186.794555057323
 20
4077.004371582751
 30
0.0
 10
6186.985641191034
 20
4076.773861701662
 30
0.0
 10
6187.315126151879
 20
4076.285230884188
 30
0.0
 10
6187.454607999319
 20
4076.027102530548
 30
0.0
 10
6187.682898725585
 20
4075.483137184905
 30
0.0
 10
6187.771047889541
 20
4075.196582855679
 30
0.0
 10
6187.887944599433
 20
4074.620447825431
 30
0.0
 10
6187.9182193862
 20
4074.327819246125
 30
0.0
 10
6187.920434609046
 20
4073.733118263494
 30
0.0
 10
6187.892104679298
 20
4073.438523123583
 30
0.0
 10
6187.779366306633
 20
4072.861913938247
 30
0.0
 10
6187.693735341602
 20
4072.575919430397
 30
0.0
 10
6187.468697413321
 20
4072.028666611726
 30
0.0
 10
6187.330856583322
 20
4071.769442974577
 30
0.0
 10
6187.005390592121
 20
4071.279312620463
 30
0.0
 10
6186.815723124494
 20
4071.047057437012
 30
0.0
 10
6186.401198215228
 20
4070.630670682989
 30
0.0
 10
6186.175163533619
 20
4070.444004684738
 30
0.0
 10
6185.684939517076
 20
4070.114427687166
 30
0.0
 10
6185.423177516219
 20
4069.97386083406
 30
0.0
 10
6184.883056242624
 20
4069.748353899525
 30
0.0
 10
6184.600981516818
 20
4069.661548030957
 30
0.0
 10
6184.02104270142
 20
4069.544311383598
 30
0.0
 10
6183.729698869525
 20
4069.514890321939
 30
0.0
 10
6183.144349560124
 20
4069.512592353121
 30
0.0
 10
6182.847124539488
 20
4069.540577419034
 30
0.0
 10
6182.270310581445
 20
4069.652969781876
 30
0.0
 10
6181.9900531294
 20
4069.73661943354
 30
0.0
 10
6181.445851683015
 20
4069.958874957249
 30
0.0
 10
6181.181616730403
 20
4070.098557019624
 30
0.0
 10
6180.692729032929
 20
4070.421857977051
 30
0.0
 10
6180.464902387131
 20
4070.6065076458
 30
0.0
 10
6180.043610284054
 20
4071.023365497592
 30
0.0
 10
6179.854873261685
 20
4071.251377505628
 30
0.0
 10
6179.526484678473
 20
4071.737404622004
 30
0.0
 10
6179.384640579863
 20
4071.999068259127
 30
0.0
 10
6179.155401365597
 20
4072.545242745409
 30
0.0
 10
6179.068956090488
 20
4072.826023169119
 30
0.0
 10
6178.951334944068
 20
4073.402675751853
 30
0.0
 10
6178.920543963382
 20
4073.70148892289
 30
0.0
 10
6178.91824119025
 20
4074.290753797899
 30
0.0
 10
6178.945756583315
 20
4074.583284015042
 30
0.0
 10
6179.058836035117
 20
4075.164087571969
 30
0.0
 10
6179.144720491922
 20
4075.45026691432
 30
0.0
 10
6179.367667533882
 20
4075.993614651323
 30
0.0
 10
6179.505633513502
 20
4076.25449826989
 30
0.0
 10
6179.834448475589
 20
4076.7499102782
 30
0.0
 10
6180.021574966268
 20
4076.979084203628
 30
0.0
 10
6180.231412076682
 20
4077.189710346525
 30
0.0
  0
SPLINE
  5
161
330
1F
100
AcDbEntity
  8
0
  6
Continuous
 62
     7
370
    25
100
AcDbSpline
210
0.0
220
0.0
230
1.0
 70
    11
 71
     3
 72
    70
 73
    66
 74
     0
 42
0.00000001
 43
0.00000001
 40
0.0
 40
0.0
 40
0.0
 40
0.0
 40
0.03125
 40
0.03125
 40
0.0625
 40
0.0625
 40
0.09375
 40
0.09375
 40
0.125
 40
0.125
 40
0.15625
 40
0.15625
 40
0.1875
 40
0.1875
 40
0.21875
 40
0.21875
 40
0.25
 40
0.25
 40
0.28125
 40
0.28125
 40
0.3125
 40
0.3125
 40
0.34375
 40
0.34375
 40
0.375
 40
0.375
 40
0.40625
 40
0.40625
 40
0.4375
 40
0.4375
 40
0.46875
 40
0.46875
 40
0.5
 40
0.5
 40
0.53125
 40
0.53125
 40
0.5625
 40
0.5625
 40
0.59375
 40
0.59375
 40
0.625
 40
0.625
 40
0.65625
 40
0.65625
 40
0.6875
 40
0.6875
 40
0.71875
 40
0.71875
 40
0.75
 40
0.75
 40
0.78125
 40
0.78125
 40
0.8125
 40
0.8125
 40
0.84375
 40
0.84375
 40
0.875
 40
0.875
 40
0.90625
 40
0.90625
 40
0.9375
 40
0.9375
 40
0.96875
 40
0.96875
 40
1.0
 40
1.0
 40
1.0
 40
1.0
 10
6184.602385050681
 20
4066.560438919581
 30
0.0
 10
6184.81022527653
 20
4066.772038557231
 30
0.0
 10
6185.035331534878
 20
4066.959778714405
 30
0.0
 10
6185.51867731965
 20
4067.289472915766
 30
0.0
 10
6185.779934518559
 20
4067.432571459013
 30
0.0
 10
6186.321965076457
 20
4067.663193148126
 30
0.0
 10
6186.60122353766
 20
4067.750886959575
 30
0.0
 10
6187.176086607106
 20
4067.871509245061
 30
0.0
 10
6187.473833535613
 20
4067.90391766372
 30
0.0
 10
6188.060978028763
 20
4067.909835169431
 30
0.0
 10
6188.353181961986
 20
4067.884324399326
 30
0.0
 10
6188.934787876397
 20
4067.775010542798
 30
0.0
 10
6189.220472320017
 20
4067.691318396834
 30
0.0
 10
6189.765050893888
 20
4067.472162795712
 30
0.0
 10
6190.028026383654
 20
4067.335307416115
 30
0.0
 10
6190.525047804966
 20
4067.010113575056
 30
0.0
 10
6190.753988085458
 20
4066.825531153036
 30
0.0
 10
6191.173863513343
 20
4066.413671196427
 30
0.0
 10
6191.366444310601
 20
4066.183487473731
 30
0.0
 10
6191.698439740336
 20
4065.695873775099
 30
0.0
 10
6191.839182049057
 20
4065.43812744996
 30
0.0
 10
6192.070018059812
 20
4064.894679860889
 30
0.0
 10
6192.159223768058
 20
4064.60893498082
 30
0.0
 10
6192.278523792826
 20
4064.034078337844
 30
0.0
 10
6192.310104146155
 20
4063.741927255563
 30
0.0
 10
6192.315091703427
 20
4063.147837615548
 30
0.0
 10
6192.288325964516
 20
4062.8547477362
 30
0.0
 10
6192.178936924885
 20
4062.279147047938
 30
0.0
 10
6192.095022672501
 20
4061.993237476446
 30
0.0
 10
6191.874087909076
 20
4061.44689781844
 30
0.0
 10
6191.738342823577
 20
4061.18768240818
 30
0.0
 10
6191.416960054036
 20
4060.696794792167
 30
0.0
 10
6191.229429851737
 20
4060.463945506679
 30
0.0
 10
6190.818947688941
 20
4060.045757178098
 30
0.0
 10
6190.594740365167
 20
4059.857798878156
 30
0.0
 10
6190.107619365593
 20
4059.525016304476
 30
0.0
 10
6189.847173672679
 20
4059.382586992029
 30
0.0
 10
6189.308934728838
 20
4059.153042334251
 30
0.0
 10
6189.027566385876
 20
4059.064064860017
 30
0.0
 10
6188.447728615775
 20
4058.942290206081
 30
0.0
 10
6188.156121483017
 20
4058.910650357932
 30
0.0
 10
6187.569631308102
 20
4058.904117768926
 30
0.0
 10
6187.271454409187
 20
4058.930067687502
 30
0.0
 10
6186.692115803356
 20
4059.038920540831
 30
0.0
 10
6186.410449962242
 20
4059.121024928717
 30
0.0
 10
6185.863145758713
 20
4059.340661352615
 30
0.0
 10
6185.597221606155
 20
4059.479279120466
 30
0.0
 10
6185.105069564428
 20
4059.800882262899
 30
0.0
 10
6184.875612372279
 20
4059.984896096229
 30
0.0
 10
6184.451048740497
 20
4060.400903027126
 30
0.0
 10
6184.261112279321
 20
4060.628237378551
 30
0.0
 10
6183.930007972563
 20
4061.113517036496
 30
0.0
 10
6183.786729229434
 20
4061.375186228004
 30
0.0
 10
6183.555289244027
 20
4061.919972866518
 30
0.0
 10
6183.467659551179
 20
4062.200195612683
 30
0.0
 10
6183.347533701556
 20
4062.776008288679
 30
0.0
 10
6183.315482276716
 20
4063.07415151228
 30
0.0
 10
6183.310371141597
 20
4063.661780248305
 30
0.0
 10
6183.336334945376
 20
4063.953747847674
 30
0.0
 10
6183.446130808723
 20
4064.533936106993
 30
0.0
 10
6183.53003618203
 20
4064.819181680082
 30
0.0
 10
6183.749015115309
 20
4065.362011588166
 30
0.0
 10
6183.885121007907
 20
4065.62328243123
 30
0.0
 10
6184.20955482553
 20
4066.119060125237
 30
0.0
 10
6184.394544824831
 20
4066.34883928193
 30
0.0
 10
6184.602385050681
 20
4066.560438919581
 30
0.0
  0
SPLINE
  5
162
330
1F
100
AcDbEntity
  8
0
  6
Continuous
 62
     7
370
    25
100
AcDbSpline
210
0.0
220
0.0
230
1.0
 70
    11
 71
     3
 72
    70
 73
    66
 74
     0
 42
0.00000001
 43
0.00000001
 40
0.0
 40
0.0
 40
0.0
 40
0.0
 40
0.03125
 40
0.03125
 40
0.0625
 40
0.0625
 40
0.09375
 40
0.09375
 40
0.125
 40
0.125
 40
0.15625
 40
0.15625
 40
0.1875
 40
0.1875
 40
0.21875
 40
0.21875
 40
0.25
 40
0.25
 40
0.28125
 40
0.28125
 40
0.3125
 40
0.3125
 40
0.34375
 40
0.34375
 40
0.375
 40
0.375
 40
0.40625
 40
0.40625
 40
0.4375
 40
0.4375
 40
0.46875
 40
0.46875
 40
0.5
 40
0.5
 40
0.53125
 40
0.53125
 40
0.5625
 40
0.5625
 40
0.59375
 40
0.59375
 40
0.625
 40
0.625
 40
0.65625
 40
0.65625
 40
0.6875
 40
0.6875
 40
0.71875
 40
0.71875
 40
0.75
 40
0.75
 40
0.78125
 40
0.78125
 40
0.8125
 40
0.8125
 40
0.84375
 40
0.84375
 40
0.875
 40
0.875
 40
0.90625
 40
0.90625
 40
0.9375
 40
0.9375
 40
0.96875
 40
0.96875
 40
1.0
 40
1.0
 40
1.0
 40
1.0
 10
6195.88754677117
 20
4062.733912408803
 30
0.0
 10
6196.133529587829
 20
4062.901317695705
 30
0.0
 10
6196.391938071612
 20
4063.041833650442
 30
0.0
 10
6196.932647106044
 20
4063.271162422471
 30
0.0
 10
6197.218246157353
 20
4063.360504998398
 30
0.0
 10
6197.797007838489
 20
4063.480249616294
 30
0.0
 10
6198.089111182308
 20
4063.511245241705
 30
0.0
 10
6198.678724605966
 20
4063.515888961218
 30
0.0
 10
6198.977736007723
 20
4063.488606298948
 30
0.0
 10
6199.555475752626
 20
4063.3778502736
 30
0.0
 10
6199.837406050709
 20
4063.294724428816
 30
0.0
 10
6200.387034546544
 20
4063.071566028758
 30
0.0
 10
6200.649602657345
 20
4062.933154945832
 30
0.0
 10
6201.139603757322
 20
4062.610417564159
 30
0.0
 10
6201.370702998879
 20
4062.423556625965
 30
0.0
 10
6201.7916949138
 20
4062.007843933736
 30
0.0
 10
6201.978996731562
 20
4061.782289780528
 30
0.0
 10
6202.308347409187
 20
4061.29665254444
 30
0.0
 10
6202.45120801893
 20
4061.033698242826
 30
0.0
 10
6202.67947214838
 20
4060.492763153277
 30
0.0
 10
6202.766473709668
 20
4060.213404819413
 30
0.0
 10
6202.885733410643
 20
4059.636748720047
 30
0.0
 10
6202.916989464257
 20
4059.340621062208
 30
0.0
 10
6202.921463739262
 20
4058.755625804619
 30
0.0
 10
6202.895447544109
 20
4058.463603841963
 30
0.0
 10
6202.784508379731
 20
4057.8808108879
 30
0.0
 10
6202.701419143183
 20
4057.599630796346
 30
0.0
 10
6202.482183405134
 20
4057.056896037189
 30
0.0
 10
6202.344150945714
 20
4056.792699463655
 30
0.0
 10
6202.020922602316
 20
4056.299741865199
 30
0.0
 10
6201.837083697342
 20
4056.071673356381
 30
0.0
 10
6201.425311500365
 20
4055.652062378332
 30
0.0
 10
6201.195311538629
 20
4055.459775336001
 30
0.0
 10
6200.70957464725
 20
4055.128960413188
 30
0.0
 10
6200.452027793552
 20
4054.988042507722
 30
0.0
 10
6199.906874197809
 20
4054.756358461716
 30
0.0
 10
6199.622599248364
 20
4054.667621708168
 30
0.0
 10
6199.047543943763
 20
4054.548101876629
 30
0.0
 10
6198.752493083719
 20
4054.516241205024
 30
0.0
 10
6198.15862892179
 20
4054.511463375427
 30
0.0
 10
6197.865785193223
 20
4054.538213922469
 30
0.0
 10
6197.288039637253
 20
4054.648320467644
 30
0.0
 10
6197.000219078165
 20
4054.73317957476
 30
0.0
 10
6196.454019458337
 20
4054.954850714334
 30
0.0
 10
6196.194159458838
 20
4055.091263669948
 30
0.0
 10
6195.701010668668
 20
4055.415421633592
 30
0.0
 10
6195.468653132963
 20
4055.603524957327
 30
0.0
 10
6195.051018342403
 20
4056.015326058949
 30
0.0
 10
6194.862857804905
 20
4056.240723582026
 30
0.0
 10
6194.529395160662
 20
4056.731970971167
 30
0.0
 10
6194.389309384786
 20
4056.990246562834
 30
0.0
 10
6194.161133102646
 20
4057.529387546158
 30
0.0
 10
6194.072336443368
 20
4057.813661032702
 30
0.0
 10
6193.953021757264
 20
4058.390371727739
 30
0.0
 10
6193.922083975672
 20
4058.68121154483
 30
0.0
 10
6193.916973937775
 20
4059.267801930914
 30
0.0
 10
6193.943723476387
 20
4059.565576051176
 30
0.0
 10
6194.053088671812
 20
4060.141339763494
 30
0.0
 10
6194.135295040791
 20
4060.422214609267
 30
0.0
 10
6194.35593824395
 20
4060.969648904636
 30
0.0
 10
6194.493660577486
 20
4061.232856309427
 30
0.0
 10
6194.814318864816
 20
4061.722842757215
 30
0.0
 10
6194.999026024294
 20
4061.952996853312
 30
0.0
 10
6195.414722943941
 20
4062.376780555292
 30
0.0
 10
6195.64156395451
 20
4062.566507121901
 30
0.0
 10
6195.88754677117
 20
4062.733912408803
 30
0.0
  0
SPLINE
  5
163
330
1F
100
AcDbEntity
  8
0
  6
Continuous
 62
     7
370
    25
100
AcDbSpline
210
0.0
220
0.0
230
1.0
 70
    11
 71
     3
 72
    70
 73
    66
 74
     0
 42
0.00000001
 43
0.00000001
 40
0.0
 40
0.0
 40
0.0
 40
0.0
 40
0.03125
 40
0.03125
 40
0.0625
 40
0.0625
 40
0.09375
 40
0.09375
 40
0.125
 40
0.125
 40
0.15625
 40
0.15625
 40
0.1875
 40
0.1875
 40
0.21875
 40
0.21875
 40
0.25
 40
0.25
 40
0.28125
 40
0.28125
 40
0.3125
 40
0.3125
 40
0.34375
 40
0.34375
 40
0.375
 40
0.375
 40
0.40625
 40
0.40625
 40
0.4375
 40
0.4375
 40
0.46875
 40
0.46875
 40
0.5
 40
0.5
 40
0.53125
 40
0.53125
 40
0.5625
 40
0.5625
 40
0.59375
 40
0.59375
 40
0.625
 40
0.625
 40
0.65625
 40
0.65625
 40
0.6875
 40
0.6875
 40
0.71875
 40
0.71875
 40
0.75
 40
0.75
 40
0.78125
 40
0.78125
 40
0.8125
 40
0.8125
 40
0.84375
 40
0.84375
 40
0.875
 40
0.875
 40
0.90625
 40
0.90625
 40
0.9375
 40
0.9375
 40
0.96875
 40
0.96875
 40
1.0
 40
1.0
 40
1.0
 40
1.0
 10
6195.238091496398
 20
4077.196400811627
 30
0.0
 10
6195.448355776099
 20
4077.406570788306
 30
0.0
 10
6195.675728994923
 20
4077.592596863667
 30
0.0
 10
6196.163293926319
 20
4077.918336004061
 30
0.0
 10
6196.426571685824
 20
4078.059173517407
 30
0.0
 10
6196.971683171851
 20
4078.2846828033
 30
0.0
 10
6197.252203306062
 20
4078.369648497843
 30
0.0
 10
6197.829029658402
 20
4078.484499886399
 30
0.0
 10
6198.127207400691
 20
4078.513798690863
 30
0.0
 10
6198.714337259424
 20
4078.513614186772
 30
0.0
 10
6199.006243173479
 20
4078.485072467458
 30
0.0
 10
6199.586657781786
 20
4078.369732126103
 30
0.0
 10
6199.870705009303
 20
4078.283306717352
 30
0.0
 10
6200.412232576316
 20
4078.058993293617
 30
0.0
 10
6200.673761455447
 20
4077.919517481691
 30
0.0
 10
6201.166158169984
 20
4077.590406557023
 30
0.0
 10
6201.392785496312
 20
4077.404113009609
 30
0.0
 10
6201.807942694441
 20
4076.989210018882
 30
0.0
 10
6201.998017378872
 20
4076.757748388994
 30
0.0
 10
6202.324848665698
 20
4076.268415235633
 30
0.0
 10
6202.463090748083
 20
4076.009981865415
 30
0.0
 10
6202.688947425524
 20
4075.465428213113
 30
0.0
 10
6202.775632446494
 20
4075.179408843073
 30
0.0
 10
6202.890072827547
 20
4074.604212893589
 30
0.0
 10
6202.919272267768
 20
4074.312004570754
 30
0.0
 10
6202.919443789759
 20
4073.718007582377
 30
0.0
 10
6202.890302313031
 20
4073.424987235439
 30
0.0
 10
6202.776140248317
 20
4072.849927470777
 30
0.0
 10
6202.689809592494
 20
4072.564443351455
 30
0.0
 10
6202.463919708303
 20
4072.019053449489
 30
0.0
 10
6202.325717859886
 20
4071.760541439326
 30
0.0
 10
6201.999425199564
 20
4071.271532418454
 30
0.0
 10
6201.809378368625
 20
4071.039819485668
 30
0.0
 10
6201.394121140148
 20
4070.624454957217
 30
0.0
 10
6201.167643253934
 20
4070.43818769886
 30
0.0
 10
6200.676222505243
 20
4070.109353951789
 30
0.0
 10
6200.413924111258
 20
4069.969253068562
 30
0.0
 10
6199.87247155824
 20
4069.744706826601
 30
0.0
 10
6199.589492713681
 20
4069.658407575966
 30
0.0
 10
6199.008150833652
 20
4069.542558249715
 30
0.0
 10
6198.716101426643
 20
4069.513926764516
 30
0.0
 10
6198.129328551261
 20
4069.513489061484
 30
0.0
 10
6197.831392206237
 20
4069.542582055112
 30
0.0
 10
6197.253914856884
 20
4069.657285991887
 30
0.0
 10
6196.973403509685
 20
4069.74217343518
 30
0.0
 10
6196.428870185227
 20
4069.967135456765
 30
0.0
 10
6196.165037927441
 20
4070.108061618024
 30
0.0
 10
6195.677146054822
 20
4070.433721238143
 30
0.0
 10
6195.4498891946
 20
4070.619550744503
 30
0.0
 10
6195.029934812084
 20
4071.038836975918
 30
0.0
 10
6194.842807528215
 20
4071.267036291235
 30
0.0
 10
6194.516728106083
 20
4071.754195393631
 30
0.0
 10
6194.375939814879
 20
4072.016705905119
 30
0.0
 10
6194.149597211472
 20
4072.56236750368
 30
0.0
 10
6194.064415712892
 20
4072.842894813772
 30
0.0
 10
6193.949149372069
 20
4073.419099665964
 30
0.0
 10
6193.919527694389
 20
4073.717338670866
 30
0.0
 10
6193.919190222829
 20
4074.304905462615
 30
0.0
 10
6193.94751630759
 20
4074.5967188695
 30
0.0
 10
6194.062116170873
 20
4075.176339470338
 30
0.0
 10
6194.14849210823
 20
4075.46132960807
 30
0.0
 10
6194.372359294687
 20
4076.003105876453
 30
0.0
 10
6194.51088304195
 20
4076.263589962578
 30
0.0
 10
6194.840368166755
 20
4076.757605945694
 30
0.0
 10
6195.027827216696
 20
4076.986230834948
 30
0.0
 10
6195.238091496398
 20
4077.196400811627
 30
0.0
  0
SPLINE
  5
164
330
1F
100
AcDbEntity
  8
0
  6
Continuous
 62
     7
370
    25
100
AcDbSpline
210
0.0
220
0.0
230
1.0
 70
    11
 71
     3
 72
    70
 73
    66
 74
     0
 42
0.00000001
 43
0.00000001
 40
0.0
 40
0.0
 40
0.0
 40
0.0
 40
0.0312499999999987
 40
0.0312499999999987
 40
0.0624999999999975
 40
0.0624999999999975
 40
0.0937499999999962
 40
0.0937499999999962
 40
0.1249999999999949
 40
0.1249999999999949
 40
0.1562499999999937
 40
0.1562499999999937
 40
0.1874999999999924
 40
0.1874999999999924
 40
0.2187499999999912
 40
0.2187499999999912
 40
0.2499999999999899
 40
0.2499999999999899
 40
0.2812499999999886
 40
0.2812499999999886
 40
0.3124999999999873
 40
0.3124999999999873
 40
0.3437499999999861
 40
0.3437499999999861
 40
0.3749999999999848
 40
0.3749999999999848
 40
0.4062499999999836
 40
0.4062499999999836
 40
0.4374999999999852
 40
0.4374999999999852
 40
0.4687499999999868
 40
0.4687499999999868
 40
0.4999999999999885
 40
0.4999999999999885
 40
0.5312499999999901
 40
0.5312499999999901
 40
0.5624999999999917
 40
0.5624999999999917
 40
0.5937499999999933
 40
0.5937499999999933
 40
0.6249999999999949
 40
0.6249999999999949
 40
0.6562499999999966
 40
0.6562499999999966
 40
0.6874999999999982
 40
0.6874999999999982
 40
0.7187499999999998
 40
0.7187499999999998
 40
0.7500000000000014
 40
0.7500000000000014
 40
0.7812500000000031
 40
0.7812500000000031
 40
0.8125000000000047
 40
0.8125000000000047
 40
0.8437500000000063
 40
0.8437500000000063
 40
0.875000000000005
 40
0.875000000000005
 40
0.9062500000000038
 40
0.9062500000000038
 40
0.9375000000000026
 40
0.9375000000000026
 40
0.9687500000000012
 40
0.9687500000000012
 40
1.0
 40
1.0
 40
1.0
 40
1.0
 10
6205.871366918036
 20
4087.829442670568
 30
0.0
 10
6206.082865537505
 20
4088.037346736662
 30
0.0
 10
6206.311213248945
 20
4088.221103601583
 30
0.0
 10
6206.800248316647
 20
4088.542270081441
 30
0.0
 10
6207.063973430279
 20
4088.680771573495
 30
0.0
 10
6207.609982229858
 20
4088.901868788023
 30
0.0
 10
6207.890752999202
 20
4088.984661273639
 30
0.0
 10
6208.467698472367
 20
4089.095195541194
 30
0.0
 10
6208.766009136117
 20
4089.122379512885
 30
0.0
 10
6209.353253842864
 20
4089.117985291507
 30
0.0
 10
6209.645012397565
 20
4089.087338757189
 30
0.0
 10
6210.224713162248
 20
4088.967787769442
 30
0.0
 10
6210.508928364251
 20
4088.879062202661
 30
0.0
 10
6211.049655647249
 20
4088.650300333846
 30
0.0
 10
6211.310237870369
 20
4088.508790069973
 30
0.0
 10
6211.801494337165
 20
4088.174830052695
 30
0.0
 10
6212.027162233298
 20
4087.986208796774
 30
0.0
 10
6212.439735687789
 20
4087.566939670292
 30
0.0
 10
6212.628228442253
 20
4087.333361138509
 30
0.0
 10
6212.951536288168
 20
4086.839957893977
 30
0.0
 10
6213.087694348434
 20
4086.579764463126
 30
0.0
 10
6213.308877231926
 20
4086.032319008717
 30
0.0
 10
6213.392995917121
 20
4085.745094689614
 30
0.0
 10
6213.502101896605
 20
4085.168305325416
 30
0.0
 10
6213.528515824484
 20
4084.875678994734
 30
0.0
 10
6213.523018700755
 20
4084.281654947154
 30
0.0
 10
6213.491102079991
 20
4083.989204727177
 30
0.0
 10
6213.371622721142
 20
4083.415733290481
 30
0.0
 10
6213.282705468581
 20
4083.131383031341
 30
0.0
 10
6213.052267444083
 20
4082.589143917055
 30
0.0
 10
6212.912025797874
 20
4082.332398460198
 30
0.0
 10
6212.582137219249
 20
4081.847287857823
 30
0.0
 10
6212.390585244176
 20
4081.61778908829
 30
0.0
 10
6211.972893598713
 20
4081.206892561267
 30
0.0
 10
6211.745447742418
 20
4081.022893692235
 30
0.0
 10
6211.252585679676
 20
4080.698683185622
 30
0.0
 10
6210.989682701744
 20
4080.56082546963
 30
0.0
 10
6210.447477111109
 20
4080.340717567356
 30
0.0
 10
6210.164569784441
 20
4080.256668362288
 30
0.0
 10
6209.582600982418
 20
4080.14505002556
 30
0.0
 10
6209.29043563192
 20
4080.118521237768
 30
0.0
 10
6208.703813691303
 20
4080.122280293509
 30
0.0
 10
6208.406075374868
 20
4080.153469583645
 30
0.0
 10
6207.82862363503
 20
4080.272516815774
 30
0.0
 10
6207.548389410589
 20
4080.359584560871
 30
0.0
 10
6207.004926815239
 20
4080.588880934703
 30
0.0
 10
6206.741448109252
 20
4080.73219294721
 30
0.0
 10
6206.254980412347
 20
4081.062484833822
 30
0.0
 10
6206.028777477532
 20
4081.250552713886
 30
0.0
 10
6205.611574757541
 20
4081.674068438601
 30
0.0
 10
6205.425706665745
 20
4081.904711939219
 30
0.0
 10
6205.103229741126
 20
4082.395791475727
 30
0.0
 10
6204.964593399031
 20
4082.659984206228
 30
0.0
 10
6204.742855836899
 20
4083.208717685198
 30
0.0
 10
6204.660202326452
 20
4083.490420644629
 30
0.0
 10
6204.550282065087
 20
4084.068227412472
 30
0.0
 10
6204.523509649309
 20
4084.366847115688
 30
0.0
 10
6204.528771091844
 20
4084.954364805181
 30
0.0
 10
6204.55987368382
 20
4085.245785460034
 30
0.0
 10
6204.679862745518
 20
4085.823881061075
 30
0.0
 10
6204.768753079447
 20
4086.107525169129
 30
0.0
 10
6204.997203690719
 20
4086.646325929612
 30
0.0
 10
6205.137868526745
 20
4086.905145158174
 30
0.0
 10
6205.470901403291
 20
4087.395068322095
 30
0.0
 10
6205.659868298567
 20
4087.621538604474
 30
0.0
 10
6205.871366918036
 20
4087.829442670568
 30
0.0
  0
SPLINE
  5
165
330
1F
100
AcDbEntity
  8
0
  6
Continuous
 62
     7
370
    25
100
AcDbSpline
210
0.0
220
0.0
230
1.0
 70
    11
 71
     3
 72
    70
 73
    66
 74
     0
 42
0.00000001
 43
0.00000001
 40
0.0
 40
0.0
 40
0.0
 40
0.0
 40
0.0312499999999999
 40
0.0312499999999999
 40
0.0624999999999998
 40
0.0624999999999998
 40
0.0937499999999998
 40
0.0937499999999998
 40
0.1249999999999997
 40
0.1249999999999997
 40
0.1562499999999996
 40
0.1562499999999996
 40
0.1874999999999995
 40
0.1874999999999995
 40
0.2187499999999994
 40
0.2187499999999994
 40
0.2499999999999993
 40
0.2499999999999993
 40
0.2812499999999992
 40
0.2812499999999992
 40
0.3124999999999992
 40
0.3124999999999992
 40
0.3437499999999991
 40
0.3437499999999991
 40
0.374999999999999
 40
0.374999999999999
 40
0.4062499999999989
 40
0.4062499999999989
 40
0.4374999999999988
 40
0.4374999999999988
 40
0.4687499999999988
 40
0.4687499999999988
 40
0.4999999999999987
 40
0.4999999999999987
 40
0.5312499999999986
 40
0.5312499999999986
 40
0.5624999999999984
 40
0.5624999999999984
 40
0.5937499999999984
 40
0.5937499999999984
 40
0.6249999999999983
 40
0.6249999999999983
 40
0.6562499999999984
 40
0.6562499999999984
 40
0.6874999999999986
 40
0.6874999999999986
 40
0.7187499999999988
 40
0.7187499999999988
 40
0.7499999999999989
 40
0.7499999999999989
 40
0.781249999999999
 40
0.781249999999999
 40
0.8124999999999991
 40
0.8124999999999991
 40
0.8437499999999993
 40
0.8437499999999993
 40
0.8749999999999994
 40
0.8749999999999994
 40
0.9062499999999996
 40
0.9062499999999996
 40
0.9374999999999997
 40
0.9374999999999997
 40
0.9687499999999999
 40
0.9687499999999999
 40
1.0
 40
1.0
 40
1.0
 40
1.0
 10
6209.699420152363
 20
4076.545911392053
 30
0.0
 10
6209.866848001384
 20
4076.791871452436
 30
0.0
 10
6210.055547919926
 20
4077.01715723698
 30
0.0
 10
6210.47363575712
 20
4077.428183819497
 30
0.0
 10
6210.705826832106
 20
4077.615593870553
 30
0.0
 10
6211.198743577235
 20
4077.938718083684
 30
0.0
 10
6211.458099543912
 20
4078.074451704746
 30
0.0
 10
6212.00231370804
 20
4078.294847951827
 30
0.0
 10
6212.289138958522
 20
4078.379302368901
 30
0.0
 10
6212.864686057711
 20
4078.488989920423
 30
0.0
 10
6213.156085097016
 20
4078.515681643643
 30
0.0
 10
6213.746295641422
 20
4078.511506500902
 30
0.0
 10
6214.041015963879
 20
4078.480144369459
 30
0.0
 10
6214.613873506605
 20
4078.362115264153
 30
0.0
 10
6214.896098123916
 20
4078.274781850449
 30
0.0
 10
6215.441245712128
 20
4078.044772708483
 30
0.0
 10
6215.698702733868
 20
4077.904787107078
 30
0.0
 10
6216.184210882514
 20
4077.576220969998
 30
0.0
 10
6216.414436788686
 20
4077.385083199264
 30
0.0
 10
6216.82816267064
 20
4076.966117135451
 30
0.0
 10
6217.012829330815
 20
4076.738385614959
 30
0.0
 10
6217.337589874389
 20
4076.246277091375
 30
0.0
 10
6217.477129208749
 20
4075.981144614022
 30
0.0
 10
6217.698494673255
 20
4075.436840073203
 30
0.0
 10
6217.782379054959
 20
4075.154954258731
 30
0.0
 10
6217.894602615188
 20
4074.57100773594
 30
0.0
 10
6217.921287893249
 20
4074.276279395232
 30
0.0
 10
6217.917212011908
 20
4073.688704368289
 30
0.0
 10
6217.885984579495
 20
4073.391729306854
 30
0.0
 10
6217.766035553337
 20
4072.812039891416
 30
0.0
 10
6217.678483866024
 20
4072.531651478683
 30
0.0
 10
6217.449137767959
 20
4071.989474552631
 30
0.0
 10
6217.30557643348
 20
4071.72597158735
 30
0.0
 10
6216.974906534349
 20
4071.239810491942
 30
0.0
 10
6216.787110199191
 20
4071.014437698593
 30
0.0
 10
6216.365856586004
 20
4070.599689220449
 30
0.0
 10
6216.134407052694
 20
4070.413115128561
 30
0.0
 10
6215.644880555838
 20
4070.09161539694
 30
0.0
 10
6215.383421256836
 20
4069.954148395102
 30
0.0
 10
6214.834930970838
 20
4069.73191839931
 30
0.0
 10
6214.553944966859
 20
4069.64925781159
 30
0.0
 10
6213.978917474685
 20
4069.539045300636
 30
0.0
 10
6213.681573654386
 20
4069.511759446067
 30
0.0
 10
6213.094099643823
 20
4069.515874680706
 30
0.0
 10
6212.803291516815
 20
4069.546401123005
 30
0.0
 10
6212.227540381473
 20
4069.664462221271
 30
0.0
 10
6211.942290673822
 20
4069.752950630611
 30
0.0
 10
6211.402498171961
 20
4069.980340072527
 30
0.0
 10
6211.144642670057
 20
4070.119684803607
 30
0.0
 10
6210.653846482452
 20
4070.451448684371
 30
0.0
 10
6210.426544742633
 20
4070.640434902405
 30
0.0
 10
6210.014290546006
 20
4071.057119269062
 30
0.0
 10
6209.826599054515
 20
4071.287965968403
 30
0.0
 10
6209.50057216499
 20
4071.781959228631
 30
0.0
 10
6209.363754407837
 20
4072.041753310112
 30
0.0
 10
6209.141563433183
 20
4072.586473651706
 30
0.0
 10
6209.056029344114
 20
4072.874348320033
 30
0.0
 10
6208.94473325754
 20
4073.452896751658
 30
0.0
 10
6208.917626169119
 20
4073.745454043067
 30
0.0
 10
6208.921259935585
 20
4074.337222887315
 30
0.0
 10
6208.952706439493
 20
4074.634449732012
 30
0.0
 10
6209.071318902083
 20
4075.209889831547
 30
0.0
 10
6209.158679234562
 20
4075.49192126193
 30
0.0
 10
6209.390359853158
 20
4076.039953433156
 30
0.0
 10
6209.531992303341
 20
4076.29995133167
 30
0.0
 10
6209.699420152363
 20
4076.545911392053
 30
0.0
  0
SPLINE
  5
166
330
1F
100
AcDbEntity
  8
0
  6
Continuous
 62
     7
370
    25
100
AcDbSpline
210
0.0
220
0.0
230
1.0
 70
    11
 71
     3
 72
    70
 73
    66
 74
     0
 42
0.00000001
 43
0.00000001
 40
0.0
 40
0.0
 40
0.0
 40
0.0
 40
0.03125
 40
0.03125
 40
0.0625
 40
0.0625
 40
0.09375
 40
0.09375
 40
0.125
 40
0.125
 40
0.15625
 40
0.15625
 40
0.1875
 40
0.1875
 40
0.21875
 40
0.21875
 40
0.25
 40
0.25
 40
0.28125
 40
0.28125
 40
0.3125
 40
0.3125
 40
0.34375
 40
0.34375
 40
0.375
 40
0.375
 40
0.40625
 40
0.40625
 40
0.4375
 40
0.4375
 40
0.46875
 40
0.46875
 40
0.5
 40
0.5
 40
0.53125
 40
0.53125
 40
0.5625
 40
0.5625
 40
0.59375
 40
0.59375
 40
0.625
 40
0.625
 40
0.65625
 40
0.65625
 40
0.6875
 40
0.6875
 40
0.71875
 40
0.71875
 40
0.75
 40
0.75
 40
0.78125
 40
0.78125
 40
0.8125
 40
0.8125
 40
0.84375
 40
0.84375
 40
0.875
 40
0.875
 40
0.90625
 40
0.90625
 40
0.9375
 40
0.9375
 40
0.96875
 40
0.96875
 40
1.0
 40
1.0
 40
1.0
 40
1.0
 10
6206.544147439728
 20
4067.160850638169
 30
0.0
 10
6206.792667872106
 20
4067.325161479745
 30
0.0
 10
6207.053114031439
 20
4067.462238842321
 30
0.0
 10
6207.59684567872
 20
4067.684237667422
 30
0.0
 10
6207.883410517677
 20
4067.769638938862
 30
0.0
 10
6208.463043448008
 20
4067.88150401593
 30
0.0
 10
6208.755029573528
 20
4067.908561741237
 30
0.0
 10
6209.343295719692
 20
4067.905528507532
 30
0.0
 10
6209.641088905136
 20
4067.874500788625
 30
0.0
 10
6210.215719933818
 20
4067.756872802969
 30
0.0
 10
6210.495701062015
 20
4067.670577140609
 30
0.0
 10
6211.040654011346
 20
4067.441747670425
 30
0.0
 10
6211.300952869467
 20
4067.300682003103
 30
0.0
 10
6211.785788665506
 20
4066.97345890078
 30
0.0
 10
6212.013855551797
 20
4066.784932861818
 30
0.0
 10
6212.429740482122
 20
4066.365401691502
 30
0.0
 10
6212.614345967056
 20
4066.138267819258
 30
0.0
 10
6212.938063097694
 20
4065.650141682646
 30
0.0
 10
6213.0781222508
 20
4065.386062222438
 30
0.0
 10
6213.301004807664
 20
4064.84247342654
 30
0.0
 10
6213.385155902553
 20
4064.562139407252
 30
0.0
 10
6213.498495250947
 20
4063.984272114908
 30
0.0
 10
6213.526824640224
 20
4063.68676560861
 30
0.0
 10
6213.525054222744
 20
4063.100276371385
 30
0.0
 10
6213.495788392491
 20
4062.808023269533
 30
0.0
 10
6213.378230788395
 20
4062.225578934182
 30
0.0
 10
6213.29136873284
 20
4061.943384706478
 30
0.0
 10
6213.065036586073
 20
4061.401600280728
 30
0.0
 10
6212.923583103578
 20
4061.138603083986
 30
0.0
 10
6212.592953214497
 20
4060.647734363875
 30
0.0
 10
6212.405633921776
 20
4060.421377742722
 30
0.0
 10
6211.987591261673
 20
4060.006295766237
 30
0.0
 10
6211.754601135617
 20
4059.816680853947
 30
0.0
 10
6211.263686023058
 20
4059.491851452298
 30
0.0
 10
6211.004051431336
 20
4059.354347341426
 30
0.0
 10
6210.455905005887
 20
4059.13007942986
 30
0.0
 10
6210.170527900728
 20
4059.045222365715
 30
0.0
 10
6209.594550958356
 20
4058.933542638164
 30
0.0
 10
6209.299681184818
 20
4058.905677142247
 30
0.0
 10
6208.707149777094
 20
4058.908645689856
 30
0.0
 10
6208.41544349287
 20
4058.939082382907
 30
0.0
 10
6207.84086733029
 20
4059.056069268259
 30
0.0
 10
6207.555112201401
 20
4059.144132114395
 30
0.0
 10
6207.013275242636
 20
4059.371583821388
 30
0.0
 10
6206.755860480917
 20
4059.510553738789
 30
0.0
 10
6206.268100371149
 20
4059.839098013987
 30
0.0
 10
6206.038296935471
 20
4060.029311374105
 30
0.0
 10
6205.626028823292
 20
4060.444658651618
 30
0.0
 10
6205.440693086781
 20
4060.671497608635
 30
0.0
 10
6205.113133292736
 20
4061.164902113391
 30
0.0
 10
6204.975333402474
 20
4061.425173265413
 30
0.0
 10
6204.752771362502
 20
4061.966449569536
 30
0.0
 10
6204.666946624376
 20
4062.251189619848
 30
0.0
 10
6204.553298912499
 20
4062.830528274439
 30
0.0
 10
6204.525389105846
 20
4063.122246743952
 30
0.0
 10
6204.526548282419
 20
4063.709721470407
 30
0.0
 10
6204.556583797201
 20
4064.00808572775
 30
0.0
 10
6204.672828140117
 20
4064.584706123876
 30
0.0
 10
6204.758550811402
 20
4064.865424302766
 30
0.0
 10
6204.986133068577
 20
4065.411419008315
 30
0.0
 10
6205.127765267407
 20
4065.674340897762
 30
0.0
 10
6205.455572775879
 20
4066.161849227805
 30
0.0
 10
6205.643417083437
 20
4066.389891245793
 30
0.0
 10
6206.065793919556
 20
4066.809461101794
 30
0.0
 10
6206.295627007349
 20
4066.996539796592
 30
0.0
 10
6206.544147439728
 20
4067.160850638169
 30
0.0
  0
ARC
  5
167
330
1F
100
AcDbEntity
  8
0
  6
Continuous
 62
     7
370
    25
100
AcDbCircle
 10
6198.4193582164
 20
4073.8101544149
 30
0.0
 40
180.0000000000009
100
AcDbArc
 50
180.0
 51
0.0
  0
SPLINE
  5
168
330
1F
100
AcDbEntity
  8
0
  6
Continuous
 62
     7
370
    25
100
AcDbSpline
210
0.0
220
0.0
230
1.0
 70
     8
 71
     3
 72
    14
 73
    10
 74
     0
 42
0.00000001
 43
0.00000001
 40
0.0
 40
0.0
 40
0.0
 40
0.0
 40
0.1212103291967483
 40
0.3134881459757899
 40
0.509715056035956
 40
0.7186693004144248
 40
0.94332905664948
 40
0.9967363637535946
 40
1.0
 40
1.0
 40
1.0
 40
1.0
 10
6452.507239274435
 20
4073.53907591657
 30
0.0
 10
6452.507838836045
 20
4073.54052338622
 30
0.0
 10
6452.509389491495
 20
4073.544266999325
 30
0.0
 10
6452.419844869125
 20
4073.328087175829
 30
0.0
 10
6452.258386434746
 20
4072.93829206696
 30
0.0
 10
6452.030702703927
 20
4072.388614961973
 30
0.0
 10
6451.830186256925
 20
4071.904525479113
 30
0.0
 10
6451.713273677455
 20
4071.622273565864
 30
0.0
 10
6451.689713255289
 20
4071.565393680639
 30
0.0
 10
6451.688356428611
 20
4071.56211801159
 30
0.0
  0
LINE
  5
169
330
1F
100
AcDbEntity
  8
0
  6
Continuous
 62
     7
370
    25
100
AcDbLine
 10
6451.6883564286
 20
4071.5621180116
 30
0.0
 11
6378.6054598373
 21
4071.5621223875
 31
0.0
  0
SPLINE
  5
16A
330
1F
100
AcDbEntity
  8
0
  6
Continuous
 62
     7
370
    25
100
AcDbSpline
210
0.0
220
0.0
230
1.0
 70
     8
 71
     3
 72
    12
 73
     8
 74
     0
 42
0.00000001
 43
0.00000001
 40
0.0
 40
0.0
 40
0.0
 40
0.0
 40
0.2146661116584426
 40
0.4293326349485524
 40
0.6439983903306478
 40
0.8587109414934443
 40
1.0
 40
1.0
 40
1.0
 40
1.0
 10
6378.60536383764
 20
4071.562123583419
 30
0.0
 10
6378.607580947577
 20
4071.786813915565
 30
0.0
 10
6378.612015171702
 20
4072.23619501071
 30
0.0
 10
6378.610714732216
 20
4072.836561269749
 30
0.0
 10
6378.604658869015
 20
4073.284519711523
 30
0.0
 10
6378.596403650242
 20
4073.538766753075
 30
0.0
 10
6378.59065744155
 20
4073.537046077065
 30
0.0
 10
6378.588376900131
 20
4073.536363179328
 30
0.0
  0
LINE
  5
16B
330
1F
100
AcDbEntity
  8
0
  6
Continuous
 62
     7
370
    25
100
AcDbLine
 10
6620.5604432528
 20
3905.5184582283
 30
0.0
 11
6619.1462297323
 21
3904.1042447078
 31
0.0
  0
LINE
  5
16C
330
1F
100
AcDbEntity
  8
0
  6
Continuous
 62
     7
370
    25
100
AcDbLine
 10
6619.1462297323
 20
3904.1042447078
 30
0.0
 11
6451.6883564286
 21
4071.5621180116
 31
0.0
  0
LINE
  5
16D
330
1F
100
AcDbEntity
  8
0
  6
Continuous
 62
     7
370
    25
100
AcDbLine
 10
6200.6673902438
 20
3893.6240518274
 30
0.0
 11
6200.6673946197
 21
3820.5411562027
 31
0.0
  0
SPLINE
  5
16E
330
1F
100
AcDbEntity
  8
0
  6
Continuous
 62
     7
370
    25
100
AcDbSpline
210
0.0
220
0.0
230
1.0
 70
     8
 71
     3
 72
    14
 73
    10
 74
     0
 42
0.00000001
 43
0.00000001
 40
0.0
 40
0.0
 40
0.0
 40
0.0
 40
0.0032636362342526
 40
0.0566709433504972
 40
0.2813306995855953
 40
0.4902849439640176
 40
0.6865118540241967
 40
0.8787896708032361
 40
1.0
 40
1.0
 40
1.0
 40
1.0
 10
6200.667394619692
 20
3820.541156202681
 30
0.0
 10
6200.664118950651
 20
3820.539799376018
 30
0.0
 10
6200.607239065358
 20
3820.516238954015
 30
0.0
 10
6200.324987152326
 20
3820.399326374024
 30
0.0
 10
6199.840897669256
 20
3820.198809927491
 30
0.0
 10
6199.291220564335
 20
3819.971126196515
 30
0.0
 10
6198.901425455449
 20
3819.809667762175
 30
0.0
 10
6198.685245631957
 20
3819.720123139795
 30
0.0
 10
6198.688989245062
 20
3819.721673795246
 30
0.0
 10
6198.690436714712
 20
3819.722273356857
 30
0.0
  0
SPLINE
  5
16F
330
1F
100
AcDbEntity
  8
0
  6
Continuous
 62
     7
370
    25
100
AcDbSpline
210
0.0
220
0.0
230
1.0
 70
     8
 71
     3
 72
    12
 73
     8
 74
     0
 42
0.00000001
 43
0.00000001
 40
0.0
 40
0.0
 40
0.0
 40
0.0
 40
0.1406738833957113
 40
0.3554540420652459
 40
0.57021855642704
 40
0.7849351621741989
 40
1.0
 40
1.0
 40
1.0
 40
1.0
 10
6198.693037844765
 20
3893.641135300233
 30
0.0
 10
6198.692322267495
 20
3893.638864827863
 30
0.0
 10
6198.690514150544
 20
3893.633127810004
 30
0.0
 10
6198.944054864261
 20
3893.624873667854
 30
0.0
 10
6199.391766556761
 20
3893.618805780909
 30
0.0
 10
6199.992419596233
 20
3893.617491871696
 30
0.0
 10
6200.442277722866
 20
3893.621928621266
 30
0.0
 10
6200.667389035826
 20
3893.624148793499
 30
0.0
  0
LINE
  5
170
330
1F
100
AcDbEntity
  8
0
  6
Continuous
 62
     7
370
    25
100
AcDbLine
 10
6200.6673946197
 20
3820.5411562027
 30
0.0
 11
6368.1252679238
 21
3653.0832828986
 31
0.0
  0
LINE
  5
171
330
1F
100
AcDbEntity
  8
0
  6
Continuous
 62
     7
370
    25
100
AcDbLine
 10
6378.5848379533
 20
4073.5485334212
 30
0.0
 11
6378.4125359577
 21
4072.2430020327
 31
0.0
  0
ARC
  5
172
330
1F
100
AcDbEntity
  8
0
  6
Continuous
 62
     7
370
    25
100
AcDbCircle
 10
6198.4189914007
 20
4073.8105202518
 30
0.0
 40
180.2004958389547
100
AcDbArc
 50
270.7149098347
 51
359.2850904765
  0
LINE
  5
173
330
1F
100
AcDbEntity
  8
0
  6
Continuous
 62
     7
370
    25
100
AcDbLine
 10
6198.6809792101
 20
3893.644674678
 30
0.0
 11
6199.9865105985
 21
3893.8169766736
 31
0.0
  0
LINE
  5
174
330
1F
100
AcDbEntity
  8
0
  6
Continuous
 62
     7
370
    25
100
AcDbLine
 10
6573.9914469215
 20
3887.8932230395
 30
0.0
 11
6613.4619680783
 21
3844.5246441231
 31
0.0
  0
SPLINE
  5
175
330
1F
100
AcDbEntity
  8
0
  6
Continuous
 62
     7
370
    25
100
AcDbSpline
210
0.0
220
0.0
230
1.0
 70
     8
 71
     3
 72
    45
 73
    41
 74
     0
 42
0.00000001
 43
0.00000001
 40
0.0
 40
0.0
 40
0.0
 40
0.0
 40
0.0261269098619392
 40
0.0523465035684279
 40
0.0785639264500831
 40
0.104687865549214
 40
0.1308191486073553
 40
0.1570440956494539
 40
0.1832693929790734
 40
0.2094011554129442
 40
0.2355018973039791
 40
0.2616958175174942
 40
0.2878896465438691
 40
0.313990263644814
 40
0.3401021537647753
 40
0.3663073917602347
 40
0.3925124195987774
 40
0.4186240221162022
 40
0.4447278210873853
 40
0.4709253055454979
 40
0.4971226053587133
 40
0.523226151637409
 40
0.5492692845514743
 40
0.57540534200328
 40
0.6015416608613487
 40
0.6275851515097287
 40
0.6536533577587147
 40
0.6798144220986587
 40
0.7059757004731065
 40
0.7320441996265372
 40
0.7581596770307744
 40
0.7843685287592962
 40
0.8105772191752137
 40
0.8366924758209681
 40
0.8627975807993218
 40
0.888996031992094
 40
0.9151942169488251
 40
0.9412989575791548
 40
0.9706483067392083
 40
1.0
 40
1.0
 40
1.0
 40
1.0
 10
6384.336469158241
 20
3698.238363901802
 30
0.0
 10
6381.62336385346
 20
3700.860999540402
 30
0.0
 10
6376.187528644909
 20
3706.11557448019
 30
0.0
 10
6368.900926284758
 20
3714.831116392097
 30
0.0
 10
6362.31180271019
 20
3724.072584947775
 30
0.0
 10
6356.54481621794
 20
3733.839318494966
 30
0.0
 10
6351.644583760937
 20
3744.067825537147
 30
0.0
 10
6347.615755785937
 20
3754.685179647473
 30
0.0
 10
6344.483688677508
 20
3765.600665729326
 30
0.0
 10
6342.280644273993
 20
3776.723354519456
 30
0.0
 10
6341.045531092089
 20
3787.99005776722
 30
0.0
 10
6340.758186131335
 20
3799.328859904685
 30
0.0
 10
6341.413097174233
 20
3810.652367533763
 30
0.0
 10
6343.013084141897
 20
3821.870164786914
 30
0.0
 10
6345.57541446409
 20
3832.909666309949
 30
0.0
 10
6349.057854450918
 20
3843.709398183998
 30
0.0
 10
6353.425586653383
 20
3854.182413466883
 30
0.0
 10
6358.650024677301
 20
3864.239813484531
 30
0.0
 10
6364.723741884964
 20
3873.807018784494
 30
0.0
 10
6371.586193847206
 20
3882.839862471308
 30
0.0
 10
6379.17669010654
 20
3891.270127753137
 30
0.0
 10
6387.433160321746
 20
3899.017884833476
 30
0.0
 10
6396.32173677478
 20
3906.017013894963
 30
0.0
 10
6405.768704237851
 20
3912.249127099274
 30
0.0
 10
6415.700237572122
 20
3917.675891702392
 30
0.0
 10
6426.042542756983
 20
3922.249330851494
 30
0.0
 10
6436.743916662939
 20
3925.915656497429
 30
0.0
 10
6447.730421768724
 20
3928.677230659458
 30
0.0
 10
6458.908078443504
 20
3930.51844163981
 30
0.0
 10
6470.194671513416
 20
3931.418444772115
 30
0.0
 10
6481.523788438728
 20
3931.342599880467
 30
0.0
 10
6492.826132986787
 20
3930.315819192645
 30
0.0
 10
6504.004107370321
 20
3928.353625319909
 30
0.0
 10
6514.964211280377
 20
3925.464120462126
 30
0.0
 10
6525.632770082097
 20
3921.63991350281
 30
0.0
 10
6535.952733779685
 20
3916.930015739216
 30
0.0
 10
6545.849425551613
 20
3911.382092978321
 30
0.0
 10
6555.608513971775
 20
3904.754781533735
 30
0.0
 10
6565.133453635552
 20
3897.020439877409
 30
0.0
 10
6571.038703888303
 20
3890.935709645709
 30
0.0
 10
6573.991446921456
 20
3887.893223039506
 30
0.0
  0
LINE
  5
176
330
1F
100
AcDbEntity
  8
0
  6
Continuous
 62
     7
370
    25
100
AcDbLine
 10
6427.7042718194
 20
3658.7668832569
 30
0.0
 11
6384.3364691582
 21
3698.2383639018
 31
0.0
  0
SPLINE
  5
177
330
1F
100
AcDbEntity
  8
0
  6
Continuous
 62
     7
370
    25
100
AcDbSpline
210
0.0
220
0.0
230
1.0
 70
     8
 71
     3
 72
    43
 73
    39
 74
     0
 42
0.00000001
 43
0.00000001
 40
0.0
 40
0.0
 40
0.0
 40
0.0
 40
0.0277690004543341
 40
0.0556342782004485
 40
0.0834921728799082
 40
0.1112510701106206
 40
0.1390409971302938
 40
0.1669317872304285
 40
0.1948223347264672
 40
0.2226119297211144
 40
0.2501851533789093
 40
0.2778573399532546
 40
0.3055294947207663
 40
0.3331026748499282
 40
0.3606170304512667
 40
0.3882299079038204
 40
0.4158427293038514
 40
0.4433570081962078
 40
0.4708428358986895
 40
0.4984268964334891
 40
0.5260109534372128
 40
0.553496776307382
 40
0.5809811966564942
 40
0.6085638275360575
 40
0.6361465540989978
 40
0.6636311053915944
 40
0.6911183300382582
 40
0.7187036319400043
 40
0.7462890062129978
 40
0.7737763298998076
 40
0.8012845104457541
 40
0.8288906002533017
 40
0.8564969541378644
 40
0.8840054960699004
 40
0.9129431949665427
 40
0.9419932193810935
 40
0.9710512887282594
 40
1.0
 40
1.0
 40
1.0
 40
1.0
 10
6613.46196807832
 20
3844.524644123084
 30
0.0
 10
6615.903161172911
 20
3841.712197453852
 30
0.0
 10
6620.794011169075
 20
3836.077553143292
 30
0.0
 10
6627.228677726399
 20
3826.898245494014
 30
0.0
 10
6632.93730730712
 20
3817.262400868618
 30
0.0
 10
6637.7868080588
 20
3807.17233730824
 30
0.0
 10
6641.734961233883
 20
3796.69385628336
 30
0.0
 10
6644.791377159789
 20
3785.903545951346
 30
0.0
 10
6646.933377722207
 20
3774.895238887229
 30
0.0
 10
6648.133044604913
 20
3763.786878806269
 30
0.0
 10
6648.363059901149
 20
3752.645830270732
 30
0.0
 10
6647.65774396044
 20
3741.541263938076
 30
0.0
 10
6646.030641835197
 20
3730.53394275331
 30
0.0
 10
6643.489541967308
 20
3719.722040998335
 30
0.0
 10
6640.02569440918
 20
3709.177926965614
 30
0.0
 10
6635.687838289655
 20
3698.957280250326
 30
0.0
 10
6630.515305963422
 20
3689.132652222116
 30
0.0
 10
6624.54547437091
 20
3679.790399584705
 30
0.0
 10
6617.793360024301
 20
3671.001821136656
 30
0.0
 10
6610.322711328421
 20
3662.803589496536
 30
0.0
 10
6602.196934653617
 20
3655.25419776927
 30
0.0
 10
6593.477048145684
 20
3648.420092765211
 30
0.0
 10
6584.19984536738
 20
3642.364453514913
 30
0.0
 10
6574.436934289701
 20
3637.10187308671
 30
0.0
 10
6564.270719397586
 20
3632.668199037209
 30
0.0
 10
6553.780283693591
 20
3629.105563159537
 30
0.0
 10
6543.02128062154
 20
3626.461111422992
 30
0.0
 10
6532.06596935458
 20
3624.7249979372
 30
0.0
 10
6521.004364821192
 20
3623.904000220752
 30
0.0
 10
6509.922484942846
 20
3624.011828402059
 30
0.0
 10
6498.888408371595
 20
3625.075079756841
 30
0.0
 10
6487.96698413364
 20
3627.060387182657
 30
0.0
 10
6477.247736026588
 20
3629.944632320432
 30
0.0
 10
6466.637789737414
 20
3633.772820116425
 30
0.0
 10
6456.231777037505
 20
3638.613786712002
 30
0.0
 10
6446.131167207701
 20
3644.476689420695
 30
0.0
 10
6436.520204769476
 20
3651.132125095577
 30
0.0
 10
6430.639220400707
 20
3656.225164443796
 30
0.0
 10
6427.704271819374
 20
3658.766883256909
 30
0.0
  0
SPLINE
  5
178
330
1F
100
AcDbEntity
  8
0
  6
Continuous
 62
     7
370
    25
100
AcDbSpline
210
0.0
220
0.0
230
1.0
 70
     8
 71
     3
 72
    11
 73
     7
 74
     0
 42
0.00000001
 43
0.00000001
 40
0.0
 40
0.0
 40
0.0
 40
0.0
 40
0.2490296997341819
 40
0.4980593120459088
 40
0.7490299169979211
 40
0.9999999999999999
 40
0.9999999999999999
 40
0.9999999999999999
 40
0.9999999999999999
 10
6649.29167633416
 20
3868.120163003036
 30
0.0
 10
6647.018581761311
 20
3871.291853827564
 30
0.0
 10
6642.472393413587
 20
3877.63523436319
 30
0.0
 10
6635.107012528617
 20
3886.776779511431
 30
0.0
 10
6627.381884426099
 20
3895.656888126832
 30
0.0
 10
6621.891446060496
 20
3901.288461132864
 30
0.0
 10
6619.146229732349
 20
3904.104244707845
 30
0.0
  0
SPLINE
  5
179
330
1F
100
AcDbEntity
  8
0
  6
Continuous
 62
     7
370
    25
100
AcDbSpline
210
0.0
220
0.0
230
1.0
 70
     8
 71
     3
 72
    14
 73
    10
 74
     0
 42
0.00000001
 43
0.00000001
 40
0.0
 40
0.0
 40
0.0
 40
0.0
 40
0.1457558856010017
 40
0.2916033885533227
 40
0.4373622371893059
 40
0.5864758120169926
 40
0.7356851871160793
 40
0.8847987337415357
 40
0.9999999999999999
 40
0.9999999999999999
 40
0.9999999999999999
 40
0.9999999999999999
 10
6690.518637039808
 20
3780.429351395292
 30
0.0
 10
6689.194376505583
 20
3784.971300216612
 30
0.0
 10
6686.545023050558
 20
3794.058052778756
 30
0.0
 10
6681.715770181935
 20
3807.414027421406
 30
0.0
 10
6676.240112689437
 20
3820.631268746937
 30
0.0
 10
6670.051191284972
 20
3833.654003839751
 30
0.0
 10
6663.153869203877
 20
3846.436952828232
 30
0.0
 10
6656.224359301395
 20
3857.938795576048
 30
0.0
 10
6651.396076912388
 20
3865.029631443788
 30
0.0
 10
6649.29167633416
 20
3868.120163003036
 30
0.0
  0
SPLINE
  5
17A
330
1F
100
AcDbEntity
  8
0
  6
Continuous
 62
     7
370
    25
100
AcDbSpline
210
0.0
220
0.0
230
1.0
 70
     8
 71
     3
 72
    32
 73
    28
 74
     0
 42
0.00000001
 43
0.00000001
 40
0.0
 40
0.0
 40
0.0
 40
0.0
 40
0.0399137869934018
 40
0.0799701991554465
 40
0.1200266462973308
 40
0.159940481160954
 40
0.199856686651657
 40
0.2399155352114073
 40
0.2799743636991016
 40
0.319890541721003
 40
0.3598061580832129
 40
0.399864343037223
 40
0.4399225325726618
 40
0.4798381552045884
 40
0.5197644142716157
 40
0.5598334013722088
 40
0.5999023563126984
 40
0.6398285713682612
 40
0.6797472621136904
 40
0.71980855782548
 40
0.7598698414502688
 40
0.7997885156545432
 40
0.8397141732437927
 40
0.879782613328873
 40
0.9198510477567536
 40
0.9597766976040524
 40
1.0
 40
1.0
 40
1.0
 40
1.0
 10
6491.800161240899
 20
3581.710875590111
 30
0.0
 10
6496.200496035901
 20
3580.614603554389
 30
0.0
 10
6505.016889478223
 20
3578.418142140198
 30
0.0
 10
6518.54182309058
 20
3576.551380110571
 30
0.0
 10
6532.157933422267
 20
3575.731274421338
 30
0.0
 10
6545.784418766829
 20
3576.076777602585
 30
0.0
 10
6559.329305486393
 20
3577.591117305257
 30
0.0
 10
6572.715269311978
 20
3580.239775935846
 30
0.0
 10
6585.834918606452
 20
3583.990599182153
 30
0.0
 10
6598.579708805491
 20
3588.822405230732
 30
0.0
 10
6610.85983014776
 20
3594.736108754078
 30
0.0
 10
6622.614498345887
 20
3601.665532980533
 30
0.0
 10
6633.753199038855
 20
3609.547062041426
 30
0.0
 10
6644.181678807235
 20
3618.324954927956
 30
0.0
 10
6653.814524696606
 20
3627.971027529739
 30
0.0
 10
6662.615694992217
 20
3638.403132680922
 30
0.0
 10
6670.519880753608
 20
3649.530270747351
 30
0.0
 10
6677.455298000293
 20
3661.266875172872
 30
0.0
 10
6683.351319548651
 20
3673.557543065954
 30
0.0
 10
6688.202071373079
 20
3686.312485557447
 30
0.0
 10
6691.976761917853
 20
3699.426159348105
 30
0.0
 10
6694.637019149903
 20
3712.795859718601
 30
0.0
 10
6696.131829620615
 20
3726.345694437737
 30
0.0
 10
6696.491272766927
 20
3739.990875158583
 30
0.0
 10
6695.695692728432
 20
3753.612729445994
 30
0.0
 10
6693.833364102398
 20
3767.160697860606
 30
0.0
 10
6691.626278243325
 20
3775.99553012051
 30
0.0
 10
6690.518637039808
 20
3780.429351395292
 30
0.0
  0
SPLINE
  5
17B
330
1F
100
AcDbEntity
  8
0
  6
Continuous
 62
     7
370
    25
100
AcDbSpline
210
0.0
220
0.0
230
1.0
 70
     8
 71
     3
 72
    14
 73
    10
 74
     0
 42
0.00000001
 43
0.00000001
 40
0.0
 40
0.0
 40
0.0
 40
0.0
 40
0.1457512863598535
 40
0.2915920346581125
 40
0.4373432880133933
 40
0.5864385268240306
 40
0.7356295265151236
 40
0.8847247367711372
 40
1.0
 40
1.0
 40
1.0
 40
1.0
 10
6404.10934962833
 20
3622.93783629706
 30
0.0
 10
6408.027420325857
 20
3620.286428318131
 30
0.0
 10
6415.865966627297
 20
3614.981984929715
 30
0.0
 10
6428.1030849229
 20
3607.775374510763
 30
0.0
 10
6440.749996297875
 20
3601.089231072423
 30
0.0
 10
6453.822698411103
 20
3595.010049887128
 30
0.0
 10
6467.287284058125
 20
3589.56684617599
 30
0.0
 10
6479.962211705275
 20
3585.129683759979
 30
0.0
 10
6488.205697727042
 20
3582.748959186471
 30
0.0
 10
6491.800161240899
 20
3581.710875590111
 30
0.0
  0
SPLINE
  5
17C
330
1F
100
AcDbEntity
  8
0
  6
Continuous
 62
     7
370
    25
100
AcDbSpline
210
0.0
220
0.0
230
1.0
 70
     8
 71
     3
 72
    11
 73
     7
 74
     0
 42
0.00000001
 43
0.00000001
 40
0.0
 40
0.0
 40
0.0
 40
0.0
 40
0.0851125836115478
 40
0.4257061745484499
 40
0.712485926095971
 40
1.0
 40
1.0
 40
1.0
 40
1.0
 10
6368.125267923765
 20
3653.0832828986
 30
0.0
 10
6369.072520543589
 20
3652.144856331742
 30
0.0
 10
6373.810378002563
 20
3647.451143993095
 30
0.0
 10
6382.073570676724
 20
3639.936803265231
 30
0.0
 10
6393.148787735498
 20
3630.826387962092
 30
0.0
 10
6400.452715934856
 20
3625.569594056662
 30
0.0
 10
6404.10934962833
 20
3622.93783629706
 30
0.0
  0
ARC
  5
17D
330
1F
100
AcDbEntity
  8
0
  6
Continuous
 62
     7
370
    25
100
AcDbCircle
 10
6473.1303427073
 20
3799.0991699239
 30
0.0
 40
37.4999999999999
100
AcDbArc
 50
45.0
 51
225.0
  0
SPLINE
  5
17E
330
1F
100
AcDbEntity
  8
0
  6
Continuous
 62
     7
370
    25
100
AcDbSpline
210
0.0
220
0.0
230
1.0
 70
     8
 71
     3
 72
    26
 73
    22
 74
     0
 42
0.00000001
 43
0.00000001
 40
0.0
 40
0.0
 40
0.0
 40
0.0
 40
0.0539861145401151
 40
0.1079761201603876
 40
0.1619461644728133
 40
0.2159146965885702
 40
0.270092901765964
 40
0.3242689458658362
 40
0.3780362283204313
 40
0.4317994444014339
 40
0.4848296450367113
 40
0.5378585149412297
 40
0.590302602449143
 40
0.6427503706997666
 40
0.6955500765524266
 40
0.7483527284807151
 40
0.8018552613304495
 40
0.855359801434001
 40
0.9093928582544598
 40
0.9634227828464696
 40
1.0
 40
1.0
 40
1.0
 40
1.0
 10
6446.613835369467
 20
3772.582658008942
 30
0.0
 10
6448.19189101253
 20
3771.140674378095
 30
0.0
 10
6451.34811603792
 20
3768.256603184605
 30
0.0
 10
6456.913326930236
 20
3765.007733795548
 30
0.0
 10
6462.901225339187
 20
3762.691860208537
 30
0.0
 10
6469.208304040955
 20
3761.403373641077
 30
0.0
 10
6475.648096647402
 20
3761.211962081052
 30
0.0
 10
6482.023997604708
 20
3762.09031249148
 30
0.0
 10
6488.135709990706
 20
3764.053106150394
 30
0.0
 10
6493.794997193963
 20
3766.986891103023
 30
0.0
 10
6498.833672909487
 20
3770.842286001618
 30
0.0
 10
6503.125930856582
 20
3775.443493090959
 30
0.0
 10
6506.546891089664
 20
3780.695993056843
 30
0.0
 10
6509.060793954684
 20
3786.427557881685
 30
0.0
 10
6510.570798378517
 20
3792.516065534559
 30
0.0
 10
6511.076154423213
 20
3798.810343983529
 30
0.0
 10
6510.506529256558
 20
3805.127096730451
 30
0.0
 10
6508.906011984536
 20
3811.316738017379
 30
0.0
 10
6506.259463546165
 20
3817.152507002274
 30
0.0
 10
6503.099758143513
 20
3821.958425518925
 30
0.0
 10
6500.639880476108
 20
3824.563878614012
 30
0.0
 10
6499.646851914801
 20
3825.615674552018
 30
0.0
  0
SPLINE
  5
17F
330
1F
100
AcDbEntity
  8
0
  6
Continuous
 62
     7
370
    25
100
AcDbSpline
210
0.0
220
0.0
230
1.0
 70
     8
 71
     3
 72
    10
 73
     6
 74
     0
 42
0.00000001
 43
0.00000001
 40
0.0
 40
0.0
 40
0.0
 40
0.0
 40
0.0682225420743227
 40
0.3411142400180615
 40
0.9999999999999999
 40
0.9999999999999999
 40
0.9999999999999999
 40
0.9999999999999999
 10
6612.050437406072
 20
3843.239428749789
 30
0.0
 10
6611.151161275058
 20
3844.223823088902
 30
0.0
 10
6606.654760456938
 20
3849.145816855993
 30
0.0
 10
6593.538446641616
 20
3863.633065166537
 30
0.0
 10
6581.235400289547
 20
3877.059503422628
 30
0.0
 10
6572.535573977132
 20
3886.553711400044
 30
0.0
  0
SPLINE
  5
180
330
1F
100
AcDbEntity
  8
0
  6
Continuous
 62
     7
370
    25
100
AcDbSpline
210
0.0
220
0.0
230
1.0
 70
     8
 71
     3
 72
    44
 73
    40
 74
     0
 42
0.00000001
 43
0.00000001
 40
0.0
 40
0.0
 40
0.0
 40
0.0
 40
0.028959738564717
 40
0.058031039953952
 40
0.0870975306874555
 40
0.1160506837918641
 40
0.1435602501764933
 40
0.1711676027988612
 40
0.1987747491758567
 40
0.2262840333166871
 40
0.2537667543265454
 40
0.2813473736276609
 40
0.3089279142162946
 40
0.3364105275085462
 40
0.3638872828776724
 40
0.3914620574501286
 40
0.4190367134548282
 40
0.4465133065637387
 40
0.4739903809851896
 40
0.5015655528588623
 40
0.5291407287438549
 40
0.5566178086548168
 40
0.584124268837033
 40
0.6117291223923406
 40
0.6393340546848929
 40
0.6668406226200916
 40
0.694409355480422
 40
0.7220769120885132
 40
0.7497445039235033
 40
0.777313284992696
 40
0.8051042347311144
 40
0.8329960931799281
 40
0.8608881318056036
 40
0.8886793281315656
 40
0.8983457970177675
 40
0.9177189365928725
 40
0.9370921270121793
 40
0.9685442263838069
 40
1.0
 40
1.0
 40
1.0
 40
1.0
 10
6428.989714055676
 20
3660.178672459811
 30
0.0
 10
6431.879703330266
 20
3657.670302472564
 30
0.0
 10
6437.670815107241
 20
3652.643899398382
 30
0.0
 10
6447.148889802731
 20
3646.089321542642
 30
0.0
 10
6457.111491048367
 20
3640.320651791343
 30
0.0
 10
6467.371836405451
 20
3635.558463517967
 30
0.0
 10
6477.829181596504
 20
3631.791542549329
 30
0.0
 10
6488.392284025876
 20
3628.956377063883
 30
0.0
 10
6499.153909166278
 20
3627.006570976675
 30
0.0
 10
6510.025251402656
 20
3625.965115611147
 30
0.0
 10
6520.942378001044
 20
3625.864354183951
 30
0.0
 10
6531.838356447744
 20
3626.677908103404
 30
0.0
 10
6542.629327473433
 20
3628.392263673804
 30
0.0
 10
6553.226331843799
 20
3631.000628687445
 30
0.0
 10
6563.558316832781
 20
3634.512547283792
 30
0.0
 10
6573.57057493608
 20
3638.881587357424
 30
0.0
 10
6583.18569490271
 20
3644.066480298538
 30
0.0
 10
6592.322487420586
 20
3650.031927872314
 30
0.0
 10
6600.910500886929
 20
3656.76357072605
 30
0.0
 10
6608.913549978181
 20
3664.199231636616
 30
0.0
 10
6616.271695918278
 20
3672.273608848967
 30
0.0
 10
6622.922633008096
 20
3680.929252462965
 30
0.0
 10
6628.80362598338
 20
3690.130095103254
 30
0.0
 10
6633.899897953373
 20
3699.805991021024
 30
0.0
 10
6638.174642663761
 20
3709.871858422117
 30
0.0
 10
6641.589349819354
 20
3720.256744926224
 30
0.0
 10
6644.096021986064
 20
3730.905917676181
 30
0.0
 10
6645.703117538728
 20
3741.748218388699
 30
0.0
 10
6646.402838962742
 20
3752.686628876902
 30
0.0
 10
6646.181806748223
 20
3763.662192963039
 30
0.0
 10
6645.006112981821
 20
3774.606871709082
 30
0.0
 10
6642.901832763329
 20
3785.45437314757
 30
0.0
 10
6639.897807997582
 20
3796.087415744229
 30
0.0
 10
6636.853513295994
 20
3804.175330841031
 30
0.0
 10
6633.804687779951
 20
3811.033630617636
 30
0.0
 10
6630.950558871928
 20
3816.759785643392
 30
0.0
 10
6626.32352769092
 20
3824.795779372067
 30
0.0
 10
6620.217173522181
 20
3833.815657860624
 30
0.0
 10
6614.772788774386
 20
3840.09804947537
 30
0.0
 10
6612.050437406072
 20
3843.239428749789
 30
0.0
  0
SPLINE
  5
181
330
1F
100
AcDbEntity
  8
0
  6
Continuous
 62
     7
370
    25
100
AcDbSpline
210
0.0
220
0.0
230
1.0
 70
     8
 71
     3
 72
    10
 73
     6
 74
     0
 42
0.00000001
 43
0.00000001
 40
0.0
 40
0.0
 40
0.0
 40
0.0
 40
0.0682221391123676
 40
0.3411110455799785
 40
1.0
 40
1.0
 40
1.0
 40
1.0
 10
6385.67599475915
 20
3699.69414942122
 30
0.0
 10
6386.657308449219
 20
3698.791488817819
 30
0.0
 10
6391.563881934259
 20
3694.27818116966
 30
0.0
 10
6405.954094443267
 20
3681.053310608064
 30
0.0
 10
6419.44785703397
 20
3668.825403736932
 30
0.0
 10
6428.989714055676
 20
3660.178672459811
 30
0.0
  0
SPLINE
  5
182
330
1F
100
AcDbEntity
  8
0
  6
Continuous
 62
     7
370
    25
100
AcDbSpline
210
0.0
220
0.0
230
1.0
 70
     8
 71
     3
 72
    46
 73
    42
 74
     0
 42
0.00000001
 43
0.00000001
 40
0.0
 40
0.0
 40
0.0
 40
0.0
 40
0.0293535237104488
 40
0.0587050603673095
 40
0.0848093511575269
 40
0.1110070634905432
 40
0.1372050078914168
 40
0.1633096162698051
 40
0.1894246233835914
 40
0.2156330944292427
 40
0.2418417234201795
 40
0.2679569466844886
 40
0.294024971750908
 40
0.3201857957000923
 40
0.3463464162604712
 40
0.37241416299079
 40
0.3984558754691771
 40
0.4245903846848057
 40
0.4507246527651178
 40
0.4767660352503332
 40
0.5028672540738919
 40
0.52906215983863
 40
0.5552572304456376
 40
0.5813586748606806
 40
0.6074693303427965
 40
0.6336734047077217
 40
0.659877673448071
 40
0.685988594935539
 40
0.7120889590195824
 40
0.7382825662663203
 40
0.7644762603321439
 40
0.7905767432287222
 40
0.8167082337686542
 40
0.8429332749566294
 40
0.8691579799573091
 40
0.8952890104177154
 40
0.9118204978168115
 40
0.934011129363479
 40
0.9562303276192785
 40
0.9784207599195799
 40
0.9999999999999999
 40
0.9999999999999999
 40
0.9999999999999999
 40
0.9999999999999999
 10
6572.535573977132
 20
3886.553711400044
 30
0.0
 10
6569.626220942844
 20
3889.551667451055
 30
0.0
 10
6563.807711819632
 20
3895.547376609831
 30
0.0
 10
6554.421479158279
 20
3903.166654446267
 30
0.0
 10
6544.80620711495
 20
3909.696695614725
 30
0.0
 10
6535.055467866136
 20
3915.162831048684
 30
0.0
 10
6524.887801783429
 20
3919.803462556576
 30
0.0
 10
6514.3766067455
 20
3923.571440473323
 30
0.0
 10
6503.578081584209
 20
3926.418394693384
 30
0.0
 10
6492.564828092876
 20
3928.351564413102
 30
0.0
 10
6481.429033574054
 20
3929.36295679281
 30
0.0
 10
6470.266917375427
 20
3929.437259364879
 30
0.0
 10
6459.14678301371
 20
3928.549928373271
 30
0.0
 10
6448.134077265077
 20
3926.735155258675
 30
0.0
 10
6437.309784480314
 20
3924.01351368046
 30
0.0
 10
6426.766685973763
 20
3920.400477267185
 30
0.0
 10
6416.577607703322
 20
3915.893826813567
 30
0.0
 10
6406.793420119247
 20
3910.546666835471
 30
0.0
 10
6397.486602865418
 20
3904.406226751178
 30
0.0
 10
6388.72990283001
 20
3897.510346827899
 30
0.0
 10
6380.595814154904
 20
3889.877255498221
 30
0.0
 10
6373.117646796955
 20
3881.572070831453
 30
0.0
 10
6366.356517995253
 20
3872.673382934051
 30
0.0
 10
6360.372114905455
 20
3863.248165704221
 30
0.0
 10
6355.224171891946
 20
3853.339832351434
 30
0.0
 10
6350.920126248959
 20
3843.021796009228
 30
0.0
 10
6347.488275693566
 20
3832.381801336713
 30
0.0
 10
6344.96294498321
 20
3821.505399199786
 30
0.0
 10
6343.385845771427
 20
3810.45313651905
 30
0.0
 10
6342.740029293343
 20
3799.296547599178
 30
0.0
 10
6343.022731691247
 20
3788.124847593676
 30
0.0
 10
6344.239431801079
 20
3777.024174243299
 30
0.0
 10
6346.409914341131
 20
3766.065419787059
 30
0.0
 10
6349.496045033959
 20
3755.310814759232
 30
0.0
 10
6353.46496665058
 20
3744.850061206017
 30
0.0
 10
6357.705093449907
 20
3736.00390759555
 30
0.0
 10
6362.26579201051
 20
3727.98294017996
 30
0.0
 10
6367.01450271766
 20
3720.722531059821
 30
0.0
 10
6372.765917191563
 20
3713.189153247018
 30
0.0
 10
6378.951872894557
 20
3706.115345985689
 30
0.0
 10
6383.455583820677
 20
3701.814529654795
 30
0.0
 10
6385.67599475915
 20
3699.69414942122
 30
0.0
  0
LINE
  5
183
330
1F
100
AcDbEntity
  8
0
  6
Continuous
 62
     7
370
    25
100
AcDbLine
 10
6385.6759947591
 20
3699.6941494212
 30
0.0
 11
6384.3364691582
 21
3698.2383639018
 31
0.0
  0
LINE
  5
184
330
1F
100
AcDbEntity
  8
0
  6
Continuous
 62
     7
370
    25
100
AcDbLine
 10
6572.5355739771
 20
3886.5537114
 30
0.0
 11
6573.9914469215
 21
3887.8932230395
 31
0.0
  0
LINE
  5
185
330
1F
100
AcDbEntity
  8
0
  6
Continuous
 62
     7
370
    25
100
AcDbLine
 10
6427.7042718194
 20
3658.7668832569
 30
0.0
 11
6428.9897140557
 21
3660.1786724598
 31
0.0
  0
LINE
  5
186
330
1F
100
AcDbEntity
  8
0
  6
Continuous
 62
     7
370
    25
100
AcDbLine
 10
6613.4619680783
 20
3844.5246441231
 30
0.0
 11
6612.0504374061
 21
3843.2394287498
 31
0.0
  0
LINE
  5
187
330
1F
100
AcDbEntity
  8
0
  6
Continuous
 62
     7
370
    25
100
AcDbLine
 10
6650.9317867373
 20
3869.2647318083
 30
0.0
 11
6649.2916763342
 21
3868.120163003
 31
0.0
  0
SPLINE
  5
188
330
1F
100
AcDbEntity
  8
0
  6
Continuous
 62
     7
370
    25
100
AcDbSpline
210
0.0
220
0.0
230
1.0
 70
     8
 71
     3
 72
    27
 73
    23
 74
     0
 42
0.00000001
 43
0.00000001
 40
0.0
 40
0.0
 40
0.0
 40
0.0
 40
0.038436153239711
 40
0.0768723064794215
 40
0.1305609362687752
 40
0.184249566058128
 40
0.2379381958474784
 40
0.2916268256368284
 40
0.3453154554261846
 40
0.3990040852155404
 40
0.4526927150048922
 40
0.5063813447942448
 40
0.5600699745835972
 40
0.6137586043729486
 40
0.6674472341623003
 40
0.721135863951652
 40
0.7748244937410032
 40
0.8285131235303549
 40
0.8822017533197049
 40
0.9358903831090564
 40
0.9679451915545271
 40
1.0
 40
1.0
 40
1.0
 40
1.0
 10
6446.613838412847
 20
3772.582665629442
 30
0.0
 10
6447.718245014034
 20
3771.553697440654
 30
0.0
 10
6449.927058216408
 20
3769.495761063076
 30
0.0
 10
6454.172332024871
 20
3766.599428489453
 30
0.0
 10
6459.318624111841
 20
3764.04867725184
 30
0.0
 10
6465.398837800687
 20
3762.219873393283
 30
0.0
 10
6471.69993628592
 20
3761.455699114515
 30
0.0
 10
6478.041636762682
 20
3761.73912401252
 30
0.0
 10
6484.240825548462
 20
3763.104657405779
 30
0.0
 10
6490.131177499792
 20
3765.470993554949
 30
0.0
 10
6495.528970840242
 20
3768.811574685476
 30
0.0
 10
6500.304035400977
 20
3772.994224746697
 30
0.0
 10
6504.291832740923
 20
3777.933178391158
 30
0.0
 10
6507.413265179363
 20
3783.460591354209
 30
0.0
 10
6509.541482621483
 20
3789.441093774197
 30
0.0
 10
6510.657317524468
 20
3795.69006142434
 30
0.0
 10
6510.686195030665
 20
3802.037987850476
 30
0.0
 10
6509.669956724062
 20
3808.303494773825
 30
0.0
 10
6507.59875325332
 20
3814.305000001576
 30
0.0
 10
6504.964371888562
 20
3819.125824818952
 30
0.0
 10
6502.236699667708
 20
3822.868823538437
 30
0.0
 10
6500.510131223796
 20
3824.700057325101
 30
0.0
 10
6499.646847001839
 20
3825.615674218433
 30
0.0
  0
SPLINE
  5
189
330
1F
100
AcDbEntity
  8
0
  6
Continuous
 62
     7
370
    25
100
AcDbSpline
210
0.0
220
0.0
230
1.0
 70
     8
 71
     3
 72
    27
 73
    23
 74
     0
 42
0.00000001
 43
0.00000001
 40
0.0
 40
0.0
 40
0.0
 40
0.0
 40
0.043339702615506
 40
0.0970285688381085
 40
0.1507174350607129
 40
0.204406301283315
 40
0.2580951675059178
 40
0.3117840337285173
 40
0.3654728999511157
 40
0.4191617661737149
 40
0.4728506323963143
 40
0.4999980953093013
 40
0.5399106072556723
 40
0.5935994734782721
 40
0.6472883397008731
 40
0.7009772059234742
 40
0.7546660721460765
 40
0.808354938368678
 40
0.8620438045912775
 40
0.9157326708138769
 40
0.9694215370364764
 40
1.0
 40
1.0
 40
1.0
 40
1.0
 10
6499.646847001839
 20
3825.615674218433
 30
0.0
 10
6498.396145625837
 20
3826.770885934722
 30
0.0
 10
6495.596085698475
 20
3829.357164399321
 30
0.0
 10
6490.53846360408
 20
3832.494586296831
 30
0.0
 10
6484.696905287316
 20
3834.964602411953
 30
0.0
 10
6478.507564352328
 20
3836.383317846967
 30
0.0
 10
6472.172118293753
 20
3836.768706464262
 30
0.0
 10
6465.863540790711
 20
3836.061938451317
 30
0.0
 10
6459.757174978754
 20
3834.327493138991
 30
0.0
 10
6454.03843280065
 20
3831.573344930596
 30
0.0
 10
6449.704633716885
 20
3828.515908634597
 30
0.0
 10
6446.213591341948
 20
3825.308177033282
 30
0.0
 10
6443.070539188308
 20
3821.747825558963
 30
0.0
 10
6439.916840070717
 20
3816.873733347958
 30
0.0
 10
6437.393984509454
 20
3811.048750831505
 30
0.0
 10
6435.905873514403
 20
3804.87784336093
 30
0.0
 10
6435.452673609335
 20
3798.546011097948
 30
0.0
 10
6436.091711198317
 20
3792.230988339935
 30
0.0
 10
6437.757910894645
 20
3786.104046293961
 30
0.0
 10
6440.458638669805
 20
3780.364290260336
 30
0.0
 10
6443.518754358785
 20
3775.860038079647
 30
0.0
 10
6445.789751510362
 20
3773.455288040856
 30
0.0
 10
6446.613838412847
 20
3772.582665629442
 30
0.0
  0
LINE
  5
18A
330
1F
100
AcDbEntity
  8
0
  6
Continuous
 62
     7
370
    25
100
AcDbLine
 10
6446.6138384128
 20
3772.5826656294
 30
0.0
 11
6499.6468470018
 21
3825.6156742184
 31
0.0
  0
SPLINE
  5
18B
330
1F
100
AcDbEntity
  8
0
  6
Continuous
 62
     7
370
    25
100
AcDbSpline
210
0.0
220
0.0
230
1.0
 70
     8
 71
     3
 72
    14
 73
    10
 74
     0
 42
0.00000001
 43
0.00000001
 40
0.0
 40
0.0
 40
0.0
 40
0.0
 40
0.1212103291967483
 40
0.3134881459757899
 40
0.509715056035956
 40
0.7186693004144248
 40
0.94332905664948
 40
0.9967363637535946
 40
1.0
 40
1.0
 40
1.0
 40
1.0
 10
6452.507239274435
 20
4073.53907591657
 30
0.0
 10
6452.507838836045
 20
4073.54052338622
 30
0.0
 10
6452.509389491495
 20
4073.544266999325
 30
0.0
 10
6452.419844869125
 20
4073.328087175829
 30
0.0
 10
6452.258386434746
 20
4072.93829206696
 30
0.0
 10
6452.030702703927
 20
4072.388614961973
 30
0.0
 10
6451.830186256925
 20
4071.904525479113
 30
0.0
 10
6451.713273677455
 20
4071.622273565864
 30
0.0
 10
6451.689713255289
 20
4071.565393680639
 30
0.0
 10
6451.688356428611
 20
4071.56211801159
 30
0.0
  0
SPLINE
  5
18C
330
1F
100
AcDbEntity
  8
0
  6
Continuous
 62
     7
370
    25
100
AcDbSpline
210
0.0
220
0.0
230
1.0
 70
     8
 71
     3
 72
    12
 73
     8
 74
     0
 42
0.00000001
 43
0.00000001
 40
0.0
 40
0.0
 40
0.0
 40
0.0
 40
0.2146661116584426
 40
0.4293326349485524
 40
0.6439983903306478
 40
0.8587109414934443
 40
1.0
 40
1.0
 40
1.0
 40
1.0
 10
6378.60536383764
 20
4071.562123583419
 30
0.0
 10
6378.607580947577
 20
4071.786813915565
 30
0.0
 10
6378.612015171702
 20
4072.23619501071
 30
0.0
 10
6378.610714732216
 20
4072.836561269749
 30
0.0
 10
6378.604658869015
 20
4073.284519711523
 30
0.0
 10
6378.596403650242
 20
4073.538766753075
 30
0.0
 10
6378.59065744155
 20
4073.537046077065
 30
0.0
 10
6378.588376900131
 20
4073.536363179328
 30
0.0
  0
LINE
  5
18D
330
1F
100
AcDbEntity
  8
0
  6
Continuous
 62
     7
370
    25
100
AcDbLine
 10
6619.1462297323
 20
3904.1042447078
 30
0.0
 11
6451.6883564286
 21
4071.5621180116
 31
0.0
  0
SPLINE
  5
18E
330
1F
100
AcDbEntity
  8
0
  6
Continuous
 62
     7
370
    25
100
AcDbSpline
210
0.0
220
0.0
230
1.0
 70
     8
 71
     3
 72
    14
 73
    10
 74
     0
 42
0.00000001
 43
0.00000001
 40
0.0
 40
0.0
 40
0.0
 40
0.0
 40
0.0032636362342526
 40
0.0566709433504972
 40
0.2813306995855953
 40
0.4902849439640176
 40
0.6865118540241967
 40
0.8787896708032361
 40
1.0
 40
1.0
 40
1.0
 40
1.0
 10
6200.667394619692
 20
3820.541156202681
 30
0.0
 10
6200.664118950651
 20
3820.539799376018
 30
0.0
 10
6200.607239065358
 20
3820.516238954015
 30
0.0
 10
6200.324987152326
 20
3820.399326374024
 30
0.0
 10
6199.840897669256
 20
3820.198809927491
 30
0.0
 10
6199.291220564335
 20
3819.971126196515
 30
0.0
 10
6198.901425455449
 20
3819.809667762175
 30
0.0
 10
6198.685245631957
 20
3819.720123139795
 30
0.0
 10
6198.688989245062
 20
3819.721673795246
 30
0.0
 10
6198.690436714712
 20
3819.722273356857
 30
0.0
  0
SPLINE
  5
18F
330
1F
100
AcDbEntity
  8
0
  6
Continuous
 62
     7
370
    25
100
AcDbSpline
210
0.0
220
0.0
230
1.0
 70
     8
 71
     3
 72
    12
 73
     8
 74
     0
 42
0.00000001
 43
0.00000001
 40
0.0
 40
0.0
 40
0.0
 40
0.0
 40
0.1406738833957113
 40
0.3554540420652459
 40
0.57021855642704
 40
0.7849351621741989
 40
1.0
 40
1.0
 40
1.0
 40
1.0
 10
6198.693037844765
 20
3893.641135300233
 30
0.0
 10
6198.692322267495
 20
3893.638864827863
 30
0.0
 10
6198.690514150544
 20
3893.633127810004
 30
0.0
 10
6198.944054864261
 20
3893.624873667854
 30
0.0
 10
6199.391766556761
 20
3893.618805780909
 30
0.0
 10
6199.992419596233
 20
3893.617491871696
 30
0.0
 10
6200.442277722866
 20
3893.621928621266
 30
0.0
 10
6200.667389035826
 20
3893.624148793499
 30
0.0
  0
LINE
  5
190
330
1F
100
AcDbEntity
  8
0
  6
Continuous
 62
     7
370
    25
100
AcDbLine
 10
6200.6673946197
 20
3820.5411562027
 30
0.0
 11
6368.1252679238
 21
3653.0832828986
 31
0.0
  0
LINE
  5
191
330
1F
100
AcDbEntity
  8
0
  6
Continuous
 62
     7
370
    25
100
AcDbLine
 10
6573.9914469215
 20
3887.8932230395
 30
0.0
 11
6613.4619680783
 21
3844.5246441231
 31
0.0
  0
SPLINE
  5
192
330
1F
100
AcDbEntity
  8
0
  6
Continuous
 62
     7
370
    25
100
AcDbSpline
210
0.0
220
0.0
230
1.0
 70
     8
 71
     3
 72
    45
 73
    41
 74
     0
 42
0.00000001
 43
0.00000001
 40
0.0
 40
0.0
 40
0.0
 40
0.0
 40
0.0261269098619392
 40
0.0523465035684279
 40
0.0785639264500831
 40
0.104687865549214
 40
0.1308191486073553
 40
0.1570440956494539
 40
0.1832693929790734
 40
0.2094011554129442
 40
0.2355018973039791
 40
0.2616958175174942
 40
0.2878896465438691
 40
0.313990263644814
 40
0.3401021537647753
 40
0.3663073917602347
 40
0.3925124195987774
 40
0.4186240221162022
 40
0.4447278210873853
 40
0.4709253055454979
 40
0.4971226053587133
 40
0.523226151637409
 40
0.5492692845514743
 40
0.57540534200328
 40
0.6015416608613487
 40
0.6275851515097287
 40
0.6536533577587147
 40
0.6798144220986587
 40
0.7059757004731065
 40
0.7320441996265372
 40
0.7581596770307744
 40
0.7843685287592962
 40
0.8105772191752137
 40
0.8366924758209681
 40
0.8627975807993218
 40
0.888996031992094
 40
0.9151942169488251
 40
0.9412989575791548
 40
0.9706483067392083
 40
1.0
 40
1.0
 40
1.0
 40
1.0
 10
6384.336469158241
 20
3698.238363901802
 30
0.0
 10
6381.62336385346
 20
3700.860999540402
 30
0.0
 10
6376.187528644909
 20
3706.11557448019
 30
0.0
 10
6368.900926284758
 20
3714.831116392097
 30
0.0
 10
6362.31180271019
 20
3724.072584947775
 30
0.0
 10
6356.54481621794
 20
3733.839318494966
 30
0.0
 10
6351.644583760937
 20
3744.067825537147
 30
0.0
 10
6347.615755785937
 20
3754.685179647473
 30
0.0
 10
6344.483688677508
 20
3765.600665729326
 30
0.0
 10
6342.280644273993
 20
3776.723354519456
 30
0.0
 10
6341.045531092089
 20
3787.99005776722
 30
0.0
 10
6340.758186131335
 20
3799.328859904685
 30
0.0
 10
6341.413097174233
 20
3810.652367533763
 30
0.0
 10
6343.013084141897
 20
3821.870164786914
 30
0.0
 10
6345.57541446409
 20
3832.909666309949
 30
0.0
 10
6349.057854450918
 20
3843.709398183998
 30
0.0
 10
6353.425586653383
 20
3854.182413466883
 30
0.0
 10
6358.650024677301
 20
3864.239813484531
 30
0.0
 10
6364.723741884964
 20
3873.807018784494
 30
0.0
 10
6371.586193847206
 20
3882.839862471308
 30
0.0
 10
6379.17669010654
 20
3891.270127753137
 30
0.0
 10
6387.433160321746
 20
3899.017884833476
 30
0.0
 10
6396.32173677478
 20
3906.017013894963
 30
0.0
 10
6405.768704237851
 20
3912.249127099274
 30
0.0
 10
6415.700237572122
 20
3917.675891702392
 30
0.0
 10
6426.042542756983
 20
3922.249330851494
 30
0.0
 10
6436.743916662939
 20
3925.915656497429
 30
0.0
 10
6447.730421768724
 20
3928.677230659458
 30
0.0
 10
6458.908078443504
 20
3930.51844163981
 30
0.0
 10
6470.194671513416
 20
3931.418444772115
 30
0.0
 10
6481.523788438728
 20
3931.342599880467
 30
0.0
 10
6492.826132986787
 20
3930.315819192645
 30
0.0
 10
6504.004107370321
 20
3928.353625319909
 30
0.0
 10
6514.964211280377
 20
3925.464120462126
 30
0.0
 10
6525.632770082097
 20
3921.63991350281
 30
0.0
 10
6535.952733779685
 20
3916.930015739216
 30
0.0
 10
6545.849425551613
 20
3911.382092978321
 30
0.0
 10
6555.608513971775
 20
3904.754781533735
 30
0.0
 10
6565.133453635552
 20
3897.020439877409
 30
0.0
 10
6571.038703888303
 20
3890.935709645709
 30
0.0
 10
6573.991446921456
 20
3887.893223039506
 30
0.0
  0
LINE
  5
193
330
1F
100
AcDbEntity
  8
0
  6
Continuous
 62
     7
370
    25
100
AcDbLine
 10
6427.7042718194
 20
3658.7668832569
 30
0.0
 11
6384.3364691582
 21
3698.2383639018
 31
0.0
  0
SPLINE
  5
194
330
1F
100
AcDbEntity
  8
0
  6
Continuous
 62
     7
370
    25
100
AcDbSpline
210
0.0
220
0.0
230
1.0
 70
     8
 71
     3
 72
    43
 73
    39
 74
     0
 42
0.00000001
 43
0.00000001
 40
0.0
 40
0.0
 40
0.0
 40
0.0
 40
0.0277690004543341
 40
0.0556342782004485
 40
0.0834921728799082
 40
0.1112510701106206
 40
0.1390409971302938
 40
0.1669317872304285
 40
0.1948223347264672
 40
0.2226119297211144
 40
0.2501851533789093
 40
0.2778573399532546
 40
0.3055294947207663
 40
0.3331026748499282
 40
0.3606170304512667
 40
0.3882299079038204
 40
0.4158427293038514
 40
0.4433570081962078
 40
0.4708428358986895
 40
0.4984268964334891
 40
0.5260109534372128
 40
0.553496776307382
 40
0.5809811966564942
 40
0.6085638275360575
 40
0.6361465540989978
 40
0.6636311053915944
 40
0.6911183300382582
 40
0.7187036319400043
 40
0.7462890062129978
 40
0.7737763298998076
 40
0.8012845104457541
 40
0.8288906002533017
 40
0.8564969541378644
 40
0.8840054960699004
 40
0.9129431949665427
 40
0.9419932193810935
 40
0.9710512887282594
 40
1.0
 40
1.0
 40
1.0
 40
1.0
 10
6613.46196807832
 20
3844.524644123084
 30
0.0
 10
6615.903161172911
 20
3841.712197453852
 30
0.0
 10
6620.794011169075
 20
3836.077553143292
 30
0.0
 10
6627.228677726399
 20
3826.898245494014
 30
0.0
 10
6632.93730730712
 20
3817.262400868618
 30
0.0
 10
6637.7868080588
 20
3807.17233730824
 30
0.0
 10
6641.734961233883
 20
3796.69385628336
 30
0.0
 10
6644.791377159789
 20
3785.903545951346
 30
0.0
 10
6646.933377722207
 20
3774.895238887229
 30
0.0
 10
6648.133044604913
 20
3763.786878806269
 30
0.0
 10
6648.363059901149
 20
3752.645830270732
 30
0.0
 10
6647.65774396044
 20
3741.541263938076
 30
0.0
 10
6646.030641835197
 20
3730.53394275331
 30
0.0
 10
6643.489541967308
 20
3719.722040998335
 30
0.0
 10
6640.02569440918
 20
3709.177926965614
 30
0.0
 10
6635.687838289655
 20
3698.957280250326
 30
0.0
 10
6630.515305963422
 20
3689.132652222116
 30
0.0
 10
6624.54547437091
 20
3679.790399584705
 30
0.0
 10
6617.793360024301
 20
3671.001821136656
 30
0.0
 10
6610.322711328421
 20
3662.803589496536
 30
0.0
 10
6602.196934653617
 20
3655.25419776927
 30
0.0
 10
6593.477048145684
 20
3648.420092765211
 30
0.0
 10
6584.19984536738
 20
3642.364453514913
 30
0.0
 10
6574.436934289701
 20
3637.10187308671
 30
0.0
 10
6564.270719397586
 20
3632.668199037209
 30
0.0
 10
6553.780283693591
 20
3629.105563159537
 30
0.0
 10
6543.02128062154
 20
3626.461111422992
 30
0.0
 10
6532.06596935458
 20
3624.7249979372
 30
0.0
 10
6521.004364821192
 20
3623.904000220752
 30
0.0
 10
6509.922484942846
 20
3624.011828402059
 30
0.0
 10
6498.888408371595
 20
3625.075079756841
 30
0.0
 10
6487.96698413364
 20
3627.060387182657
 30
0.0
 10
6477.247736026588
 20
3629.944632320432
 30
0.0
 10
6466.637789737414
 20
3633.772820116425
 30
0.0
 10
6456.231777037505
 20
3638.613786712002
 30
0.0
 10
6446.131167207701
 20
3644.476689420695
 30
0.0
 10
6436.520204769476
 20
3651.132125095577
 30
0.0
 10
6430.639220400707
 20
3656.225164443796
 30
0.0
 10
6427.704271819374
 20
3658.766883256909
 30
0.0
  0
SPLINE
  5
195
330
1F
100
AcDbEntity
  8
0
  6
Continuous
 62
     7
370
    25
100
AcDbSpline
210
0.0
220
0.0
230
1.0
 70
     8
 71
     3
 72
    11
 73
     7
 74
     0
 42
0.00000001
 43
0.00000001
 40
0.0
 40
0.0
 40
0.0
 40
0.0
 40
0.2490296997341819
 40
0.4980593120459088
 40
0.7490299169979211
 40
0.9999999999999999
 40
0.9999999999999999
 40
0.9999999999999999
 40
0.9999999999999999
 10
6649.29167633416
 20
3868.120163003036
 30
0.0
 10
6647.018581761311
 20
3871.291853827564
 30
0.0
 10
6642.472393413587
 20
3877.63523436319
 30
0.0
 10
6635.107012528617
 20
3886.776779511431
 30
0.0
 10
6627.381884426099
 20
3895.656888126832
 30
0.0
 10
6621.891446060496
 20
3901.288461132864
 30
0.0
 10
6619.146229732349
 20
3904.104244707845
 30
0.0
  0
SPLINE
  5
196
330
1F
100
AcDbEntity
  8
0
  6
Continuous
 62
     7
370
    25
100
AcDbSpline
210
0.0
220
0.0
230
1.0
 70
     8
 71
     3
 72
    14
 73
    10
 74
     0
 42
0.00000001
 43
0.00000001
 40
0.0
 40
0.0
 40
0.0
 40
0.0
 40
0.1457558856010017
 40
0.2916033885533227
 40
0.4373622371893059
 40
0.5864758120169926
 40
0.7356851871160793
 40
0.8847987337415357
 40
0.9999999999999999
 40
0.9999999999999999
 40
0.9999999999999999
 40
0.9999999999999999
 10
6690.518637039808
 20
3780.429351395292
 30
0.0
 10
6689.194376505583
 20
3784.971300216612
 30
0.0
 10
6686.545023050558
 20
3794.058052778756
 30
0.0
 10
6681.715770181935
 20
3807.414027421406
 30
0.0
 10
6676.240112689437
 20
3820.631268746937
 30
0.0
 10
6670.051191284972
 20
3833.654003839751
 30
0.0
 10
6663.153869203877
 20
3846.436952828232
 30
0.0
 10
6656.224359301395
 20
3857.938795576048
 30
0.0
 10
6651.396076912388
 20
3865.029631443788
 30
0.0
 10
6649.29167633416
 20
3868.120163003036
 30
0.0
  0
SPLINE
  5
197
330
1F
100
AcDbEntity
  8
0
  6
Continuous
 62
     7
370
    25
100
AcDbSpline
210
0.0
220
0.0
230
1.0
 70
     8
 71
     3
 72
    32
 73
    28
 74
     0
 42
0.00000001
 43
0.00000001
 40
0.0
 40
0.0
 40
0.0
 40
0.0
 40
0.0399137869934018
 40
0.0799701991554465
 40
0.1200266462973308
 40
0.159940481160954
 40
0.199856686651657
 40
0.2399155352114073
 40
0.2799743636991016
 40
0.319890541721003
 40
0.3598061580832129
 40
0.399864343037223
 40
0.4399225325726618
 40
0.4798381552045884
 40
0.5197644142716157
 40
0.5598334013722088
 40
0.5999023563126984
 40
0.6398285713682612
 40
0.6797472621136904
 40
0.71980855782548
 40
0.7598698414502688
 40
0.7997885156545432
 40
0.8397141732437927
 40
0.879782613328873
 40
0.9198510477567536
 40
0.9597766976040524
 40
1.0
 40
1.0
 40
1.0
 40
1.0
 10
6491.800161240899
 20
3581.710875590111
 30
0.0
 10
6496.200496035901
 20
3580.614603554389
 30
0.0
 10
6505.016889478223
 20
3578.418142140198
 30
0.0
 10
6518.54182309058
 20
3576.551380110571
 30
0.0
 10
6532.157933422267
 20
3575.731274421338
 30
0.0
 10
6545.784418766829
 20
3576.076777602585
 30
0.0
 10
6559.329305486393
 20
3577.591117305257
 30
0.0
 10
6572.715269311978
 20
3580.239775935846
 30
0.0
 10
6585.834918606452
 20
3583.990599182153
 30
0.0
 10
6598.579708805491
 20
3588.822405230732
 30
0.0
 10
6610.85983014776
 20
3594.736108754078
 30
0.0
 10
6622.614498345887
 20
3601.665532980533
 30
0.0
 10
6633.753199038855
 20
3609.547062041426
 30
0.0
 10
6644.181678807235
 20
3618.324954927956
 30
0.0
 10
6653.814524696606
 20
3627.971027529739
 30
0.0
 10
6662.615694992217
 20
3638.403132680922
 30
0.0
 10
6670.519880753608
 20
3649.530270747351
 30
0.0
 10
6677.455298000293
 20
3661.266875172872
 30
0.0
 10
6683.351319548651
 20
3673.557543065954
 30
0.0
 10
6688.202071373079
 20
3686.312485557447
 30
0.0
 10
6691.976761917853
 20
3699.426159348105
 30
0.0
 10
6694.637019149903
 20
3712.795859718601
 30
0.0
 10
6696.131829620615
 20
3726.345694437737
 30
0.0
 10
6696.491272766927
 20
3739.990875158583
 30
0.0
 10
6695.695692728432
 20
3753.612729445994
 30
0.0
 10
6693.833364102398
 20
3767.160697860606
 30
0.0
 10
6691.626278243325
 20
3775.99553012051
 30
0.0
 10
6690.518637039808
 20
3780.429351395292
 30
0.0
  0
SPLINE
  5
198
330
1F
100
AcDbEntity
  8
0
  6
Continuous
 62
     7
370
    25
100
AcDbSpline
210
0.0
220
0.0
230
1.0
 70
     8
 71
     3
 72
    14
 73
    10
 74
     0
 42
0.00000001
 43
0.00000001
 40
0.0
 40
0.0
 40
0.0
 40
0.0
 40
0.1457512863598535
 40
0.2915920346581125
 40
0.4373432880133933
 40
0.5864385268240306
 40
0.7356295265151236
 40
0.8847247367711372
 40
1.0
 40
1.0
 40
1.0
 40
1.0
 10
6404.10934962833
 20
3622.93783629706
 30
0.0
 10
6408.027420325857
 20
3620.286428318131
 30
0.0
 10
6415.865966627297
 20
3614.981984929715
 30
0.0
 10
6428.1030849229
 20
3607.775374510763
 30
0.0
 10
6440.749996297875
 20
3601.089231072423
 30
0.0
 10
6453.822698411103
 20
3595.010049887128
 30
0.0
 10
6467.287284058125
 20
3589.56684617599
 30
0.0
 10
6479.962211705275
 20
3585.129683759979
 30
0.0
 10
6488.205697727042
 20
3582.748959186471
 30
0.0
 10
6491.800161240899
 20
3581.710875590111
 30
0.0
  0
SPLINE
  5
199
330
1F
100
AcDbEntity
  8
0
  6
Continuous
 62
     7
370
    25
100
AcDbSpline
210
0.0
220
0.0
230
1.0
 70
     8
 71
     3
 72
    11
 73
     7
 74
     0
 42
0.00000001
 43
0.00000001
 40
0.0
 40
0.0
 40
0.0
 40
0.0
 40
0.0851125836115478
 40
0.4257061745484499
 40
0.712485926095971
 40
1.0
 40
1.0
 40
1.0
 40
1.0
 10
6368.125267923765
 20
3653.0832828986
 30
0.0
 10
6369.072520543589
 20
3652.144856331742
 30
0.0
 10
6373.810378002563
 20
3647.451143993095
 30
0.0
 10
6382.073570676724
 20
3639.936803265231
 30
0.0
 10
6393.148787735498
 20
3630.826387962092
 30
0.0
 10
6400.452715934856
 20
3625.569594056662
 30
0.0
 10
6404.10934962833
 20
3622.93783629706
 30
0.0
  0
SPLINE
  5
19A
330
1F
100
AcDbEntity
  8
0
  6
Continuous
 62
     7
370
    25
100
AcDbSpline
210
0.0
220
0.0
230
1.0
 70
     8
 71
     3
 72
    26
 73
    22
 74
     0
 42
0.00000001
 43
0.00000001
 40
0.0
 40
0.0
 40
0.0
 40
0.0
 40
0.0539861145401151
 40
0.1079761201603876
 40
0.1619461644728133
 40
0.2159146965885702
 40
0.270092901765964
 40
0.3242689458658362
 40
0.3780362283204313
 40
0.4317994444014339
 40
0.4848296450367113
 40
0.5378585149412297
 40
0.590302602449143
 40
0.6427503706997666
 40
0.6955500765524266
 40
0.7483527284807151
 40
0.8018552613304495
 40
0.855359801434001
 40
0.9093928582544598
 40
0.9634227828464696
 40
1.0
 40
1.0
 40
1.0
 40
1.0
 10
6446.613835369467
 20
3772.582658008942
 30
0.0
 10
6448.19189101253
 20
3771.140674378095
 30
0.0
 10
6451.34811603792
 20
3768.256603184605
 30
0.0
 10
6456.913326930236
 20
3765.007733795548
 30
0.0
 10
6462.901225339187
 20
3762.691860208537
 30
0.0
 10
6469.208304040955
 20
3761.403373641077
 30
0.0
 10
6475.648096647402
 20
3761.211962081052
 30
0.0
 10
6482.023997604708
 20
3762.09031249148
 30
0.0
 10
6488.135709990706
 20
3764.053106150394
 30
0.0
 10
6493.794997193963
 20
3766.986891103023
 30
0.0
 10
6498.833672909487
 20
3770.842286001618
 30
0.0
 10
6503.125930856582
 20
3775.443493090959
 30
0.0
 10
6506.546891089664
 20
3780.695993056843
 30
0.0
 10
6509.060793954684
 20
3786.427557881685
 30
0.0
 10
6510.570798378517
 20
3792.516065534559
 30
0.0
 10
6511.076154423213
 20
3798.810343983529
 30
0.0
 10
6510.506529256558
 20
3805.127096730451
 30
0.0
 10
6508.906011984536
 20
3811.316738017379
 30
0.0
 10
6506.259463546165
 20
3817.152507002274
 30
0.0
 10
6503.099758143513
 20
3821.958425518925
 30
0.0
 10
6500.639880476108
 20
3824.563878614012
 30
0.0
 10
6499.646851914801
 20
3825.615674552018
 30
0.0
  0
SPLINE
  5
19B
330
1F
100
AcDbEntity
  8
0
  6
Continuous
 62
     7
370
    25
100
AcDbSpline
210
0.0
220
0.0
230
1.0
 70
     8
 71
     3
 72
    10
 73
     6
 74
     0
 42
0.00000001
 43
0.00000001
 40
0.0
 40
0.0
 40
0.0
 40
0.0
 40
0.0682225420743227
 40
0.3411142400180615
 40
0.9999999999999999
 40
0.9999999999999999
 40
0.9999999999999999
 40
0.9999999999999999
 10
6612.050437406072
 20
3843.239428749789
 30
0.0
 10
6611.151161275058
 20
3844.223823088902
 30
0.0
 10
6606.654760456938
 20
3849.145816855993
 30
0.0
 10
6593.538446641616
 20
3863.633065166537
 30
0.0
 10
6581.235400289547
 20
3877.059503422628
 30
0.0
 10
6572.535573977132
 20
3886.553711400044
 30
0.0
  0
SPLINE
  5
19C
330
1F
100
AcDbEntity
  8
0
  6
Continuous
 62
     7
370
    25
100
AcDbSpline
210
0.0
220
0.0
230
1.0
 70
     8
 71
     3
 72
    44
 73
    40
 74
     0
 42
0.00000001
 43
0.00000001
 40
0.0
 40
0.0
 40
0.0
 40
0.0
 40
0.028959738564717
 40
0.058031039953952
 40
0.0870975306874555
 40
0.1160506837918641
 40
0.1435602501764933
 40
0.1711676027988612
 40
0.1987747491758567
 40
0.2262840333166871
 40
0.2537667543265454
 40
0.2813473736276609
 40
0.3089279142162946
 40
0.3364105275085462
 40
0.3638872828776724
 40
0.3914620574501286
 40
0.4190367134548282
 40
0.4465133065637387
 40
0.4739903809851896
 40
0.5015655528588623
 40
0.5291407287438549
 40
0.5566178086548168
 40
0.584124268837033
 40
0.6117291223923406
 40
0.6393340546848929
 40
0.6668406226200916
 40
0.694409355480422
 40
0.7220769120885132
 40
0.7497445039235033
 40
0.777313284992696
 40
0.8051042347311144
 40
0.8329960931799281
 40
0.8608881318056036
 40
0.8886793281315656
 40
0.8983457970177675
 40
0.9177189365928725
 40
0.9370921270121793
 40
0.9685442263838069
 40
1.0
 40
1.0
 40
1.0
 40
1.0
 10
6428.989714055676
 20
3660.178672459811
 30
0.0
 10
6431.879703330266
 20
3657.670302472564
 30
0.0
 10
6437.670815107241
 20
3652.643899398382
 30
0.0
 10
6447.148889802731
 20
3646.089321542642
 30
0.0
 10
6457.111491048367
 20
3640.320651791343
 30
0.0
 10
6467.371836405451
 20
3635.558463517967
 30
0.0
 10
6477.829181596504
 20
3631.791542549329
 30
0.0
 10
6488.392284025876
 20
3628.956377063883
 30
0.0
 10
6499.153909166278
 20
3627.006570976675
 30
0.0
 10
6510.025251402656
 20
3625.965115611147
 30
0.0
 10
6520.942378001044
 20
3625.864354183951
 30
0.0
 10
6531.838356447744
 20
3626.677908103404
 30
0.0
 10
6542.629327473433
 20
3628.392263673804
 30
0.0
 10
6553.226331843799
 20
3631.000628687445
 30
0.0
 10
6563.558316832781
 20
3634.512547283792
 30
0.0
 10
6573.57057493608
 20
3638.881587357424
 30
0.0
 10
6583.18569490271
 20
3644.066480298538
 30
0.0
 10
6592.322487420586
 20
3650.031927872314
 30
0.0
 10
6600.910500886929
 20
3656.76357072605
 30
0.0
 10
6608.913549978181
 20
3664.199231636616
 30
0.0
 10
6616.271695918278
 20
3672.273608848967
 30
0.0
 10
6622.922633008096
 20
3680.929252462965
 30
0.0
 10
6628.80362598338
 20
3690.130095103254
 30
0.0
 10
6633.899897953373
 20
3699.805991021024
 30
0.0
 10
6638.174642663761
 20
3709.871858422117
 30
0.0
 10
6641.589349819354
 20
3720.256744926224
 30
0.0
 10
6644.096021986064
 20
3730.905917676181
 30
0.0
 10
6645.703117538728
 20
3741.748218388699
 30
0.0
 10
6646.402838962742
 20
3752.686628876902
 30
0.0
 10
6646.181806748223
 20
3763.662192963039
 30
0.0
 10
6645.006112981821
 20
3774.606871709082
 30
0.0
 10
6642.901832763329
 20
3785.45437314757
 30
0.0
 10
6639.897807997582
 20
3796.087415744229
 30
0.0
 10
6636.853513295994
 20
3804.175330841031
 30
0.0
 10
6633.804687779951
 20
3811.033630617636
 30
0.0
 10
6630.950558871928
 20
3816.759785643392
 30
0.0
 10
6626.32352769092
 20
3824.795779372067
 30
0.0
 10
6620.217173522181
 20
3833.815657860624
 30
0.0
 10
6614.772788774386
 20
3840.09804947537
 30
0.0
 10
6612.050437406072
 20
3843.239428749789
 30
0.0
  0
SPLINE
  5
19D
330
1F
100
AcDbEntity
  8
0
  6
Continuous
 62
     7
370
    25
100
AcDbSpline
210
0.0
220
0.0
230
1.0
 70
     8
 71
     3
 72
    10
 73
     6
 74
     0
 42
0.00000001
 43
0.00000001
 40
0.0
 40
0.0
 40
0.0
 40
0.0
 40
0.0682221391123676
 40
0.3411110455799785
 40
1.0
 40
1.0
 40
1.0
 40
1.0
 10
6385.67599475915
 20
3699.69414942122
 30
0.0
 10
6386.657308449219
 20
3698.791488817819
 30
0.0
 10
6391.563881934259
 20
3694.27818116966
 30
0.0
 10
6405.954094443267
 20
3681.053310608064
 30
0.0
 10
6419.44785703397
 20
3668.825403736932
 30
0.0
 10
6428.989714055676
 20
3660.178672459811
 30
0.0
  0
SPLINE
  5
19E
330
1F
100
AcDbEntity
  8
0
  6
Continuous
 62
     7
370
    25
100
AcDbSpline
210
0.0
220
0.0
230
1.0
 70
     8
 71
     3
 72
    46
 73
    42
 74
     0
 42
0.00000001
 43
0.00000001
 40
0.0
 40
0.0
 40
0.0
 40
0.0
 40
0.0293535237104488
 40
0.0587050603673095
 40
0.0848093511575269
 40
0.1110070634905432
 40
0.1372050078914168
 40
0.1633096162698051
 40
0.1894246233835914
 40
0.2156330944292427
 40
0.2418417234201795
 40
0.2679569466844886
 40
0.294024971750908
 40
0.3201857957000923
 40
0.3463464162604712
 40
0.37241416299079
 40
0.3984558754691771
 40
0.4245903846848057
 40
0.4507246527651178
 40
0.4767660352503332
 40
0.5028672540738919
 40
0.52906215983863
 40
0.5552572304456376
 40
0.5813586748606806
 40
0.6074693303427965
 40
0.6336734047077217
 40
0.659877673448071
 40
0.685988594935539
 40
0.7120889590195824
 40
0.7382825662663203
 40
0.7644762603321439
 40
0.7905767432287222
 40
0.8167082337686542
 40
0.8429332749566294
 40
0.8691579799573091
 40
0.8952890104177154
 40
0.9118204978168115
 40
0.934011129363479
 40
0.9562303276192785
 40
0.9784207599195799
 40
0.9999999999999999
 40
0.9999999999999999
 40
0.9999999999999999
 40
0.9999999999999999
 10
6572.535573977132
 20
3886.553711400044
 30
0.0
 10
6569.626220942844
 20
3889.551667451055
 30
0.0
 10
6563.807711819632
 20
3895.547376609831
 30
0.0
 10
6554.421479158279
 20
3903.166654446267
 30
0.0
 10
6544.80620711495
 20
3909.696695614725
 30
0.0
 10
6535.055467866136
 20
3915.162831048684
 30
0.0
 10
6524.887801783429
 20
3919.803462556576
 30
0.0
 10
6514.3766067455
 20
3923.571440473323
 30
0.0
 10
6503.578081584209
 20
3926.418394693384
 30
0.0
 10
6492.564828092876
 20
3928.351564413102
 30
0.0
 10
6481.429033574054
 20
3929.36295679281
 30
0.0
 10
6470.266917375427
 20
3929.437259364879
 30
0.0
 10
6459.14678301371
 20
3928.549928373271
 30
0.0
 10
6448.134077265077
 20
3926.735155258675
 30
0.0
 10
6437.309784480314
 20
3924.01351368046
 30
0.0
 10
6426.766685973763
 20
3920.400477267185
 30
0.0
 10
6416.577607703322
 20
3915.893826813567
 30
0.0
 10
6406.793420119247
 20
3910.546666835471
 30
0.0
 10
6397.486602865418
 20
3904.406226751178
 30
0.0
 10
6388.72990283001
 20
3897.510346827899
 30
0.0
 10
6380.595814154904
 20
3889.877255498221
 30
0.0
 10
6373.117646796955
 20
3881.572070831453
 30
0.0
 10
6366.356517995253
 20
3872.673382934051
 30
0.0
 10
6360.372114905455
 20
3863.248165704221
 30
0.0
 10
6355.224171891946
 20
3853.339832351434
 30
0.0
 10
6350.920126248959
 20
3843.021796009228
 30
0.0
 10
6347.488275693566
 20
3832.381801336713
 30
0.0
 10
6344.96294498321
 20
3821.505399199786
 30
0.0
 10
6343.385845771427
 20
3810.45313651905
 30
0.0
 10
6342.740029293343
 20
3799.296547599178
 30
0.0
 10
6343.022731691247
 20
3788.124847593676
 30
0.0
 10
6344.239431801079
 20
3777.024174243299
 30
0.0
 10
6346.409914341131
 20
3766.065419787059
 30
0.0
 10
6349.496045033959
 20
3755.310814759232
 30
0.0
 10
6353.46496665058
 20
3744.850061206017
 30
0.0
 10
6357.705093449907
 20
3736.00390759555
 30
0.0
 10
6362.26579201051
 20
3727.98294017996
 30
0.0
 10
6367.01450271766
 20
3720.722531059821
 30
0.0
 10
6372.765917191563
 20
3713.189153247018
 30
0.0
 10
6378.951872894557
 20
3706.115345985689
 30
0.0
 10
6383.455583820677
 20
3701.814529654795
 30
0.0
 10
6385.67599475915
 20
3699.69414942122
 30
0.0
  0
SPLINE
  5
19F
330
1F
100
AcDbEntity
  8
0
  6
Continuous
 62
     7
370
    25
100
AcDbSpline
210
0.0
220
0.0
230
1.0
 70
     8
 71
     3
 72
    27
 73
    23
 74
     0
 42
0.00000001
 43
0.00000001
 40
0.0
 40
0.0
 40
0.0
 40
0.0
 40
0.038436153239711
 40
0.0768723064794215
 40
0.1305609362687752
 40
0.184249566058128
 40
0.2379381958474784
 40
0.2916268256368284
 40
0.3453154554261846
 40
0.3990040852155404
 40
0.4526927150048922
 40
0.5063813447942448
 40
0.5600699745835972
 40
0.6137586043729486
 40
0.6674472341623003
 40
0.721135863951652
 40
0.7748244937410032
 40
0.8285131235303549
 40
0.8822017533197049
 40
0.9358903831090564
 40
0.9679451915545271
 40
1.0
 40
1.0
 40
1.0
 40
1.0
 10
6446.613838412847
 20
3772.582665629442
 30
0.0
 10
6447.718245014034
 20
3771.553697440654
 30
0.0
 10
6449.927058216408
 20
3769.495761063076
 30
0.0
 10
6454.172332024871
 20
3766.599428489453
 30
0.0
 10
6459.318624111841
 20
3764.04867725184
 30
0.0
 10
6465.398837800687
 20
3762.219873393283
 30
0.0
 10
6471.69993628592
 20
3761.455699114515
 30
0.0
 10
6478.041636762682
 20
3761.73912401252
 30
0.0
 10
6484.240825548462
 20
3763.104657405779
 30
0.0
 10
6490.131177499792
 20
3765.470993554949
 30
0.0
 10
6495.528970840242
 20
3768.811574685476
 30
0.0
 10
6500.304035400977
 20
3772.994224746697
 30
0.0
 10
6504.291832740923
 20
3777.933178391158
 30
0.0
 10
6507.413265179363
 20
3783.460591354209
 30
0.0
 10
6509.541482621483
 20
3789.441093774197
 30
0.0
 10
6510.657317524468
 20
3795.69006142434
 30
0.0
 10
6510.686195030665
 20
3802.037987850476
 30
0.0
 10
6509.669956724062
 20
3808.303494773825
 30
0.0
 10
6507.59875325332
 20
3814.305000001576
 30
0.0
 10
6504.964371888562
 20
3819.125824818952
 30
0.0
 10
6502.236699667708
 20
3822.868823538437
 30
0.0
 10
6500.510131223796
 20
3824.700057325101
 30
0.0
 10
6499.646847001839
 20
3825.615674218433
 30
0.0
  0
SPLINE
  5
1A0
330
1F
100
AcDbEntity
  8
0
  6
Continuous
 62
     7
370
    25
100
AcDbSpline
210
0.0
220
0.0
230
1.0
 70
     8
 71
     3
 72
    27
 73
    23
 74
     0
 42
0.00000001
 43
0.00000001
 40
0.0
 40
0.0
 40
0.0
 40
0.0
 40
0.043339702615506
 40
0.0970285688381085
 40
0.1507174350607129
 40
0.204406301283315
 40
0.2580951675059178
 40
0.3117840337285173
 40
0.3654728999511157
 40
0.4191617661737149
 40
0.4728506323963143
 40
0.4999980953093013
 40
0.5399106072556723
 40
0.5935994734782721
 40
0.6472883397008731
 40
0.7009772059234742
 40
0.7546660721460765
 40
0.808354938368678
 40
0.8620438045912775
 40
0.9157326708138769
 40
0.9694215370364764
 40
1.0
 40
1.0
 40
1.0
 40
1.0
 10
6499.646847001839
 20
3825.615674218433
 30
0.0
 10
6498.396145625837
 20
3826.770885934722
 30
0.0
 10
6495.596085698475
 20
3829.357164399321
 30
0.0
 10
6490.53846360408
 20
3832.494586296831
 30
0.0
 10
6484.696905287316
 20
3834.964602411953
 30
0.0
 10
6478.507564352328
 20
3836.383317846967
 30
0.0
 10
6472.172118293753
 20
3836.768706464262
 30
0.0
 10
6465.863540790711
 20
3836.061938451317
 30
0.0
 10
6459.757174978754
 20
3834.327493138991
 30
0.0
 10
6454.03843280065
 20
3831.573344930596
 30
0.0
 10
6449.704633716885
 20
3828.515908634597
 30
0.0
 10
6446.213591341948
 20
3825.308177033282
 30
0.0
 10
6443.070539188308
 20
3821.747825558963
 30
0.0
 10
6439.916840070717
 20
3816.873733347958
 30
0.0
 10
6437.393984509454
 20
3811.048750831505
 30
0.0
 10
6435.905873514403
 20
3804.87784336093
 30
0.0
 10
6435.452673609335
 20
3798.546011097948
 30
0.0
 10
6436.091711198317
 20
3792.230988339935
 30
0.0
 10
6437.757910894645
 20
3786.104046293961
 30
0.0
 10
6440.458638669805
 20
3780.364290260336
 30
0.0
 10
6443.518754358785
 20
3775.860038079647
 30
0.0
 10
6445.789751510362
 20
3773.455288040856
 30
0.0
 10
6446.613838412847
 20
3772.582665629442
 30
0.0
  0
LINE
  5
1A1
330
1F
100
AcDbEntity
  8
0
  6
Continuous
 62
     7
370
    25
100
AcDbLine
 10
6378.8993582164
 20
4133.8591270039
 30
0.0
 11
6378.8993582164
 21
4131.5101544149
 31
0.0
  0
LINE
  5
1A2
330
1F
100
AcDbEntity
  8
0
  6
Continuous
 62
     7
370
    25
100
AcDbLine
 10
6378.8993582164
 20
4139.1101544149
 30
0.0
 11
6378.8993582164
 21
4133.8591270039
 31
0.0
  0
LINE
  5
1A3
330
1F
100
AcDbEntity
  8
0
  6
Continuous
 62
     7
370
    25
100
AcDbLine
 10
6380.7193582164
 20
4134.5846407094
 30
0.0
 11
6380.7193582164
 21
4133.4101544149
 31
0.0
  0
LINE
  5
1A4
330
1F
100
AcDbEntity
  8
0
  6
Continuous
 62
     7
370
    25
100
AcDbLine
 10
6380.7193582164
 20
4137.2101544149
 30
0.0
 11
6380.7193582164
 21
4134.5846407094
 31
0.0
  0
LINE
  5
1A5
330
1F
100
AcDbEntity
  8
0
  6
Continuous
 62
     7
370
    25
100
AcDbLine
 10
6378.8993582164
 20
4295.8591270039
 30
0.0
 11
6378.8993582164
 21
4293.5101544149
 31
0.0
  0
LINE
  5
1A6
330
1F
100
AcDbEntity
  8
0
  6
Continuous
 62
     7
370
    25
100
AcDbLine
 10
6378.8993582164
 20
4301.1101544149
 30
0.0
 11
6378.8993582164
 21
4295.8591270039
 31
0.0
  0
LINE
  5
1A7
330
1F
100
AcDbEntity
  8
0
  6
Continuous
 62
     7
370
    25
100
AcDbLine
 10
6380.7193582164
 20
4296.5846407094
 30
0.0
 11
6380.7193582164
 21
4295.4101544149
 31
0.0
  0
LINE
  5
1A8
330
1F
100
AcDbEntity
  8
0
  6
Continuous
 62
     7
370
    25
100
AcDbLine
 10
6380.7193582164
 20
4299.2101544149
 30
0.0
 11
6380.7193582164
 21
4296.5846407094
 31
0.0
  0
LINE
  5
1A9
330
1F
100
AcDbEntity
  8
0
  6
Continuous
 62
     8
370
    25
100
AcDbLine
 10
6020.4193582164
 20
4248.8101544149
 30
0.0
 11
6020.4193582164
 21
4073.8101544149
 31
0.0
  0
LINE
  5
1AA
330
1F
100
AcDbEntity
  8
0
  6
Continuous
 62
     8
370
    25
100
AcDbLine
 10
6376.4193582164
 20
4073.8101544149
 30
0.0
 11
6376.4193582164
 21
4248.8101544149
 31
0.0
  0
ARC
  5
1AB
330
1F
100
AcDbEntity
  8
0
  6
Continuous
 62
     8
370
    25
100
AcDbCircle
 10
6198.4193582164
 20
4073.8101544149
 30
0.0
 40
158.4873812011546
100
AcDbArc
 50
96.1030147039
 51
270.0
  0
ARC
  5
1AC
330
1F
100
AcDbEntity
  8
0
  6
Continuous
 62
     8
370
    25
100
AcDbCircle
 10
6198.4193582164
 20
4073.8101544149
 30
0.0
 40
158.4873812011547
100
AcDbArc
 50
270.0
 51
83.8969852961
  0
ARC
  5
1AD
330
1F
100
AcDbEntity
  8
0
  6
Continuous
 62
     8
370
    25
100
AcDbCircle
 10
6198.4193582164
 20
4073.8101544149
 30
0.0
 40
156.4875404288997
100
AcDbArc
 50
270.0
 51
84.4856224457
  0
ARC
  5
1AE
330
1F
100
AcDbEntity
  8
0
  6
Continuous
 62
     8
370
    25
100
AcDbCircle
 10
6198.4193582164
 20
4073.8101544149
 30
0.0
 40
156.4875404288997
100
AcDbArc
 50
95.5143775543
 51
270.0
  0
LINE
  5
1AF
330
1F
100
AcDbEntity
  8
0
  6
Continuous
 62
     8
370
    25
100
AcDbLine
 10
6366.7110544246
 20
3651.6690693995
 30
0.0
 11
6368.1252679238
 21
3653.0832828986
 31
0.0
  0
LINE
  5
1B0
330
1F
100
AcDbEntity
  8
0
  6
Continuous
 62
     8
370
    25
100
AcDbLine
 10
6692.4466418692
 20
3780.9611374158
 30
0.0
 11
6690.5186370398
 21
3780.4293513953
 31
0.0
  0
LINE
  5
1B1
330
1F
100
AcDbEntity
  8
0
  6
Continuous
 62
     8
370
    25
100
AcDbLine
 10
6491.2683751891
 20
3579.7828706472
 30
0.0
 11
6491.8001612409
 21
3581.7108755901
 31
0.0
  0
LINE
  5
1B2
330
1F
100
AcDbEntity
  8
0
  6
Continuous
 62
     8
370
    25
100
AcDbLine
 10
6402.9647808106
 20
3621.2977258761
 30
0.0
 11
6404.1093496283
 21
3622.9378362971
 31
0.0
  0
LINE
  5
1B3
330
1F
100
AcDbEntity
  8
0
  6
Continuous
 62
     8
370
    25
100
AcDbLine
 10
6620.5604432528
 20
3905.5184582283
 30
0.0
 11
6619.1462297323
 21
3904.1042447078
 31
0.0
  0
LINE
  5
1B4
330
1F
100
AcDbEntity
  8
0
  6
Continuous
 62
     8
370
    25
100
AcDbLine
 10
6650.9317867373
 20
3869.2647318083
 30
0.0
 11
6649.2916763342
 21
3868.120163003
 31
0.0
  0
LINE
  5
1B5
330
1F
100
AcDbEntity
  8
0
  6
Continuous
 62
     8
370
    25
100
AcDbLine
 10
6220.9193582164
 20
4246.3101544149
 30
0.0
 11
6175.9193582164
 21
4246.3101544149
 31
0.0
  0
ENDSEC
  0
SECTION
  2
OBJECTS
  0
DICTIONARY
  5
C
330
0
100
AcDbDictionary
281
     1
  3
ACAD_GROUP
350
D
  3
ACAD_LAYOUT
350
1A
  3
ACAD_MLINESTYLE
350
17
  3
ACAD_PLOTSETTINGS
350
19
  3
ACAD_PLOTSTYLENAME
350
E
  3
ACAD_SCALELIST
350
47
  3
DWGPROPS
350
1B6
  0
DICTIONARY
  5
D
102
{ACAD_REACTORS
330
C
102
}
330
C
100
AcDbDictionary
281
     1
  0
DICTIONARY
  5
1A
102
{ACAD_REACTORS
330
C
102
}
330
C
100
AcDbDictionary
281
     1
  3
Layout1
350
1E
  3
Layout2
350
26
  3
Model
350
22
  0
DICTIONARY
  5
17
102
{ACAD_REACTORS
330
C
102
}
330
C
100
AcDbDictionary
281
     1
  3
Standard
350
18
  0
DICTIONARY
  5
19
102
{ACAD_REACTORS
330
C
102
}
330
C
100
AcDbDictionary
281
     1
  0
ACDBDICTIONARYWDFLT
  5
E
102
{ACAD_REACTORS
330
C
102
}
330
C
100
AcDbDictionary
281
     1
  3
Normal
350
F
100
AcDbDictionaryWithDefault
340
F
  0
DICTIONARY
  5
47
102
{ACAD_REACTORS
330
C
102
}
330
C
100
AcDbDictionary
281
     1
  3
A0
350
48
  3
A1
350
49
  3
A2
350
4A
  3
A3
350
4B
  3
A4
350
4C
  3
A5
350
4D
  3
A6
350
4E
  3
A7
350
4F
  3
A8
350
50
  3
A9
350
51
  3
B0
350
52
  3
B1
350
53
  3
B2
350
54
  3
B3
350
55
  3
B4
350
56
  3
B5
350
57
  3
B6
350
58
  3
B7
350
59
  3
B8
350
5A
  3
B9
350
5B
  3
C0
350
5C
  3
C1
350
5D
  3
C2
350
5E
  3
C3
350
5F
  3
C4
350
60
  3
C5
350
61
  3
C6
350
62
  3
C7
350
63
  3
C8
350
64
  3
C9
350
65
  3
D0
350
66
  3
D1
350
67
  3
D2
350
68
  0
XRECORD
  5
1B6
102
{ACAD_REACTORS
330
C
102
}
330
C
100
AcDbXrecord
280
     1
  1
DWGPROPS COOKIE
  2

  3

  4

  6

  7

  8
radek.stransky
  9

300
=
301
=
302
=
303
=
304
=
305
=
306
=
307
=
308
=
309
=
 40
0.0
 41
2460286.328560764
 42
2460286.328561609
  1

 90
        0
  0
LAYOUT
  5
1E
102
{ACAD_REACTORS
330
1A
102
}
330
1A
100
AcDbPlotSettings
  1

  2
none_device
  4

  6

 40
0.0
 41
0.0
 42
0.0
 43
0.0
 44
0.0
 45
0.0
 46
0.0
 47
0.0
 48
0.0
 49
0.0
140
0.0
141
0.0
142
1.0
143
1.0
 70
   688
 72
     1
 73
     0
 74
     5
  7

 75
    16
147
1.0
148
0.0
149
0.0
100
AcDbLayout
  1
Layout1
 70
     1
 71
     1
 10
0.0
 20
0.0
 11
420.0
 21
297.0
 12
0.0
 22
0.0
 32
0.0
 14
1.0000000000E+20
 24
1.0000000000E+20
 34
1.0000000000E+20
 15
-1.0000000000E+20
 25
-1.0000000000E+20
 35
-1.0000000000E+20
146
0.0
 13
0.0
 23
0.0
 33
0.0
 16
1.0
 26
0.0
 36
0.0
 17
0.0
 27
1.0
 37
0.0
 76
     0
330
1B
  0
LAYOUT
  5
26
102
{ACAD_REACTORS
330
1A
102
}
330
1A
100
AcDbPlotSettings
  1

  2
none_device
  4

  6

 40
0.0
 41
0.0
 42
0.0
 43
0.0
 44
0.0
 45
0.0
 46
0.0
 47
0.0
 48
0.0
 49
0.0
140
0.0
141
0.0
142
1.0
143
1.0
 70
   688
 72
     1
 73
     0
 74
     5
  7

 75
    16
147
1.0
148
0.0
149
0.0
100
AcDbLayout
  1
Layout2
 70
     1
 71
     2
 10
0.0
 20
0.0
 11
0.0
 21
0.0
 12
0.0
 22
0.0
 32
0.0
 14
0.0
 24
0.0
 34
0.0
 15
0.0
 25
0.0
 35
0.0
146
0.0
 13
0.0
 23
0.0
 33
0.0
 16
1.0
 26
0.0
 36
0.0
 17
0.0
 27
1.0
 37
0.0
 76
     0
330
23
  0
LAYOUT
  5
22
102
{ACAD_REACTORS
330
1A
102
}
330
1A
100
AcDbPlotSettings
  1

  2
none_device
  4
Letter_(8.50_x_11.00_Inches)
  6

 40
6.35
 41
6.35
 42
6.35000508
 43
6.35000508
 44
215.9
 45
279.4
 46
0.0
 47
0.0
 48
0.0
 49
0.0
140
0.0
141
0.0
142
1.0
143
1.0
 70
  1712
 72
     1
 73
     0
 74
     0
  7

 75
     0
147
1.0
148
0.0
149
0.0
100
AcDbLayout
  1
Model
 70
     1
 71
     0
 10
0.0
 20
0.0
 11
20000.0
 21
10000.0
 12
0.0
 22
0.0
 32
0.0
 14
0.0
 24
0.0
 34
0.0
 15
20000.0
 25
10000.0
 35
0.0
146
0.0
 13
0.0
 23
0.0
 33
0.0
 16
1.0
 26
0.0
 36
0.0
 17
0.0
 27
1.0
 37
0.0
 76
     0
330
1F
331
29
  0
MLINESTYLE
  5
18
102
{ACAD_REACTORS
330
17
102
}
330
17
100
AcDbMlineStyle
  2
Standard
 70
     0
  3

 62
   256
 51
90.0
 52
90.0
 71
     2
 49
0.5
 62
   256
  6
BYLAYER
 49
-0.5
 62
   256
  6
BYLAYER
  0
ACDBPLACEHOLDER
  5
F
102
{ACAD_REACTORS
330
E
102
}
330
E
  0
SCALE
  5
48
102
{ACAD_REACTORS
330
47
102
}
330
47
100
AcDbScale
 70
     0
300
1:1
140
1.0
141
1.0
290
     1
  0
SCALE
  5
49
102
{ACAD_REACTORS
330
47
102
}
330
47
100
AcDbScale
 70
     0
300
1:2
140
1.0
141
2.0
290
     0
  0
SCALE
  5
4A
102
{ACAD_REACTORS
330
47
102
}
330
47
100
AcDbScale
 70
     0
300
1:4
140
1.0
141
4.0
290
     0
  0
SCALE
  5
4B
102
{ACAD_REACTORS
330
47
102
}
330
47
100
AcDbScale
 70
     0
300
1:5
140
1.0
141
5.0
290
     0
  0
SCALE
  5
4C
102
{ACAD_REACTORS
330
47
102
}
330
47
100
AcDbScale
 70
     0
300
1:8
140
1.0
141
8.0
290
     0
  0
SCALE
  5
4D
102
{ACAD_REACTORS
330
47
102
}
330
47
100
AcDbScale
 70
     0
300
1:10
140
1.0
141
10.0
290
     0
  0
SCALE
  5
4E
102
{ACAD_REACTORS
330
47
102
}
330
47
100
AcDbScale
 70
     0
300
1:16
140
1.0
141
16.0
290
     0
  0
SCALE
  5
4F
102
{ACAD_REACTORS
330
47
102
}
330
47
100
AcDbScale
 70
     0
300
1:20
140
1.0
141
20.0
290
     0
  0
SCALE
  5
50
102
{ACAD_REACTORS
330
47
102
}
330
47
100
AcDbScale
 70
     0
300
1:30
140
1.0
141
30.0
290
     0
  0
SCALE
  5
51
102
{ACAD_REACTORS
330
47
102
}
330
47
100
AcDbScale
 70
     0
300
1:40
140
1.0
141
40.0
290
     0
  0
SCALE
  5
52
102
{ACAD_REACTORS
330
47
102
}
330
47
100
AcDbScale
 70
     0
300
1:50
140
1.0
141
50.0
290
     0
  0
SCALE
  5
53
102
{ACAD_REACTORS
330
47
102
}
330
47
100
AcDbScale
 70
     0
300
1:100
140
1.0
141
100.0
290
     0
  0
SCALE
  5
54
102
{ACAD_REACTORS
330
47
102
}
330
47
100
AcDbScale
 70
     0
300
2:1
140
2.0
141
1.0
290
     0
  0
SCALE
  5
55
102
{ACAD_REACTORS
330
47
102
}
330
47
100
AcDbScale
 70
     0
300
4:1
140
4.0
141
1.0
290
     0
  0
SCALE
  5
56
102
{ACAD_REACTORS
330
47
102
}
330
47
100
AcDbScale
 70
     0
300
8:1
140
8.0
141
1.0
290
     0
  0
SCALE
  5
57
102
{ACAD_REACTORS
330
47
102
}
330
47
100
AcDbScale
 70
     0
300
10:1
140
10.0
141
1.0
290
     0
  0
SCALE
  5
58
102
{ACAD_REACTORS
330
47
102
}
330
47
100
AcDbScale
 70
     0
300
100:1
140
100.0
141
1.0
290
     0
  0
SCALE
  5
59
102
{ACAD_REACTORS
330
47
102
}
330
47
100
AcDbScale
 70
     0
300
1/128" = 1'-0"
140
0.0078125
141
12.0
290
     0
  0
SCALE
  5
5A
102
{ACAD_REACTORS
330
47
102
}
330
47
100
AcDbScale
 70
     0
300
1/64" = 1'-0"
140
0.015625
141
12.0
290
     0
  0
SCALE
  5
5B
102
{ACAD_REACTORS
330
47
102
}
330
47
100
AcDbScale
 70
     0
300
1/32" = 1'-0"
140
0.03125
141
12.0
290
     0
  0
SCALE
  5
5C
102
{ACAD_REACTORS
330
47
102
}
330
47
100
AcDbScale
 70
     0
300
1/16" = 1'-0"
140
0.0625
141
12.0
290
     0
  0
SCALE
  5
5D
102
{ACAD_REACTORS
330
47
102
}
330
47
100
AcDbScale
 70
     0
300
3/32" = 1'-0"
140
0.09375
141
12.0
290
     0
  0
SCALE
  5
5E
102
{ACAD_REACTORS
330
47
102
}
330
47
100
AcDbScale
 70
     0
300
1/8" = 1'-0"
140
0.125
141
12.0
290
     0
  0
SCALE
  5
5F
102
{ACAD_REACTORS
330
47
102
}
330
47
100
AcDbScale
 70
     0
300
3/16" = 1'-0"
140
0.1875
141
12.0
290
     0
  0
SCALE
  5
60
102
{ACAD_REACTORS
330
47
102
}
330
47
100
AcDbScale
 70
     0
300
1/4" = 1'-0"
140
0.25
141
12.0
290
     0
  0
SCALE
  5
61
102
{ACAD_REACTORS
330
47
102
}
330
47
100
AcDbScale
 70
     0
300
3/8" = 1'-0"
140
0.375
141
12.0
290
     0
  0
SCALE
  5
62
102
{ACAD_REACTORS
330
47
102
}
330
47
100
AcDbScale
 70
     0
300
1/2" = 1'-0"
140
0.5
141
12.0
290
     0
  0
SCALE
  5
63
102
{ACAD_REACTORS
330
47
102
}
330
47
100
AcDbScale
 70
     0
300
3/4" = 1'-0"
140
0.75
141
12.0
290
     0
  0
SCALE
  5
64
102
{ACAD_REACTORS
330
47
102
}
330
47
100
AcDbScale
 70
     0
300
1" = 1'-0"
140
1.0
141
12.0
290
     0
  0
SCALE
  5
65
102
{ACAD_REACTORS
330
47
102
}
330
47
100
AcDbScale
 70
     0
300
1-1/2" = 1'-0"
140
1.5
141
12.0
290
     0
  0
SCALE
  5
66
102
{ACAD_REACTORS
330
47
102
}
330
47
100
AcDbScale
 70
     0
300
3" = 1'-0"
140
3.0
141
12.0
290
     0
  0
SCALE
  5
67
102
{ACAD_REACTORS
330
47
102
}
330
47
100
AcDbScale
 70
     0
300
6" = 1'-0"
140
6.0
141
12.0
290
     0
  0
SCALE
  5
68
102
{ACAD_REACTORS
330
47
102
}
330
47
100
AcDbScale
 70
     0
300
1'-0" = 1'-0"
140
12.0
141
12.0
290
     0
  0
ENDSEC
  0
EOF
